ISO-10303-21;
HEADER;
/* Generated by software containing ST-Developer
 * from STEP Tools, Inc. (www.steptools.com) 
 */
/* OPTION: using custom schema-name function */

FILE_DESCRIPTION(
/* description */ ('A1245.5'),
/* implementation_level */ '2;1');

FILE_NAME(
/* name */ 'CAPP~~210908185112~5968759~MOD~TM01_00~ISO~FR.STP',
/* time_stamp */ '2021-09-08T18:52:14+02:00',
/* author */ ('System'),
/* organization */ ('Dormer Pramet'),
/* preprocessor_version */ 'ST-DEVELOPER v16.7',
/* originating_system */ 'SIEMENS PLM Software NX 12.0',
/* authorisation */ '');

FILE_SCHEMA (('AUTOMOTIVE_DESIGN { 1 0 10303 214 3 1 1 1 }'));
ENDSEC;

DATA;
#10=CONSTRUCTIVE_GEOMETRY_REPRESENTATION_RELATIONSHIP(
'supplemental geometry','',#26,#11);
#11=CONSTRUCTIVE_GEOMETRY_REPRESENTATION('supplemental geometry',(#295,
#296,#297),#543);
#12=GEOMETRICALLY_BOUNDED_WIREFRAME_SHAPE_REPRESENTATION(
'CAPP~~210908185112~5968759~MOD~TM01_00~ISO~FR-None',(#27),#543);
#13=SHAPE_REPRESENTATION_RELATIONSHIP('None',
'relationship between CAPP~~210908185112~5968759~MOD~TM01_00~ISO~FR-No
ne and CAPP~~210908185112~5968759~MOD~TM01_00~ISO~FR-None',#26,#15);
#14=SHAPE_REPRESENTATION_RELATIONSHIP('None',
'relationship between CAPP~~210908185112~5968759~MOD~TM01_00~ISO~FR-No
ne and CAPP~~210908185112~5968759~MOD~TM01_00~ISO~FR-None',#26,#12);
#15=ADVANCED_BREP_SHAPE_REPRESENTATION(
'CAPP~~210908185112~5968759~MOD~TM01_00~ISO~FR-None',(#61,#62),#543);
#16=SHAPE_DEFINITION_REPRESENTATION(#17,#26);
#17=PRODUCT_DEFINITION_SHAPE('','',#18);
#18=PRODUCT_DEFINITION(' ','',#20,#19);
#19=PRODUCT_DEFINITION_CONTEXT('part definition',#25,'design');
#20=PRODUCT_DEFINITION_FORMATION_WITH_SPECIFIED_SOURCE(' ',' ',#22,
 .NOT_KNOWN.);
#21=PRODUCT_RELATED_PRODUCT_CATEGORY('part','',(#22));
#22=PRODUCT('CAPP~~210908185112~5968759~MOD~TM01_00~ISO~FR',
'CAPP~~210908185112~5968759~MOD~TM01_00~ISO~FR',' ',(#23));
#23=PRODUCT_CONTEXT(' ',#25,'mechanical');
#24=APPLICATION_PROTOCOL_DEFINITION('international standard',
'automotive_design',2010,#25);
#25=APPLICATION_CONTEXT(
'core data for automotive mechanical design processes');
#26=SHAPE_REPRESENTATION(
'CAPP~~210908185112~5968759~MOD~TM01_00~ISO~FR-None',(#294),#543);
#27=GEOMETRIC_CURVE_SET('None',(#398,#264));
#28=CYLINDRICAL_SURFACE('',#308,2.75);
#29=CYLINDRICAL_SURFACE('',#321,0.2);
#30=CYLINDRICAL_SURFACE('',#323,0.200000000000003);
#31=LINE('',#419,#41);
#32=LINE('',#455,#42);
#33=LINE('',#459,#43);
#34=LINE('',#494,#44);
#35=LINE('',#522,#45);
#36=LINE('',#523,#46);
#37=LINE('',#532,#47);
#38=LINE('',#534,#48);
#39=LINE('',#537,#49);
#40=LINE('',#539,#50);
#41=VECTOR('',#345,1.);
#42=VECTOR('',#348,1.);
#43=VECTOR('',#351,1.);
#44=VECTOR('',#354,1.);
#45=VECTOR('',#367,1.);
#46=VECTOR('',#368,1.);
#47=VECTOR('',#381,1.);
#48=VECTOR('',#384,1.);
#49=VECTOR('',#389,1.);
#50=VECTOR('',#392,1.);
#51=SURFACE_STYLE_USAGE(.BOTH.,#53);
#52=SURFACE_STYLE_USAGE(.BOTH.,#54);
#53=SURFACE_SIDE_STYLE('',(#55));
#54=SURFACE_SIDE_STYLE('',(#56));
#55=SURFACE_STYLE_FILL_AREA(#57);
#56=SURFACE_STYLE_FILL_AREA(#58);
#57=FILL_AREA_STYLE('',(#59));
#58=FILL_AREA_STYLE('',(#60));
#59=FILL_AREA_STYLE_COLOUR('',#292);
#60=FILL_AREA_STYLE_COLOUR('',#293);
#61=MANIFOLD_SOLID_BREP('CUT',#63);
#62=MANIFOLD_SOLID_BREP('NOCUT',#64);
#63=CLOSED_SHELL('',(#81,#82,#83));
#64=CLOSED_SHELL('',(#84,#85,#86,#87,#88,#89,#90,#91,#92,#93,#94,#95,#96));
#65=VERTEX_LOOP('',#196);
#66=CONICAL_SURFACE('',#301,2.75000000000001,0.00188798191365937);
#67=CONICAL_SURFACE('',#302,1.23750000000001,58.9999999999994);
#68=CONICAL_SURFACE('',#310,2.75,45.0000000000002);
#69=CONICAL_SURFACE('',#312,2.75,45.0000000000002);
#70=CONICAL_SURFACE('',#316,2.75000000000001,0.00188798191365937);
#71=FACE_BOUND('',#117,.T.);
#72=FACE_BOUND('',#118,.T.);
#73=FACE_BOUND('',#119,.T.);
#74=FACE_BOUND('',#65,.T.);
#75=FACE_BOUND('',#120,.T.);
#76=FACE_BOUND('',#121,.T.);
#77=FACE_BOUND('',#125,.T.);
#78=FACE_BOUND('',#126,.T.);
#79=FACE_BOUND('',#127,.T.);
#80=FACE_BOUND('',#128,.T.);
#81=ADVANCED_FACE('',(#105),#97,.F.);
#82=ADVANCED_FACE('',(#71,#72),#66,.T.);
#83=ADVANCED_FACE('',(#73,#74),#67,.T.);
#84=ADVANCED_FACE('',(#75,#76),#28,.T.);
#85=ADVANCED_FACE('',(#106),#68,.T.);
#86=ADVANCED_FACE('',(#107),#69,.T.);
#87=ADVANCED_FACE('',(#108),#98,.F.);
#88=ADVANCED_FACE('',(#77,#78),#70,.T.);
#89=ADVANCED_FACE('',(#79,#80),#99,.F.);
#90=ADVANCED_FACE('',(#109),#100,.T.);
#91=ADVANCED_FACE('',(#110),#101,.T.);
#92=ADVANCED_FACE('',(#111),#102,.T.);
#93=ADVANCED_FACE('',(#112),#29,.F.);
#94=ADVANCED_FACE('',(#113),#103,.T.);
#95=ADVANCED_FACE('',(#114),#30,.F.);
#96=ADVANCED_FACE('',(#115),#104,.T.);
#97=PLANE('',#299);
#98=PLANE('',#313);
#99=PLANE('',#317);
#100=PLANE('',#318);
#101=PLANE('',#319);
#102=PLANE('',#320);
#103=PLANE('',#322);
#104=PLANE('',#324);
#105=FACE_OUTER_BOUND('',#116,.T.);
#106=FACE_OUTER_BOUND('',#122,.T.);
#107=FACE_OUTER_BOUND('',#123,.T.);
#108=FACE_OUTER_BOUND('',#124,.T.);
#109=FACE_OUTER_BOUND('',#129,.T.);
#110=FACE_OUTER_BOUND('',#130,.T.);
#111=FACE_OUTER_BOUND('',#131,.T.);
#112=FACE_OUTER_BOUND('',#132,.T.);
#113=FACE_OUTER_BOUND('',#133,.T.);
#114=FACE_OUTER_BOUND('',#134,.T.);
#115=FACE_OUTER_BOUND('',#135,.T.);
#116=EDGE_LOOP('',(#136));
#117=EDGE_LOOP('',(#137));
#118=EDGE_LOOP('',(#138));
#119=EDGE_LOOP('',(#139));
#120=EDGE_LOOP('',(#140));
#121=EDGE_LOOP('',(#141,#142,#143,#144,#145,#146,#147,#148,#149,#150,#151,
#152));
#122=EDGE_LOOP('',(#153,#154,#155,#156));
#123=EDGE_LOOP('',(#157,#158,#159,#160));
#124=EDGE_LOOP('',(#161,#162,#163,#164));
#125=EDGE_LOOP('',(#165));
#126=EDGE_LOOP('',(#166));
#127=EDGE_LOOP('',(#167));
#128=EDGE_LOOP('',(#168));
#129=EDGE_LOOP('',(#169));
#130=EDGE_LOOP('',(#170,#171));
#131=EDGE_LOOP('',(#172,#173,#174,#175,#176,#177));
#132=EDGE_LOOP('',(#178,#179,#180,#181));
#133=EDGE_LOOP('',(#182,#183));
#134=EDGE_LOOP('',(#184,#185,#186,#187));
#135=EDGE_LOOP('',(#188,#189,#190,#191,#192,#193));
#136=ORIENTED_EDGE('',*,*,#216,.F.);
#137=ORIENTED_EDGE('',*,*,#216,.T.);
#138=ORIENTED_EDGE('',*,*,#217,.T.);
#139=ORIENTED_EDGE('',*,*,#217,.F.);
#140=ORIENTED_EDGE('',*,*,#218,.T.);
#141=ORIENTED_EDGE('',*,*,#219,.F.);
#142=ORIENTED_EDGE('',*,*,#220,.F.);
#143=ORIENTED_EDGE('',*,*,#221,.F.);
#144=ORIENTED_EDGE('',*,*,#222,.F.);
#145=ORIENTED_EDGE('',*,*,#223,.F.);
#146=ORIENTED_EDGE('',*,*,#224,.F.);
#147=ORIENTED_EDGE('',*,*,#225,.F.);
#148=ORIENTED_EDGE('',*,*,#226,.F.);
#149=ORIENTED_EDGE('',*,*,#227,.F.);
#150=ORIENTED_EDGE('',*,*,#228,.F.);
#151=ORIENTED_EDGE('',*,*,#229,.F.);
#152=ORIENTED_EDGE('',*,*,#230,.F.);
#153=ORIENTED_EDGE('',*,*,#231,.F.);
#154=ORIENTED_EDGE('',*,*,#230,.T.);
#155=ORIENTED_EDGE('',*,*,#232,.F.);
#156=ORIENTED_EDGE('',*,*,#233,.F.);
#157=ORIENTED_EDGE('',*,*,#234,.F.);
#158=ORIENTED_EDGE('',*,*,#235,.F.);
#159=ORIENTED_EDGE('',*,*,#236,.F.);
#160=ORIENTED_EDGE('',*,*,#224,.T.);
#161=ORIENTED_EDGE('',*,*,#237,.F.);
#162=ORIENTED_EDGE('',*,*,#233,.T.);
#163=ORIENTED_EDGE('',*,*,#238,.F.);
#164=ORIENTED_EDGE('',*,*,#235,.T.);
#165=ORIENTED_EDGE('',*,*,#239,.F.);
#166=ORIENTED_EDGE('',*,*,#240,.F.);
#167=ORIENTED_EDGE('',*,*,#218,.F.);
#168=ORIENTED_EDGE('',*,*,#239,.T.);
#169=ORIENTED_EDGE('',*,*,#240,.T.);
#170=ORIENTED_EDGE('',*,*,#227,.T.);
#171=ORIENTED_EDGE('',*,*,#241,.F.);
#172=ORIENTED_EDGE('',*,*,#225,.T.);
#173=ORIENTED_EDGE('',*,*,#236,.T.);
#174=ORIENTED_EDGE('',*,*,#238,.T.);
#175=ORIENTED_EDGE('',*,*,#232,.T.);
#176=ORIENTED_EDGE('',*,*,#229,.T.);
#177=ORIENTED_EDGE('',*,*,#242,.T.);
#178=ORIENTED_EDGE('',*,*,#228,.T.);
#179=ORIENTED_EDGE('',*,*,#241,.T.);
#180=ORIENTED_EDGE('',*,*,#226,.T.);
#181=ORIENTED_EDGE('',*,*,#242,.F.);
#182=ORIENTED_EDGE('',*,*,#221,.T.);
#183=ORIENTED_EDGE('',*,*,#243,.T.);
#184=ORIENTED_EDGE('',*,*,#220,.T.);
#185=ORIENTED_EDGE('',*,*,#244,.T.);
#186=ORIENTED_EDGE('',*,*,#222,.T.);
#187=ORIENTED_EDGE('',*,*,#243,.F.);
#188=ORIENTED_EDGE('',*,*,#219,.T.);
#189=ORIENTED_EDGE('',*,*,#231,.T.);
#190=ORIENTED_EDGE('',*,*,#237,.T.);
#191=ORIENTED_EDGE('',*,*,#234,.T.);
#192=ORIENTED_EDGE('',*,*,#223,.T.);
#193=ORIENTED_EDGE('',*,*,#244,.F.);
#194=VERTEX_POINT('',#410);
#195=VERTEX_POINT('',#413);
#196=VERTEX_POINT('',#415);
#197=VERTEX_POINT('',#418);
#198=VERTEX_POINT('',#420);
#199=VERTEX_POINT('',#421);
#200=VERTEX_POINT('',#435);
#201=VERTEX_POINT('',#437);
#202=VERTEX_POINT('',#454);
#203=VERTEX_POINT('',#456);
#204=VERTEX_POINT('',#458);
#205=VERTEX_POINT('',#460);
#206=VERTEX_POINT('',#474);
#207=VERTEX_POINT('',#476);
#208=VERTEX_POINT('',#493);
#209=VERTEX_POINT('',#495);
#210=VERTEX_POINT('',#502);
#211=VERTEX_POINT('',#507);
#212=VERTEX_POINT('',#514);
#213=VERTEX_POINT('',#516);
#214=VERTEX_POINT('',#526);
#215=VERTEX_POINT('',#528);
#216=EDGE_CURVE('',#194,#194,#245,.T.);
#217=EDGE_CURVE('',#195,#195,#246,.T.);
#218=EDGE_CURVE('',#197,#197,#247,.T.);
#219=EDGE_CURVE('',#198,#199,#31,.T.);
#220=EDGE_CURVE('',#200,#198,#265,.T.);
#221=EDGE_CURVE('',#201,#200,#248,.T.);
#222=EDGE_CURVE('',#202,#201,#266,.T.);
#223=EDGE_CURVE('',#203,#202,#32,.T.);
#224=EDGE_CURVE('',#204,#203,#249,.T.);
#225=EDGE_CURVE('',#205,#204,#33,.T.);
#226=EDGE_CURVE('',#206,#205,#267,.T.);
#227=EDGE_CURVE('',#207,#206,#250,.T.);
#228=EDGE_CURVE('',#208,#207,#268,.T.);
#229=EDGE_CURVE('',#209,#208,#34,.T.);
#230=EDGE_CURVE('',#199,#209,#251,.T.);
#231=EDGE_CURVE('',#199,#210,#269,.T.);
#232=EDGE_CURVE('',#211,#209,#270,.T.);
#233=EDGE_CURVE('',#210,#211,#252,.T.);
#234=EDGE_CURVE('',#212,#203,#271,.T.);
#235=EDGE_CURVE('',#213,#212,#253,.T.);
#236=EDGE_CURVE('',#204,#213,#272,.T.);
#237=EDGE_CURVE('',#210,#212,#35,.T.);
#238=EDGE_CURVE('',#213,#211,#36,.T.);
#239=EDGE_CURVE('',#214,#214,#254,.T.);
#240=EDGE_CURVE('',#215,#215,#255,.T.);
#241=EDGE_CURVE('',#207,#206,#37,.T.);
#242=EDGE_CURVE('',#208,#205,#38,.T.);
#243=EDGE_CURVE('',#200,#201,#39,.T.);
#244=EDGE_CURVE('',#198,#202,#40,.T.);
#245=CIRCLE('',#298,2.74960136482886);
#246=CIRCLE('',#300,2.75000000000001);
#247=CIRCLE('',#303,2.74999999999999);
#248=CIRCLE('',#304,2.75);
#249=CIRCLE('',#305,2.75);
#250=CIRCLE('',#306,2.75);
#251=CIRCLE('',#307,2.75);
#252=CIRCLE('',#309,1.95614337986426);
#253=CIRCLE('',#311,1.95614337986426);
#254=CIRCLE('',#314,2.74899999999999);
#255=CIRCLE('',#315,2.74960136482886);
#256=CURVE_STYLE('',#260,POSITIVE_LENGTH_MEASURE(0.18),#290);
#257=CURVE_STYLE('',#261,POSITIVE_LENGTH_MEASURE(0.13),#291);
#258=CURVE_STYLE('',#262,POSITIVE_LENGTH_MEASURE(0.13),#291);
#259=CURVE_STYLE('',#263,POSITIVE_LENGTH_MEASURE(0.13),#291);
#260=DRAUGHTING_PRE_DEFINED_CURVE_FONT('continuous');
#261=DRAUGHTING_PRE_DEFINED_CURVE_FONT('continuous');
#262=DRAUGHTING_PRE_DEFINED_CURVE_FONT('continuous');
#263=DRAUGHTING_PRE_DEFINED_CURVE_FONT('continuous');
#264=B_SPLINE_CURVE_WITH_KNOTS('CUTTING PART LINE',3,(#399,#400,#401,#402,
#403,#404,#405),.UNSPECIFIED.,.F.,.F.,(4,3,4),(0.,0.790391479638221,1.),
 .UNSPECIFIED.);
#265=B_SPLINE_CURVE_WITH_KNOTS('',3,(#422,#423,#424,#425,#426,#427,#428,
#429,#430,#431,#432,#433,#434),.UNSPECIFIED.,.F.,.F.,(4,3,3,3,4),(0.,0.30365227542923,
0.565404260592494,0.790015294431554,1.),.UNSPECIFIED.);
#266=B_SPLINE_CURVE_WITH_KNOTS('',3,(#438,#439,#440,#441,#442,#443,#444,
#445,#446,#447,#448,#449,#450,#451,#452,#453),.UNSPECIFIED.,.F.,.F.,(4,
3,3,3,3,4),(0.,0.182703045414149,0.364931478353591,0.55409315383926,0.762835081080267,
1.),.UNSPECIFIED.);
#267=B_SPLINE_CURVE_WITH_KNOTS('',3,(#461,#462,#463,#464,#465,#466,#467,
#468,#469,#470,#471,#472,#473),.UNSPECIFIED.,.F.,.F.,(4,3,3,3,4),(0.,0.303652275429227,
0.565404260592485,0.790015294431544,1.),.UNSPECIFIED.);
#268=B_SPLINE_CURVE_WITH_KNOTS('',3,(#477,#478,#479,#480,#481,#482,#483,
#484,#485,#486,#487,#488,#489,#490,#491,#492),.UNSPECIFIED.,.F.,.F.,(4,
3,3,3,3,4),(0.,0.182703045414149,0.364931478353592,0.55409315383926,0.762835081080269,
1.),.UNSPECIFIED.);
#269=B_SPLINE_CURVE_WITH_KNOTS('',3,(#498,#499,#500,#501),.UNSPECIFIED.,
 .F.,.F.,(4,4),(0.,1.),.UNSPECIFIED.);
#270=B_SPLINE_CURVE_WITH_KNOTS('',3,(#503,#504,#505,#506),.UNSPECIFIED.,
 .F.,.F.,(4,4),(0.,1.),.UNSPECIFIED.);
#271=B_SPLINE_CURVE_WITH_KNOTS('',3,(#510,#511,#512,#513),.UNSPECIFIED.,
 .F.,.F.,(4,4),(0.,1.),.UNSPECIFIED.);
#272=B_SPLINE_CURVE_WITH_KNOTS('',3,(#517,#518,#519,#520),.UNSPECIFIED.,
 .F.,.F.,(4,4),(0.,1.),.UNSPECIFIED.);
#273=PRESENTATION_LAYER_ASSIGNMENT('1','Layer 1',(#398,#264,#295,#296,#297,
#61,#62));
#274=STYLED_ITEM('',(#281),#398);
#275=STYLED_ITEM('',(#282),#264);
#276=STYLED_ITEM('',(#283),#295);
#277=STYLED_ITEM('',(#284),#296);
#278=STYLED_ITEM('',(#285),#297);
#279=STYLED_ITEM('',(#286),#61);
#280=STYLED_ITEM('',(#287),#62);
#281=PRESENTATION_STYLE_ASSIGNMENT((#288));
#282=PRESENTATION_STYLE_ASSIGNMENT((#256));
#283=PRESENTATION_STYLE_ASSIGNMENT((#257));
#284=PRESENTATION_STYLE_ASSIGNMENT((#258));
#285=PRESENTATION_STYLE_ASSIGNMENT((#259));
#286=PRESENTATION_STYLE_ASSIGNMENT((#51));
#287=PRESENTATION_STYLE_ASSIGNMENT((#52));
#288=POINT_STYLE('',#289,POSITIVE_LENGTH_MEASURE(3.),#290);
#289=PRE_DEFINED_POINT_MARKER_SYMBOL('plus');
#290=COLOUR_RGB('BLUE',0.,0.,0.998992904554818);
#291=COLOUR_RGB('Deep Lemon',1.,0.909788662546731,0.384298466468299);
#292=COLOUR_RGB('LIGHT GREY',0.8,0.8,0.8);
#293=COLOUR_RGB('GREY',0.499992370489052,0.499992370489052,0.499992370489052);
#294=AXIS2_PLACEMENT_3D('',#397,#325,#326);
#295=AXIS2_PLACEMENT_3D('PCS',#406,#327,#328);
#296=AXIS2_PLACEMENT_3D('CIP',#407,#329,#330);
#297=AXIS2_PLACEMENT_3D('MCS',#408,#331,#332);
#298=AXIS2_PLACEMENT_3D('',#409,#333,#334);
#299=AXIS2_PLACEMENT_3D('',#411,#335,#336);
#300=AXIS2_PLACEMENT_3D('',#412,#337,#338);
#301=AXIS2_PLACEMENT_3D('',#414,#339,#340);
#302=AXIS2_PLACEMENT_3D('',#416,#341,#342);
#303=AXIS2_PLACEMENT_3D('',#417,#343,#344);
#304=AXIS2_PLACEMENT_3D('',#436,#346,#347);
#305=AXIS2_PLACEMENT_3D('',#457,#349,#350);
#306=AXIS2_PLACEMENT_3D('',#475,#352,#353);
#307=AXIS2_PLACEMENT_3D('',#496,#355,#356);
#308=AXIS2_PLACEMENT_3D('',#497,#357,#358);
#309=AXIS2_PLACEMENT_3D('',#508,#359,#360);
#310=AXIS2_PLACEMENT_3D('',#509,#361,#362);
#311=AXIS2_PLACEMENT_3D('',#515,#363,#364);
#312=AXIS2_PLACEMENT_3D('',#521,#365,#366);
#313=AXIS2_PLACEMENT_3D('',#524,#369,#370);
#314=AXIS2_PLACEMENT_3D('',#525,#371,#372);
#315=AXIS2_PLACEMENT_3D('',#527,#373,#374);
#316=AXIS2_PLACEMENT_3D('',#529,#375,#376);
#317=AXIS2_PLACEMENT_3D('',#530,#377,#378);
#318=AXIS2_PLACEMENT_3D('',#531,#379,#380);
#319=AXIS2_PLACEMENT_3D('',#533,#382,#383);
#320=AXIS2_PLACEMENT_3D('',#535,#385,#386);
#321=AXIS2_PLACEMENT_3D('',#536,#387,#388);
#322=AXIS2_PLACEMENT_3D('',#538,#390,#391);
#323=AXIS2_PLACEMENT_3D('',#540,#393,#394);
#324=AXIS2_PLACEMENT_3D('',#541,#395,#396);
#325=DIRECTION('',(0.,0.,1.));
#326=DIRECTION('',(1.,0.,0.));
#327=DIRECTION('',(0.,0.,1.));
#328=DIRECTION('',(1.,0.,0.));
#329=DIRECTION('',(0.,0.,1.));
#330=DIRECTION('',(1.,0.,0.));
#331=DIRECTION('',(0.,0.,1.));
#332=DIRECTION('',(1.,0.,0.));
#333=DIRECTION('',(0.,0.,-1.));
#334=DIRECTION('',(0.983746233524572,-0.179564328379048,0.));
#335=DIRECTION('',(0.,0.,-1.));
#336=DIRECTION('',(0.983746233524572,-0.179564328379048,0.));
#337=DIRECTION('',(0.,0.,1.));
#338=DIRECTION('',(-0.983746233524572,0.179564328379048,0.));
#339=DIRECTION('',(0.,0.,-1.));
#340=DIRECTION('',(0.983746233524572,-0.179564328379048,1.9946862609292E-14));
#341=DIRECTION('',(0.,0.,1.));
#342=DIRECTION('',(-0.983746233524572,0.179564328379048,0.));
#343=DIRECTION('',(0.,0.,1.));
#344=DIRECTION('',(-0.983746233524572,0.179564328379048,0.));
#345=DIRECTION('',(0.,0.,1.));
#346=DIRECTION('',(0.,0.,1.));
#347=DIRECTION('',(-0.983746233524572,0.179564328379048,0.));
#348=DIRECTION('',(0.,0.,-1.));
#349=DIRECTION('',(0.,0.,1.));
#350=DIRECTION('',(-0.983746233524572,0.179564328379048,0.));
#351=DIRECTION('',(0.,0.,1.));
#352=DIRECTION('',(0.,0.,1.));
#353=DIRECTION('',(-0.983746233524572,0.179564328379048,0.));
#354=DIRECTION('',(0.,0.,-1.));
#355=DIRECTION('',(0.,0.,1.));
#356=DIRECTION('',(-0.983746233524572,0.179564328379048,0.));
#357=DIRECTION('',(0.,0.,1.));
#358=DIRECTION('',(-0.983746233524572,0.179564328379048,0.));
#359=DIRECTION('',(0.,0.,1.));
#360=DIRECTION('',(-0.983746233524572,0.179564328379048,0.));
#361=DIRECTION('',(0.,0.,-1.));
#362=DIRECTION('',(0.983746233524572,-0.179564328379048,-2.76794571085802E-17));
#363=DIRECTION('',(0.,0.,1.));
#364=DIRECTION('',(-0.983746233524572,0.179564328379048,0.));
#365=DIRECTION('',(0.,0.,-1.));
#366=DIRECTION('',(0.983746233524572,-0.179564328379048,-2.76794571085802E-17));
#367=DIRECTION('',(0.355396215582314,-0.934715748208924,0.));
#368=DIRECTION('',(-0.355396215582314,0.934715748208924,0.));
#369=DIRECTION('',(0.,0.,-1.));
#370=DIRECTION('',(0.983746233524572,-0.179564328379048,0.));
#371=DIRECTION('',(0.,0.,1.));
#372=DIRECTION('',(-0.983746233524572,0.179564328379048,0.));
#373=DIRECTION('',(0.,0.,-1.));
#374=DIRECTION('',(0.983746233524572,-0.179564328379048,0.));
#375=DIRECTION('',(0.,0.,-1.));
#376=DIRECTION('',(0.983746233524572,-0.179564328379048,1.9946862609292E-14));
#377=DIRECTION('',(0.,0.,1.));
#378=DIRECTION('',(-0.983746233524572,0.179564328379048,0.));
#379=DIRECTION('',(0.,0.,-1.));
#380=DIRECTION('',(0.983746233524572,-0.179564328379048,0.));
#381=DIRECTION('',(0.355396215582314,-0.934715748208924,0.));
#382=DIRECTION('',(0.,0.,1.));
#383=DIRECTION('',(-0.983746233524572,0.179564328379048,0.));
#384=DIRECTION('',(0.355396215582314,-0.934715748208924,0.));
#385=DIRECTION('',(-0.934715748208924,-0.355396215582314,2.0733815665193E-16));
#386=DIRECTION('',(-0.355396215582314,0.934715748208924,0.));
#387=DIRECTION('',(0.355396215582314,-0.934715748208924,0.));
#388=DIRECTION('',(-0.934715748208924,-0.355396215582313,0.));
#389=DIRECTION('',(0.355396215582314,-0.934715748208924,0.));
#390=DIRECTION('',(0.,0.,1.));
#391=DIRECTION('',(-0.983746233524572,0.179564328379048,0.));
#392=DIRECTION('',(0.355396215582314,-0.934715748208924,0.));
#393=DIRECTION('',(0.355396215582314,-0.934715748208924,0.));
#394=DIRECTION('',(-0.934715748208924,-0.355396215582313,0.));
#395=DIRECTION('',(0.934715748208924,0.355396215582314,2.90925663724371E-17));
#396=DIRECTION('',(0.355396215582314,-0.934715748208924,0.));
#397=CARTESIAN_POINT('',(0.,0.,0.));
#398=CARTESIAN_POINT('CRP',(0.,2.75000000000001,-69.3476332976672));
#399=CARTESIAN_POINT('',(0.,2.74960136482886,-57.2499999999962));
#400=CARTESIAN_POINT('',(0.,2.74973424321924,-61.2825444325532));
#401=CARTESIAN_POINT('',(0.,2.74986712160963,-65.3150888651102));
#402=CARTESIAN_POINT('',(5.55111512312578E-17,2.75000000000001,-69.3476332976707));
#403=CARTESIAN_POINT('',(-5.55111512312578E-17,1.83333333333335,-69.8984221984495));
#404=CARTESIAN_POINT('',(-2.77555756156289E-17,0.916666666666676,-70.4492110992247));
#405=CARTESIAN_POINT('',(2.42184110522625E-17,6.3155516773124E-15,-71.));
#406=CARTESIAN_POINT('',(0.,0.,0.));
#407=CARTESIAN_POINT('',(0.,0.,-71.));
#408=CARTESIAN_POINT('',(0.,0.,-36.2));
#409=CARTESIAN_POINT('',(0.,0.,-57.25));
#410=CARTESIAN_POINT('',(2.70490998634441,-0.493730322385607,-57.25));
#411=CARTESIAN_POINT('',(0.,0.,-57.25));
#412=CARTESIAN_POINT('',(0.,0.,-69.3476332976742));
#413=CARTESIAN_POINT('',(-2.70530214219258,0.493801903042383,-69.3476332976742));
#414=CARTESIAN_POINT('',(0.,0.,-69.3476332976742));
#415=CARTESIAN_POINT('',(0.,0.,-71.));
#416=CARTESIAN_POINT('',(0.,0.,-70.2564349839534));
#417=CARTESIAN_POINT('',(0.,0.,-39.));
#418=CARTESIAN_POINT('',(-2.70530214219257,0.49380190304238,-39.));
#419=CARTESIAN_POINT('',(0.297855300568314,2.73382190713355,-71.));
#420=CARTESIAN_POINT('',(0.297855300568311,2.73382190713355,-2.3));
#421=CARTESIAN_POINT('',(0.297855300568311,2.73382190713356,-0.79385662013573));
#422=CARTESIAN_POINT('',(0.524896189467052,2.69944142190249,-2.5));
#423=CARTESIAN_POINT('',(0.491560312750152,2.70592345722997,-2.5));
#424=CARTESIAN_POINT('',(0.457395050128492,2.71187664135864,-2.49356693917095));
#425=CARTESIAN_POINT('',(0.426387529613613,2.71674321101387,-2.48059976408224));
#426=CARTESIAN_POINT('',(0.399612443509334,2.72094550837231,-2.46940256986083));
#427=CARTESIAN_POINT('',(0.374268705575995,2.72449119127491,-2.45286828475676));
#428=CARTESIAN_POINT('',(0.353720896404124,2.72715630785018,-2.43211674531293));
#429=CARTESIAN_POINT('',(0.336048896127335,2.729448422813,-2.41426952823359));
#430=CARTESIAN_POINT('',(0.321363683281642,2.73117545330078,-2.39266675293604));
#431=CARTESIAN_POINT('',(0.311732167386309,2.73227433758336,-2.36938364968166));
#432=CARTESIAN_POINT('',(0.302722753773952,2.73330224462536,-2.34760440852404));
#433=CARTESIAN_POINT('',(0.297855300568311,2.73382190713355,-2.32359155509768));
#434=CARTESIAN_POINT('',(0.297855300568311,2.73382190713355,-2.3));
#435=CARTESIAN_POINT('',(0.524896189467052,2.69944142190249,-2.5));
#436=CARTESIAN_POINT('',(0.,0.,-2.5));
#437=CARTESIAN_POINT('',(2.18577948033882,-1.66879239671378,-2.5));
#438=CARTESIAN_POINT('',(2.03893406995399,-1.84533136817777,-2.3));
#439=CARTESIAN_POINT('',(2.03893406995399,-1.84533136817777,-2.32050929014867));
#440=CARTESIAN_POINT('',(2.04139610082202,-1.8426203309293,-2.34130229185069));
#441=CARTESIAN_POINT('',(2.04601204253849,-1.83748053643772,-2.36061308098675));
#442=CARTESIAN_POINT('',(2.0506212835505,-1.83234820309839,-2.37989583773006));
#443=CARTESIAN_POINT('',(2.05748142326914,-1.82467280283961,-2.39821736650748));
#444=CARTESIAN_POINT('',(2.06584733218441,-1.81515145376537,-2.41430357599456));
#445=CARTESIAN_POINT('',(2.07453778690182,-1.80526073491863,-2.43101383145372));
#446=CARTESIAN_POINT('',(2.08504616001512,-1.79315118771352,-2.44573595493347));
#447=CARTESIAN_POINT('',(2.09641657673541,-1.77975771856423,-2.45773226969113));
#448=CARTESIAN_POINT('',(2.10895887324678,-1.76498386589738,-2.47096497174906));
#449=CARTESIAN_POINT('',(2.12283105550857,-1.74831072339886,-2.48121127301879));
#450=CARTESIAN_POINT('',(2.13693445008182,-1.73089894449487,-2.48818296901506));
#451=CARTESIAN_POINT('',(2.15293942216153,-1.71113951468039,-2.49609466709518));
#452=CARTESIAN_POINT('',(2.16961913399308,-1.68995917186643,-2.5));
#453=CARTESIAN_POINT('',(2.18577948033882,-1.66879239671378,-2.5));
#454=CARTESIAN_POINT('',(2.03893406995399,-1.84533136817777,-2.3));
#455=CARTESIAN_POINT('',(2.03893406995399,-1.84533136817777,-71.));
#456=CARTESIAN_POINT('',(2.03893406995399,-1.84533136817777,-0.79385662013573));
#457=CARTESIAN_POINT('',(0.,0.,-0.79385662013573));
#458=CARTESIAN_POINT('',(-0.297855300568312,-2.73382190713356,-0.79385662013573));
#459=CARTESIAN_POINT('',(-0.297855300568329,-2.73382190713355,-71.));
#460=CARTESIAN_POINT('',(-0.297855300568313,-2.73382190713356,-2.3));
#461=CARTESIAN_POINT('',(-0.524896189467052,-2.69944142190249,-2.5));
#462=CARTESIAN_POINT('',(-0.491560312750151,-2.70592345722998,-2.5));
#463=CARTESIAN_POINT('',(-0.457395050128492,-2.71187664135864,-2.49356693917095));
#464=CARTESIAN_POINT('',(-0.426387529613613,-2.71674321101387,-2.48059976408224));
#465=CARTESIAN_POINT('',(-0.399612443509335,-2.72094550837231,-2.46940256986083));
#466=CARTESIAN_POINT('',(-0.374268705575997,-2.72449119127491,-2.45286828475676));
#467=CARTESIAN_POINT('',(-0.353720896404127,-2.72715630785018,-2.43211674531293));
#468=CARTESIAN_POINT('',(-0.336048896127338,-2.729448422813,-2.41426952823359));
#469=CARTESIAN_POINT('',(-0.321363683281645,-2.73117545330078,-2.39266675293604));
#470=CARTESIAN_POINT('',(-0.311732167386312,-2.73227433758336,-2.36938364968166));
#471=CARTESIAN_POINT('',(-0.302722753773955,-2.73330224462536,-2.34760440852404));
#472=CARTESIAN_POINT('',(-0.297855300568313,-2.73382190713356,-2.32359155509768));
#473=CARTESIAN_POINT('',(-0.297855300568313,-2.73382190713356,-2.3));
#474=CARTESIAN_POINT('',(-0.524896189467052,-2.69944142190249,-2.5));
#475=CARTESIAN_POINT('',(0.,0.,-2.5));
#476=CARTESIAN_POINT('',(-2.18577948033882,1.66879239671378,-2.5));
#477=CARTESIAN_POINT('',(-2.03893406995399,1.84533136817777,-2.3));
#478=CARTESIAN_POINT('',(-2.03893406995399,1.84533136817777,-2.32050929014867));
#479=CARTESIAN_POINT('',(-2.04139610082202,1.84262033092929,-2.34130229185069));
#480=CARTESIAN_POINT('',(-2.0460120425385,1.83748053643772,-2.36061308098674));
#481=CARTESIAN_POINT('',(-2.0506212835505,1.83234820309839,-2.37989583773006));
#482=CARTESIAN_POINT('',(-2.05748142326914,1.8246728028396,-2.39821736650748));
#483=CARTESIAN_POINT('',(-2.06584733218442,1.81515145376536,-2.41430357599456));
#484=CARTESIAN_POINT('',(-2.07453778690183,1.80526073491863,-2.43101383145372));
#485=CARTESIAN_POINT('',(-2.08504616001513,1.79315118771352,-2.44573595493347));
#486=CARTESIAN_POINT('',(-2.09641657673542,1.77975771856423,-2.45773226969113));
#487=CARTESIAN_POINT('',(-2.10895887324678,1.76498386589738,-2.47096497174906));
#488=CARTESIAN_POINT('',(-2.12283105550857,1.74831072339886,-2.48121127301879));
#489=CARTESIAN_POINT('',(-2.13693445008183,1.73089894449487,-2.48818296901505));
#490=CARTESIAN_POINT('',(-2.15293942216153,1.71113951468039,-2.49609466709518));
#491=CARTESIAN_POINT('',(-2.16961913399308,1.68995917186643,-2.5));
#492=CARTESIAN_POINT('',(-2.18577948033882,1.66879239671378,-2.5));
#493=CARTESIAN_POINT('',(-2.03893406995399,1.84533136817777,-2.3));
#494=CARTESIAN_POINT('',(-2.038934069954,1.84533136817776,-71.));
#495=CARTESIAN_POINT('',(-2.03893406995399,1.84533136817777,-0.79385662013573));
#496=CARTESIAN_POINT('',(0.,0.,-0.79385662013573));
#497=CARTESIAN_POINT('',(0.,0.,-71.));
#498=CARTESIAN_POINT('',(0.297855300568311,2.73382190713356,-0.79385662013573));
#499=CARTESIAN_POINT('',(0.40694714785644,2.44690307347535,-0.520441562659204));
#500=CARTESIAN_POINT('',(0.517466063669043,2.15623095442717,-0.251449636681838));
#501=CARTESIAN_POINT('',(0.633644781571093,1.85067317843387,-2.78123259663605E-17));
#502=CARTESIAN_POINT('',(0.633644781571093,1.85067317843387,0.));
#503=CARTESIAN_POINT('',(-1.70314458895121,0.962182639478086,3.55885245826868E-15));
#504=CARTESIAN_POINT('',(-1.81906076019233,1.26704990024402,-0.25088139781938));
#505=CARTESIAN_POINT('',(-1.92986181377127,1.55846406043331,-0.52049066351636));
#506=CARTESIAN_POINT('',(-2.03893406995399,1.84533136817777,-0.79385662013573));
#507=CARTESIAN_POINT('',(-1.70314458895121,0.962182639478083,0.));
#508=CARTESIAN_POINT('',(0.,0.,0.));
#509=CARTESIAN_POINT('',(0.,0.,-0.79385662013573));
#510=CARTESIAN_POINT('',(1.70314458895121,-0.962182639478086,4.11873689370556E-15));
#511=CARTESIAN_POINT('',(1.81906076019233,-1.26704990024402,-0.250881397819379));
#512=CARTESIAN_POINT('',(1.92986181377127,-1.55846406043331,-0.52049066351636));
#513=CARTESIAN_POINT('',(2.03893406995399,-1.84533136817777,-0.79385662013573));
#514=CARTESIAN_POINT('',(1.70314458895121,-0.962182639478084,0.));
#515=CARTESIAN_POINT('',(0.,0.,0.));
#516=CARTESIAN_POINT('',(-0.633644781571095,-1.85067317843387,0.));
#517=CARTESIAN_POINT('',(-0.297855300568312,-2.73382190713356,-0.793856620135729));
#518=CARTESIAN_POINT('',(-0.406947147856441,-2.44690307347535,-0.520441562659203));
#519=CARTESIAN_POINT('',(-0.517466063669044,-2.15623095442717,-0.251449636681838));
#520=CARTESIAN_POINT('',(-0.633644781571094,-1.85067317843387,-4.70880728535553E-16));
#521=CARTESIAN_POINT('',(0.,0.,-0.79385662013573));
#522=CARTESIAN_POINT('',(1.76328701845241,-1.12036123994013,0.));
#523=CARTESIAN_POINT('',(-0.573502352069894,-2.00885177889591,0.));
#524=CARTESIAN_POINT('',(-0.351253572218447,-1.9243486821755,0.));
#525=CARTESIAN_POINT('',(0.,0.,-39.000001745331));
#526=CARTESIAN_POINT('',(-2.70431839595904,0.493622338714001,-39.000001745331));
#527=CARTESIAN_POINT('',(0.,0.,-57.25));
#528=CARTESIAN_POINT('',(2.70490998634441,-0.493730322385607,-57.25));
#529=CARTESIAN_POINT('',(0.,0.,-69.3476332976742));
#530=CARTESIAN_POINT('',(-0.493622338714001,-2.70431839595904,-39.0000008726655));
#531=CARTESIAN_POINT('',(0.,0.,-57.25));
#532=CARTESIAN_POINT('',(-3.31001702060566,4.62561210255472,-2.5));
#533=CARTESIAN_POINT('',(-3.31001702060566,4.62561210255473,-2.5));
#534=CARTESIAN_POINT('',(-3.12307387096388,4.69669134567119,-2.3));
#535=CARTESIAN_POINT('',(-3.12307387096388,4.69669134567119,2.3));
#536=CARTESIAN_POINT('',(-3.31001702060566,4.62561210255472,-2.3));
#537=CARTESIAN_POINT('',(-0.599341350799792,5.65626112774343,-2.5));
#538=CARTESIAN_POINT('',(1.45703329525984,6.43813280202453,-2.5));
#539=CARTESIAN_POINT('',(-0.786284500441581,5.58518188462697,-2.3));
#540=CARTESIAN_POINT('',(-0.599341350799793,5.65626112774344,-2.3));
#541=CARTESIAN_POINT('',(-0.786284500441579,5.58518188462697,-2.3));
#542=MECHANICAL_DESIGN_GEOMETRIC_PRESENTATION_REPRESENTATION('',(#274,#275,
#276,#277,#278,#279,#280),#543);
#543=(
GEOMETRIC_REPRESENTATION_CONTEXT(3)
GLOBAL_UNCERTAINTY_ASSIGNED_CONTEXT((#544))
GLOBAL_UNIT_ASSIGNED_CONTEXT((#550,#546,#545))
REPRESENTATION_CONTEXT('CAPP~~210908185112~5968759~MOD~TM01_00~ISO~FR',
'TOP_LEVEL_ASSEMBLY_PART')
);
#544=UNCERTAINTY_MEASURE_WITH_UNIT(LENGTH_MEASURE(0.0508),#550,
'DISTANCE_ACCURACY_VALUE','Maximum Tolerance applied to model');
#545=(
NAMED_UNIT(*)
SI_UNIT($,.STERADIAN.)
SOLID_ANGLE_UNIT()
);
#546=(
CONVERSION_BASED_UNIT('DEGREE',#548)
NAMED_UNIT(#547)
PLANE_ANGLE_UNIT()
);
#547=DIMENSIONAL_EXPONENTS(0.,0.,0.,0.,0.,0.,0.);
#548=PLANE_ANGLE_MEASURE_WITH_UNIT(PLANE_ANGLE_MEASURE(0.0174532925),#549);
#549=(
NAMED_UNIT(*)
PLANE_ANGLE_UNIT()
SI_UNIT($,.RADIAN.)
);
#550=(
LENGTH_UNIT()
NAMED_UNIT(*)
SI_UNIT(.MILLI.,.METRE.)
);
ENDSEC;
END-ISO-10303-21;
