ISO-10303-21;
HEADER;
/* Generated by software containing ST-Developer
 * from STEP Tools, Inc. (www.steptools.com) 
 */
/* OPTION: using custom schema-name function */

FILE_DESCRIPTION(
/* description */ ('A100N35'),
/* implementation_level */ '2;1');

FILE_NAME(
/* name */ 'CAPP~~210915100329~5967019~MOD~TM01_00~ISO~FR.STP',
/* time_stamp */ '2021-09-15T10:04:30+02:00',
/* author */ ('System'),
/* organization */ ('Dormer Pramet'),
/* preprocessor_version */ 'ST-DEVELOPER v16.7',
/* originating_system */ 'SIEMENS PLM Software NX 12.0',
/* authorisation */ '');

FILE_SCHEMA (('AUTOMOTIVE_DESIGN { 1 0 10303 214 3 1 1 1 }'));
ENDSEC;

DATA;
#10=CONSTRUCTIVE_GEOMETRY_REPRESENTATION_RELATIONSHIP(
'supplemental geometry','',#26,#11);
#11=CONSTRUCTIVE_GEOMETRY_REPRESENTATION('supplemental geometry',(#157,
#158,#159),#253);
#12=GEOMETRICALLY_BOUNDED_WIREFRAME_SHAPE_REPRESENTATION(
'CAPP~~210915100329~5967019~MOD~TM01_00~ISO~FR-None',(#27),#253);
#13=SHAPE_REPRESENTATION_RELATIONSHIP('None',
'relationship between CAPP~~210915100329~5967019~MOD~TM01_00~ISO~FR-No
ne and CAPP~~210915100329~5967019~MOD~TM01_00~ISO~FR-None',#26,#15);
#14=SHAPE_REPRESENTATION_RELATIONSHIP('None',
'relationship between CAPP~~210915100329~5967019~MOD~TM01_00~ISO~FR-No
ne and CAPP~~210915100329~5967019~MOD~TM01_00~ISO~FR-None',#26,#12);
#15=ADVANCED_BREP_SHAPE_REPRESENTATION(
'CAPP~~210915100329~5967019~MOD~TM01_00~ISO~FR-None',(#39,#40),#253);
#16=SHAPE_DEFINITION_REPRESENTATION(#17,#26);
#17=PRODUCT_DEFINITION_SHAPE('','',#18);
#18=PRODUCT_DEFINITION(' ','',#20,#19);
#19=PRODUCT_DEFINITION_CONTEXT('part definition',#25,'design');
#20=PRODUCT_DEFINITION_FORMATION_WITH_SPECIFIED_SOURCE(' ',' ',#22,
 .NOT_KNOWN.);
#21=PRODUCT_RELATED_PRODUCT_CATEGORY('part','',(#22));
#22=PRODUCT('CAPP~~210915100329~5967019~MOD~TM01_00~ISO~FR',
'CAPP~~210915100329~5967019~MOD~TM01_00~ISO~FR',' ',(#23));
#23=PRODUCT_CONTEXT(' ',#25,'mechanical');
#24=APPLICATION_PROTOCOL_DEFINITION('international standard',
'automotive_design',2010,#25);
#25=APPLICATION_CONTEXT(
'core data for automotive mechanical design processes');
#26=SHAPE_REPRESENTATION(
'CAPP~~210915100329~5967019~MOD~TM01_00~ISO~FR-None',(#156),#253);
#27=GEOMETRIC_CURVE_SET('None',(#217,#134));
#28=CYLINDRICAL_SURFACE('',#171,1.395);
#29=SURFACE_STYLE_USAGE(.BOTH.,#31);
#30=SURFACE_STYLE_USAGE(.BOTH.,#32);
#31=SURFACE_SIDE_STYLE('',(#33));
#32=SURFACE_SIDE_STYLE('',(#34));
#33=SURFACE_STYLE_FILL_AREA(#35);
#34=SURFACE_STYLE_FILL_AREA(#36);
#35=FILL_AREA_STYLE('',(#37));
#36=FILL_AREA_STYLE('',(#38));
#37=FILL_AREA_STYLE_COLOUR('',#154);
#38=FILL_AREA_STYLE_COLOUR('',#155);
#39=MANIFOLD_SOLID_BREP('CUT',#41);
#40=MANIFOLD_SOLID_BREP('NOCUT',#42);
#41=CLOSED_SHELL('',(#60,#61,#62));
#42=CLOSED_SHELL('',(#63,#64,#65,#66,#67,#68));
#43=VERTEX_LOOP('',#106);
#44=CONICAL_SURFACE('',#163,1.39500000000001,0.0017814856012015);
#45=CONICAL_SURFACE('',#164,0.62775000000001,58.9999999999998);
#46=CONICAL_SURFACE('',#167,1.39500000000001,0.0017814856012015);
#47=CONICAL_SURFACE('',#173,1.395,45.0000000000002);
#48=FACE_BOUND('',#77,.T.);
#49=FACE_BOUND('',#78,.T.);
#50=FACE_BOUND('',#79,.T.);
#51=FACE_BOUND('',#43,.T.);
#52=FACE_BOUND('',#80,.T.);
#53=FACE_BOUND('',#81,.T.);
#54=FACE_BOUND('',#82,.T.);
#55=FACE_BOUND('',#83,.T.);
#56=FACE_BOUND('',#84,.T.);
#57=FACE_BOUND('',#85,.T.);
#58=FACE_BOUND('',#86,.T.);
#59=FACE_BOUND('',#87,.T.);
#60=ADVANCED_FACE('',(#73),#69,.F.);
#61=ADVANCED_FACE('',(#48,#49),#44,.T.);
#62=ADVANCED_FACE('',(#50,#51),#45,.T.);
#63=ADVANCED_FACE('',(#52,#53),#46,.T.);
#64=ADVANCED_FACE('',(#54,#55),#70,.F.);
#65=ADVANCED_FACE('',(#56,#57),#28,.T.);
#66=ADVANCED_FACE('',(#58,#59),#47,.T.);
#67=ADVANCED_FACE('',(#74),#71,.F.);
#68=ADVANCED_FACE('',(#75),#72,.T.);
#69=PLANE('',#161);
#70=PLANE('',#169);
#71=PLANE('',#174);
#72=PLANE('',#175);
#73=FACE_OUTER_BOUND('',#76,.T.);
#74=FACE_OUTER_BOUND('',#88,.T.);
#75=FACE_OUTER_BOUND('',#89,.T.);
#76=EDGE_LOOP('',(#90));
#77=EDGE_LOOP('',(#91));
#78=EDGE_LOOP('',(#92));
#79=EDGE_LOOP('',(#93));
#80=EDGE_LOOP('',(#94));
#81=EDGE_LOOP('',(#95));
#82=EDGE_LOOP('',(#96));
#83=EDGE_LOOP('',(#97));
#84=EDGE_LOOP('',(#98));
#85=EDGE_LOOP('',(#99));
#86=EDGE_LOOP('',(#100));
#87=EDGE_LOOP('',(#101));
#88=EDGE_LOOP('',(#102));
#89=EDGE_LOOP('',(#103));
#90=ORIENTED_EDGE('',*,*,#112,.F.);
#91=ORIENTED_EDGE('',*,*,#112,.T.);
#92=ORIENTED_EDGE('',*,*,#113,.T.);
#93=ORIENTED_EDGE('',*,*,#113,.F.);
#94=ORIENTED_EDGE('',*,*,#114,.F.);
#95=ORIENTED_EDGE('',*,*,#115,.F.);
#96=ORIENTED_EDGE('',*,*,#116,.F.);
#97=ORIENTED_EDGE('',*,*,#114,.T.);
#98=ORIENTED_EDGE('',*,*,#117,.F.);
#99=ORIENTED_EDGE('',*,*,#116,.T.);
#100=ORIENTED_EDGE('',*,*,#118,.F.);
#101=ORIENTED_EDGE('',*,*,#117,.T.);
#102=ORIENTED_EDGE('',*,*,#118,.T.);
#103=ORIENTED_EDGE('',*,*,#115,.T.);
#104=VERTEX_POINT('',#229);
#105=VERTEX_POINT('',#232);
#106=VERTEX_POINT('',#234);
#107=VERTEX_POINT('',#237);
#108=VERTEX_POINT('',#239);
#109=VERTEX_POINT('',#242);
#110=VERTEX_POINT('',#245);
#111=VERTEX_POINT('',#248);
#112=EDGE_CURVE('',#104,#104,#119,.T.);
#113=EDGE_CURVE('',#105,#105,#120,.T.);
#114=EDGE_CURVE('',#107,#107,#121,.T.);
#115=EDGE_CURVE('',#108,#108,#122,.T.);
#116=EDGE_CURVE('',#109,#109,#123,.T.);
#117=EDGE_CURVE('',#110,#110,#124,.T.);
#118=EDGE_CURVE('',#111,#111,#125,.T.);
#119=CIRCLE('',#160,1.39467906646465);
#120=CIRCLE('',#162,1.39500000000001);
#121=CIRCLE('',#165,1.39399999999999);
#122=CIRCLE('',#166,1.39467906646465);
#123=CIRCLE('',#168,1.395);
#124=CIRCLE('',#170,1.395);
#125=CIRCLE('',#172,0.992298187240235);
#126=CURVE_STYLE('',#130,POSITIVE_LENGTH_MEASURE(0.18),#152);
#127=CURVE_STYLE('',#131,POSITIVE_LENGTH_MEASURE(0.13),#153);
#128=CURVE_STYLE('',#132,POSITIVE_LENGTH_MEASURE(0.13),#153);
#129=CURVE_STYLE('',#133,POSITIVE_LENGTH_MEASURE(0.13),#153);
#130=DRAUGHTING_PRE_DEFINED_CURVE_FONT('continuous');
#131=DRAUGHTING_PRE_DEFINED_CURVE_FONT('continuous');
#132=DRAUGHTING_PRE_DEFINED_CURVE_FONT('continuous');
#133=DRAUGHTING_PRE_DEFINED_CURVE_FONT('continuous');
#134=B_SPLINE_CURVE_WITH_KNOTS('CUTTING PART LINE',3,(#218,#219,#220,#221,
#222,#223,#224),.UNSPECIFIED.,.F.,.F.,(4,3,4),(0.,0.863802901742394,1.),
 .UNSPECIFIED.);
#135=PRESENTATION_LAYER_ASSIGNMENT('1','Layer 1',(#217,#134,#157,#158,#159,
#39,#40));
#136=STYLED_ITEM('',(#143),#217);
#137=STYLED_ITEM('',(#144),#134);
#138=STYLED_ITEM('',(#145),#157);
#139=STYLED_ITEM('',(#146),#158);
#140=STYLED_ITEM('',(#147),#159);
#141=STYLED_ITEM('',(#148),#39);
#142=STYLED_ITEM('',(#149),#40);
#143=PRESENTATION_STYLE_ASSIGNMENT((#150));
#144=PRESENTATION_STYLE_ASSIGNMENT((#126));
#145=PRESENTATION_STYLE_ASSIGNMENT((#127));
#146=PRESENTATION_STYLE_ASSIGNMENT((#128));
#147=PRESENTATION_STYLE_ASSIGNMENT((#129));
#148=PRESENTATION_STYLE_ASSIGNMENT((#29));
#149=PRESENTATION_STYLE_ASSIGNMENT((#30));
#150=POINT_STYLE('',#151,POSITIVE_LENGTH_MEASURE(3.),#152);
#151=PRE_DEFINED_POINT_MARKER_SYMBOL('plus');
#152=COLOUR_RGB('BLUE',0.,0.,0.998992904554818);
#153=COLOUR_RGB('Deep Lemon',1.,0.909788662546731,0.384298466468299);
#154=COLOUR_RGB('LIGHT GREY',0.8,0.8,0.8);
#155=COLOUR_RGB('GREY',0.499992370489052,0.499992370489052,0.499992370489052);
#156=AXIS2_PLACEMENT_3D('',#216,#176,#177);
#157=AXIS2_PLACEMENT_3D('PCS',#225,#178,#179);
#158=AXIS2_PLACEMENT_3D('CIP',#226,#180,#181);
#159=AXIS2_PLACEMENT_3D('MCS',#227,#182,#183);
#160=AXIS2_PLACEMENT_3D('',#228,#184,#185);
#161=AXIS2_PLACEMENT_3D('',#230,#186,#187);
#162=AXIS2_PLACEMENT_3D('',#231,#188,#189);
#163=AXIS2_PLACEMENT_3D('',#233,#190,#191);
#164=AXIS2_PLACEMENT_3D('',#235,#192,#193);
#165=AXIS2_PLACEMENT_3D('',#236,#194,#195);
#166=AXIS2_PLACEMENT_3D('',#238,#196,#197);
#167=AXIS2_PLACEMENT_3D('',#240,#198,#199);
#168=AXIS2_PLACEMENT_3D('',#241,#200,#201);
#169=AXIS2_PLACEMENT_3D('',#243,#202,#203);
#170=AXIS2_PLACEMENT_3D('',#244,#204,#205);
#171=AXIS2_PLACEMENT_3D('',#246,#206,#207);
#172=AXIS2_PLACEMENT_3D('',#247,#208,#209);
#173=AXIS2_PLACEMENT_3D('',#249,#210,#211);
#174=AXIS2_PLACEMENT_3D('',#250,#212,#213);
#175=AXIS2_PLACEMENT_3D('',#251,#214,#215);
#176=DIRECTION('',(0.,0.,1.));
#177=DIRECTION('',(1.,0.,0.));
#178=DIRECTION('',(0.,0.,1.));
#179=DIRECTION('',(1.,0.,0.));
#180=DIRECTION('',(0.,0.,1.));
#181=DIRECTION('',(1.,0.,0.));
#182=DIRECTION('',(0.,0.,1.));
#183=DIRECTION('',(1.,0.,0.));
#184=DIRECTION('',(0.,0.,-1.));
#185=DIRECTION('',(-0.904934026277004,0.4255518864793,0.));
#186=DIRECTION('',(0.,0.,-1.));
#187=DIRECTION('',(-0.904934026277004,0.4255518864793,0.));
#188=DIRECTION('',(0.,0.,1.));
#189=DIRECTION('',(0.904934026277004,-0.4255518864793,0.));
#190=DIRECTION('',(0.,0.,-1.));
#191=DIRECTION('',(-0.904934026277004,0.4255518864793,2.43283394875645E-14));
#192=DIRECTION('',(0.,0.,1.));
#193=DIRECTION('',(0.904934026277004,-0.4255518864793,4.16773605704802E-18));
#194=DIRECTION('',(0.,0.,1.));
#195=DIRECTION('',(0.904934026277004,-0.4255518864793,0.));
#196=DIRECTION('',(0.,0.,-1.));
#197=DIRECTION('',(-0.904934026277004,0.4255518864793,0.));
#198=DIRECTION('',(0.,0.,-1.));
#199=DIRECTION('',(-0.904934026277004,0.4255518864793,2.43283394875645E-14));
#200=DIRECTION('',(0.,0.,1.));
#201=DIRECTION('',(0.904934026277004,-0.4255518864793,0.));
#202=DIRECTION('',(0.,0.,1.));
#203=DIRECTION('',(0.904934026277004,-0.4255518864793,0.));
#204=DIRECTION('',(0.,0.,1.));
#205=DIRECTION('',(0.904934026277004,-0.4255518864793,0.));
#206=DIRECTION('',(0.,0.,1.));
#207=DIRECTION('',(0.904934026277004,-0.4255518864793,0.));
#208=DIRECTION('',(0.,0.,1.));
#209=DIRECTION('',(0.904934026277004,-0.4255518864793,0.));
#210=DIRECTION('',(0.,0.,-1.));
#211=DIRECTION('',(-0.904934026277004,0.4255518864793,6.23630486822528E-17));
#212=DIRECTION('',(0.,0.,-1.));
#213=DIRECTION('',(-0.904934026277004,0.4255518864793,0.));
#214=DIRECTION('',(0.,0.,-1.));
#215=DIRECTION('',(-0.904934026277004,0.4255518864793,0.));
#216=CARTESIAN_POINT('',(0.,0.,0.));
#217=CARTESIAN_POINT('CRP',(-2.22044604925031E-16,1.39500000000001,-60.1617994364716));
#218=CARTESIAN_POINT('',(-2.22044604925031E-16,1.39467906646465,-49.8400000000174));
#219=CARTESIAN_POINT('',(-4.44089209850063E-16,1.39478604430977,-53.2805998121688));
#220=CARTESIAN_POINT('',(-2.22044604925031E-16,1.39489302215489,-56.7211996243202));
#221=CARTESIAN_POINT('',(-1.11022302462516E-16,1.39500000000001,-60.1617994364641));
#222=CARTESIAN_POINT('',(-1.66533453693773E-16,0.930000000000012,-60.4411996243044));
#223=CARTESIAN_POINT('',(-1.11022302462516E-16,0.465000000000008,-60.7205998121522));
#224=CARTESIAN_POINT('',(-7.17163039865973E-17,2.97817762322513E-15,-61.));
#225=CARTESIAN_POINT('',(0.,0.,0.));
#226=CARTESIAN_POINT('',(0.,0.,-61.));
#227=CARTESIAN_POINT('',(0.,0.,-26.6));
#228=CARTESIAN_POINT('',(0.,0.,-49.84));
#229=CARTESIAN_POINT('',(-1.26209254298011,0.593508307767219,-49.84));
#230=CARTESIAN_POINT('',(0.,0.,-49.84));
#231=CARTESIAN_POINT('',(0.,0.,-60.1617994364565));
#232=CARTESIAN_POINT('',(1.26238296665643,-0.593644881638627,-60.1617994364565));
#233=CARTESIAN_POINT('',(0.,0.,-60.1617994364565));
#234=CARTESIAN_POINT('',(0.,0.,-61.));
#235=CARTESIAN_POINT('',(0.,0.,-60.6228097464054));
#236=CARTESIAN_POINT('',(0.,0.,-28.000001745331));
#237=CARTESIAN_POINT('',(1.26147803263014,-0.593219329752141,-28.000001745331));
#238=CARTESIAN_POINT('',(0.,0.,-49.84));
#239=CARTESIAN_POINT('',(-1.26209254298011,0.593508307767219,-49.84));
#240=CARTESIAN_POINT('',(0.,0.,-60.1617994364565));
#241=CARTESIAN_POINT('',(0.,0.,-28.));
#242=CARTESIAN_POINT('',(1.26238296665642,-0.593644881638621,-28.));
#243=CARTESIAN_POINT('',(0.593219329752141,1.26147803263014,-28.0000008726655));
#244=CARTESIAN_POINT('',(0.,0.,-0.402701812759761));
#245=CARTESIAN_POINT('',(1.26238296665642,-0.593644881638622,-0.402701812759761));
#246=CARTESIAN_POINT('',(0.,0.,-61.));
#247=CARTESIAN_POINT('',(0.,0.,0.));
#248=CARTESIAN_POINT('',(0.897964393846678,-0.422274365530071,0.));
#249=CARTESIAN_POINT('',(0.,0.,-0.402701812759761));
#250=CARTESIAN_POINT('',(0.422274365530071,0.897964393846678,0.));
#251=CARTESIAN_POINT('',(0.,0.,-49.84));
#252=MECHANICAL_DESIGN_GEOMETRIC_PRESENTATION_REPRESENTATION('',(#136,#137,
#138,#139,#140,#141,#142),#253);
#253=(
GEOMETRIC_REPRESENTATION_CONTEXT(3)
GLOBAL_UNCERTAINTY_ASSIGNED_CONTEXT((#254))
GLOBAL_UNIT_ASSIGNED_CONTEXT((#260,#256,#255))
REPRESENTATION_CONTEXT('CAPP~~210915100329~5967019~MOD~TM01_00~ISO~FR',
'TOP_LEVEL_ASSEMBLY_PART')
);
#254=UNCERTAINTY_MEASURE_WITH_UNIT(LENGTH_MEASURE(2.E-5),#260,
'DISTANCE_ACCURACY_VALUE','Maximum Tolerance applied to model');
#255=(
NAMED_UNIT(*)
SI_UNIT($,.STERADIAN.)
SOLID_ANGLE_UNIT()
);
#256=(
CONVERSION_BASED_UNIT('DEGREE',#258)
NAMED_UNIT(#257)
PLANE_ANGLE_UNIT()
);
#257=DIMENSIONAL_EXPONENTS(0.,0.,0.,0.,0.,0.,0.);
#258=PLANE_ANGLE_MEASURE_WITH_UNIT(PLANE_ANGLE_MEASURE(0.0174532925),#259);
#259=(
NAMED_UNIT(*)
PLANE_ANGLE_UNIT()
SI_UNIT($,.RADIAN.)
);
#260=(
LENGTH_UNIT()
NAMED_UNIT(*)
SI_UNIT(.MILLI.,.METRE.)
);
ENDSEC;
END-ISO-10303-21;
