  0
SECTION
  2
HEADER
  9
$ACADVER
  1
AC1018
  9
$ACADMAINTVER
 70
   104
  9
$DWGCODEPAGE
  3
ANSI_1250
  9
$LASTSAVEDBY
  1
wq7085
  9
$INSBASE
 10
0.0
 20
0.0
 30
0.0
  9
$EXTMIN
 10
185.2894053333333
 20
118.534924
 30
0.0
  9
$EXTMAX
 10
472.551407
 20
347.6965206666668
 30
0.0
  9
$LIMMIN
 10
-0.5
 20
-0.5
  9
$LIMMAX
 10
5.0
 20
5.0
  9
$ORTHOMODE
 70
     0
  9
$REGENMODE
 70
     1
  9
$FILLMODE
 70
     1
  9
$QTEXTMODE
 70
     0
  9
$MIRRTEXT
 70
     1
  9
$LTSCALE
 40
1.0
  9
$ATTMODE
 70
     1
  9
$TEXTSIZE
 40
0.2
  9
$TRACEWID
 40
0.05
  9
$TEXTSTYLE
  7
Standard
  9
$CLAYER
  8
0
  9
$CELTYPE
  6
ByLayer
  9
$CECOLOR
 62
   256
  9
$CELTSCALE
 40
1.0
  9
$DISPSILH
 70
     0
  9
$DIMSCALE
 40
1.0
  9
$DIMASZ
 40
0.18
  9
$DIMEXO
 40
0.0625
  9
$DIMDLI
 40
0.38
  9
$DIMRND
 40
0.0
  9
$DIMDLE
 40
0.0
  9
$DIMEXE
 40
0.18
  9
$DIMTP
 40
0.0
  9
$DIMTM
 40
0.0
  9
$DIMTXT
 40
0.18
  9
$DIMCEN
 40
0.09
  9
$DIMTSZ
 40
0.0
  9
$DIMTOL
 70
     0
  9
$DIMLIM
 70
     0
  9
$DIMTIH
 70
     1
  9
$DIMTOH
 70
     1
  9
$DIMSE1
 70
     0
  9
$DIMSE2
 70
     0
  9
$DIMTAD
 70
     0
  9
$DIMZIN
 70
     0
  9
$DIMBLK
  1

  9
$DIMASO
 70
     1
  9
$DIMSHO
 70
     1
  9
$DIMPOST
  1

  9
$DIMAPOST
  1

  9
$DIMALT
 70
     0
  9
$DIMALTD
 70
     2
  9
$DIMALTF
 40
25.4
  9
$DIMLFAC
 40
1.0
  9
$DIMTOFL
 70
     0
  9
$DIMTVP
 40
0.0
  9
$DIMTIX
 70
     0
  9
$DIMSOXD
 70
     0
  9
$DIMSAH
 70
     0
  9
$DIMBLK1
  1

  9
$DIMBLK2
  1

  9
$DIMSTYLE
  2
Standard
  9
$DIMCLRD
 70
     0
  9
$DIMCLRE
 70
     0
  9
$DIMCLRT
 70
     0
  9
$DIMTFAC
 40
1.0
  9
$DIMGAP
 40
0.09
  9
$DIMJUST
 70
     0
  9
$DIMSD1
 70
     0
  9
$DIMSD2
 70
     0
  9
$DIMTOLJ
 70
     1
  9
$DIMTZIN
 70
     0
  9
$DIMALTZ
 70
     0
  9
$DIMALTTZ
 70
     0
  9
$DIMUPT
 70
     0
  9
$DIMDEC
 70
     4
  9
$DIMTDEC
 70
     4
  9
$DIMALTU
 70
     2
  9
$DIMALTTD
 70
     2
  9
$DIMTXSTY
  7
Standard
  9
$DIMAUNIT
 70
     0
  9
$DIMADEC
 70
     0
  9
$DIMALTRND
 40
0.0
  9
$DIMAZIN
 70
     0
  9
$DIMDSEP
 70
    46
  9
$DIMATFIT
 70
     3
  9
$DIMFRAC
 70
     0
  9
$DIMLDRBLK
  1

  9
$DIMLUNIT
 70
     2
  9
$DIMLWD
 70
    -2
  9
$DIMLWE
 70
    -2
  9
$DIMTMOVE
 70
     0
  9
$LUNITS
 70
     2
  9
$LUPREC
 70
     4
  9
$SKETCHINC
 40
0.1
  9
$FILLETRAD
 40
0.5
  9
$AUNITS
 70
     0
  9
$AUPREC
 70
     0
  9
$MENU
  1
.
  9
$ELEVATION
 40
0.0
  9
$PELEVATION
 40
0.0
  9
$THICKNESS
 40
0.0
  9
$LIMCHECK
 70
     0
  9
$CHAMFERA
 40
0.0
  9
$CHAMFERB
 40
0.0
  9
$CHAMFERC
 40
0.0
  9
$CHAMFERD
 40
0.0
  9
$SKPOLY
 70
     0
  9
$TDCREATE
 40
2459095.549965278
  9
$TDUCREATE
 40
2459095.466632315
  9
$TDUPDATE
 40
2459095.550601852
  9
$TDUUPDATE
 40
2459095.467268519
  9
$TDINDWG
 40
0.0001620486
  9
$TDUSRTIMER
 40
0.0001620486
  9
$USRTIMER
 70
     1
  9
$ANGBASE
 50
0.0
  9
$ANGDIR
 70
     0
  9
$PDMODE
 70
     0
  9
$PDSIZE
 40
0.0
  9
$PLINEWID
 40
0.0
  9
$SPLFRAME
 70
     0
  9
$SPLINETYPE
 70
     6
  9
$SPLINESEGS
 70
     8
  9
$HANDSEED
  5
39A
  9
$SURFTAB1
 70
     6
  9
$SURFTAB2
 70
     6
  9
$SURFTYPE
 70
     6
  9
$SURFU
 70
     6
  9
$SURFV
 70
     6
  9
$UCSBASE
  2

  9
$UCSNAME
  2

  9
$UCSORG
 10
274.404842
 20
288.907994
 30
0.0
  9
$UCSXDIR
 10
1.0
 20
0.0
 30
0.0
  9
$UCSYDIR
 10
0.0
 20
1.0
 30
0.0
  9
$UCSORTHOREF
  2

  9
$UCSORTHOVIEW
 70
     0
  9
$UCSORGTOP
 10
0.0
 20
0.0
 30
0.0
  9
$UCSORGBOTTOM
 10
0.0
 20
0.0
 30
0.0
  9
$UCSORGLEFT
 10
0.0
 20
0.0
 30
0.0
  9
$UCSORGRIGHT
 10
0.0
 20
0.0
 30
0.0
  9
$UCSORGFRONT
 10
0.0
 20
0.0
 30
0.0
  9
$UCSORGBACK
 10
0.0
 20
0.0
 30
0.0
  9
$PUCSBASE
  2

  9
$PUCSNAME
  2

  9
$PUCSORG
 10
0.0
 20
0.0
 30
0.0
  9
$PUCSXDIR
 10
1.0
 20
0.0
 30
0.0
  9
$PUCSYDIR
 10
0.0
 20
1.0
 30
0.0
  9
$PUCSORTHOREF
  2

  9
$PUCSORTHOVIEW
 70
     0
  9
$PUCSORGTOP
 10
0.0
 20
0.0
 30
0.0
  9
$PUCSORGBOTTOM
 10
0.0
 20
0.0
 30
0.0
  9
$PUCSORGLEFT
 10
0.0
 20
0.0
 30
0.0
  9
$PUCSORGRIGHT
 10
0.0
 20
0.0
 30
0.0
  9
$PUCSORGFRONT
 10
0.0
 20
0.0
 30
0.0
  9
$PUCSORGBACK
 10
0.0
 20
0.0
 30
0.0
  9
$USERI1
 70
     0
  9
$USERI2
 70
     0
  9
$USERI3
 70
     0
  9
$USERI4
 70
     0
  9
$USERI5
 70
     0
  9
$USERR1
 40
0.0
  9
$USERR2
 40
0.0
  9
$USERR3
 40
0.0
  9
$USERR4
 40
0.0
  9
$USERR5
 40
0.0
  9
$WORLDVIEW
 70
     1
  9
$SHADEDGE
 70
     3
  9
$SHADEDIF
 70
    70
  9
$TILEMODE
 70
     1
  9
$MAXACTVP
 70
    64
  9
$PINSBASE
 10
0.0
 20
0.0
 30
0.0
  9
$PLIMCHECK
 70
     0
  9
$PEXTMIN
 10
-0.5
 20
-0.5
 30
-0.5
  9
$PEXTMAX
 10
5.0
 20
5.0
 30
5.0
  9
$PLIMMIN
 10
-0.5
 20
-0.5
  9
$PLIMMAX
 10
5.0
 20
5.0
  9
$UNITMODE
 70
     0
  9
$VISRETAIN
 70
     1
  9
$PLINEGEN
 70
     0
  9
$PSLTSCALE
 70
     1
  9
$TREEDEPTH
 70
  3020
  9
$CMLSTYLE
  2
Standard
  9
$CMLJUST
 70
     0
  9
$CMLSCALE
 40
1.0
  9
$PROXYGRAPHICS
 70
     1
  9
$MEASUREMENT
 70
     1
  9
$CELWEIGHT
370
    13
  9
$ENDCAPS
280
     0
  9
$JOINSTYLE
280
     0
  9
$LWDISPLAY
290
     0
  9
$INSUNITS
 70
     4
  9
$HYPERLINKBASE
  1

  9
$STYLESHEET
  1

  9
$XEDIT
290
     1
  9
$CEPSNTYPE
380
     0
  9
$PSTYLEMODE
290
     1
  9
$FINGERPRINTGUID
  2
{2B6DDDFF-8C47-4113-AE7F-71A4187DB6E1}
  9
$VERSIONGUID
  2
{628D4B47-1DFC-F842-AA28-A351F09E5E59}
  9
$EXTNAMES
290
     1
  9
$PSVPSCALE
 40
0.0
  9
$OLESTARTUP
290
     0
  9
$SORTENTS
280
   127
  9
$INDEXCTL
280
     0
  9
$HIDETEXT
280
     1
  9
$XCLIPFRAME
290
     0
  9
$HALOGAP
280
     0
  9
$OBSCOLOR
 70
   257
  9
$OBSLTYPE
280
     0
  9
$INTERSECTIONDISPLAY
280
     0
  9
$INTERSECTIONCOLOR
 70
   257
  9
$DIMASSOC
280
     2
  9
$PROJECTNAME
  1

  0
ENDSEC
  0
SECTION
  2
CLASSES
  0
CLASS
  1
ACDBDICTIONARYWDFLT
  2
AcDbDictionaryWithDefault
  3
ObjectDBX Classes
 90
        0
 91
        1
280
     0
281
     0
  0
CLASS
  1
VISUALSTYLE
  2
AcDbVisualStyle
  3
ObjectDBX Classes
 90
     4095
 91
       24
280
     0
281
     0
  0
CLASS
  1
MATERIAL
  2
AcDbMaterial
  3
ObjectDBX Classes
 90
     1153
 91
        3
280
     0
281
     0
  0
CLASS
  1
SCALE
  2
AcDbScale
  3
ObjectDBX Classes
 90
     1153
 91
       33
280
     0
281
     0
  0
CLASS
  1
TABLESTYLE
  2
AcDbTableStyle
  3
ObjectDBX Classes
 90
     4095
 91
        1
280
     0
281
     0
  0
CLASS
  1
MLEADERSTYLE
  2
AcDbMLeaderStyle
  3
ACDB_MLEADERSTYLE_CLASS
 90
     4095
 91
        1
280
     0
281
     0
  0
CLASS
  1
SUN
  2
AcDbSun
  3
SCENEOE
 90
     1153
 91
        0
280
     0
281
     0
  0
CLASS
  1
DIMASSOC
  2
AcDbDimAssoc
  3
"AcDbDimAssoc|Product Desc:     AcDim ARX App For Dimension|Company:          Autodesk, Inc.|WEB Address:      www.autodesk.com"
 90
        0
 91
        7
280
     0
281
     0
  0
CLASS
  1
DICTIONARYVAR
  2
AcDbDictionaryVar
  3
ObjectDBX Classes
 90
        0
 91
        8
280
     0
281
     0
  0
CLASS
  1
CELLSTYLEMAP
  2
AcDbCellStyleMap
  3
ObjectDBX Classes
 90
     1152
 91
        2
280
     0
281
     0
  0
CLASS
  1
ACDBSECTIONVIEWSTYLE
  2
AcDbSectionViewStyle
  3
ObjectDBX Classes
 90
     1025
 91
        1
280
     0
281
     0
  0
CLASS
  1
ACDBDETAILVIEWSTYLE
  2
AcDbDetailViewStyle
  3
ObjectDBX Classes
 90
     1025
 91
        1
280
     0
281
     0
  0
CLASS
  1
SORTENTSTABLE
  2
AcDbSortentsTable
  3
ObjectDBX Classes
 90
        0
 91
        1
280
     0
281
     0
  0
ENDSEC
  0
SECTION
  2
TABLES
  0
TABLE
  2
VPORT
  5
8
330
0
100
AcDbSymbolTable
 70
    16
  0
VPORT
  5
29
330
8
100
AcDbSymbolTableRecord
100
AcDbViewportTableRecord
  2
*Active
 70
     0
 10
0.0
 20
0.0
 11
1.0
 21
1.0
 12
358.8037008222217
 22
306.9980054738413
 13
0.0
 23
0.0
 14
0.5
 24
0.5
 15
0.5
 25
0.5
 16
0.0
 26
0.0
 36
1.0
 17
0.0
 27
0.0
 37
0.0
 40
202.5677753152506
 41
2.292712066905615
 42
50.0
 43
493.373709
 44
-493.373709
 50
0.0
 51
0.0
 71
     0
 72
   100
 73
     1
 74
     3
 75
     0
 76
     0
 77
     0
 78
     0
281
     0
 65
     1
110
274.404842
120
288.907994
130
0.0
111
1.0
121
0.0
131
0.0
112
0.0
122
1.0
132
0.0
 79
     0
146
0.0
1001
ACAD_NAV_VCDISPLAY
1070
     3
  0
VPORT
  5
29E
330
8
100
AcDbSymbolTableRecord
100
AcDbViewportTableRecord
  2
L1
 70
     0
 10
0.0
 20
0.0
 11
1.0
 21
1.0
 12
328.416206
 22
232.97481
 13
0.0
 23
0.0
 14
0.5
 24
0.5
 15
0.5
 25
0.5
 16
0.0
 26
0.0
 36
1.0
 17
0.0
 27
0.0
 37
0.0
 40
207.433333
 41
0.085602
 42
50.0
 43
493.373709
 44
-493.373709
 50
0.0
 51
0.0
 71
     0
 72
   100
 73
     1
 74
     3
 75
     0
 76
     0
 77
     0
 78
     0
281
     0
 65
     1
110
0.0
120
0.0
130
0.0
111
1.0
121
0.0
131
0.0
112
0.0
122
1.0
132
0.0
 79
     0
146
0.0
  0
VPORT
  5
29F
330
8
100
AcDbSymbolTableRecord
100
AcDbViewportTableRecord
  2
L2
 70
     0
 10
0.0
 20
0.0
 11
0.5
 21
1.0
 12
0.0
 22
0.0
 13
0.0
 23
0.0
 14
0.5
 24
0.5
 15
0.5
 25
0.5
 16
0.0
 26
-1.0
 36
0.0
 17
0.0
 27
0.0
 37
0.0
 40
1316.18997
 41
0.013491
 42
50.0
 43
678.00864
 44
-678.00864
 50
0.0
 51
0.0
 71
     0
 72
   100
 73
     1
 74
     3
 75
     0
 76
     0
 77
     0
 78
     0
281
     0
 65
     1
110
0.0
120
0.0
130
0.0
111
1.0
121
0.0
131
0.0
112
0.0
122
1.0
132
0.0
 79
     0
146
0.0
  0
VPORT
  5
2A0
330
8
100
AcDbSymbolTableRecord
100
AcDbViewportTableRecord
  2
L2
 70
     0
 10
0.5
 20
0.0
 11
1.0
 21
1.0
 12
0.0
 22
0.0
 13
0.0
 23
0.0
 14
0.5
 24
0.5
 15
0.5
 25
0.5
 16
1.0
 26
0.0
 36
0.0
 17
0.0
 27
0.0
 37
0.0
 40
1316.18997
 41
0.013491
 42
50.0
 43
666.2177989999999
 44
-666.2177989999999
 50
0.0
 51
0.0
 71
     0
 72
   100
 73
     1
 74
     3
 75
     0
 76
     0
 77
     0
 78
     0
281
     0
 65
     1
110
0.0
120
0.0
130
0.0
111
1.0
121
0.0
131
0.0
112
0.0
122
1.0
132
0.0
 79
     0
146
0.0
  0
VPORT
  5
2A1
330
8
100
AcDbSymbolTableRecord
100
AcDbViewportTableRecord
  2
L3
 70
     0
 10
0.0
 20
0.5
 11
1.0
 21
1.0
 12
328.416206
 22
232.97481
 13
0.0
 23
0.0
 14
0.5
 24
0.5
 15
0.5
 25
0.5
 16
0.0
 26
0.0
 36
1.0
 17
0.0
 27
0.0
 37
0.0
 40
207.433333
 41
0.085602
 42
50.0
 43
493.373709
 44
-493.373709
 50
0.0
 51
0.0
 71
     0
 72
   100
 73
     1
 74
     3
 75
     0
 76
     0
 77
     0
 78
     0
281
     0
 65
     1
110
0.0
120
0.0
130
0.0
111
1.0
121
0.0
131
0.0
112
0.0
122
1.0
132
0.0
 79
     0
146
0.0
  0
VPORT
  5
2A2
330
8
100
AcDbSymbolTableRecord
100
AcDbViewportTableRecord
  2
L3
 70
     0
 10
0.0
 20
0.0
 11
1.0
 21
0.5
 12
0.0
 22
0.0
 13
0.0
 23
0.0
 14
0.5
 24
0.5
 15
0.5
 25
0.5
 16
0.0
 26
-1.0
 36
0.0
 17
0.0
 27
0.0
 37
0.0
 40
1316.18997
 41
0.013491
 42
50.0
 43
678.00864
 44
-678.00864
 50
0.0
 51
0.0
 71
     0
 72
   100
 73
     1
 74
     3
 75
     0
 76
     0
 77
     0
 78
     0
281
     0
 65
     1
110
0.0
120
0.0
130
0.0
111
1.0
121
0.0
131
0.0
112
0.0
122
1.0
132
0.0
 79
     0
146
0.0
  0
VPORT
  5
2A3
330
8
100
AcDbSymbolTableRecord
100
AcDbViewportTableRecord
  2
L4
 70
     0
 10
0.0
 20
0.5
 11
0.5
 21
1.0
 12
328.416206
 22
232.97481
 13
0.0
 23
0.0
 14
0.5
 24
0.5
 15
0.5
 25
0.5
 16
0.0
 26
0.0
 36
1.0
 17
0.0
 27
0.0
 37
0.0
 40
207.433333
 41
0.085602
 42
50.0
 43
493.373709
 44
-493.373709
 50
0.0
 51
0.0
 71
     0
 72
   100
 73
     1
 74
     3
 75
     0
 76
     0
 77
     0
 78
     0
281
     0
 65
     1
110
0.0
120
0.0
130
0.0
111
1.0
121
0.0
131
0.0
112
0.0
122
1.0
132
0.0
 79
     0
146
0.0
  0
VPORT
  5
2A4
330
8
100
AcDbSymbolTableRecord
100
AcDbViewportTableRecord
  2
L4
 70
     0
 10
0.0
 20
0.0
 11
0.5
 21
0.5
 12
0.0
 22
0.0
 13
0.0
 23
0.0
 14
0.5
 24
0.5
 15
0.5
 25
0.5
 16
0.0
 26
-1.0
 36
0.0
 17
0.0
 27
0.0
 37
0.0
 40
1316.18997
 41
0.013491
 42
50.0
 43
678.00864
 44
-678.00864
 50
0.0
 51
0.0
 71
     0
 72
   100
 73
     1
 74
     3
 75
     0
 76
     0
 77
     0
 78
     0
281
     0
 65
     1
110
0.0
120
0.0
130
0.0
111
1.0
121
0.0
131
0.0
112
0.0
122
1.0
132
0.0
 79
     0
146
0.0
  0
VPORT
  5
2A5
330
8
100
AcDbSymbolTableRecord
100
AcDbViewportTableRecord
  2
L4
 70
     0
 10
0.5
 20
0.0
 11
1.0
 21
0.5
 12
0.0
 22
0.0
 13
0.0
 23
0.0
 14
0.5
 24
0.5
 15
0.5
 25
0.5
 16
1.0
 26
0.0
 36
0.0
 17
0.0
 27
0.0
 37
0.0
 40
1316.18997
 41
0.013491
 42
50.0
 43
666.2177989999999
 44
-666.2177989999999
 50
0.0
 51
0.0
 71
     0
 72
   100
 73
     1
 74
     3
 75
     0
 76
     0
 77
     0
 78
     0
281
     0
 65
     1
110
0.0
120
0.0
130
0.0
111
1.0
121
0.0
131
0.0
112
0.0
122
1.0
132
0.0
 79
     0
146
0.0
  0
VPORT
  5
2A6
330
8
100
AcDbSymbolTableRecord
100
AcDbViewportTableRecord
  2
L4
 70
     0
 10
0.5
 20
0.5
 11
1.0
 21
1.0
 12
0.0
 22
0.0
 13
0.0
 23
0.0
 14
0.5
 24
0.5
 15
0.5
 25
0.5
 16
0.5773502691896259
 26
-0.5773502691896259
 36
0.5773502691896259
 17
0.0
 27
0.0
 37
0.0
 40
1292.532264
 41
0.013738
 42
50.0
 43
673.245608
 44
-673.245608
 50
0.0
 51
0.0
 71
     0
 72
   100
 73
     1
 74
     3
 75
     0
 76
     0
 77
     0
 78
     0
281
     0
 65
     1
110
0.0
120
0.0
130
0.0
111
1.0
121
0.0
131
0.0
112
0.0
122
1.0
132
0.0
 79
     0
146
0.0
  0
VPORT
  5
2A7
330
8
100
AcDbSymbolTableRecord
100
AcDbViewportTableRecord
  2
L6
 70
     0
 10
0.0
 20
0.5
 11
0.333333
 21
1.0
 12
0.0
 22
0.0
 13
0.0
 23
0.0
 14
0.5
 24
0.5
 15
0.5
 25
0.5
 16
0.7188730927569434
 26
-0.5850486126764433
 36
0.3754192287502549
 17
0.0
 27
0.0
 37
0.0
 40
1364.064247
 41
0.013018
 42
50.0
 43
706.2613849999999
 44
-706.2613849999999
 50
0.0
 51
0.0
 71
     0
 72
   100
 73
     1
 74
     3
 75
     0
 76
     0
 77
     0
 78
     0
281
     0
 65
     1
110
0.0
120
0.0
130
0.0
111
1.0
121
0.0
131
0.0
112
0.0
122
1.0
132
0.0
 79
     0
146
0.0
  0
VPORT
  5
2A8
330
8
100
AcDbSymbolTableRecord
100
AcDbViewportTableRecord
  2
L6
 70
     0
 10
0.0
 20
0.0
 11
0.333333
 21
0.5
 12
0.0
 22
0.0
 13
0.0
 23
0.0
 14
0.5
 24
0.5
 15
0.5
 25
0.5
 16
-1.0
 26
0.0
 36
0.0
 17
0.0
 27
0.0
 37
0.0
 40
1316.18997
 41
0.013491
 42
50.0
 43
666.2177989999999
 44
-666.2177989999999
 50
0.0
 51
0.0
 71
     0
 72
   100
 73
     1
 74
     3
 75
     0
 76
     0
 77
     0
 78
     0
281
     0
 65
     1
110
0.0
120
0.0
130
0.0
111
1.0
121
0.0
131
0.0
112
0.0
122
1.0
132
0.0
 79
     0
146
0.0
  0
VPORT
  5
2A9
330
8
100
AcDbSymbolTableRecord
100
AcDbViewportTableRecord
  2
L6
 70
     0
 10
0.333333
 20
0.5
 11
0.666667
 21
1.0
 12
328.416206
 22
232.97481
 13
0.0
 23
0.0
 14
0.5
 24
0.5
 15
0.5
 25
0.5
 16
0.0
 26
0.0
 36
1.0
 17
0.0
 27
0.0
 37
0.0
 40
207.433333
 41
0.085602
 42
50.0
 43
493.373709
 44
-493.373709
 50
0.0
 51
0.0
 71
     0
 72
   100
 73
     1
 74
     3
 75
     0
 76
     0
 77
     0
 78
     0
281
     0
 65
     1
110
0.0
120
0.0
130
0.0
111
1.0
121
0.0
131
0.0
112
0.0
122
1.0
132
0.0
 79
     0
146
0.0
  0
VPORT
  5
2AA
330
8
100
AcDbSymbolTableRecord
100
AcDbViewportTableRecord
  2
L6
 70
     0
 10
0.333333
 20
0.0
 11
0.666667
 21
0.5
 12
0.0
 22
0.0
 13
0.0
 23
0.0
 14
0.5
 24
0.5
 15
0.5
 25
0.5
 16
0.0
 26
-1.0
 36
0.0
 17
0.0
 27
0.0
 37
0.0
 40
1316.18997
 41
0.013491
 42
50.0
 43
678.00864
 44
-678.00864
 50
0.0
 51
0.0
 71
     0
 72
   100
 73
     1
 74
     3
 75
     0
 76
     0
 77
     0
 78
     0
281
     0
 65
     1
110
0.0
120
0.0
130
0.0
111
1.0
121
0.0
131
0.0
112
0.0
122
1.0
132
0.0
 79
     0
146
0.0
  0
VPORT
  5
2AB
330
8
100
AcDbSymbolTableRecord
100
AcDbViewportTableRecord
  2
L6
 70
     0
 10
0.666667
 20
0.5
 11
1.0
 21
1.0
 12
0.0
 22
0.0
 13
0.0
 23
0.0
 14
0.5
 24
0.5
 15
0.5
 25
0.5
 16
0.5773502691896259
 26
-0.5773502691896259
 36
0.5773502691896259
 17
0.0
 27
0.0
 37
0.0
 40
1292.532264
 41
0.013738
 42
50.0
 43
673.245608
 44
-673.245608
 50
0.0
 51
0.0
 71
     0
 72
   100
 73
     1
 74
     3
 75
     0
 76
     0
 77
     0
 78
     0
281
     0
 65
     1
110
0.0
120
0.0
130
0.0
111
1.0
121
0.0
131
0.0
112
0.0
122
1.0
132
0.0
 79
     0
146
0.0
  0
VPORT
  5
2AC
330
8
100
AcDbSymbolTableRecord
100
AcDbViewportTableRecord
  2
L6
 70
     0
 10
0.666667
 20
0.0
 11
1.0
 21
0.5
 12
0.0
 22
0.0
 13
0.0
 23
0.0
 14
0.5
 24
0.5
 15
0.5
 25
0.5
 16
1.0
 26
0.0
 36
0.0
 17
0.0
 27
0.0
 37
0.0
 40
1316.18997
 41
0.013491
 42
50.0
 43
666.2177989999999
 44
-666.2177989999999
 50
0.0
 51
0.0
 71
     0
 72
   100
 73
     1
 74
     3
 75
     0
 76
     0
 77
     0
 78
     0
281
     0
 65
     1
110
0.0
120
0.0
130
0.0
111
1.0
121
0.0
131
0.0
112
0.0
122
1.0
132
0.0
 79
     0
146
0.0
  0
ENDTAB
  0
TABLE
  2
LTYPE
  5
5
330
0
100
AcDbSymbolTable
 70
     7
  0
LTYPE
  5
14
330
5
100
AcDbSymbolTableRecord
100
AcDbLinetypeTableRecord
  2
ByBlock
 70
     0
  3

 72
    65
 73
     0
 40
0.0
  0
LTYPE
  5
15
330
5
100
AcDbSymbolTableRecord
100
AcDbLinetypeTableRecord
  2
ByLayer
 70
     0
  3

 72
    65
 73
     0
 40
0.0
  0
LTYPE
  5
16
330
5
100
AcDbSymbolTableRecord
100
AcDbLinetypeTableRecord
  2
Continuous
 70
     0
  3
Solid line
 72
    65
 73
     0
 40
0.0
  0
LTYPE
  5
6E
330
5
100
AcDbSymbolTableRecord
100
AcDbLinetypeTableRecord
  2
CENTER
 70
     0
  3
____ _ ____ _ ____ _ ____
 72
    65
 73
     4
 40
47.4
 49
22.0
 74
     4
 75
     0
340
0
 46
0.0
 50
0.0
 44
0.0
 45
0.0
 49
-8.5
 74
     4
 75
     0
340
0
 46
0.0
 50
0.0
 44
0.0
 45
0.0
 49
8.5
 74
     4
 75
     0
340
0
 46
0.0
 50
0.0
 44
0.0
 45
0.0
 49
-8.5
 74
     4
 75
     0
340
0
 46
0.0
 50
0.0
 44
0.0
 45
0.0
  0
LTYPE
  5
6F
330
5
100
AcDbSymbolTableRecord
100
AcDbLinetypeTableRecord
  2
DASHDOT
 70
     0
  3
_._._._._._._._._._._._._._._._.
 72
    65
 73
     4
 40
70.0
 49
31.0
 74
     4
 75
     0
340
0
 46
0.0
 50
0.0
 44
0.0
 45
0.0
 49
-13.0
 74
     4
 75
     0
340
0
 46
0.0
 50
0.0
 44
0.0
 45
0.0
 49
13.0
 74
     4
 75
     0
340
0
 46
0.0
 50
0.0
 44
0.0
 45
0.0
 49
-13.0
 74
     4
 75
     0
340
0
 46
0.0
 50
0.0
 44
0.0
 45
0.0
  0
LTYPE
  5
70
330
5
100
AcDbSymbolTableRecord
100
AcDbLinetypeTableRecord
  2
DASHED
 70
     0
  3
__ __ __ __ __ __ __ __ __
 72
    65
 73
     2
 40
25.72
 49
12.86
 74
     4
 75
     0
340
0
 46
0.0
 50
0.0
 44
0.0
 45
0.0
 49
-12.86
 74
     4
 75
     0
340
0
 46
0.0
 50
0.0
 44
0.0
 45
0.0
  0
LTYPE
  5
71
330
5
100
AcDbSymbolTableRecord
100
AcDbLinetypeTableRecord
  2
DOT
 70
     0
  3
.........................
 72
    65
 73
     2
 40
10.0
 49
0.0
 74
     4
 75
     0
340
0
 46
0.0
 50
0.0
 44
0.0
 45
0.0
 49
-10.0
 74
     4
 75
     0
340
0
 46
0.0
 50
0.0
 44
0.0
 45
0.0
  0
LTYPE
  5
72
330
5
100
AcDbSymbolTableRecord
100
AcDbLinetypeTableRecord
  2
PHANTOM
 70
     0
  3
____ _ _ ____ _ _ _____ _ _ ____
 72
    65
 73
     6
 40
50.5
 49
18.0
 74
     4
 75
     0
340
0
 46
0.0
 50
0.0
 44
0.0
 45
0.0
 49
-6.5
 74
     4
 75
     0
340
0
 46
0.0
 50
0.0
 44
0.0
 45
0.0
 49
6.5
 74
     4
 75
     0
340
0
 46
0.0
 50
0.0
 44
0.0
 45
0.0
 49
-6.5
 74
     4
 75
     0
340
0
 46
0.0
 50
0.0
 44
0.0
 45
0.0
 49
6.5
 74
     4
 75
     0
340
0
 46
0.0
 50
0.0
 44
0.0
 45
0.0
 49
-6.5
 74
     4
 75
     0
340
0
 46
0.0
 50
0.0
 44
0.0
 45
0.0
  0
LTYPE
  5
33C
330
5
100
AcDbSymbolTableRecord
100
AcDbLinetypeTableRecord
  2
CENTER2
 70
     0
  3
Center (.5x) ___ _ ___ _ ___ _ ___ _ ___ _ ___
 72
    65
 73
     4
 40
1.125
 49
0.75
 74
     0
 49
-0.125
 74
     0
 49
0.125
 74
     0
 49
-0.125
 74
     0
  0
ENDTAB
  0
TABLE
  2
LAYER
  5
2
330
0
100
AcDbSymbolTable
 70
    22
  0
LAYER
  5
10
102
{ACAD_XDICTIONARY
360
347
102
}
330
2
100
AcDbSymbolTableRecord
100
AcDbLayerTableRecord
  2
0
 70
     0
 62
     7
  6
Continuous
370
    -3
390
F
  0
LAYER
  5
1F8
330
2
100
AcDbSymbolTableRecord
100
AcDbLayerTableRecord
  2
Defpoints
 70
     0
 62
     7
  6
Continuous
290
     0
370
    -3
390
F
  0
LAYER
  5
339
102
{ACAD_XDICTIONARY
360
349
102
}
330
2
100
AcDbSymbolTableRecord
100
AcDbLayerTableRecord
  2
1
 70
     0
 62
     4
  6
Continuous
370
    -3
390
F
  0
LAYER
  5
33A
102
{ACAD_XDICTIONARY
360
34B
102
}
330
2
100
AcDbSymbolTableRecord
100
AcDbLayerTableRecord
  2
2
 70
     0
 62
     7
  6
Continuous
370
    -3
390
F
  0
LAYER
  5
33B
102
{ACAD_XDICTIONARY
360
34D
102
}
330
2
100
AcDbSymbolTableRecord
100
AcDbLayerTableRecord
  2
4
 70
     0
 62
     2
  6
CENTER2
370
    -3
390
F
  0
LAYER
  5
33D
102
{ACAD_XDICTIONARY
360
34F
102
}
330
2
100
AcDbSymbolTableRecord
100
AcDbLayerTableRecord
  2
SK1
 70
     0
 62
     4
  6
Continuous
370
    -3
390
F
  0
LAYER
  5
33E
102
{ACAD_XDICTIONARY
360
351
102
}
330
2
100
AcDbSymbolTableRecord
100
AcDbLayerTableRecord
  2
SK2
 70
     0
 62
     7
  6
Continuous
370
    -3
390
F
  0
LAYER
  5
340
102
{ACAD_XDICTIONARY
360
353
102
}
330
2
100
AcDbSymbolTableRecord
100
AcDbLayerTableRecord
  2
SK4
 70
     0
 62
     2
  6
CENTER2
370
    -3
390
F
  0
LAYER
  5
341
102
{ACAD_XDICTIONARY
360
355
102
}
330
2
100
AcDbSymbolTableRecord
100
AcDbLayerTableRecord
  2
SK6
 70
     0
 62
     5
  6
Continuous
370
    -3
390
F
  0
LAYER
  5
342
102
{ACAD_XDICTIONARY
360
357
102
}
330
2
100
AcDbSymbolTableRecord
100
AcDbLayerTableRecord
  2
CUT
 70
     0
 62
     1
  6
Continuous
370
    -3
390
F
  0
LAYER
  5
343
102
{ACAD_XDICTIONARY
360
359
102
}
330
2
100
AcDbSymbolTableRecord
100
AcDbLayerTableRecord
  2
NOCUT
 70
     0
 62
     7
  6
Continuous
370
    -3
390
F
  0
LAYER
  5
344
102
{ACAD_XDICTIONARY
360
35B
102
}
330
2
100
AcDbSymbolTableRecord
100
AcDbLayerTableRecord
  2
80
 70
     0
 62
     6
  6
Continuous
370
    -3
390
F
  0
LAYER
  5
345
102
{ACAD_XDICTIONARY
360
35D
102
}
330
2
100
AcDbSymbolTableRecord
100
AcDbLayerTableRecord
  2
81
 70
     0
 62
     3
  6
Continuous
370
    -3
390
F
  0
ENDTAB
  0
TABLE
  2
STYLE
  5
3
330
0
100
AcDbSymbolTable
 70
     3
  0
STYLE
  5
11
330
3
100
AcDbSymbolTableRecord
100
AcDbTextStyleTableRecord
  2
Standard
 70
     0
 40
0.0
 41
1.0
 50
0.0
 71
     0
 42
0.2
  3
txt
  4

  0
STYLE
  5
1F1
330
3
100
AcDbSymbolTableRecord
100
AcDbTextStyleTableRecord
  2
cesky
 70
     0
 40
0.0
 41
1.0
 50
0.0
 71
     0
 42
0.2
  3
simplex.shx
  4

  0
STYLE
  5
1F2
330
3
100
AcDbSymbolTableRecord
100
AcDbTextStyleTableRecord
  2
DWGDirectTextStyle
 70
     0
 40
0.0
 41
1.0
 50
0.0
 71
     0
 42
0.2
  3
simplex
  4

  0
ENDTAB
  0
TABLE
  2
VIEW
  5
6
330
0
100
AcDbSymbolTable
 70
     0
  0
ENDTAB
  0
TABLE
  2
UCS
  5
7
330
0
100
AcDbSymbolTable
 70
     0
  0
ENDTAB
  0
TABLE
  2
APPID
  5
9
330
0
100
AcDbSymbolTable
 70
     7
  0
APPID
  5
12
330
9
100
AcDbSymbolTableRecord
100
AcDbRegAppTableRecord
  2
ACAD
 70
     0
  0
APPID
  5
1F4
330
9
100
AcDbSymbolTableRecord
100
AcDbRegAppTableRecord
  2
ACAD_DSTYLE_DIMBREAK
 70
     0
  0
APPID
  5
2AD
330
9
100
AcDbSymbolTableRecord
100
AcDbRegAppTableRecord
  2
ACAD_DSTYLE_DIM_LINETYPE
 70
     0
  0
APPID
  5
2AE
330
9
100
AcDbSymbolTableRecord
100
AcDbRegAppTableRecord
  2
ACAD_DSTYLE_DIM_EXT1_LINETYPE
 70
     0
  0
APPID
  5
2AF
330
9
100
AcDbSymbolTableRecord
100
AcDbRegAppTableRecord
  2
ACAD_DSTYLE_DIM_EXT2_LINETYPE
 70
     0
  0
APPID
  5
2EF
330
9
100
AcDbSymbolTableRecord
100
AcDbRegAppTableRecord
  2
ACAD_MLEADERVER
 70
     0
  0
APPID
  5
362
330
9
100
AcDbSymbolTableRecord
100
AcDbRegAppTableRecord
  2
ACAD_NAV_VCDISPLAY
 70
     0
  0
ENDTAB
  0
TABLE
  2
DIMSTYLE
  5
A
330
0
100
AcDbSymbolTable
 70
     1
100
AcDbDimStyleTable
 71
     0
  0
DIMSTYLE
105
27
330
A
100
AcDbSymbolTableRecord
100
AcDbDimStyleTableRecord
  2
Standard
 70
     0
340
11
1001
ACAD_DSTYLE_DIMBREAK
1070
   391
1040
6.349999999999999
  0
ENDTAB
  0
TABLE
  2
BLOCK_RECORD
  5
1
330
0
100
AcDbSymbolTable
 70
    16
  0
BLOCK_RECORD
  5
1F
102
{ACAD_XDICTIONARY
360
2FF
102
}
330
1
100
AcDbSymbolTableRecord
100
AcDbBlockTableRecord
  2
*Model_Space
340
22
  0
BLOCK_RECORD
  5
1B
330
1
100
AcDbSymbolTableRecord
100
AcDbBlockTableRecord
  2
*Paper_Space
340
1E
  0
BLOCK_RECORD
  5
23
330
1
100
AcDbSymbolTableRecord
100
AcDbBlockTableRecord
  2
*Paper_Space0
340
26
  0
BLOCK_RECORD
  5
1EB
330
1
100
AcDbSymbolTableRecord
100
AcDbBlockTableRecord
  2
ASSORTED_DRAFT1
340
0
  0
BLOCK_RECORD
  5
1F9
330
1
100
AcDbSymbolTableRecord
100
AcDbBlockTableRecord
  2
*D2
340
0
  0
BLOCK_RECORD
  5
205
330
1
100
AcDbSymbolTableRecord
100
AcDbBlockTableRecord
  2
_U0
340
0
  0
BLOCK_RECORD
  5
211
330
1
100
AcDbSymbolTableRecord
100
AcDbBlockTableRecord
  2
*D4
340
0
  0
BLOCK_RECORD
  5
21D
330
1
100
AcDbSymbolTableRecord
100
AcDbBlockTableRecord
  2
_U1
340
0
  0
BLOCK_RECORD
  5
229
330
1
100
AcDbSymbolTableRecord
100
AcDbBlockTableRecord
  2
*D6
340
0
  0
BLOCK_RECORD
  5
235
330
1
100
AcDbSymbolTableRecord
100
AcDbBlockTableRecord
  2
_U2
340
0
  0
BLOCK_RECORD
  5
241
330
1
100
AcDbSymbolTableRecord
100
AcDbBlockTableRecord
  2
*D8
340
0
  0
BLOCK_RECORD
  5
24D
330
1
100
AcDbSymbolTableRecord
100
AcDbBlockTableRecord
  2
_U3
340
0
  0
BLOCK_RECORD
  5
259
330
1
100
AcDbSymbolTableRecord
100
AcDbBlockTableRecord
  2
*D10
340
0
  0
BLOCK_RECORD
  5
264
330
1
100
AcDbSymbolTableRecord
100
AcDbBlockTableRecord
  2
_U4
340
0
  0
BLOCK_RECORD
  5
26F
330
1
100
AcDbSymbolTableRecord
100
AcDbBlockTableRecord
  2
*D12
340
0
  0
BLOCK_RECORD
  5
27B
330
1
100
AcDbSymbolTableRecord
100
AcDbBlockTableRecord
  2
_U5
340
0
  0
BLOCK_RECORD
  5
288
330
1
100
AcDbSymbolTableRecord
100
AcDbBlockTableRecord
  2
*D14
340
0
  0
BLOCK_RECORD
  5
294
330
1
100
AcDbSymbolTableRecord
100
AcDbBlockTableRecord
  2
_U6
340
0
  0
ENDTAB
  0
ENDSEC
  0
SECTION
  2
BLOCKS
  0
BLOCK
  5
20
330
1F
100
AcDbEntity
  8
0
100
AcDbBlockBegin
  2
*Model_Space
 70
     0
 10
0.0
 20
0.0
 30
0.0
  3
*Model_Space
  1

  0
ENDBLK
  5
21
330
1F
100
AcDbEntity
  8
0
100
AcDbBlockEnd
  0
BLOCK
  5
1C
330
1B
100
AcDbEntity
 67
     1
  8
0
100
AcDbBlockBegin
  2
*Paper_Space
 70
     0
 10
0.0
 20
0.0
 30
0.0
  3
*Paper_Space
  1

  0
ENDBLK
  5
1D
330
1B
100
AcDbEntity
 67
     1
  8
0
100
AcDbBlockEnd
  0
BLOCK
  5
24
330
23
100
AcDbEntity
 67
     1
  8
0
100
AcDbBlockBegin
  2
*Paper_Space0
 70
     0
 10
0.0
 20
0.0
 30
0.0
  3
*Paper_Space0
  1

  0
ENDBLK
  5
25
330
23
100
AcDbEntity
 67
     1
  8
0
100
AcDbBlockEnd
  0
BLOCK
  5
1EE
330
1EB
100
AcDbEntity
  8
0
100
AcDbBlockBegin
  2
ASSORTED_DRAFT1
 70
     0
 10
0.0
 20
0.0
 30
0.0
  3
ASSORTED_DRAFT1
  1

  0
SOLID
  5
1EC
330
1EB
100
AcDbEntity
  8
0
 62
   254
370
    13
100
AcDbTrace
 10
270.185042
 20
164.534924
 30
0.0
 11
265.185046
 21
163.42645
 31
0.0
 12
265.1850379999999
 22
165.643397
 32
0.0
 13
270.185042
 23
164.534924
 33
0.0
  0
ENDBLK
  5
1EF
330
1EB
100
AcDbEntity
  8
0
100
AcDbBlockEnd
  0
BLOCK
  5
1FA
330
1F9
100
AcDbEntity
  8
0
100
AcDbBlockBegin
  2
*D2
 70
     1
 10
0.0
 20
0.0
 30
0.0
  3
*D2
  1

  0
LINE
  5
1FC
330
1F9
100
AcDbEntity
  8
0
 62
   254
370
    -2
100
AcDbLine
 10
274.404842
 20
288.907994
 30
0.0
 11
274.404842
 21
330.17035
 31
0.0
  0
LINE
  5
1FD
330
1F9
100
AcDbEntity
  8
0
 62
   254
370
    -2
100
AcDbLine
 10
214.404842
 20
295.907994
 30
0.0
 11
214.404842
 21
330.17035
 31
0.0
  0
LINE
  5
1FE
330
1F9
100
AcDbEntity
  8
0
 62
   254
370
    -2
100
AcDbLine
 10
270.904842
 20
329.17035
 30
0.0
 11
217.904842
 21
329.17035
 31
0.0
  0
SOLID
  5
1FF
330
1F9
100
AcDbEntity
  8
0
 62
   254
100
AcDbTrace
 10
270.904842
 20
328.587017
 30
0.0
 11
270.904842
 21
329.753684
 31
0.0
 12
274.404842
 22
329.17035
 32
0.0
 13
274.404842
 23
329.17035
 33
0.0
  0
SOLID
  5
200
330
1F9
100
AcDbEntity
  8
0
 62
   254
100
AcDbTrace
 10
217.904842
 20
329.753684
 30
0.0
 11
217.904842
 21
328.587017
 31
0.0
 12
214.404842
 22
329.17035
 32
0.0
 13
214.404842
 23
329.17035
 33
0.0
  0
MTEXT
  5
201
330
1F9
100
AcDbEntity
  8
0
 62
   254
370
    13
100
AcDbMText
 10
244.404842
 20
334.42035
 30
0.0
 40
3.5
 41
0.0
 71
     5
 72
     1
  1
\A1;60
  7
cesky
 73
     1
 44
1.0
  0
POINT
  5
202
330
1F9
100
AcDbEntity
  8
Defpoints
 62
     0
100
AcDbPoint
 10
274.404842
 20
288.907994
 30
0.0
  0
POINT
  5
203
330
1F9
100
AcDbEntity
  8
Defpoints
 62
     0
100
AcDbPoint
 10
214.404842
 20
295.907994
 30
0.0
  0
POINT
  5
204
330
1F9
100
AcDbEntity
  8
Defpoints
 62
     0
100
AcDbPoint
 10
214.404842
 20
329.17035
 30
0.0
  0
ENDBLK
  5
1FB
330
1F9
100
AcDbEntity
  8
0
100
AcDbBlockEnd
  0
BLOCK
  5
20C
330
205
100
AcDbEntity
  8
0
100
AcDbBlockBegin
  2
_U0
 70
     0
 10
0.0
 20
0.0
 30
0.0
  3
_U0
  1

  0
ENDBLK
  5
20D
330
205
100
AcDbEntity
  8
0
100
AcDbBlockEnd
  0
BLOCK
  5
212
330
211
100
AcDbEntity
  8
0
100
AcDbBlockBegin
  2
*D4
 70
     1
 10
0.0
 20
0.0
 30
0.0
  3
*D4
  1

  0
LINE
  5
214
330
211
100
AcDbEntity
  8
0
 62
   254
370
    -2
100
AcDbLine
 10
454.404842
 20
304.407994
 30
0.0
 11
454.404842
 21
315.595905
 31
0.0
  0
LINE
  5
215
330
211
100
AcDbEntity
  8
0
 62
   254
370
    -2
100
AcDbLine
 10
291.423675
 20
304.718349
 30
0.0
 11
291.423675
 21
315.595905
 31
0.0
  0
LINE
  5
216
330
211
100
AcDbEntity
  8
0
 62
   254
370
    -2
100
AcDbLine
 10
450.904842
 20
314.595905
 30
0.0
 11
294.923675
 21
314.595905
 31
0.0
  0
SOLID
  5
217
330
211
100
AcDbEntity
  8
0
 62
   254
100
AcDbTrace
 10
450.904842
 20
314.012571
 30
0.0
 11
450.904842
 21
315.179238
 31
0.0
 12
454.404842
 22
314.595905
 32
0.0
 13
454.404842
 23
314.595905
 33
0.0
  0
SOLID
  5
218
330
211
100
AcDbEntity
  8
0
 62
   254
100
AcDbTrace
 10
294.923675
 20
315.179238
 30
0.0
 11
294.923675
 21
314.012571
 31
0.0
 12
291.423675
 22
314.595905
 32
0.0
 13
291.423675
 23
314.595905
 33
0.0
  0
MTEXT
  5
219
330
211
100
AcDbEntity
  8
0
 62
   254
370
    13
100
AcDbMText
 10
372.914258
 20
319.845905
 30
0.0
 40
3.5
 41
0.0
 71
     5
 72
     1
  1
\A1;163
  7
cesky
 73
     1
 44
1.0
  0
POINT
  5
21A
330
211
100
AcDbEntity
  8
Defpoints
 62
     0
100
AcDbPoint
 10
454.404842
 20
304.407994
 30
0.0
  0
POINT
  5
21B
330
211
100
AcDbEntity
  8
Defpoints
 62
     0
100
AcDbPoint
 10
291.423675
 20
304.718349
 30
0.0
  0
POINT
  5
21C
330
211
100
AcDbEntity
  8
Defpoints
 62
     0
100
AcDbPoint
 10
291.423675
 20
314.595905
 30
0.0
  0
ENDBLK
  5
213
330
211
100
AcDbEntity
  8
0
100
AcDbBlockEnd
  0
BLOCK
  5
224
330
21D
100
AcDbEntity
  8
0
100
AcDbBlockBegin
  2
_U1
 70
     0
 10
0.0
 20
0.0
 30
0.0
  3
_U1
  1

  0
ENDBLK
  5
225
330
21D
100
AcDbEntity
  8
0
100
AcDbBlockEnd
  0
BLOCK
  5
22A
330
229
100
AcDbEntity
  8
0
100
AcDbBlockBegin
  2
*D6
 70
     1
 10
0.0
 20
0.0
 30
0.0
  3
*D6
  1

  0
LINE
  5
22C
330
229
100
AcDbEntity
  8
0
 62
   254
370
    -2
100
AcDbLine
 10
454.404842
 20
306.407994
 30
0.0
 11
454.404842
 21
344.155687
 31
0.0
  0
LINE
  5
22D
330
229
100
AcDbEntity
  8
0
 62
   254
370
    -2
100
AcDbLine
 10
214.404842
 20
302.907994
 30
0.0
 11
214.404842
 21
344.155687
 31
0.0
  0
LINE
  5
22E
330
229
100
AcDbEntity
  8
0
 62
   254
370
    -2
100
AcDbLine
 10
450.904842
 20
343.155687
 30
0.0
 11
217.904842
 21
343.155687
 31
0.0
  0
SOLID
  5
22F
330
229
100
AcDbEntity
  8
0
 62
   254
100
AcDbTrace
 10
450.904842
 20
342.572354
 30
0.0
 11
450.904842
 21
343.739021
 31
0.0
 12
454.404842
 22
343.155687
 32
0.0
 13
454.404842
 23
343.155687
 33
0.0
  0
SOLID
  5
230
330
229
100
AcDbEntity
  8
0
 62
   254
100
AcDbTrace
 10
217.904842
 20
343.739021
 30
0.0
 11
217.904842
 21
342.572354
 31
0.0
 12
214.404842
 22
343.155687
 32
0.0
 13
214.404842
 23
343.155687
 33
0.0
  0
MTEXT
  5
231
330
229
100
AcDbEntity
  8
0
 62
   254
370
    13
100
AcDbMText
 10
334.404842
 20
348.405687
 30
0.0
 40
3.5
 41
0.0
 71
     5
 72
     1
  1
\A1;240
  7
cesky
 73
     1
 44
1.0
  0
POINT
  5
232
330
229
100
AcDbEntity
  8
Defpoints
 62
     0
100
AcDbPoint
 10
454.404842
 20
306.407994
 30
0.0
  0
POINT
  5
233
330
229
100
AcDbEntity
  8
Defpoints
 62
     0
100
AcDbPoint
 10
214.404842
 20
302.907994
 30
0.0
  0
POINT
  5
234
330
229
100
AcDbEntity
  8
Defpoints
 62
     0
100
AcDbPoint
 10
214.404842
 20
343.155687
 30
0.0
  0
ENDBLK
  5
22B
330
229
100
AcDbEntity
  8
0
100
AcDbBlockEnd
  0
BLOCK
  5
23C
330
235
100
AcDbEntity
  8
0
100
AcDbBlockBegin
  2
_U2
 70
     0
 10
0.0
 20
0.0
 30
0.0
  3
_U2
  1

  0
ENDBLK
  5
23D
330
235
100
AcDbEntity
  8
0
100
AcDbBlockEnd
  0
BLOCK
  5
242
330
241
100
AcDbEntity
  8
0
100
AcDbBlockBegin
  2
*D8
 70
     1
 10
0.0
 20
0.0
 30
0.0
  3
*D8
  1

  0
LINE
  5
244
330
241
100
AcDbEntity
  8
0
 62
   254
370
    -2
100
AcDbLine
 10
454.404842
 20
304.407994
 30
0.0
 11
454.404842
 21
330.17035
 31
0.0
  0
LINE
  5
245
330
241
100
AcDbEntity
  8
0
 62
   254
370
    -2
100
AcDbLine
 10
274.404842
 20
288.907994
 30
0.0
 11
274.404842
 21
330.17035
 31
0.0
  0
LINE
  5
246
330
241
100
AcDbEntity
  8
0
 62
   254
370
    -2
100
AcDbLine
 10
450.904842
 20
329.17035
 30
0.0
 11
277.904842
 21
329.17035
 31
0.0
  0
SOLID
  5
247
330
241
100
AcDbEntity
  8
0
 62
   254
100
AcDbTrace
 10
450.904842
 20
328.587017
 30
0.0
 11
450.904842
 21
329.753684
 31
0.0
 12
454.404842
 22
329.17035
 32
0.0
 13
454.404842
 23
329.17035
 33
0.0
  0
SOLID
  5
248
330
241
100
AcDbEntity
  8
0
 62
   254
100
AcDbTrace
 10
277.904842
 20
329.753684
 30
0.0
 11
277.904842
 21
328.587017
 31
0.0
 12
274.404842
 22
329.17035
 32
0.0
 13
274.404842
 23
329.17035
 33
0.0
  0
MTEXT
  5
249
330
241
100
AcDbEntity
  8
0
 62
   254
370
    13
100
AcDbMText
 10
364.404842
 20
334.42035
 30
0.0
 40
3.5
 41
0.0
 71
     5
 72
     1
  1
\A1;180
  7
cesky
 73
     1
 44
1.0
  0
POINT
  5
24A
330
241
100
AcDbEntity
  8
Defpoints
 62
     0
100
AcDbPoint
 10
454.404842
 20
304.407994
 30
0.0
  0
POINT
  5
24B
330
241
100
AcDbEntity
  8
Defpoints
 62
     0
100
AcDbPoint
 10
274.404842
 20
288.907994
 30
0.0
  0
POINT
  5
24C
330
241
100
AcDbEntity
  8
Defpoints
 62
     0
100
AcDbPoint
 10
274.404842
 20
329.17035
 30
0.0
  0
ENDBLK
  5
243
330
241
100
AcDbEntity
  8
0
100
AcDbBlockEnd
  0
BLOCK
  5
254
330
24D
100
AcDbEntity
  8
0
100
AcDbBlockBegin
  2
_U3
 70
     0
 10
0.0
 20
0.0
 30
0.0
  3
_U3
  1

  0
ENDBLK
  5
255
330
24D
100
AcDbEntity
  8
0
100
AcDbBlockEnd
  0
BLOCK
  5
25A
330
259
100
AcDbEntity
  8
0
100
AcDbBlockBegin
  2
*D10
 70
     1
 10
0.0
 20
0.0
 30
0.0
  3
*D10
  1

  0
LINE
  5
25C
330
259
100
AcDbEntity
  8
0
 62
   254
370
    -2
100
AcDbLine
 10
291.203832
 20
288.907994
 30
0.0
 11
472.551407
 21
288.907994
 31
0.0
  0
LINE
  5
25D
330
259
100
AcDbEntity
  8
0
 62
   254
370
    -2
100
AcDbLine
 10
330.83929
 20
304.407994
 30
0.0
 11
472.551407
 21
304.407994
 31
0.0
  0
LINE
  5
25E
330
259
100
AcDbEntity
  8
0
 62
   254
370
    -2
100
AcDbLine
 10
471.551407
 20
288.907994
 30
0.0
 11
471.551407
 21
304.407994
 31
0.0
  0
SOLID
  5
25F
330
259
100
AcDbEntity
  8
0
 62
   254
100
AcDbTrace
 10
472.1347399999999
 20
300.907994
 30
0.0
 11
470.968074
 21
300.907994
 31
0.0
 12
471.551407
 22
304.407994
 32
0.0
 13
471.551407
 23
304.407994
 33
0.0
  0
MTEXT
  5
260
330
259
100
AcDbEntity
  8
0
 62
   254
370
    13
100
AcDbMText
 10
466.301407
 20
279.82466
 30
0.0
 40
3.5
 41
0.0
 71
     5
 72
     1
  1
\A1;31
  7
cesky
 11
0.0
 21
1.0
 31
0.0
 73
     1
 44
1.0
  0
POINT
  5
261
330
259
100
AcDbEntity
  8
Defpoints
 62
     0
100
AcDbPoint
 10
291.203832
 20
288.907994
 30
0.0
  0
POINT
  5
262
330
259
100
AcDbEntity
  8
Defpoints
 62
     0
100
AcDbPoint
 10
330.83929
 20
304.407994
 30
0.0
  0
POINT
  5
263
330
259
100
AcDbEntity
  8
Defpoints
 62
     0
100
AcDbPoint
 10
471.551407
 20
304.407994
 30
0.0
  0
ENDBLK
  5
25B
330
259
100
AcDbEntity
  8
0
100
AcDbBlockEnd
  0
BLOCK
  5
26A
330
264
100
AcDbEntity
  8
0
100
AcDbBlockBegin
  2
_U4
 70
     0
 10
0.0
 20
0.0
 30
0.0
  3
_U4
  1

  0
ENDBLK
  5
26B
330
264
100
AcDbEntity
  8
0
100
AcDbBlockEnd
  0
BLOCK
  5
270
330
26F
100
AcDbEntity
  8
0
100
AcDbBlockBegin
  2
*D12
 70
     1
 10
0.0
 20
0.0
 30
0.0
  3
*D12
  1

  0
LINE
  5
272
330
26F
100
AcDbEntity
  8
0
 62
    95
370
    -2
100
AcDbLine
 10
216.404842
 20
304.907994
 30
0.0
 11
204.535852
 21
304.907994
 31
0.0
  0
LINE
  5
273
330
26F
100
AcDbEntity
  8
0
 62
    95
370
    -2
100
AcDbLine
 10
216.404842
 20
272.907994
 30
0.0
 11
204.535852
 21
272.907994
 31
0.0
  0
LINE
  5
274
330
26F
100
AcDbEntity
  8
0
 62
    95
370
    -2
100
AcDbLine
 10
205.535852
 20
301.407994
 30
0.0
 11
205.535852
 21
276.407994
 31
0.0
  0
SOLID
  5
275
330
26F
100
AcDbEntity
  8
0
 62
    95
100
AcDbTrace
 10
206.119185
 20
301.407994
 30
0.0
 11
204.952518
 21
301.407994
 31
0.0
 12
205.535852
 22
304.907994
 32
0.0
 13
205.535852
 23
304.907994
 33
0.0
  0
SOLID
  5
276
330
26F
100
AcDbEntity
  8
0
 62
    95
100
AcDbTrace
 10
204.952518
 20
276.407994
 30
0.0
 11
206.119185
 21
276.407994
 31
0.0
 12
205.535852
 22
272.907994
 32
0.0
 13
205.535852
 23
272.907994
 33
0.0
  0
MTEXT
  5
277
330
26F
100
AcDbEntity
  8
0
 62
    95
370
    13
100
AcDbMText
 10
200.285852
 20
288.907994
 30
0.0
 40
3.5
 41
0.0
 71
     5
 72
     1
  1
\A1;32
  7
cesky
 11
0.0
 21
1.0
 31
0.0
 73
     1
 44
1.0
  0
POINT
  5
278
330
26F
100
AcDbEntity
  8
Defpoints
 62
     0
100
AcDbPoint
 10
216.404842
 20
304.907994
 30
0.0
  0
POINT
  5
279
330
26F
100
AcDbEntity
  8
Defpoints
 62
     0
100
AcDbPoint
 10
216.404842
 20
272.907994
 30
0.0
  0
POINT
  5
27A
330
26F
100
AcDbEntity
  8
Defpoints
 62
     0
100
AcDbPoint
 10
205.535852
 20
272.907994
 30
0.0
  0
ENDBLK
  5
271
330
26F
100
AcDbEntity
  8
0
100
AcDbBlockEnd
  0
BLOCK
  5
283
330
27B
100
AcDbEntity
  8
0
100
AcDbBlockBegin
  2
_U5
 70
     0
 10
0.0
 20
0.0
 30
0.0
  3
_U5
  1

  0
ENDBLK
  5
284
330
27B
100
AcDbEntity
  8
0
100
AcDbBlockEnd
  0
BLOCK
  5
289
330
288
100
AcDbEntity
  8
0
100
AcDbBlockBegin
  2
*D14
 70
     1
 10
0.0
 20
0.0
 30
0.0
  3
*D14
  1

  0
LINE
  5
28B
330
288
100
AcDbEntity
  8
0
 62
    95
370
    -2
100
AcDbLine
 10
277.154842
 20
309.907994
 30
0.0
 11
189.143489
 21
309.907994
 31
0.0
  0
LINE
  5
28C
330
288
100
AcDbEntity
  8
0
 62
    95
370
    -2
100
AcDbLine
 10
277.154842
 20
267.907994
 30
0.0
 11
189.143489
 21
267.907994
 31
0.0
  0
LINE
  5
28D
330
288
100
AcDbEntity
  8
0
 62
    95
370
    -2
100
AcDbLine
 10
190.143489
 20
306.407994
 30
0.0
 11
190.143489
 21
271.407994
 31
0.0
  0
SOLID
  5
28E
330
288
100
AcDbEntity
  8
0
 62
    95
100
AcDbTrace
 10
190.726823
 20
306.407994
 30
0.0
 11
189.560156
 21
306.407994
 31
0.0
 12
190.143489
 22
309.907994
 32
0.0
 13
190.143489
 23
309.907994
 33
0.0
  0
SOLID
  5
28F
330
288
100
AcDbEntity
  8
0
 62
    95
100
AcDbTrace
 10
189.560156
 20
271.407994
 30
0.0
 11
190.726823
 21
271.407994
 31
0.0
 12
190.143489
 22
267.907994
 32
0.0
 13
190.143489
 23
267.907994
 33
0.0
  0
MTEXT
  5
290
330
288
100
AcDbEntity
  8
0
 62
    95
370
    13
100
AcDbMText
 10
184.893489
 20
288.907994
 30
0.0
 40
3.5
 41
0.0
 71
     5
 72
     1
  1
\A1;42
  7
cesky
 11
0.0
 21
1.0
 31
0.0
 73
     1
 44
1.0
  0
POINT
  5
291
330
288
100
AcDbEntity
  8
Defpoints
 62
     0
100
AcDbPoint
 10
277.154842
 20
309.907994
 30
0.0
  0
POINT
  5
292
330
288
100
AcDbEntity
  8
Defpoints
 62
     0
100
AcDbPoint
 10
277.154842
 20
267.907994
 30
0.0
  0
POINT
  5
293
330
288
100
AcDbEntity
  8
Defpoints
 62
     0
100
AcDbPoint
 10
190.143489
 20
267.907994
 30
0.0
  0
ENDBLK
  5
28A
330
288
100
AcDbEntity
  8
0
100
AcDbBlockEnd
  0
BLOCK
  5
29C
330
294
100
AcDbEntity
  8
0
100
AcDbBlockBegin
  2
_U6
 70
     0
 10
0.0
 20
0.0
 30
0.0
  3
_U6
  1

  0
ENDBLK
  5
29D
330
294
100
AcDbEntity
  8
0
100
AcDbBlockEnd
  0
ENDSEC
  0
SECTION
  2
ENTITIES
  0
POINT
  5
73
102
{ACAD_REACTORS
330
346
102
}
330
1F
100
AcDbEntity
  8
80
100
AcDbPoint
 10
274.404842
 20
288.907994
 30
0.0
  0
POINT
  5
76
330
1F
100
AcDbEntity
  8
SK4
 60
     1
100
AcDbPoint
 10
216.404842
 20
288.907994
 30
0.0
  0
POINT
  5
78
330
1F
100
AcDbEntity
  8
SK4
 60
     1
100
AcDbPoint
 10
274.404842
 20
288.907994
 30
0.0
  0
POINT
  5
79
330
1F
100
AcDbEntity
  8
4
 60
     1
100
AcDbPoint
 10
291.203832
 20
288.907994
 30
0.0
  0
POINT
  5
7A
330
1F
100
AcDbEntity
  8
4
 60
     1
100
AcDbPoint
 10
453.644165
 20
288.907994
 30
0.0
  0
POINT
  5
7B
330
1F
100
AcDbEntity
  8
SK6
 60
     1
100
AcDbPoint
 10
274.404842
 20
288.907994
 30
0.0
  0
POINT
  5
7C
330
1F
100
AcDbEntity
  8
SK6
 60
     1
100
AcDbPoint
 10
291.423675
 20
304.718349
 30
0.0
  0
LINE
  5
7D
330
1F
100
AcDbEntity
  8
1
100
AcDbLine
 10
452.476053
 20
280.615822
 30
0.0
 11
452.5199839999999
 21
280.439623
 31
0.0
  0
LINE
  5
7F
330
1F
100
AcDbEntity
  8
1
100
AcDbLine
 10
452.934939
 20
288.279736
 30
0.0
 11
452.833866
 21
288.340467
 31
0.0
  0
LINE
  5
80
330
1F
100
AcDbEntity
  8
1
100
AcDbLine
 10
291.203832
 20
273.907994
 30
0.0
 11
292.552535
 21
273.907994
 31
0.0
  0
LINE
  5
82
330
1F
100
AcDbEntity
  8
1
100
AcDbLine
 10
444.1587049999999
 20
303.907994
 30
0.0
 11
430.949011
 21
303.907994
 31
0.0
  0
LINE
  5
83
330
1F
100
AcDbEntity
  8
1
100
AcDbLine
 10
296.1913120000001
 20
273.984584
 30
0.0
 11
295.699743
 21
273.964624
 31
0.0
  0
LINE
  5
84
330
1F
100
AcDbEntity
  8
1
100
AcDbLine
 10
274.404842
 20
309.407994
 30
0.0
 11
274.404842
 21
288.907994
 31
0.0
  0
LINE
  5
85
330
1F
100
AcDbEntity
  8
1
100
AcDbLine
 10
274.404842
 20
288.907994
 30
0.0
 11
274.404842
 21
268.407994
 31
0.0
  0
LINE
  5
86
330
1F
100
AcDbEntity
  8
1
100
AcDbLine
 10
452.2082629999999
 20
273.907994
 30
0.0
 11
424.7515329999999
 21
273.907994
 31
0.0
  0
LINE
  5
87
330
1F
100
AcDbEntity
  8
1
100
AcDbLine
 10
274.904842
 20
267.907994
 30
0.0
 11
274.904842
 21
288.907994
 31
0.0
  0
LINE
  5
88
330
1F
100
AcDbEntity
  8
1
100
AcDbLine
 10
274.904842
 20
288.907994
 30
0.0
 11
274.904842
 21
309.907994
 31
0.0
  0
LINE
  5
89
330
1F
100
AcDbEntity
  8
1
100
AcDbLine
 10
447.7584019999999
 20
298.668094
 30
0.0
 11
447.784062
 21
298.740843
 31
0.0
  0
LINE
  5
8B
330
1F
100
AcDbEntity
  8
1
100
AcDbLine
 10
449.3323209999999
 20
298.430207
 30
0.0
 11
449.306504
 21
298.357012
 31
0.0
  0
LINE
  5
8C
330
1F
100
AcDbEntity
  8
1
100
AcDbLine
 10
448.085908
 20
300.099258
 30
0.0
 11
448.1117259999999
 21
300.172453
 31
0.0
  0
LINE
  5
8D
330
1F
100
AcDbEntity
  8
1
100
AcDbLine
 10
449.659669
 20
299.860924
 30
0.0
 11
449.63401
 21
299.788176
 31
0.0
  0
LINE
  5
8E
330
1F
100
AcDbEntity
  8
1
100
AcDbLine
 10
446.128962
 20
300.217046
 30
0.0
 11
446.10851
 21
300.159062
 31
0.0
  0
LINE
  5
8F
330
1F
100
AcDbEntity
  8
1
100
AcDbLine
 10
451.295323
 20
298.329589
 30
0.0
 11
451.3157749999999
 21
298.387573
 31
0.0
  0
LINE
  5
90
330
1F
100
AcDbEntity
  8
1
100
AcDbLine
 10
279.404842
 20
267.907994
 30
0.0
 11
281.304337
 21
269.807488
 31
0.0
  0
LINE
  5
91
330
1F
100
AcDbEntity
  8
1
100
AcDbLine
 10
281.304337
 20
308.008499
 30
0.0
 11
279.404842
 21
309.907994
 31
0.0
  0
LINE
  5
92
330
1F
100
AcDbEntity
  8
SK1
100
AcDbLine
 10
214.404842
 20
274.907994
 30
0.0
 11
216.404842
 21
272.907994
 31
0.0
  0
LINE
  5
93
330
1F
100
AcDbEntity
  8
SK1
100
AcDbLine
 10
216.404842
 20
304.907994
 30
0.0
 11
214.404842
 21
302.907994
 31
0.0
  0
LINE
  5
94
330
1F
100
AcDbEntity
  8
SK1
100
AcDbLine
 10
274.404842
 20
304.907994
 30
0.0
 11
216.404842
 21
304.907994
 31
0.0
  0
LINE
  5
95
330
1F
100
AcDbEntity
  8
1
100
AcDbLine
 10
274.904842
 20
267.907994
 30
0.0
 11
274.404842
 21
268.407994
 31
0.0
  0
LINE
  5
96
330
1F
100
AcDbEntity
  8
1
100
AcDbLine
 10
274.404842
 20
309.407994
 30
0.0
 11
274.904842
 21
309.907994
 31
0.0
  0
LINE
  5
97
330
1F
100
AcDbEntity
  8
1
100
AcDbLine
 10
279.404842
 20
309.907994
 30
0.0
 11
274.904842
 21
309.907994
 31
0.0
  0
LINE
  5
9B
330
1F
100
AcDbEntity
  8
1
100
AcDbLine
 10
452.618175
 20
280.438051
 30
0.0
 11
452.510823
 21
280.439769
 31
0.0
  0
LINE
  5
9C
330
1F
100
AcDbEntity
  8
1
100
AcDbLine
 10
452.493657
 20
280.9401069999999
 30
0.0
 11
452.833868
 21
284.145494
 31
0.0
  0
LINE
  5
9D
330
1F
100
AcDbEntity
  8
1
100
AcDbLine
 10
452.833868
 20
284.145494
 30
0.0
 11
452.833868
 21
288.867411
 31
0.0
  0
LINE
  5
9E
330
1F
100
AcDbEntity
  8
1
100
AcDbLine
 10
452.9041379999999
 20
289.36626
 30
0.0
 11
453.0116719999999
 21
289.364383
 31
0.0
  0
LINE
  5
9F
330
1F
100
AcDbEntity
  8
1
100
AcDbLine
 10
453.1456359999999
 20
294.613968
 30
0.0
 11
446.908832
 21
294.396401
 31
0.0
  0
LINE
  5
A0
330
1F
100
AcDbEntity
  8
1
100
AcDbLine
 10
446.903479
 20
294.381223
 30
0.0
 11
446.908832
 21
294.396401
 31
0.0
  0
LINE
  5
A1
330
1F
100
AcDbEntity
  8
1
100
AcDbLine
 10
453.0116719999999
 20
289.364383
 30
0.0
 11
453.25268
 21
289.690975
 31
0.0
  0
LINE
  5
A2
330
1F
100
AcDbEntity
  8
1
100
AcDbLine
 10
453.25268
 20
289.929586
 30
0.0
 11
453.25268
 21
289.690975
 31
0.0
  0
LINE
  5
A3
330
1F
100
AcDbEntity
  8
1
100
AcDbLine
 10
453.25268
 20
289.929586
 30
0.0
 11
453.294842
 21
289.92885
 31
0.0
  0
LINE
  5
A4
330
1F
100
AcDbEntity
  8
1
100
AcDbLine
 10
453.294842
 20
294.866615
 30
0.0
 11
453.294842
 21
289.92885
 31
0.0
  0
LINE
  5
A5
330
1F
100
AcDbEntity
  8
1
100
AcDbLine
 10
453.1456359999999
 20
294.613968
 30
0.0
 11
453.1440799999999
 21
294.838045
 31
0.0
  0
LINE
  5
A6
330
1F
100
AcDbEntity
  8
1
100
AcDbLine
 10
453.1456359999999
 20
294.613968
 30
0.0
 11
453.1026589999999
 21
294.597478
 31
0.0
  0
LINE
  5
A7
330
1F
100
AcDbEntity
  8
1
100
AcDbLine
 10
452.2082629999999
 20
273.907994
 30
0.0
 11
452.840533
 21
279.865098
 31
0.0
  0
LINE
  5
A8
330
1F
100
AcDbEntity
  8
1
100
AcDbLine
 10
452.840533
 20
279.865098
 30
0.0
 11
452.798442
 21
279.865771
 31
0.0
  0
LINE
  5
A9
330
1F
100
AcDbEntity
  8
1
100
AcDbLine
 10
452.823724
 20
280.103971
 30
0.0
 11
452.798442
 21
279.865771
 31
0.0
  0
LINE
  5
AA
330
1F
100
AcDbEntity
  8
1
100
AcDbLine
 10
452.823724
 20
280.103971
 30
0.0
 11
452.618175
 21
280.438051
 31
0.0
  0
LINE
  5
AB
330
1F
100
AcDbEntity
  8
1
100
AcDbLine
 10
452.036163
 20
284.145494
 30
0.0
 11
452.833868
 21
284.145494
 31
0.0
  0
LINE
  5
AC
330
1F
100
AcDbEntity
  8
SK1
100
AcDbLine
 10
216.404842
 20
304.907994
 30
0.0
 11
216.404842
 21
272.907994
 31
0.0
  0
LINE
  5
AD
330
1F
100
AcDbEntity
  8
SK1
100
AcDbLine
 10
214.404842
 20
302.907994
 30
0.0
 11
214.404842
 21
274.907994
 31
0.0
  0
LINE
  5
AE
330
1F
100
AcDbEntity
  8
1
100
AcDbLine
 10
443.976549
 20
297.10749
 30
0.0
 11
443.971317
 21
297.092655
 31
0.0
  0
LINE
  5
AF
330
1F
100
AcDbEntity
  8
1
100
AcDbLine
 10
443.976549
 20
297.10749
 30
0.0
 11
443.7449519999999
 21
303.846699
 31
0.0
  0
LINE
  5
B0
330
1F
100
AcDbEntity
  8
1
100
AcDbLine
 10
443.740244
 20
303.81658
 30
0.0
 11
443.971317
 21
297.092655
 31
0.0
  0
LINE
  5
B2
330
1F
100
AcDbEntity
  8
80
100
AcDbLine
 10
275.404416
 20
288.907994
 30
0.0
 11
273.405268
 21
288.907994
 31
0.0
  0
LINE
  5
B3
330
1F
100
AcDbEntity
  8
80
100
AcDbLine
 10
274.404842
 20
287.90842
 30
0.0
 11
274.404842
 21
289.907567
 31
0.0
  0
LINE
  5
B4
330
1F
100
AcDbEntity
  8
81
100
AcDbLine
 10
454.404842
 20
306.407994
 30
0.0
 11
454.404842
 21
302.407994
 31
0.0
  0
LINE
  5
B5
330
1F
100
AcDbEntity
  8
81
100
AcDbLine
 10
452.4048419999999
 20
304.407994
 30
0.0
 11
456.4048419999999
 21
304.407994
 31
0.0
  0
LINE
  5
B6
330
1F
100
AcDbEntity
  8
SK1
100
AcDbLine
 10
216.404842
 20
272.907994
 30
0.0
 11
274.404842
 21
272.907994
 31
0.0
  0
LINE
  5
B7
330
1F
100
AcDbEntity
  8
1
100
AcDbLine
 10
274.904842
 20
267.907994
 30
0.0
 11
279.404842
 21
267.907994
 31
0.0
  0
LINE
  5
B8
330
1F
100
AcDbEntity
  8
1
100
AcDbLine
 10
448.737649
 20
298.072257
 30
0.0
 11
448.7629
 21
298.143846
 31
0.0
  0
LINE
  5
B9
330
1F
100
AcDbEntity
  8
1
100
AcDbLine
 10
448.0985
 20
300.153902
 30
0.0
 11
448.124091
 21
300.226457
 31
0.0
  0
LINE
  5
BA
330
1F
100
AcDbEntity
  8
1
100
AcDbLine
 10
447.515718
 20
299.270602
 30
0.0
 11
447.490772
 21
299.199875
 31
0.0
  0
LINE
  5
BB
330
1F
100
AcDbEntity
  8
1
100
AcDbLine
 10
447.5985519999999
 20
299.256191
 30
0.0
 11
447.573093
 21
299.184011
 31
0.0
  0
LINE
  5
BC
330
1F
100
AcDbEntity
  8
1
100
AcDbLine
 10
449.777886
 20
298.675821
 30
0.0
 11
449.802778
 21
298.746391
 31
0.0
  0
LINE
  5
BD
330
1F
100
AcDbEntity
  8
1
100
AcDbLine
 10
449.6840139999999
 20
298.697089
 30
0.0
 11
449.709497
 21
298.769335
 31
0.0
  0
LINE
  5
BE
330
1F
100
AcDbEntity
  8
1
100
AcDbLine
 10
448.7357059999999
 20
298.090687
 30
0.0
 11
448.7610759999999
 21
298.162615
 31
0.0
  0
LINE
  5
BF
330
1F
100
AcDbEntity
  8
1
100
AcDbLine
 10
441.95299
 20
291.564273
 30
0.0
 11
441.9696929999999
 21
291.076087
 31
0.0
  0
LINE
  5
C0
330
1F
100
AcDbEntity
  8
1
100
AcDbLine
 10
445.467915
 20
293.671689
 30
0.0
 11
445.4572759999999
 21
293.671318
 31
0.0
  0
LINE
  5
C1
330
1F
100
AcDbEntity
  8
1
100
AcDbLine
 10
285.404842
 20
303.665232
 30
0.0
 11
285.404842
 21
284.521874
 31
0.0
  0
LINE
  5
C2
330
1F
100
AcDbEntity
  8
1
100
AcDbLine
 10
449.3233679999999
 20
298.199823
 30
0.0
 11
449.317747
 21
298.194046
 31
0.0
  0
LINE
  5
C3
330
1F
100
AcDbEntity
  8
1
100
AcDbLine
 10
451.295807
 20
284.145494
 30
0.0
 11
451.576737
 21
284.145494
 31
0.0
  0
LINE
  5
C4
330
1F
100
AcDbEntity
  8
1
100
AcDbLine
 10
453.1026589999999
 20
294.597478
 30
0.0
 11
446.903479
 21
294.381223
 31
0.0
  0
LINE
  5
C5
330
1F
100
AcDbEntity
  8
1
100
AcDbLine
 10
453.028821
 20
293.907754
 30
0.0
 11
445.4675889999999
 21
293.643985
 31
0.0
  0
LINE
  5
C6
330
1F
100
AcDbEntity
  8
1
100
AcDbLine
 10
444.212479
 20
303.815331
 30
0.0
 11
444.209443
 21
303.903675
 31
0.0
  0
LINE
  5
C7
330
1F
100
AcDbEntity
  8
1
100
AcDbLine
 10
279.404842
 20
309.907994
 30
0.0
 11
279.404842
 21
277.385847
 31
0.0
  0
LINE
  5
C8
330
1F
100
AcDbEntity
  8
1
100
AcDbLine
 10
279.404842
 20
267.907994
 30
0.0
 11
279.404842
 21
270.43737
 31
0.0
  0
LINE
  5
C9
330
1F
100
AcDbEntity
  8
1
100
AcDbLine
 10
443.983869
 20
303.422886
 30
0.0
 11
443.9693169999999
 21
303.846344
 31
0.0
  0
LINE
  5
CA
330
1F
100
AcDbEntity
  8
1
100
AcDbLine
 10
453.028821
 20
293.907754
 30
0.0
 11
451.205145
 21
290.88634
 31
0.0
  0
LINE
  5
CB
330
1F
100
AcDbEntity
  8
1
100
AcDbLine
 10
453.4798349999999
 20
303.562649
 30
0.0
 11
453.7651429999999
 21
295.59822
 31
0.0
  0
LINE
  5
CC
330
1F
100
AcDbEntity
  8
1
100
AcDbLine
 10
444.707102
 20
304.029143
 30
0.0
 11
452.67983
 21
304.307267
 31
0.0
  0
LINE
  5
CD
330
1F
100
AcDbEntity
  8
1
100
AcDbLine
 10
444.247684
 20
295.266209
 30
0.0
 11
443.9623759999999
 21
303.230638
 31
0.0
  0
LINE
  5
CE
330
1F
100
AcDbEntity
  8
1
100
AcDbLine
 10
453.0204179999999
 20
294.799715
 30
0.0
 11
445.047689
 21
294.521591
 31
0.0
  0
LINE
  5
CF
330
1F
100
AcDbEntity
  8
1
100
AcDbLine
 10
445.489065
 20
295.791424
 30
0.0
 11
445.2387639999999
 21
302.778601
 31
0.0
  0
LINE
  5
D0
330
1F
100
AcDbEntity
  8
1
100
AcDbLine
 10
452.483523
 20
296.0354220000001
 30
0.0
 11
445.489065
 21
295.791424
 31
0.0
  0
LINE
  5
D1
330
1F
100
AcDbEntity
  8
1
100
AcDbLine
 10
445.2387639999999
 20
302.778601
 30
0.0
 11
452.233222
 21
303.022599
 31
0.0
  0
LINE
  5
D2
330
1F
100
AcDbEntity
  8
1
100
AcDbLine
 10
452.233222
 20
303.022599
 30
0.0
 11
452.483523
 21
296.0354220000001
 31
0.0
  0
LINE
  5
D3
330
1F
100
AcDbEntity
  8
1
100
AcDbLine
 10
452.5560559999999
 20
281.528007
 30
0.0
 11
452.8389519999999
 21
281.684819
 31
0.0
  0
LINE
  5
D4
330
1F
100
AcDbEntity
  8
1
100
AcDbLine
 10
454.297436
 20
281.863516
 30
0.0
 11
453.671836
 21
280.822342
 31
0.0
  0
LINE
  5
D5
330
1F
100
AcDbEntity
  8
1
100
AcDbLine
 10
453.3014
 20
281.205939
 30
0.0
 11
453.671836
 21
280.822342
 31
0.0
  0
LINE
  5
D6
330
1F
100
AcDbEntity
  8
1
100
AcDbLine
 10
453.671836
 20
280.822342
 30
0.0
 11
452.7098379999999
 21
280.289098
 31
0.0
  0
LINE
  5
D7
330
1F
100
AcDbEntity
  8
1
100
AcDbLine
 10
453.1243459999999
 20
289.517042
 30
0.0
 11
453.797416
 21
289.11262
 31
0.0
  0
LINE
  5
D8
330
1F
100
AcDbEntity
  8
1
100
AcDbLine
 10
453.413818
 20
288.742185
 30
0.0
 11
453.797416
 21
289.11262
 31
0.0
  0
LINE
  5
D9
330
1F
100
AcDbEntity
  8
1
100
AcDbLine
 10
453.797416
 20
289.11262
 30
0.0
 11
454.404842
 21
288.016795
 31
0.0
  0
LINE
  5
DA
330
1F
100
AcDbEntity
  8
1
100
AcDbLine
 10
453.887419
 20
287.887787
 30
0.0
 11
454.404842
 21
288.016795
 31
0.0
  0
LINE
  5
DB
330
1F
100
AcDbEntity
  8
1
100
AcDbLine
 10
453.7848309999999
 20
282.010503
 30
0.0
 11
454.297436
 21
281.863516
 31
0.0
  0
LINE
  5
DC
330
1F
100
AcDbEntity
  8
1
100
AcDbLine
 10
454.404842
 20
288.016795
 30
0.0
 11
454.297436
 21
281.863516
 31
0.0
  0
LINE
  5
DD
330
1F
100
AcDbEntity
  8
1
100
AcDbLine
 10
452.8389519999999
 20
281.684819
 30
0.0
 11
453.144899
 21
282.194001
 31
0.0
  0
LINE
  5
DE
330
1F
100
AcDbEntity
  8
1
100
AcDbLine
 10
453.7848309999999
 20
282.010503
 30
0.0
 11
453.3014
 21
281.205939
 31
0.0
  0
LINE
  5
DF
330
1F
100
AcDbEntity
  8
1
100
AcDbLine
 10
453.144899
 20
282.194001
 30
0.0
 11
453.241473
 21
287.7267339999999
 31
0.0
  0
LINE
  5
E0
330
1F
100
AcDbEntity
  8
1
100
AcDbLine
 10
453.7848309999999
 20
282.010503
 30
0.0
 11
453.144899
 21
282.194001
 31
0.0
  0
LINE
  5
E1
330
1F
100
AcDbEntity
  8
1
100
AcDbLine
 10
453.887419
 20
287.887787
 30
0.0
 11
453.7848309999999
 21
282.010503
 31
0.0
  0
LINE
  5
E2
330
1F
100
AcDbEntity
  8
1
100
AcDbLine
 10
453.241473
 20
287.7267339999999
 30
0.0
 11
452.934939
 21
288.279736
 31
0.0
  0
LINE
  5
E3
330
1F
100
AcDbEntity
  8
1
100
AcDbLine
 10
453.887419
 20
287.887787
 30
0.0
 11
453.241473
 21
287.7267339999999
 31
0.0
  0
LINE
  5
E4
330
1F
100
AcDbEntity
  8
1
100
AcDbLine
 10
453.413818
 20
288.742185
 30
0.0
 11
453.887419
 21
287.887787
 31
0.0
  0
LINE
  5
E5
330
1F
100
AcDbEntity
  8
1
100
AcDbLine
 10
453.3014
 20
281.205939
 30
0.0
 11
452.8389519999999
 21
281.684819
 31
0.0
  0
LINE
  5
E6
330
1F
100
AcDbEntity
  8
1
100
AcDbLine
 10
453.3014
 20
281.205939
 30
0.0
 11
452.4787749999999
 21
280.7499509999999
 31
0.0
  0
LINE
  5
E7
330
1F
100
AcDbEntity
  8
1
100
AcDbLine
 10
453.413818
 20
288.742185
 30
0.0
 11
452.934939
 21
288.279736
 31
0.0
  0
LINE
  5
E8
330
1F
100
AcDbEntity
  8
1
100
AcDbLine
 10
452.840982
 20
289.0863799999999
 30
0.0
 11
453.413818
 21
288.742185
 31
0.0
  0
LINE
  5
118
330
1F
100
AcDbEntity
  8
NOCUT
100
AcDbLine
 10
279.404842
 20
309.907994
 30
0.0
 11
281.304337
 21
308.008499
 31
0.0
  0
LINE
  5
119
330
1F
100
AcDbEntity
  8
NOCUT
100
AcDbLine
 10
452.984783
 20
303.907994
 30
0.0
 11
453.294842
 21
295.105306
 31
0.0
  0
LINE
  5
11A
330
1F
100
AcDbEntity
  8
NOCUT
100
AcDbLine
 10
453.294842
 20
295.105306
 30
0.0
 11
453.294842
 21
288.907994
 31
0.0
  0
LINE
  5
11B
330
1F
100
AcDbEntity
  8
NOCUT
100
AcDbLine
 10
453.294842
 20
288.907994
 30
0.0
 11
214.404842
 21
288.907994
 31
0.0
  0
LINE
  5
11C
330
1F
100
AcDbEntity
  8
NOCUT
100
AcDbLine
 10
274.404842
 20
304.907994
 30
0.0
 11
216.404842
 21
304.907994
 31
0.0
  0
LINE
  5
11D
330
1F
100
AcDbEntity
  8
NOCUT
100
AcDbLine
 10
279.404842
 20
309.907994
 30
0.0
 11
274.904842
 21
309.907994
 31
0.0
  0
LINE
  5
11E
330
1F
100
AcDbEntity
  8
NOCUT
100
AcDbLine
 10
214.404842
 20
302.907994
 30
0.0
 11
214.404842
 21
288.907994
 31
0.0
  0
LINE
  5
11F
330
1F
100
AcDbEntity
  8
NOCUT
100
AcDbLine
 10
291.203832
 20
303.907994
 30
0.0
 11
452.984783
 21
303.907994
 31
0.0
  0
LINE
  5
120
330
1F
100
AcDbEntity
  8
NOCUT
100
AcDbLine
 10
274.404842
 20
304.907994
 30
0.0
 11
274.404842
 21
309.407994
 31
0.0
  0
LINE
  5
121
330
1F
100
AcDbEntity
  8
NOCUT
100
AcDbLine
 10
274.404842
 20
309.407994
 30
0.0
 11
274.904842
 21
309.907994
 31
0.0
  0
LINE
  5
122
330
1F
100
AcDbEntity
  8
NOCUT
100
AcDbLine
 10
214.404842
 20
302.907994
 30
0.0
 11
216.404842
 21
304.907994
 31
0.0
  0
ARC
  5
12B
330
1F
100
AcDbEntity
  8
1
100
AcDbCircle
 10
291.203832
 20
259.907994
 30
0.0
 40
14.0
100
AcDbArc
 50
90.0
 51
135.0
  0
ARC
  5
12C
330
1F
100
AcDbEntity
  8
1
100
AcDbCircle
 10
291.203832
 20
317.907994
 30
0.0
 40
14.0
100
AcDbArc
 50
225.0
 51
265.4758109999999
  0
ARC
  5
12D
330
1F
100
AcDbEntity
  8
1
100
AcDbCircle
 10
449.4028309999999
 20
285.223558
 30
0.0
 40
1.5
100
AcDbArc
 50
75.0
 51
345.0
  0
CIRCLE
  5
12E
330
1F
100
AcDbEntity
  8
1
100
AcDbCircle
 10
449.422479
 20
285.203212
 30
0.0
 40
1.099999999999998
  0
ARC
  5
13D
330
1F
100
AcDbEntity
  8
NOCUT
100
AcDbCircle
 10
291.203832
 20
317.907994
 30
0.0
 40
14.0
100
AcDbArc
 50
225.0
 51
270.0
  0
ELLIPSE
  5
13E
330
1F
100
AcDbEntity
  8
1
100
AcDbEllipse
 10
452.563809
 20
280.938985
 30
0.0
 11
0.0538770024348444
 21
0.4991611425064947
 31
0.0
210
0.0
220
0.0
230
0.9999999999999998
 40
0.139171
 41
1.583568179242823
 42
3.154364506042881
  0
ELLIPSE
  5
13F
330
1F
100
AcDbEntity
  8
1
100
AcDbEllipse
 10
452.9041379999999
 20
288.866184
 30
0.0
 11
0.0001758288822668
 21
-0.5000776676664057
 31
0.0
210
0.0
220
0.0
230
0.9999999999999998
 40
0.140519
 41
3.139090475969511
 42
4.709886802763122
  0
ELLIPSE
  5
140
330
1F
100
AcDbEntity
  8
1
100
AcDbEllipse
 10
316.005791
 20
288.907994
 30
0.0
 11
52.26699964552978
 21
-10.37382045959166
 31
0.0
210
0.0
220
0.0
230
0.9999999999999996
 40
0.207289
 41
4.276655036068881
 42
4.438492005381558
  0
ELLIPSE
  5
141
330
1F
100
AcDbEntity
  8
1
100
AcDbEllipse
 10
445.5145429999999
 20
295.829504
 30
0.0
 11
-1.886113813783173
 21
0.6652628664342342
 31
0.0
210
0.0
220
0.0
230
1.0
 40
0.9986239999999998
 41
2.681012237838953
 42
2.813440321327905
  0
ELLIPSE
  5
142
330
1F
100
AcDbEntity
  8
1
100
AcDbEllipse
 10
452.9908879999999
 20
294.659919
 30
0.0
 11
0.0004825660198208
 21
0.8004935613827822
 31
0.0
210
0.0
220
0.0
230
1.0
 40
0.140101
 41
3.49093739271364
 42
4.634391204193414
  0
ELLIPSE
  5
143
330
1F
100
AcDbEntity
  8
1
100
AcDbEllipse
 10
453.80032
 20
288.907994
 30
0.0
 11
1.623581541302612
 21
14.99830357815635
 31
0.0
210
0.0
220
0.0
230
1.0
 40
0.138944
 41
1.908927975893884
 42
3.156632395651104
  0
ELLIPSE
  5
144
330
1F
100
AcDbEntity
  8
1
100
AcDbEllipse
 10
453.294842
 20
288.907994
 30
0.0
 11
0.0
 21
14.99999999964881
 31
0.0
210
0.0
220
0.0
230
1.0
 40
0.140541
 41
1.43852118633091
 42
1.893888233840925
  0
ELLIPSE
  5
145
330
1F
100
AcDbEntity
  8
1
100
AcDbEllipse
 10
445.5820429999999
 20
296.020875
 30
0.0
 11
-1.886113813783173
 21
0.6652628664342342
 31
0.0
210
0.0
220
0.0
230
1.0
 40
0.9986239999999998
 41
0.0546757932376148
 42
1.945227331219203
  0
ELLIPSE
  5
146
330
1F
100
AcDbEntity
  8
1
100
AcDbEllipse
 10
445.5820429999999
 20
296.020875
 30
0.0
 11
-1.886113813783173
 21
0.6652628664342342
 31
0.0
210
0.0
220
0.0
230
1.0
 40
0.9986239999999998
 41
1.945227331219204
 42
2.681832479841105
  0
ELLIPSE
  5
147
330
1F
100
AcDbEntity
  8
1
100
AcDbEllipse
 10
445.5145429999999
 20
295.829504
 30
0.0
 11
-1.886113813783173
 21
0.6652628664342342
 31
0.0
210
0.0
220
0.0
230
1.0
 40
0.9986239999999998
 41
5.785523578469423
 42
5.928503423216231
  0
ELLIPSE
  5
148
330
1F
100
AcDbEntity
  8
1
100
AcDbEllipse
 10
445.50931
 20
295.814669
 30
0.0
 11
1.88611381378318
 21
-0.6652628664342132
 31
0.0
210
0.0
220
0.0
230
1.0
 40
0.9986239999999998
 41
2.786910769626418
 42
4.213584928949868
  0
ELLIPSE
  5
149
330
1F
100
AcDbEntity
  8
1
100
AcDbEllipse
 10
444.270245
 20
288.908425
 30
0.0
 11
0.5016228408755409
 21
-14.99956535872846
 31
0.0
210
0.0
220
0.0
230
1.0
 40
0.0191
 41
3.231388692410981
 42
3.251412887026746
  0
ELLIPSE
  5
14A
330
1F
100
AcDbEntity
  8
1
100
AcDbEllipse
 10
391.335682
 20
288.907311
 30
0.0
 11
859.8918909279133
 21
-0.7420649418262748
 31
0.0
210
0.0
220
0.0
230
1.0
 40
0.017423
 41
1.509830376623048
 42
1.51423915067466
  0
ELLIPSE
  5
14B
330
1F
100
AcDbEntity
  8
1
100
AcDbEllipse
 10
448.7019169999999
 20
299.244326
 30
0.0
 11
2.593406493951873
 21
-0.9147364413470432
 31
0.0
210
0.0
220
0.0
230
1.0
 40
0.9986239999999998
 41
0.0
 42
6.283185307179585
  0
ELLIPSE
  5
14C
330
1F
100
AcDbEntity
  8
1
100
AcDbEllipse
 10
448.2430599999999
 20
298.162529
 30
0.0
 11
-0.0942167666043792
 21
0.0332317783578887
 31
0.0
210
0.0
220
0.0
230
1.0
 40
0.9986239999999998
 41
5.285082567640031
 42
6.134017720050588
  0
ELLIPSE
  5
14D
330
1F
100
AcDbEntity
  8
1
100
AcDbEllipse
 10
448.0665829999999
 20
298.25622
 30
0.0
 11
-0.0942167666043793
 21
0.0332317783578887
 31
0.0
210
0.0
220
0.0
230
1.0
 40
0.9986239999999998
 41
1.619891138451583
 42
2.992425066460528
  0
ELLIPSE
  5
14E
330
1F
100
AcDbEntity
  8
1
100
AcDbEllipse
 10
448.196786
 20
298.69265
 30
0.0
 11
-0.5243116980215642
 21
0.1849332211989859
 31
0.0
210
0.0
220
0.0
230
1.0
 40
0.9986239999999998
 41
0.6997675652816986
 42
1.619891138451619
  0
ELLIPSE
  5
14F
330
1F
100
AcDbEntity
  8
1
100
AcDbEllipse
 10
447.7701999999999
 20
298.532083
 30
0.0
 11
-0.0942167666043792
 21
0.0332317783578887
 31
0.0
210
0.0
220
0.0
230
0.9999999999999998
 40
0.9986239999999998
 41
5.610418944452153
 42
6.982952872461197
  0
ELLIPSE
  5
150
330
1F
100
AcDbEntity
  8
1
100
AcDbEllipse
 10
447.6641859999999
 20
298.701326
 30
0.0
 11
-0.0942167666043792
 21
0.0332317783578887
 31
0.0
210
0.0
220
0.0
230
0.9999999999999998
 40
0.9986239999999998
 41
2.468826290862359
 42
3.317761443273236
  0
ELLIPSE
  5
151
330
1F
100
AcDbEntity
  8
1
100
AcDbEllipse
 10
447.214197
 20
298.775405
 30
0.0
 11
-0.524311698021564
 21
0.1849332211989858
 31
0.0
210
0.0
220
0.0
230
0.9999999999999998
 40
0.9986239999999998
 41
3.317761443273149
 42
4.237885016442977
  0
ELLIPSE
  5
152
330
1F
100
AcDbEntity
  8
1
100
AcDbEllipse
 10
447.5454619999999
 20
299.088144
 30
0.0
 11
-0.0942167666043792
 21
0.0332317783578887
 31
0.0
210
0.0
220
0.0
230
1.0
 40
0.9986239999999998
 41
4.237885016443348
 42
5.086820168854371
  0
ELLIPSE
  5
153
330
1F
100
AcDbEntity
  8
1
100
AcDbEllipse
 10
447.5383169999999
 20
299.2875899999999
 30
0.0
 11
-0.0942167666043793
 21
0.0332317783578887
 31
0.0
210
0.0
220
0.0
230
1.0
 40
0.9986239999999998
 41
0.5726935872549836
 42
1.94522751526421
  0
ELLIPSE
  5
154
330
1F
100
AcDbEntity
  8
1
100
AcDbEllipse
 10
447.981882
 20
299.39284
 30
0.0
 11
-0.5243116980215642
 21
0.1849332211989859
 31
0.0
210
0.0
220
0.0
230
1.0
 40
0.9986239999999998
 41
5.935755321264702
 42
6.855878894434512
  0
ELLIPSE
  5
155
330
1F
100
AcDbEntity
  8
1
100
AcDbEllipse
 10
447.629065
 20
299.681716
 30
0.0
 11
-0.0942167666043792
 21
0.0332317783578887
 31
0.0
210
0.0
220
0.0
230
0.9999999999999998
 40
0.9986239999999998
 41
4.563221393255824
 42
5.935755321264869
  0
ELLIPSE
  5
156
330
1F
100
AcDbEntity
  8
1
100
AcDbEllipse
 10
447.722704
 20
299.857923
 30
0.0
 11
-0.0942167666043792
 21
0.0332317783578887
 31
0.0
210
0.0
220
0.0
230
0.9999999999999998
 40
0.9986239999999998
 41
1.42162873966601
 42
2.270563892076685
  0
ELLIPSE
  5
157
330
1F
100
AcDbEntity
  8
1
100
AcDbEllipse
 10
447.5615969999999
 20
300.284191
 30
0.0
 11
-0.524311698021564
 21
0.1849332211989858
 31
0.0
210
0.0
220
0.0
230
0.9999999999999998
 40
0.9986239999999998
 41
2.270563892076591
 42
3.19068746524642
  0
ELLIPSE
  5
158
330
1F
100
AcDbEntity
  8
1
100
AcDbEllipse
 10
447.9986079999999
 20
300.153751
 30
0.0
 11
-0.0942167666043792
 21
0.0332317783578887
 31
0.0
210
0.0
220
0.0
230
1.0
 40
0.9986239999999998
 41
3.190687465246298
 42
4.039622617657316
  0
ELLIPSE
  5
159
330
1F
100
AcDbEntity
  8
1
100
AcDbEllipse
 10
448.16794
 20
300.259505
 30
0.0
 11
-0.0942167666043793
 21
0.0332317783578887
 31
0.0
210
0.0
220
0.0
230
1.0
 40
0.9986239999999998
 41
5.80868134323816
 42
7.181215271246977
  0
ELLIPSE
  5
15A
330
1F
100
AcDbEntity
  8
1
100
AcDbEllipse
 10
448.4813019999999
 20
299.928325
 30
0.0
 11
-0.5243116980215642
 21
0.1849332211989859
 31
0.0
210
0.0
220
0.0
230
1.0
 40
0.9986239999999998
 41
4.888557770068036
 42
5.808681343237902
  0
ELLIPSE
  5
15B
330
1F
100
AcDbEntity
  8
1
100
AcDbEllipse
 10
448.5550719999999
 20
300.377767
 30
0.0
 11
-0.0942167666043792
 21
0.0332317783578887
 31
0.0
210
0.0
220
0.0
230
0.9999999999999998
 40
0.9986239999999998
 41
3.516023842058856
 42
4.888557770068413
  0
ELLIPSE
  5
15C
330
1F
100
AcDbEntity
  8
1
100
AcDbEllipse
 10
257.958506
 20
288.907994
 30
0.0
 11
52.2669996291925
 21
-10.37382045491579
 31
0.0
210
0.0
220
0.0
230
0.9999999999999998
 40
0.207289
 41
5.442202251657244
 42
5.559438166419496
  0
ELLIPSE
  5
15D
330
1F
100
AcDbEntity
  8
1
100
AcDbEllipse
 10
445.0162619999999
 20
306.248569
 30
0.0
 11
11.88251702683406
 21
-4.191156058535553
 31
0.0
210
0.0
220
0.0
230
1.0
 40
0.9986239999999998
 41
4.52875926286245
 42
4.706144756255657
  0
ELLIPSE
  5
15E
330
1F
100
AcDbEntity
  8
1
100
AcDbEllipse
 10
448.722369
 20
299.30231
 30
0.0
 11
-2.593406493951863
 21
0.914736441347072
 31
0.0
210
0.0
220
0.0
230
1.0
 40
0.9986239999999998
 41
3.141683399138615
 42
6.283178024433413
  0
ELLIPSE
  5
15F
330
1F
100
AcDbEntity
  8
1
100
AcDbEllipse
 10
445.155674
 20
292.074696
 30
0.0
 11
-3.458329619716086
 21
-0.1357310738419658
 31
0.0
210
0.0
220
0.0
230
1.0
 40
0.22151
 41
1.675455624006715
 42
4.605502723783792
  0
ELLIPSE
  5
160
330
1F
100
AcDbEntity
  8
1
100
AcDbEllipse
 10
450.243557
 20
288.907998
 30
0.0
 11
25.72648647733166
 21
-14.79848926447671
 31
0.0
210
0.0
220
0.0
230
0.9999999999999998
 40
0.095248
 41
4.272278679059879
 42
4.310031568924625
  0
ELLIPSE
  5
161
330
1F
100
AcDbEntity
  8
1
100
AcDbEllipse
 10
444.703872
 20
288.907993
 30
0.0
 11
0.5016380973953238
 21
-14.99999697916012
 31
0.0
210
0.0
220
0.0
230
1.0
 40
0.0191
 41
3.052398768935061
 42
3.116958561380576
  0
ELLIPSE
  5
162
330
1F
100
AcDbEntity
  8
1
100
AcDbEllipse
 10
444.5709849999999
 20
288.907994
 30
0.0
 11
0.4205911739403252
 21
-14.99988351614932
 31
0.0
210
0.0
220
0.0
230
1.0
 40
0.140543
 41
3.113656564962893
 42
3.228346555281173
  0
ELLIPSE
  5
163
330
1F
100
AcDbEntity
  8
1
100
AcDbEllipse
 10
314.675429
 20
288.908
 30
0.0
 11
391.9393496095935
 21
14.627842633379
 31
0.0
210
0.0
220
0.0
230
1.0
 40
0.008472
 41
5.052580491941445
 42
5.067876635212657
  0
ELLIPSE
  5
164
330
1F
100
AcDbEntity
  8
1
100
AcDbEllipse
 10
448.8611429999999
 20
299.407011
 30
0.0
 11
-3.064934947397662
 21
1.081052157955632
 31
0.0
210
0.0
220
0.0
230
0.9999999999999998
 40
0.9986239999999998
 41
0.0
 42
6.283185307179585
  0
ELLIPSE
  5
165
330
1F
100
AcDbEntity
  8
1
100
AcDbEllipse
 10
444.678737
 20
303.244024
 30
0.0
 11
1.034593538569615
 21
-0.9639382199940447
 31
0.0
210
0.0
220
0.0
230
1.0
 40
0.033998
 41
1.030799854816297
 42
1.585610887250534
  0
ELLIPSE
  5
166
330
1F
100
AcDbEntity
  8
1
100
AcDbEllipse
 10
452.725926
 20
303.524746
 30
0.0
 11
0.9634869157644173
 21
1.034109154382412
 31
0.0
210
0.0
220
0.0
230
1.0
 40
0.01483
 41
1.536779663066313
 42
2.091590697654081
  0
ELLIPSE
  5
167
330
1F
100
AcDbEntity
  8
1
100
AcDbEllipse
 10
453.013899
 20
295.485933
 30
0.0
 11
1.034593537479779
 21
-0.9639382190115178
 31
0.0
210
0.0
220
0.0
230
1.0
 40
0.033998
 41
1.585610887776619
 42
2.140421920770398
  0
ELLIPSE
  5
168
330
1F
100
AcDbEntity
  8
1
100
AcDbEllipse
 10
448.754725
 20
300.384732
 30
0.0
 11
-0.0942167666043792
 21
0.0332317783578887
 31
0.0
210
0.0
220
0.0
230
0.9999999999999998
 40
0.9986239999999998
 41
0.3744311884691958
 42
1.223366340880017
  0
ELLIPSE
  5
169
330
1F
100
AcDbEntity
  8
1
100
AcDbEllipse
 10
449.0436059999999
 20
300.736921
 30
0.0
 11
-0.524311698021564
 21
0.1849332211989858
 31
0.0
210
0.0
220
0.0
230
0.9999999999999998
 40
0.9986239999999998
 41
1.223366340879979
 42
2.14348991404983
  0
ELLIPSE
  5
16A
330
1F
100
AcDbEntity
  8
1
100
AcDbEllipse
 10
449.1493519999999
 20
300.293741
 30
0.0
 11
-0.0942167666043792
 21
0.0332317783578887
 31
0.0
210
0.0
220
0.0
230
1.0
 40
0.9986239999999998
 41
2.143489914050076
 42
2.992425066460571
  0
ELLIPSE
  5
16B
330
1F
100
AcDbEntity
  8
1
100
AcDbEllipse
 10
449.3258289999999
 20
300.20005
 30
0.0
 11
-0.0942167666043793
 21
0.0332317783578887
 31
0.0
210
0.0
220
0.0
230
1.0
 40
0.9986239999999998
 41
4.761483792041667
 42
6.134017720050633
  0
ELLIPSE
  5
16C
330
1F
100
AcDbEntity
  8
1
100
AcDbEllipse
 10
449.195626
 20
299.763619
 30
0.0
 11
-0.5243116980215642
 21
0.1849332211989859
 31
0.0
210
0.0
220
0.0
230
1.0
 40
0.9986239999999998
 41
3.841360218871477
 42
4.761483792041362
  0
ELLIPSE
  5
16D
330
1F
100
AcDbEntity
  8
1
100
AcDbEllipse
 10
449.6222119999999
 20
299.924186
 30
0.0
 11
-0.0942167666043792
 21
0.0332317783578887
 31
0.0
210
0.0
220
0.0
230
0.9999999999999998
 40
0.9986239999999998
 41
2.46882629086276
 42
3.841360218871511
  0
ELLIPSE
  5
16E
330
1F
100
AcDbEntity
  8
1
100
AcDbEllipse
 10
449.7282269999999
 20
299.754944
 30
0.0
 11
-0.0942167666043792
 21
0.0332317783578887
 31
0.0
210
0.0
220
0.0
230
0.9999999999999998
 40
0.9986239999999998
 41
5.610418944452443
 42
6.459354096863028
  0
ELLIPSE
  5
16F
330
1F
100
AcDbEntity
  8
1
100
AcDbEllipse
 10
450.178215
 20
299.680865
 30
0.0
 11
-0.524311698021564
 21
0.1849332211989858
 31
0.0
210
0.0
220
0.0
230
0.9999999999999998
 40
0.9986239999999998
 41
0.1761687896833909
 42
1.096292362853231
  0
ELLIPSE
  5
170
330
1F
100
AcDbEntity
  8
1
100
AcDbEllipse
 10
449.8469499999999
 20
299.368125
 30
0.0
 11
-0.0942167666043792
 21
0.0332317783578887
 31
0.0
210
0.0
220
0.0
230
1.0
 40
0.9986239999999998
 41
1.096292362853303
 42
1.945227515264683
  0
ELLIPSE
  5
171
330
1F
100
AcDbEntity
  8
1
100
AcDbEllipse
 10
449.854095
 20
299.16868
 30
0.0
 11
-0.0942167666043793
 21
0.0332317783578887
 31
0.0
210
0.0
220
0.0
230
1.0
 40
0.9986239999999998
 41
3.714286240844656
 42
5.086820168853789
  0
ELLIPSE
  5
172
330
1F
100
AcDbEntity
  8
1
100
AcDbEllipse
 10
449.41053
 20
299.063429
 30
0.0
 11
-0.5243116980215642
 21
0.1849332211989859
 31
0.0
210
0.0
220
0.0
230
1.0
 40
0.9986239999999998
 41
2.794162667674933
 42
3.71428624084472
  0
ELLIPSE
  5
173
330
1F
100
AcDbEntity
  8
1
100
AcDbEllipse
 10
449.7633469999999
 20
298.774554
 30
0.0
 11
-0.0942167666043792
 21
0.0332317783578887
 31
0.0
210
0.0
220
0.0
230
0.9999999999999998
 40
0.9986239999999998
 41
1.421628739665468
 42
2.794162667674978
  0
ELLIPSE
  5
174
330
1F
100
AcDbEntity
  8
1
100
AcDbEllipse
 10
449.669708
 20
298.598347
 30
0.0
 11
-0.0942167666043792
 21
0.0332317783578887
 31
0.0
210
0.0
220
0.0
230
0.9999999999999998
 40
0.9986239999999998
 41
4.563221393255563
 42
5.412156545666387
  0
ELLIPSE
  5
175
330
1F
100
AcDbEntity
  8
1
100
AcDbEllipse
 10
449.830815
 20
298.172078
 30
0.0
 11
-0.524311698021564
 21
0.1849332211989858
 31
0.0
210
0.0
220
0.0
230
0.9999999999999998
 40
0.9986239999999998
 41
5.412156545666433
 42
6.332280118836262
  0
ELLIPSE
  5
176
330
1F
100
AcDbEntity
  8
1
100
AcDbEllipse
 10
449.3938039999999
 20
298.302519
 30
0.0
 11
-0.0942167666043792
 21
0.0332317783578887
 31
0.0
210
0.0
220
0.0
230
1.0
 40
0.9986239999999998
 41
0.0490948116566467
 42
0.8980299640673907
  0
ELLIPSE
  5
177
330
1F
100
AcDbEntity
  8
1
100
AcDbEllipse
 10
449.224472
 20
298.1967649999999
 30
0.0
 11
-0.0942167666043793
 21
0.0332317783578887
 31
0.0
210
0.0
220
0.0
230
1.0
 40
0.9986239999999998
 41
2.667088689647981
 42
4.039622617657183
  0
ELLIPSE
  5
178
330
1F
100
AcDbEntity
  8
1
100
AcDbEllipse
 10
448.911111
 20
298.5279450000001
 30
0.0
 11
-0.5243116980215642
 21
0.1849332211989859
 31
0.0
210
0.0
220
0.0
230
1.0
 40
0.9986239999999998
 41
1.746965116478247
 42
2.667088689648133
  0
ELLIPSE
  5
179
330
1F
100
AcDbEntity
  8
1
100
AcDbEllipse
 10
448.837341
 20
298.078502
 30
0.0
 11
-0.0942167666043792
 21
0.0332317783578887
 31
0.0
210
0.0
220
0.0
230
0.9999999999999998
 40
0.9986239999999998
 41
0.3744311884691958
 42
1.746965116478875
  0
ELLIPSE
  5
17A
330
1F
100
AcDbEntity
  8
1
100
AcDbEllipse
 10
448.6376869999999
 20
298.071538
 30
0.0
 11
-0.0942167666043792
 21
0.0332317783578887
 31
0.0
210
0.0
220
0.0
230
0.9999999999999998
 40
0.9986239999999998
 41
3.516023842058752
 42
4.364958994469541
  0
ELLIPSE
  5
17B
330
1F
100
AcDbEntity
  8
1
100
AcDbEllipse
 10
448.3488059999999
 20
297.719348
 30
0.0
 11
-0.524311698021564
 21
0.1849332211989858
 31
0.0
210
0.0
220
0.0
230
0.9999999999999998
 40
0.9986239999999998
 41
4.364958994469771
 42
5.285082567639678
  0
ELLIPSE
  5
17C
330
1F
100
AcDbEntity
  8
1
100
AcDbEllipse
 10
448.6962059999999
 20
299.228135
 30
0.0
 11
1.697502432404862
 21
-0.598736579790792
 31
0.0
210
0.0
220
0.0
230
0.9999999999999998
 40
0.9986239999999998
 41
0.0
 42
6.283185307179585
  0
ELLIPSE
  5
17D
330
1F
100
AcDbEntity
  8
1
100
AcDbEllipse
 10
448.883818
 20
299.471296
 30
0.0
 11
2.919001017965134
 21
-1.02957889929282
 31
0.0
210
0.0
220
0.0
230
0.9999999999999998
 40
0.9986239999999998
 41
0.0
 42
6.283185307179585
  0
ELLIPSE
  5
17E
330
1F
100
AcDbEntity
  8
1
100
AcDbEllipse
 10
444.96671
 20
295.205212
 30
0.0
 11
0.9634869195754895
 21
1.034109158444682
 31
0.0
210
0.0
220
0.0
230
0.9999999999999998
 40
0.01483
 41
0.9819686316363014
 42
1.536779664123258
  0
ELLIPSE
  5
17F
330
1F
100
AcDbEntity
  8
1
100
AcDbEllipse
 10
448.8640209999999
 20
299.415171
 30
0.0
 11
2.9750967111536
 21
-1.049364758116642
 31
0.0
210
0.0
220
0.0
230
0.9999999999999998
 40
0.9986239999999998
 41
0.0
 42
6.283185307179585
  0
SPLINE
  5
186
330
1F
100
AcDbEntity
  8
1
100
AcDbSpline
210
0.0
220
0.0
230
1.0
 70
     8
 71
     3
 72
    14
 73
    10
 74
     0
 42
0.000000001
 43
0.0000000001
 40
0.0
 40
0.0
 40
0.0
 40
0.0
 40
0.25
 40
0.25
 40
0.5
 40
0.5
 40
0.75
 40
0.75
 40
1.0
 40
1.0
 40
1.0
 40
1.0
 10
295.8193742355447
 20
303.7341293142093
 30
0.0
 10
295.4281012561954
 20
303.7535372866122
 30
0.0
 10
295.0391158170882
 20
303.7723633062718
 30
0.0
 10
294.2646758151207
 20
303.8074390036582
 30
0.0
 10
293.8792169491431
 20
303.8236874562168
 30
0.0
 10
293.1109388145352
 20
303.8525012657984
 30
0.0
 10
292.7281157341801
 20
303.8650687569917
 30
0.0
 10
291.9645053793532
 20
303.8857157793251
 30
0.0
 10
291.5837162798863
 20
303.8938004466305
 30
0.0
 10
291.2038318185329
 20
303.8993337573672
 30
0.0
  0
SPLINE
  5
187
330
1F
100
AcDbEntity
  8
1
100
AcDbSpline
210
0.0
220
0.0
230
1.0
 70
     8
 71
     3
 72
    10
 73
     6
 74
     0
 42
0.000000001
 43
0.0000000001
 40
0.0
 40
0.0
 40
0.0
 40
0.0
 40
0.3332219121051191
 40
0.3332219121051191
 40
1.0
 40
1.0
 40
1.0
 40
1.0
 10
290.0992435801138
 20
303.9516350848827
 30
0.0
 10
290.2198322313704
 20
303.9420899739493
 30
0.0
 10
290.34109165687
 20
303.9337125706859
 30
0.0
 10
290.7070872894448
 20
303.9122930828654
 30
0.0
 10
290.9539203733436
 20
303.9029739106857
 30
0.0
 10
291.2038318185326
 20
303.8993337573667
 30
0.0
  0
SPLINE
  5
188
330
1F
100
AcDbEntity
  8
1
100
AcDbSpline
210
0.0
220
0.0
230
1.0
 70
     8
 71
     3
 72
     8
 73
     4
 74
     0
 42
0.000000001
 43
0.0000000001
 40
0.0
 40
0.0
 40
0.0
 40
0.0
 40
1.0
 40
1.0
 40
1.0
 40
1.0
 10
295.6997430987598
 20
273.9600848121869
 30
0.0
 10
295.876817878227
 20
273.9661906504872
 30
0.0
 10
296.0567245688439
 20
273.9721784805553
 30
0.0
 10
296.2397155210464
 20
273.9776676738903
 30
0.0
  0
SPLINE
  5
18C
330
1F
100
AcDbEntity
  8
1
100
AcDbSpline
210
0.0
220
0.0
230
1.0
 70
     8
 71
     3
 72
    54
 73
    50
 74
     0
 42
0.000000001
 43
0.0000000001
 40
0.0
 40
0.0
 40
0.0
 40
0.0
 40
0.0494266505955335
 40
0.0494266505955335
 40
0.0988533011910669
 40
0.0988533011910669
 40
0.1235666264888337
 40
0.1235666264888337
 40
0.1482799517866004
 40
0.1482799517866004
 40
0.1977066023821348
 40
0.1977066023821348
 40
0.2471332529776692
 40
0.2471332529776692
 40
0.2965599035732036
 40
0.2965599035732036
 40
0.345986554168738
 40
0.345986554168738
 40
0.3706998794665047
 40
0.3706998794665047
 40
0.3954132047642714
 40
0.3954132047642714
 40
0.4448398553598059
 40
0.4448398553598059
 40
0.4942665059553408
 40
0.4942665059553408
 40
0.5436931565508756
 40
0.5436931565508756
 40
0.5931198071464104
 40
0.5931198071464104
 40
0.6919731083374796
 40
0.6919731083374796
 40
0.7413997589330143
 40
0.7413997589330143
 40
0.7661130842307815
 40
0.7661130842307815
 40
0.7908264095285489
 40
0.7908264095285489
 40
0.840253060124083
 40
0.840253060124083
 40
0.8896797107196173
 40
0.8896797107196173
 40
0.9391063613151516
 40
0.9391063613151516
 40
0.9638196866129183
 40
0.9638196866129183
 40
0.9885330119106857
 40
0.9885330119106857
 40
1.0
 40
1.0
 40
1.0
 40
1.0
 10
439.955724797349
 20
303.8237253568731
 30
0.0
 10
438.5132703223797
 20
303.8544090941863
 30
0.0
 10
437.0678769117309
 20
303.8750581501911
 30
0.0
 10
434.1712061595765
 20
303.9015045684628
 30
0.0
 10
432.7199309732608
 20
303.9073127277919
 30
0.0
 10
430.538861577363
 20
303.9082492790999
 30
0.0
 10
429.8111481552397
 20
303.9072585590997
 30
0.0
 10
428.354410156536
 20
303.9031383487013
 30
0.0
 10
427.6255224874746
 20
303.9000092407715
 30
0.0
 10
425.4378975008627
 20
303.8880234896023
 30
0.0
 10
423.9779794711433
 20
303.8766020993577
 30
0.0
 10
421.0556434183208
 20
303.849310479863
 30
0.0
 10
419.5932263749381
 20
303.8334381070711
 30
0.0
 10
416.6665240694748
 20
303.7985879655867
 30
0.0
 10
415.2022396569089
 20
303.7796074514689
 30
0.0
 10
412.2725338106253
 20
303.7388944839329
 30
0.0
 10
410.8071399807561
 20
303.7171604909665
 30
0.0
 10
408.608935402562
 20
303.6820766238736
 30
0.0
 10
407.8761776880094
 20
303.669950664973
 30
0.0
 10
406.4106551811709
 20
303.6447769873257
 30
0.0
 10
405.6778871630863
 20
303.6317348925341
 30
0.0
 10
403.4795853927159
 20
303.5912023541919
 30
0.0
 10
402.0140544807821
 20
303.562308692621
 30
0.0
 10
399.083111892387
 20
303.5004729327502
 30
0.0
 10
397.6176974727019
 20
303.4675293228902
 30
0.0
 10
394.6870922408806
 20
303.3972070631413
 30
0.0
 10
393.2219422129068
 20
303.359828478295
 30
0.0
 10
390.2920271198448
 20
303.2802102281512
 30
0.0
 10
388.8272617662768
 20
303.2379706135332
 30
0.0
 10
384.4336312058435
 20
303.1032769160119
 30
0.0
 10
381.5054235237736
 20
303.0029122398499
 30
0.0
 10
377.1147723605222
 20
302.8331301585902
 30
0.0
 10
375.6514995073098
 20
302.7733197948335
 30
0.0
 10
373.4570857656983
 20
302.6781114287343
 30
0.0
 10
372.7256975280863
 20
302.6454572741625
 30
0.0
 10
371.2631067071843
 20
302.5781607783547
 30
0.0
 10
370.5319040478936
 20
302.5435178308828
 30
0.0
 10
368.3385476940292
 20
302.4365858296625
 30
0.0
 10
366.8766466698453
 20
302.3612852405703
 30
0.0
 10
363.9533697686439
 20
302.2026731952923
 30
0.0
 10
362.4919853179778
 20
302.1193527541717
 30
0.0
 10
359.5699437957031
 20
301.9450898440757
 30
0.0
 10
358.1092394232921
 20
301.8541382602203
 30
0.0
 10
355.9184503508669
 20
301.7127105561069
 30
0.0
 10
355.1882311377548
 20
301.6647398439875
 30
0.0
 10
353.7278363722957
 20
301.5673325588462
 30
0.0
 10
352.9976579484542
 20
301.5179097589703
 30
0.0
 10
351.9286894187156
 20
301.4445733306013
 30
0.0
 10
351.5898926330098
 20
301.4211842879089
 30
0.0
 10
351.2510973538567
 20
301.397652836094
 30
0.0
  0
SPLINE
  5
18D
330
1F
100
AcDbEntity
  8
1
100
AcDbSpline
210
0.0
220
0.0
230
1.0
 70
    28
 71
     4
 72
    13
 73
     8
 74
     0
 42
0.000000001
 43
0.0000000001
 40
0.0
 40
0.0
 40
0.0
 40
0.0
 40
0.0
 40
0.0111258497467878
 40
0.0111258497467878
 40
0.0111258497467878
 40
1.0
 40
1.0
 40
1.0
 40
1.0
 40
1.0
 10
297.9048419452957
 20
281.7872410613697
 30
0.0
 41
1.001554748319257
 10
297.9048419452957
 20
281.766432447273
 30
0.0
 41
1.001558946618333
 10
297.9048419452957
 20
281.7456170867824
 30
0.0
 41
1.001561792473339
 10
297.9048419452959
 20
281.7247957649144
 30
0.0
 41
1.00156323924462
 10
297.9048419452959
 20
279.8528944100381
 30
0.0
 41
1.00156323924462
 10
297.9048419452959
 20
277.5906465322963
 30
0.0
 41
0.9901340467615263
 10
297.9048419452959
 20
275.509845198816
 30
0.0
 41
1.000758985365379
 10
297.9048419452959
 20
274.0044460613796
 30
0.0
 41
1.001525509877287
  0
SPLINE
  5
18E
330
1F
100
AcDbEntity
  8
1
100
AcDbSpline
210
0.0
220
0.0
230
1.0
 70
     8
 71
     3
 72
    65
 73
    61
 74
     0
 42
0.000000001
 43
0.0000000001
 40
0.0
 40
0.0
 40
0.0
 40
0.0
 40
0.0312499999999999
 40
0.0312499999999999
 40
0.0624999999999999
 40
0.0624999999999999
 40
0.0937499999999998
 40
0.0937499999999998
 40
0.1249999999999998
 40
0.1249999999999998
 40
0.1874999999999996
 40
0.1874999999999996
 40
0.2499999999999995
 40
0.2499999999999995
 40
0.2812499999999996
 40
0.2812499999999996
 40
0.3124999999999996
 40
0.3124999999999996
 40
0.3437499999999997
 40
0.3437499999999997
 40
0.3749999999999997
 40
0.3749999999999997
 40
0.4062499999999998
 40
0.4062499999999998
 40
0.421875
 40
0.421875
 40
0.4375000000000001
 40
0.4375000000000001
 40
0.4687500000000002
 40
0.4687500000000002
 40
0.5000000000000002
 40
0.5000000000000002
 40
0.5312500000000002
 40
0.5312500000000002
 40
0.5625000000000004
 40
0.5625000000000004
 40
0.5781250000000004
 40
0.5781250000000004
 40
0.5937500000000002
 40
0.5937500000000002
 40
0.6250000000000004
 40
0.6250000000000004
 40
0.6562500000000004
 40
0.6562500000000004
 40
0.6875000000000005
 40
0.6875000000000005
 40
0.7500000000000005
 40
0.7500000000000005
 40
0.8125000000000008
 40
0.8125000000000008
 40
0.8437500000000007
 40
0.8437500000000007
 40
0.8750000000000005
 40
0.8750000000000005
 40
0.9062500000000003
 40
0.9062500000000003
 40
0.9375000000000001
 40
0.9375000000000001
 40
0.96875
 40
1.0
 40
1.0
 40
1.0
 40
1.0
 10
299.798118164646
 20
281.2834366008229
 30
0.0
 10
301.1004181268776
 20
281.1469131129214
 30
0.0
 10
302.4030230299509
 20
281.0140661033159
 30
0.0
 10
305.0087596982111
 20
280.7548437419244
 30
0.0
 10
306.3118913570707
 20
280.6284672456732
 30
0.0
 10
308.918574215267
 20
280.3811977506364
 30
0.0
 10
310.2221252892927
 20
280.2603035445435
 30
0.0
 10
312.8295190138526
 20
280.0229410973444
 30
0.0
 10
314.1333615244159
 20
279.9064716016425
 30
0.0
 10
318.0451095023804
 20
279.5620671609994
 30
0.0
 10
320.6530981438308
 20
279.3391215609705
 30
0.0
 10
325.8678529959855
 20
278.8980815965177
 30
0.0
 10
328.4746384098277
 20
278.67993820844
 30
0.0
 10
332.3828115135253
 20
278.3510103350609
 30
0.0
 10
333.6852013820061
 20
278.241097804301
 30
0.0
 10
336.2891312927208
 20
278.0201067279574
 30
0.0
 10
337.5906710543544
 20
277.909026393675
 30
0.0
 10
340.1927327536112
 20
277.6853057612374
 30
0.0
 10
341.4932543619904
 20
277.5726636260866
 30
0.0
 10
344.0931341832735
 20
277.3457157157136
 30
0.0
 10
345.3924920124338
 20
277.2314081682759
 30
0.0
 10
347.9899318064666
 20
277.0013706827949
 30
0.0
 10
349.2880133336791
 20
276.8856392325061
 30
0.0
 10
351.2341284510859
 20
276.7114524911284
 30
0.0
 10
351.8826310546497
 20
276.6532983443016
 30
0.0
 10
353.1790629898304
 20
276.5369412284278
 30
0.0
 10
353.8270095686133
 20
276.4787148476377
 30
0.0
 10
355.7700934605223
 20
276.3043422916195
 30
0.0
 10
357.064524095318
 20
276.1887188639362
 30
0.0
 10
359.6525299600437
 20
275.9633101139658
 30
0.0
 10
360.9461063250571
 20
275.8535232506113
 30
0.0
 10
363.5333231704472
 20
275.6429359823722
 30
0.0
 10
364.8269638391461
 20
275.5421286100609
 30
0.0
 10
367.4150612873881
 20
275.3513303983011
 30
0.0
 10
368.7095167885392
 20
275.2613286594193
 30
0.0
 10
370.6522613618212
 20
275.1350284866931
 30
0.0
 10
371.3000187017507
 20
275.0943717705651
 30
0.0
 10
372.5959508056969
 20
275.0159770853531
 30
0.0
 10
373.244125148289
 20
274.9782362431627
 30
0.0
 10
375.1892322820169
 20
274.8690825820763
 30
0.0
 10
376.4867457626045
 20
274.8017262712077
 30
0.0
 10
379.0832016377782
 20
274.676622643478
 30
0.0
 10
380.3821453505045
 20
274.6188821239969
 30
0.0
 10
382.9814357196323
 20
274.5121241002637
 30
0.0
 10
384.2817835157049
 20
274.4631110301633
 30
0.0
 10
388.1849760774575
 20
274.3280440619864
 30
0.0
 10
390.7888106574493
 20
274.2540131031548
 30
0.0
 10
396.0001674010841
 20
274.1322692461818
 30
0.0
 10
398.6077368555435
 20
274.0845584565172
 30
0.0
 10
402.5222308570271
 20
274.0282819406879
 30
0.0
 10
403.8275837802922
 20
274.0120694880584
 30
0.0
 10
406.4393638252489
 20
273.9839986215439
 30
0.0
 10
407.7457944387131
 20
273.9721425327405
 30
0.0
 10
410.3597359376764
 20
273.952059158509
 30
0.0
 10
411.6672285044426
 20
273.943808003216
 30
0.0
 10
414.2829761935033
 20
273.9301321928162
 30
0.0
 10
415.5912525132203
 20
273.9247087929243
 30
0.0
 10
418.2081256085036
 20
273.916197401931
 30
0.0
 10
420.8253517719083
 20
273.9100223447705
 30
0.0
 10
423.4428384772125
 20
273.9079935137005
 30
0.0
 10
424.7515332864686
 20
273.9079935137005
 30
0.0
  0
SPLINE
  5
18F
330
1F
100
AcDbEntity
  8
1
100
AcDbSpline
210
0.0
220
0.0
230
1.0
 70
     8
 71
     3
 72
    63
 73
    59
 74
     0
 42
0.000000001
 43
0.0000000001
 40
0.0
 40
0.0
 40
0.0
 40
0.0
 40
0.0625000000000003
 40
0.0625000000000003
 40
0.0937500000000004
 40
0.0937500000000004
 40
0.1250000000000006
 40
0.1250000000000006
 40
0.1875000000000006
 40
0.1875000000000006
 40
0.2500000000000007
 40
0.2500000000000007
 40
0.3125000000000006
 40
0.3125000000000006
 40
0.3437500000000003
 40
0.3437500000000003
 40
0.3750000000000001
 40
0.3750000000000001
 40
0.40625
 40
0.40625
 40
0.4374999999999998
 40
0.4374999999999998
 40
0.4687499999999995
 40
0.4687499999999995
 40
0.4999999999999993
 40
0.4999999999999993
 40
0.5312499999999992
 40
0.5312499999999992
 40
0.562499999999999
 40
0.562499999999999
 40
0.5937499999999988
 40
0.5937499999999988
 40
0.6249999999999986
 40
0.6249999999999986
 40
0.6562499999999984
 40
0.6562499999999984
 40
0.6874999999999983
 40
0.6874999999999983
 40
0.7499999999999978
 40
0.7499999999999978
 40
0.7812499999999979
 40
0.7812499999999979
 40
0.8124999999999978
 40
0.8124999999999978
 40
0.8437499999999978
 40
0.8437499999999978
 40
0.874999999999998
 40
0.874999999999998
 40
0.906249999999998
 40
0.906249999999998
 40
0.9218749999999984
 40
0.9374999999999987
 40
0.9531249999999992
 40
0.9531249999999992
 40
0.9687499999999992
 40
0.9687499999999992
 40
0.9843749999999996
 40
1.0
 40
1.0
 40
1.0
 40
1.0
 10
297.9048419452959
 20
303.6796661130478
 30
0.0
 10
300.8305844691822
 20
303.629558030814
 30
0.0
 10
303.7548232623854
 20
303.5688399653219
 30
0.0
 10
308.1393731780075
 20
303.4593834003115
 30
0.0
 10
309.600589795015
 20
303.4198429510603
 30
0.0
 10
312.5225123559429
 20
303.3343622030054
 30
0.0
 10
313.9832365344706
 20
303.2884207963264
 30
0.0
 10
318.3644739691334
 20
303.1407198306532
 30
0.0
 10
321.2841407725988
 20
303.0290242037653
 30
0.0
 10
327.1220508550813
 20
302.7789754015147
 30
0.0
 10
330.0402978732482
 20
302.6406284422102
 30
0.0
 10
335.8763113929738
 20
302.3388231512973
 30
0.0
 10
338.7940820231567
 20
302.1753852702295
 30
0.0
 10
343.1710272112705
 20
301.9135735389342
 30
0.0
 10
344.630066384568
 20
301.8235349254863
 30
0.0
 10
347.5481518525582
 20
301.638358371768
 30
0.0
 10
349.0072196188826
 20
301.543220185956
 30
0.0
 10
351.925485339022
 20
301.3482754095033
 30
0.0
 10
353.3846899901682
 20
301.2485015145306
 30
0.0
 10
356.3032629066628
 20
301.0445486706851
 30
0.0
 10
357.7626131022062
 20
300.9402515013499
 30
0.0
 10
360.6812203581858
 20
300.7261915240151
 30
0.0
 10
362.1404492770619
 20
300.6164279177984
 30
0.0
 10
365.0587040004278
 20
300.391064803705
 30
0.0
 10
366.5177305910394
 20
300.2754657596191
 30
0.0
 10
369.4356281142699
 20
300.0385599734328
 30
0.0
 10
370.8945000632441
 20
299.9172561303888
 30
0.0
 10
373.8122063850369
 20
299.6695073829629
 30
0.0
 10
375.2710528695864
 20
299.5431103243679
 30
0.0
 10
378.1887746805298
 20
299.2863107613408
 30
0.0
 10
379.6476651554302
 20
299.1559047979099
 30
0.0
 10
382.5656046066482
 20
298.8917448198689
 30
0.0
 10
384.0246529239463
 20
298.7579886541745
 30
0.0
 10
386.9429501641325
 20
298.4874888389671
 30
0.0
 10
388.402209950649
 20
298.3507422901534
 30
0.0
 10
391.3208814074846
 20
298.0743887614236
 30
0.0
 10
392.7802720503445
 20
297.9347826293756
 30
0.0
 10
397.1585787363677
 20
297.5115741320967
 30
0.0
 10
400.0776393799998
 20
297.2236748177286
 30
0.0
 10
404.456208186704
 20
296.7811722412899
 30
0.0
 10
405.9157236693303
 20
296.6318745759281
 30
0.0
 10
408.8345313374928
 20
296.3290188045113
 30
0.0
 10
410.2938458315363
 20
296.1755135076758
 30
0.0
 10
413.2120668180158
 20
295.8626000441319
 30
0.0
 10
414.6709673929751
 20
295.703146666912
 30
0.0
 10
417.5882434160431
 20
295.3772803593802
 30
0.0
 10
419.0466339715975
 20
295.2108438765872
 30
0.0
 10
421.9629031441312
 20
294.8715227999483
 30
0.0
 10
423.4207609820366
 20
294.6986132684407
 30
0.0
 10
425.6074353188274
 20
294.4364724124388
 30
0.0
 10
427.065186113767
 20
294.2608273835243
 30
0.0
 10
429.2519729702559
 20
293.9965778735229
 30
0.0
 10
430.7101622703897
 20
293.8215655770311
 30
0.0
 10
432.1686572852091
 20
293.648199120179
 30
0.0
 10
432.8980618016594
 20
293.5623382092702
 30
0.0
 10
434.3572030461575
 20
293.3935873700125
 30
0.0
 10
435.8167044595543
 20
293.2278040440006
 30
0.0
 10
437.2772413675027
 20
293.0710647621396
 30
0.0
 10
438.0078585016503
 20
292.9958509688572
 30
0.0
  0
SPLINE
  5
190
330
1F
100
AcDbEntity
  8
1
100
AcDbSpline
210
0.0
220
0.0
230
1.0
 70
     8
 71
     3
 72
    39
 73
    35
 74
     0
 42
0.000000001
 43
0.0000000001
 40
0.0
 40
0.0
 40
0.0
 40
0.0
 40
0.124999999999985
 40
0.124999999999985
 40
0.2499999999999701
 40
0.2499999999999701
 40
0.3749999999999551
 40
0.3749999999999551
 40
0.4062499999999513
 40
0.4062499999999513
 40
0.4374999999999474
 40
0.4374999999999474
 40
0.4999999999999564
 40
0.4999999999999564
 40
0.5624999999999655
 40
0.5624999999999655
 40
0.6249999999999745
 40
0.6249999999999745
 40
0.6874999999999836
 40
0.6874999999999836
 40
0.7499999999999926
 40
0.7499999999999926
 40
0.7812499999999921
 40
0.7812499999999921
 40
0.8124999999999914
 40
0.8124999999999914
 40
0.874999999999998
 40
0.874999999999998
 40
0.906249999999998
 40
0.906249999999998
 40
0.9218749999999978
 40
0.9218749999999978
 40
0.9374999999999975
 40
1.0
 40
1.0
 40
1.0
 40
1.0
 10
437.7992279961067
 20
296.8067737903893
 30
0.0
 10
437.9492678257078
 20
296.8744282945348
 30
0.0
 10
438.0977919227175
 20
296.9449639849043
 30
0.0
 10
438.3911803863652
 20
297.0929919784311
 30
0.0
 10
438.5360501442708
 20
297.1704740335765
 30
0.0
 10
438.8212171948831
 20
297.3341297322217
 30
0.0
 10
438.9615262221556
 20
297.4202810700263
 30
0.0
 10
439.1331542858999
 20
297.5351140701233
 30
0.0
 10
439.1673104319178
 20
297.5584561070378
 30
0.0
 10
439.2350462242904
 20
297.6058050678735
 30
0.0
 10
439.2686387856858
 20
297.6298199854934
 30
0.0
 10
439.3685281766645
 20
297.7029630668752
 30
0.0
 10
439.4339405814917
 20
297.7531847760191
 30
0.0
 10
439.5619934693786
 20
297.8570555319406
 30
0.0
 10
439.6246361643822
 20
297.9107018437634
 30
0.0
 10
439.7465923558033
 20
298.0221108489515
 30
0.0
 10
439.8060214122914
 20
298.0800081968886
 30
0.0
 10
439.919499527265
 20
298.1994928512077
 30
0.0
 10
439.9736886391756
 20
298.2611865835111
 30
0.0
 10
440.0758844266868
 20
298.3893053012584
 30
0.0
 10
440.123900004858
 20
298.4557234738037
 30
0.0
 10
440.1901118303161
 20
298.5597981501133
 30
0.0
 10
440.2112092487695
 20
298.5952344651844
 30
0.0
 10
440.2511839382803
 20
298.6678061147445
 30
0.0
 10
440.2700958278112
 20
298.7050404014605
 30
0.0
 10
440.322215793301
 20
298.8178798673209
 30
0.0
 10
440.3511164041892
 20
298.8950754941011
 30
0.0
 10
440.3840637685369
 20
299.0143735132448
 30
0.0
 10
440.3933069743824
 20
299.0547254094515
 30
0.0
 10
440.4042976326889
 20
299.1162214507088
 30
0.0
 10
440.4074782321002
 20
299.1368822871789
 30
0.0
 10
440.4127893068235
 20
299.1781229682872
 30
0.0
 10
440.4234894884236
 20
299.2812760585244
 30
0.0
 10
440.421228812116
 20
299.384687548103
 30
0.0
 10
440.4108334763842
 20
299.4675879338418
 30
0.0
  0
SPLINE
  5
191
330
1F
100
AcDbEntity
  8
1
100
AcDbSpline
210
0.0
220
0.0
230
1.0
 70
     8
 71
     3
 72
    26
 73
    22
 74
     0
 42
0.000000001
 43
0.0000000001
 40
0.0
 40
0.0
 40
0.0
 40
0.0
 40
0.1250000000000009
 40
0.1250000000000009
 40
0.2500000000000019
 40
0.2500000000000019
 40
0.2812500000000018
 40
0.2812500000000018
 40
0.3125000000000017
 40
0.3125000000000017
 40
0.3750000000000017
 40
0.3750000000000017
 40
0.5000000000000013
 40
0.5000000000000013
 40
0.6250000000000009
 40
0.6250000000000009
 40
0.7500000000000007
 40
0.7500000000000007
 40
0.8750000000000003
 40
0.8750000000000003
 40
1.0
 40
1.0
 40
1.0
 40
1.0
 10
288.852717890773
 20
273.7855854228595
 30
0.0
 10
288.4826101941783
 20
273.7404628429528
 30
0.0
 10
288.1180945494843
 20
273.6848828537424
 30
0.0
 10
287.3997246080148
 20
273.5551354564645
 30
0.0
 10
287.0458744278864
 20
273.4809604400538
 30
0.0
 10
286.6101786802537
 20
273.3777348598881
 30
0.0
 10
286.5233712987835
 20
273.3565633891891
 30
0.0
 10
286.3504222909843
 20
273.3131920270311
 30
0.0
 10
286.2644737723334
 20
273.2910404710018
 30
0.0
 10
286.0082723948217
 20
273.2232637017567
 30
0.0
 10
285.8396249205703
 20
273.1763076865057
 30
0.0
 10
285.3400208801355
 20
273.0305247211257
 30
0.0
 10
285.0153915643003
 20
272.926790927819
 30
0.0
 10
284.38268385317
 20
272.708110280486
 30
0.0
 10
284.0746087120717
 20
272.593158918605
 30
0.0
 10
283.475008397684
 20
272.3537032466347
 30
0.0
 10
283.183484843523
 20
272.2291950470868
 30
0.0
 10
282.6172335137843
 20
271.9722028668169
 30
0.0
 10
282.3425062761355
 20
271.8397146122358
 30
0.0
 10
281.810309661983
 20
271.568375049573
 30
0.0
 10
281.5528400226542
 20
271.4295179024901
 30
0.0
 10
281.3043368819199
 20
271.2883766606818
 30
0.0
  0
SPLINE
  5
192
330
1F
100
AcDbEntity
  8
1
100
AcDbSpline
210
0.0
220
0.0
230
1.0
 70
     8
 71
     3
 72
    53
 73
    49
 74
     0
 42
0.000000001
 43
0.0000000001
 40
0.0
 40
0.0
 40
0.0
 40
0.0
 40
0.0625000000000006
 40
0.0625000000000006
 40
0.1250000000000012
 40
0.1250000000000012
 40
0.1875000000000017
 40
0.1875000000000017
 40
0.2187500000000022
 40
0.2187500000000022
 40
0.2343750000000024
 40
0.2343750000000024
 40
0.2500000000000026
 40
0.2500000000000026
 40
0.3125000000000036
 40
0.3750000000000042
 40
0.3750000000000042
 40
0.4375000000000048
 40
0.4375000000000048
 40
0.4531250000000048
 40
0.4531250000000048
 40
0.4687500000000048
 40
0.4687500000000048
 40
0.5000000000000044
 40
0.5000000000000044
 40
0.562500000000004
 40
0.562500000000004
 40
0.6250000000000036
 40
0.6250000000000036
 40
0.6562500000000035
 40
0.6562500000000035
 40
0.6718750000000029
 40
0.6718750000000029
 40
0.6875000000000025
 40
0.6875000000000025
 40
0.7500000000000015
 40
0.7500000000000015
 40
0.8125000000000003
 40
0.8125000000000003
 40
0.8749999999999994
 40
0.8749999999999994
 40
0.8906249999999996
 40
0.8906249999999996
 40
0.9062499999999996
 40
0.9062499999999996
 40
0.9374999999999998
 40
0.9374999999999998
 40
1.0
 40
1.0
 40
1.0
 40
1.0
 10
279.4048419452959
 20
277.3858471134801
 30
0.0
 10
279.2493613937471
 20
277.2352241779338
 30
0.0
 10
279.1025940726099
 20
277.0814495739473
 30
0.0
 10
278.8261370272153
 20
276.7682714392953
 30
0.0
 10
278.6964476606029
 20
276.6088669433407
 30
0.0
 10
278.454213777392
 20
276.2849177851125
 30
0.0
 10
278.341667905276
 20
276.1203728387016
 30
0.0
 10
278.1860781974789
 20
275.869944030491
 30
0.0
 10
278.1364232740504
 20
275.7858646067855
 30
0.0
 10
278.0653339680347
 20
275.6588596888209
 30
0.0
 10
278.0421733213359
 20
275.6163194452994
 30
0.0
 10
277.9971699572364
 20
275.5312701171768
 30
0.0
 10
277.9753315894562
 20
275.488773457635
 30
0.0
 10
277.8694299940491
 20
275.2764462878346
 30
0.0
 10
277.7210042999519
 20
274.9377282703126
 30
0.0
 10
277.6139291930883
 20
274.6017389559306
 30
0.0
 10
277.5276995628374
 20
274.2674025946877
 30
0.0
 10
277.4950055513301
 20
274.1010608788884
 30
0.0
 10
277.4676048710413
 20
273.8943128840837
 30
0.0
 10
277.4627994778567
 20
273.853022115488
 30
0.0
 10
277.4545550242782
 20
273.7705613888983
 30
0.0
 10
277.451115259291
 20
273.729354559013
 30
0.0
 10
277.4429105056086
 20
273.6066159022368
 30
0.0
 10
277.4402328906445
 20
273.52575670475
 30
0.0
 10
277.4404121290095
 20
273.2860287522257
 30
0.0
 10
277.4514643576784
 20
273.1300076674663
 30
0.0
 10
277.494985251004
 20
272.8253461128625
 30
0.0
 10
277.5274548482212
 20
272.6767060024949
 30
0.0
 10
277.5922812174327
 20
272.459165267607
 30
0.0
 10
277.6165810114431
 20
272.3875553543836
 30
0.0
 10
277.6571112362427
 20
272.2814850293339
 30
0.0
 10
277.6713016593097
 20
272.2463523690789
 30
0.0
 10
277.7010537246163
 20
272.1765337338976
 30
0.0
 10
277.7166297633456
 20
272.1418212801864
 30
0.0
 10
277.7975328141781
 20
271.9702584414872
 30
0.0
 10
277.8721695465549
 20
271.8387335743811
 30
0.0
 10
278.0404396635594
 20
271.5862170401333
 30
0.0
 10
278.1340756985141
 20
271.4652272902299
 30
0.0
 10
278.3400014969375
 20
271.2330612602093
 30
0.0
 10
278.4522920438423
 20
271.1218861680783
 30
0.0
 10
278.6043678143376
 20
270.988692515844
 30
0.0
 10
278.6353696354993
 20
270.962342862666
 30
0.0
 10
278.6985521161621
 20
270.9102139368706
 30
0.0
 10
278.730710863129
 20
270.8844540477624
 30
0.0
 10
278.8286331867411
 20
270.8082640384191
 30
0.0
 10
278.8959353848311
 20
270.7588454193772
 30
0.0
 10
279.1038252663996
 20
270.6145216832461
 30
0.0
 10
279.2503850421492
 20
270.5235426618457
 30
0.0
 10
279.4048419452956
 20
270.4373698725685
 30
0.0
  0
SPLINE
  5
193
330
1F
100
AcDbEntity
  8
1
100
AcDbSpline
210
0.0
220
0.0
230
1.0
 70
     9
 71
     3
 72
   123
 73
   119
 74
     0
 42
0.000000001
 43
0.0000000001
 40
0.0
 40
0.0
 40
0.0
 40
0.0
 40
0.0312499999999779
 40
0.0312499999999779
 40
0.0468749999999617
 40
0.0468749999999617
 40
0.0546874999999585
 40
0.0546874999999585
 40
0.0624999999999554
 40
0.0624999999999554
 40
0.0937499999999616
 40
0.0937499999999616
 40
0.1015624999999695
 40
0.1015624999999695
 40
0.1093749999999774
 40
0.1093749999999774
 40
0.1249999999999931
 40
0.1249999999999931
 40
0.1562500000000171
 40
0.1562500000000171
 40
0.1718750000000291
 40
0.1718750000000291
 40
0.1875000000000411
 40
0.203125000000053
 40
0.203125000000053
 40
0.2109375000000591
 40
0.2109375000000591
 40
0.2187500000000652
 40
0.2187500000000652
 40
0.2500000000000877
 40
0.2500000000000877
 40
0.2578125000000934
 40
0.2578125000000934
 40
0.2656250000000992
 40
0.2656250000000992
 40
0.2812500000001117
 40
0.2812500000001117
 40
0.3125000000001347
 40
0.3125000000001347
 40
0.3281250000001483
 40
0.3281250000001483
 40
0.3437500000001619
 40
0.3437500000001619
 40
0.3750000000001949
 40
0.3750000000001949
 40
0.3828125000001998
 40
0.3828125000001998
 40
0.3906250000002046
 40
0.4062500000002065
 40
0.4218750000002084
 40
0.4218750000002084
 40
0.4296875000002139
 40
0.4296875000002139
 40
0.4375000000002194
 40
0.4375000000002194
 40
0.4687500000002127
 40
0.4687500000002127
 40
0.4843750000002093
 40
0.4843750000002093
 40
0.4921875000002128
 40
0.4921875000002128
 40
0.5000000000002162
 40
0.5000000000002162
 40
0.5312500000001988
 40
0.5312500000001988
 40
0.5390625000001893
 40
0.5390625000001893
 40
0.5468750000001799
 40
0.5468750000001799
 40
0.5625000000001707
 40
0.5781250000001617
 40
0.5781250000001617
 40
0.5937500000001527
 40
0.5937500000001527
 40
0.6250000000001342
 40
0.6250000000001342
 40
0.6328125000001278
 40
0.6328125000001278
 40
0.6406250000001214
 40
0.6406250000001214
 40
0.6562500000001082
 40
0.6562500000001082
 40
0.6875000000000872
 40
0.6875000000000872
 40
0.6953125000000819
 40
0.6953125000000819
 40
0.7031250000000766
 40
0.7187500000000692
 40
0.7343750000000617
 40
0.7343750000000617
 40
0.7421875000000581
 40
0.7421875000000581
 40
0.7500000000000546
 40
0.7500000000000546
 40
0.7812500000000407
 40
0.7812500000000407
 40
0.7968750000000346
 40
0.7968750000000346
 40
0.8125000000000285
 40
0.8125000000000285
 40
0.8437500000000124
 40
0.8437500000000124
 40
0.8593750000000072
 40
0.8593750000000072
 40
0.8750000000000023
 40
0.8750000000000023
 40
0.9062499999999992
 40
0.9062499999999992
 40
0.921874999999998
 40
0.921874999999998
 40
0.9374999999999964
 40
0.9531249999999948
 40
0.9531249999999948
 40
0.9609374999999989
 40
0.9609374999999989
 40
0.9687500000000031
 40
0.9687500000000031
 40
1.0
 40
1.0
 40
1.0
 40
1.0
 10
449.4246469271756
 20
286.4733679557893
 30
0.0
 10
449.5085897443823
 20
286.4719027284647
 30
0.0
 10
449.5909353744194
 20
286.4620916851398
 30
0.0
 10
449.7121573609014
 20
286.4353873057813
 30
0.0
 10
449.7521789711138
 20
286.4244725292128
 30
0.0
 10
449.8116186474937
 20
286.4050098399973
 30
0.0
 10
449.8313888532325
 20
286.3979837939362
 30
0.0
 10
449.8704030682626
 20
286.3830036272817
 30
0.0
 10
449.8896414965399
 20
286.3750558382633
 30
0.0
 10
449.9845172497048
 20
286.3330764080845
 30
0.0
 10
450.0562436479693
 20
286.2923877363339
 30
0.0
 10
450.1407176745304
 20
286.2327419738572
 30
0.0
 10
450.1573509059277
 20
286.2203695772186
 30
0.0
 10
450.1900853636489
 20
286.1947244048951
 30
0.0
 10
450.2061941477411
 20
286.1814404700097
 30
0.0
 10
450.2531814974402
 20
286.1406865521774
 30
0.0
 10
450.2829113276332
 20
286.1121763701681
 30
0.0
 10
450.3674600407274
 20
286.0227593380933
 30
0.0
 10
450.4176813997471
 20
285.9580021322578
 30
0.0
 10
450.4835680208673
 20
285.8530148012708
 30
0.0
 10
450.5036355987557
 20
285.8171842959488
 30
0.0
 10
450.5399724324935
 20
285.7442040291634
 30
0.0
 10
450.5725670238304
 20
285.669813533072
 30
0.0
 10
450.5977880068658
 20
285.5926606354283
 30
0.0
 10
450.6139030333068
 20
285.5337517985443
 30
0.0
 10
450.6188139464089
 20
285.5139098705576
 30
0.0
 10
450.6276542766508
 20
285.4740109021573
 30
0.0
 10
450.6315652984349
 20
285.4540447613891
 30
0.0
 10
450.6486343429839
 20
285.3541343061941
 30
0.0
 10
450.6544027650703
 20
285.2739543370135
 30
0.0
 10
450.651987894019
 20
285.1734333613687
 30
0.0
 10
450.6510194177947
 20
285.1533141440632
 30
0.0
 10
450.6481002180644
 20
285.1130452379356
 30
0.0
 10
450.6461444368254
 20
285.0928556237528
 30
0.0
 10
450.638811307488
 20
285.0325202456117
 30
0.0
 10
450.6320117983305
 20
284.9928638071698
 30
0.0
 10
450.6060751703814
 20
284.8755325366334
 30
0.0
 10
450.5814516098253
 20
284.799481716632
 30
0.0
 10
450.5333263843406
 20
284.6886725854323
 30
0.0
 10
450.5153178871206
 20
284.652158521075
 30
0.0
 10
450.4762045427308
 20
284.5816907270877
 30
0.0
 10
450.4550436579123
 20
284.5475721654566
 30
0.0
 10
450.3868108478518
 20
284.4484995769714
 30
0.0
 10
450.3350386439982
 20
284.3867952272642
 30
0.0
 10
450.2619632746681
 20
284.3153677563343
 30
0.0
 10
450.2469592135201
 20
284.3014065016337
 30
0.0
 10
450.2164348044245
 20
284.2743652479465
 30
0.0
 10
450.1697620787614
 20
284.235021992821
 30
0.0
 10
450.0876023113906
 20
284.1754468355333
 30
0.0
 10
450.0171915722049
 20
284.1341785464526
 30
0.0
 10
449.962567049765
 20
284.1056953286237
 30
0.0
 10
449.9440555675118
 20
284.0966130283342
 30
0.0
 10
449.9064084995072
 20
284.0792946297893
 30
0.0
 10
449.8872626620358
 20
284.071058672307
 30
0.0
 10
449.7911283464726
 20
284.0325120782962
 30
0.0
 10
449.7120279493941
 20
284.0095844538062
 30
0.0
 10
449.5900947824065
 20
283.9869738457837
 30
0.0
 10
449.5488994780039
 20
283.9814145770515
 30
0.0
 10
449.4862438884778
 20
283.9761684180891
 30
0.0
 10
449.4652941481488
 20
283.9749456797767
 30
0.0
 10
449.423596300731
 20
283.9735567450061
 30
0.0
 10
449.4027983688972
 20
283.9733861140636
 30
0.0
 10
449.2990596709245
 20
283.9751109701002
 30
0.0
 10
449.216864594438
 20
283.9846642581586
 30
0.0
 10
449.115124965248
 20
284.0069405317071
 30
0.0
 10
449.0947682763363
 20
284.0119346608585
 30
0.0
 10
449.0545260755131
 20
284.0228842679292
 30
0.0
 10
449.0346342904717
 20
284.028837063639
 30
0.0
 10
448.9756301304332
 20
284.04809637726
 30
0.0
 10
448.8987440203541
 20
284.0775034073505
 30
0.0
 10
448.825336068998
 20
284.1141935619473
 30
0.0
 10
448.7536714044416
 20
284.15454834693
 30
0.0
 10
448.7185682950204
 20
284.1766760035597
 30
0.0
 10
448.6179408090401
 20
284.2472585359515
 30
0.0
 10
448.5564774135347
 20
284.300114156671
 30
0.0
 10
448.4863988300648
 20
284.3732280623364
 30
0.0
 10
448.472723851028
 20
284.3882063826834
 30
0.0
 10
448.446061192399
 20
284.4188821853385
 30
0.0
 10
448.4330417671718
 20
284.4346216119949
 30
0.0
 10
448.3953357442121
 20
284.4825421666706
 30
0.0
 10
448.371966330804
 20
284.5154407401271
 30
0.0
 10
448.3069641752813
 20
284.6169048704479
 30
0.0
 10
448.2703895737982
 20
284.6882133925241
 30
0.0
 10
448.2332272216206
 20
284.7820456614035
 30
0.0
 10
448.2262122808924
 20
284.8010949812338
 30
0.0
 10
448.2131777585469
 20
284.8393264546344
 30
0.0
 10
448.1950874275333
 20
284.8969462157572
 30
0.0
 10
448.1720848284506
 20
284.9943194499258
 30
0.0
 10
448.1612041375903
 20
285.0736387213962
 30
0.0
 10
448.1559056756121
 20
285.1336709656856
 30
0.0
 10
448.1546173594583
 20
285.1537723176639
 30
0.0
 10
448.1530137744104
 20
285.1941596603037
 30
0.0
 10
448.1526994158603
 20
285.2144967849371
 30
0.0
 10
448.1536120582459
 20
285.3159985094522
 30
0.0
 10
448.1621717149359
 20
285.3960732070162
 30
0.0
 10
448.1864973400778
 20
285.5145151698077
 30
0.0
 10
448.1965334628437
 20
285.5537153162468
 30
0.0
 10
448.2205807479946
 20
285.6315310577313
 30
0.0
 10
448.234675396686
 20
285.6703017812131
 30
0.0
 10
448.2821580771093
 20
285.7832583028212
 30
0.0
 10
448.3208430145919
 20
285.854814209628
 30
0.0
 10
448.3894166696064
 20
285.9564712010843
 30
0.0
 10
448.4140439993029
 20
285.9894043200065
 30
0.0
 10
448.4669916805343
 20
286.0532719110367
 30
0.0
 10
448.4949268935375
 20
286.0837328056371
 30
0.0
 10
448.5826653554537
 20
286.1704430211678
 30
0.0
 10
448.6465022971393
 20
286.2222315384571
 30
0.0
 10
448.7504578309238
 20
286.2906240225022
 30
0.0
 10
448.7866517133048
 20
286.3119276530588
 30
0.0
 10
448.8602606751946
 20
286.3504310830643
 30
0.0
 10
448.9353942324241
 20
286.3850709346913
 30
0.0
 10
449.0135213900319
 20
286.4121111695445
 30
0.0
 10
449.0732520862946
 20
286.4295050591692
 30
0.0
 10
449.0933518857112
 20
286.4348211055672
 30
0.0
 10
449.1339371081733
 20
286.4444723084386
 30
0.0
 10
449.154469857444
 20
286.4488157281472
 30
0.0
 10
449.2574942893347
 20
286.4679069065644
 30
0.0
 10
449.3407041099687
 20
286.4748331831139
 30
0.0
 10
449.4246469271756
 20
286.4733679557893
 30
0.0
  0
SPLINE
  5
194
330
1F
100
AcDbEntity
  8
1
100
AcDbSpline
210
0.0
220
0.0
230
1.0
 70
    12
 71
     2
 72
     6
 73
     3
 74
     0
 42
0.000000001
 43
0.0000000001
 40
0.0
 40
0.0
 40
0.0
 40
1.0
 40
1.0
 40
1.0
 10
443.7449515054665
 20
303.846698673305
 30
0.0
 41
0.4999947651807907
 10
443.8571347627804
 20
303.8465217899483
 30
0.0
 41
0.5000052348192093
 10
443.9693168146276
 20
303.8463443971981
 30
0.0
 41
0.4999947651807907
  0
SPLINE
  5
198
330
1F
100
AcDbEntity
  8
1
100
AcDbSpline
210
0.0
220
0.0
230
1.0
 70
     8
 71
     3
 72
    21
 73
    17
 74
     0
 42
0.000000001
 43
0.0000000001
 40
0.0
 40
0.0
 40
0.0
 40
0.0
 40
0.2499999999999731
 40
0.2499999999999731
 40
0.3124999999999651
 40
0.3124999999999651
 40
0.3749999999999573
 40
0.3749999999999573
 40
0.4999999999999414
 40
0.6249999999999254
 40
0.6249999999999254
 40
0.6874999999999214
 40
0.6874999999999214
 40
0.7499999999999173
 40
0.7499999999999173
 40
1.0
 40
1.0
 40
1.0
 40
1.0
 10
448.0626905080142
 20
298.2304444235784
 30
0.0
 10
448.021546063643
 20
298.242504346878
 30
0.0
 10
447.9823562623931
 20
298.2591357640193
 30
0.0
 10
447.9358157561405
 20
298.2856339784461
 30
0.0
 10
447.9266131754423
 20
298.2912362985448
 30
0.0
 10
447.9086634593581
 20
298.3028956482126
 30
0.0
 10
447.8998935028234
 20
298.3089641542477
 30
0.0
 10
447.8741871675292
 20
298.327873099596
 30
0.0
 10
447.8415175929518
 20
298.3549562919374
 30
0.0
 10
447.8120373944328
 20
298.385756524352
 30
0.0
 10
447.7911632115536
 20
298.4102972247435
 30
0.0
 10
447.7844271335081
 20
298.4187036679249
 30
0.0
 10
447.7715426680084
 20
298.4357761599802
 30
0.0
 10
447.7653720510309
 20
298.4444677784878
 30
0.0
 10
447.7358526515419
 20
298.4886886973736
 30
0.0
 10
447.716452415678
 20
298.5264765470782
 30
0.0
 10
447.7013814255404
 20
298.5667388717197
 30
0.0
  0
SPLINE
  5
199
330
1F
100
AcDbEntity
  8
1
100
AcDbSpline
210
0.0
220
0.0
230
1.0
 70
     8
 71
     3
 72
    21
 73
    17
 74
     0
 42
0.000000001
 43
0.0000000001
 40
0.0
 40
0.0
 40
0.0
 40
0.0
 40
0.2499999999995638
 40
0.2499999999995638
 40
0.312499999999535
 40
0.312499999999535
 40
0.3749999999995062
 40
0.3749999999995062
 40
0.4999999999996071
 40
0.6249999999997078
 40
0.6249999999997078
 40
0.6874999999997565
 40
0.6874999999997565
 40
0.7499999999998052
 40
0.7499999999998052
 40
1.0
 40
1.0
 40
1.0
 40
1.0
 10
448.2456359320361
 20
298.3325904494103
 30
0.0
 10
448.2869571628619
 20
298.3428396965318
 30
0.0
 10
448.3289335053787
 20
298.3482656507133
 30
0.0
 10
448.3823114128909
 20
298.3488727787682
 30
0.0
 10
448.3930328840772
 20
298.3486814048891
 30
0.0
 10
448.4145719661267
 20
298.3476523025666
 30
0.0
 10
448.4254154283306
 20
298.3468095657959
 30
0.0
 10
448.4576087589657
 20
298.3433347271529
 30
0.0
 10
448.4999252305432
 20
298.336182300465
 30
0.0
 10
448.5410521888742
 20
298.3241025198071
 30
0.0
 10
448.5714438280879
 20
298.3131631387725
 30
0.0
 10
448.5815342952615
 20
298.3091868182691
 30
0.0
 10
448.6013720627641
 20
298.3006740031044
 30
0.0
 10
448.611101676471
 20
298.2961482173056
 30
0.0
 10
448.6588381927116
 20
298.2722159045374
 30
0.0
 10
448.6941470368821
 20
298.2489537959705
 30
0.0
 10
448.7267103874295
 20
298.2216667359391
 30
0.0
  0
SPLINE
  5
19A
330
1F
100
AcDbEntity
  8
1
100
AcDbSpline
210
0.0
220
0.0
230
1.0
 70
     8
 71
     3
 72
    10
 73
     6
 74
     0
 42
0.000000001
 43
0.0000000001
 40
0.0
 40
0.0
 40
0.0
 40
0.0
 40
0.6016747911507221
 40
0.6016747911507221
 40
1.0
 40
1.0
 40
1.0
 40
1.0
 10
447.7013814255404
 20
298.5667388717197
 30
0.0
 10
447.6992837150423
 20
298.5723429296024
 30
0.0
 10
447.6977211370502
 20
298.5780449259694
 30
0.0
 10
447.6959653659601
 20
298.5876754011449
 30
0.0
 10
447.6954889675868
 20
298.5915780708598
 30
0.0
 10
447.6952392139576
 20
298.5954832850475
 30
0.0
  0
SPLINE
  5
19B
330
1F
100
AcDbEntity
  8
1
100
AcDbSpline
210
0.0
220
0.0
230
1.0
 70
     8
 71
     3
 72
    21
 73
    17
 74
     0
 42
0.000000001
 43
0.0000000001
 40
0.0
 40
0.0
 40
0.0
 40
0.0
 40
0.2500000000001514
 40
0.2500000000001514
 40
0.3125000000001879
 40
0.3125000000001879
 40
0.3750000000002245
 40
0.3750000000002245
 40
0.5000000000001484
 40
0.6250000000000722
 40
0.6250000000000722
 40
0.6875000000000331
 40
0.6875000000000331
 40
0.7499999999999943
 40
0.7499999999999943
 40
1.0
 40
1.0
 40
1.0
 40
1.0
 10
449.3177466978498
 20
298.194045546767
 30
0.0
 10
449.2865409929534
 20
298.1644515837789
 30
0.0
 10
449.2524013548691
 20
298.1388478433453
 30
0.0
 10
449.2060620971304
 20
298.1118303708847
 30
0.0
 10
449.1965876536593
 20
298.1066702938426
 30
0.0
 10
449.17747875053
 20
298.0969730913571
 30
0.0
 10
449.1678229129633
 20
298.0924219769081
 30
0.0
 10
449.1385567523663
 20
298.0796448373736
 30
0.0
 10
449.0987406590861
 20
298.0649397489839
 30
0.0
 10
449.0573464290537
 20
298.0548643384243
 30
0.0
 10
449.0256891190429
 20
298.0491022490554
 30
0.0
 10
449.0150546344946
 20
298.0474874670504
 30
0.0
 10
448.9938604032437
 20
298.0448975064947
 30
0.0
 10
448.9832674000265
 20
298.0439159013528
 30
0.0
 10
448.9303227840451
 20
298.040546583181
 30
0.0
 10
448.8880313058023
 20
298.0427144323962
 30
0.0
 10
448.8458103813586
 20
298.049876606122
 30
0.0
  0
SPLINE
  5
19C
330
1F
100
AcDbEntity
  8
1
100
AcDbSpline
210
0.0
220
0.0
230
1.0
 70
     8
 71
     3
 72
     8
 73
     4
 74
     0
 42
0.000000001
 43
0.0000000001
 40
0.0
 40
0.0
 40
0.0
 40
0.0
 40
1.0
 40
1.0
 40
1.0
 40
1.0
 10
447.7885009645124
 20
298.7580764365793
 30
0.0
 10
447.7875235602772
 20
298.7521992605224
 30
0.0
 10
447.7860275403724
 20
298.7464306076931
 30
0.0
 10
447.7840805058496
 20
298.740897255924
 30
0.0
  0
SPLINE
  5
19D
330
1F
100
AcDbEntity
  8
1
100
AcDbSpline
210
0.0
220
0.0
230
1.0
 70
     8
 71
     3
 72
    21
 73
    17
 74
     0
 42
0.000000001
 43
0.0000000001
 40
0.0
 40
0.0
 40
0.0
 40
0.0
 40
0.2499999999999941
 40
0.2499999999999941
 40
0.3125000000000194
 40
0.3125000000000194
 40
0.3750000000000446
 40
0.3750000000000446
 40
0.5000000000000398
 40
0.6250000000000349
 40
0.6250000000000349
 40
0.6875000000000325
 40
0.6875000000000325
 40
0.7500000000000301
 40
0.7500000000000301
 40
1.0
 40
1.0
 40
1.0
 40
1.0
 10
447.6437697318253
 20
299.2296317935922
 30
0.0
 10
447.6730121828648
 20
299.1993923223357
 30
0.0
 10
447.6984679907511
 20
299.1660998232106
 30
0.0
 10
447.7254909705297
 20
299.1204967385893
 30
0.0
 10
447.7306525370144
 20
299.1111742324764
 30
0.0
 10
447.7404744690353
 20
299.0921105428899
 30
0.0
 10
447.7451434958314
 20
299.0823443657917
 30
0.0
 10
447.7581796988846
 20
299.0528430020751
 30
0.0
 10
447.7731207820304
 20
299.0127200151725
 30
0.0
 10
447.7832901414962
 20
298.9710546937479
 30
0.0
 10
447.7890965042296
 20
298.939217966931
 30
0.0
 10
447.7907320436361
 20
298.9284686568893
 30
0.0
 10
447.7933570245711
 20
298.906973405678
 30
0.0
 10
447.7943467217541
 20
298.8962486037028
 30
0.0
 10
447.7977347137166
 20
298.8427323019448
 30
0.0
 10
447.7955163760178
 20
298.8002604245809
 30
0.0
 10
447.7885009645124
 20
298.7580764365793
 30
0.0
  0
SPLINE
  5
19E
330
1F
100
AcDbEntity
  8
1
100
AcDbSpline
210
0.0
220
0.0
230
1.0
 70
     8
 71
     3
 72
    14
 73
    10
 74
     0
 42
0.000000001
 43
0.0000000001
 40
0.0
 40
0.0
 40
0.0
 40
0.0
 40
0.25
 40
0.25
 40
0.5
 40
0.5
 40
0.75
 40
0.75
 40
1.0
 40
1.0
 40
1.0
 40
1.0
 10
447.5671576869207
 20
299.2595055725375
 30
0.0
 10
447.5742248685141
 20
299.2598770451023
 30
0.0
 10
447.5813120944038
 20
299.2595046344801
 30
0.0
 10
447.5951981095233
 20
299.2573020261257
 30
0.0
 10
447.6019491686766
 20
299.2554911120732
 30
0.0
 10
447.6150656830927
 20
299.2504330117969
 30
0.0
 10
447.6214508946096
 20
299.2471520358384
 30
0.0
 10
447.6332441269024
 20
299.239367524266
 30
0.0
 10
447.6387295556218
 20
299.2348438144048
 30
0.0
 10
447.6437697318253
 20
299.2296317935922
 30
0.0
  0
SPLINE
  5
19F
330
1F
100
AcDbEntity
  8
1
100
AcDbSpline
210
0.0
220
0.0
230
1.0
 70
     8
 71
     3
 72
    22
 73
    18
 74
     0
 42
0.000000001
 43
0.0000000001
 40
0.0
 40
0.0
 40
0.0
 40
0.0
 40
0.125
 40
0.125
 40
0.25
 40
0.25
 40
0.375
 40
0.375
 40
0.5
 40
0.5
 40
0.625
 40
0.625
 40
0.75
 40
0.75
 40
0.875
 40
0.875
 40
1.0
 40
1.0
 40
1.0
 40
1.0
 10
447.5671576869207
 20
299.2595055725375
 30
0.0
 10
447.5615082968153
 20
299.2592086234067
 30
0.0
 10
447.5558614569496
 20
299.2593879060716
 30
0.0
 10
447.5447692149338
 20
299.2606638438561
 30
0.0
 10
447.5392963478665
 20
299.2617581403859
 30
0.0
 10
447.5285023904182
 20
299.2648855774738
 30
0.0
 10
447.5231862328408
 20
299.2669286163235
 30
0.0
 10
447.51307960231
 20
299.2718419895224
 30
0.0
 10
447.5082406379023
 20
299.2747235791096
 30
0.0
 10
447.4990120226366
 20
299.2813731994756
 30
0.0
 10
447.4946471542877
 20
299.2851364308604
 30
0.0
 10
447.4867006333166
 20
299.2933089599073
 30
0.0
 10
447.4830767631601
 20
299.297746060141
 30
0.0
 10
447.4765698539136
 20
299.3073616332496
 30
0.0
 10
447.473742389736
 20
299.3124712429684
 30
0.0
 10
447.4690542249054
 20
299.3230748848471
 30
0.0
 10
447.4671713433536
 20
299.3286001587069
 30
0.0
 10
447.4657798396731
 20
299.3343630249431
 30
0.0
  0
SPLINE
  5
1A0
330
1F
100
AcDbEntity
  8
1
100
AcDbSpline
210
0.0
220
0.0
230
1.0
 70
     8
 71
     3
 72
    21
 73
    17
 74
     0
 42
0.000000001
 43
0.0000000001
 40
0.0
 40
0.0
 40
0.0
 40
0.0
 40
0.208482893944203
 40
0.208482893944203
 40
0.2744426527821617
 40
0.2744426527821617
 40
0.3404024116201204
 40
0.3404024116201204
 40
0.4723219292959376
 40
0.6042414469717546
 40
0.6042414469717546
 40
0.6702012058097275
 40
0.6702012058097275
 40
0.7361609646477003
 40
0.7361609646477003
 40
1.0
 40
1.0
 40
1.0
 40
1.0
 10
449.3321067610241
 20
298.4296153449175
 30
0.0
 10
449.3432520862691
 20
298.4613729379216
 30
0.0
 10
449.3571641290944
 20
298.4919642082345
 30
0.0
 10
449.3791938168965
 20
298.5306976958049
 30
0.0
 10
449.3847747029153
 20
298.539888530516
 30
0.0
 10
449.3965281484308
 20
298.558026590468
 30
0.0
 10
449.4027180364566
 20
298.5669937584376
 30
0.0
 10
449.4219122214466
 20
298.5931245434604
 30
0.0
 10
449.4493122331943
 20
298.6261644382493
 30
0.0
 10
449.480245237527
 20
298.6556808163049
 30
0.0
 10
449.5047936370496
 20
298.6764743845111
 30
0.0
 10
449.5132330939854
 20
298.6832039738487
 30
0.0
 10
449.5304095437602
 20
298.6960828197992
 30
0.0
 10
449.5391284457269
 20
298.7022220469261
 30
0.0
 10
449.5833585550938
 20
298.7314695852192
 30
0.0
 10
449.6207487183983
 20
298.7502913164987
 30
0.0
 10
449.6601562105892
 20
298.7647036031428
 30
0.0
  0
SPLINE
  5
1A1
330
1F
100
AcDbEntity
  8
1
100
AcDbSpline
210
0.0
220
0.0
230
1.0
 70
     8
 71
     3
 72
    14
 73
    10
 74
     0
 42
0.000000001
 43
0.0000000001
 40
0.0
 40
0.0
 40
0.0
 40
0.0
 40
0.25
 40
0.25
 40
0.5
 40
0.5
 40
0.75
 40
0.75
 40
1.0
 40
1.0
 40
1.0
 40
1.0
 10
449.6601562105892
 20
298.7647036031428
 30
0.0
 10
449.6669528922756
 20
298.7671893163727
 30
0.0
 10
449.6739872536278
 20
298.7688907071125
 30
0.0
 10
449.6879989572303
 20
298.7707177191818
 30
0.0
 10
449.6949931932481
 20
298.770864311478
 30
0.0
 10
449.70896338453
 20
298.7696717308211
 30
0.0
 10
449.7159286088796
 20
298.7683111075125
 30
0.0
 10
449.7292197563511
 20
298.764232915167
 30
0.0
 10
449.7356292054101
 20
298.7615124852262
 30
0.0
 10
449.741795393859
 20
298.7580886147181
 30
0.0
  0
SPLINE
  5
1A2
330
1F
100
AcDbEntity
  8
1
100
AcDbSpline
210
0.0
220
0.0
230
1.0
 70
     8
 71
     3
 72
    20
 73
    16
 74
     0
 42
0.000000001
 43
0.0000000001
 40
0.0
 40
0.0
 40
0.0
 40
0.0
 40
0.1249999999999332
 40
0.1249999999999332
 40
0.2499999999998663
 40
0.2499999999998663
 40
0.3749999999997996
 40
0.3749999999997996
 40
0.4999999999997329
 40
0.4999999999997329
 40
0.6249999999996661
 40
0.6249999999996661
 40
0.7499999999995994
 40
0.7499999999995994
 40
1.0
 40
1.0
 40
1.0
 40
1.0
 10
449.8652649853268
 20
298.781101882534
 30
0.0
 10
449.8614956832398
 20
298.7765224041264
 30
0.0
 10
449.857384724038
 20
298.7723666266244
 30
0.0
 10
449.8485171998233
 20
298.76485704855
 30
0.0
 10
449.8437086102107
 20
298.7614764902747
 30
0.0
 10
449.8337066056333
 20
298.7557016105077
 30
0.0
 10
449.8285327829293
 20
298.7533036627977
 30
0.0
 10
449.817858366847
 20
298.7494384938216
 30
0.0
 10
449.8123060911648
 20
298.747964030945
 30
0.0
 10
449.8011243591217
 20
298.7460212487696
 30
0.0
 10
449.7955361735384
 20
298.7455493056931
 30
0.0
 10
449.7843667703794
 20
298.7455524274324
 30
0.0
 10
449.7787578162617
 20
298.7460327363054
 30
0.0
 10
449.7621263890111
 20
298.7489075590437
 30
0.0
 10
449.7516549506486
 20
298.752613944913
 30
0.0
 10
449.741795393859
 20
298.7580886147181
 30
0.0
  0
SPLINE
  5
1A3
330
1F
100
AcDbEntity
  8
1
100
AcDbSpline
210
0.0
220
0.0
230
1.0
 70
     8
 71
     3
 72
    14
 73
    10
 74
     0
 42
0.000000001
 43
0.0000000001
 40
0.0
 40
0.0
 40
0.0
 40
0.0
 40
0.5060882384908236
 40
0.5060882384908236
 40
0.6326102981135292
 40
0.6326102981135292
 40
0.7591323577362346
 40
0.7591323577362346
 40
1.0
 40
1.0
 40
1.0
 40
1.0
 10
447.4657798396731
 20
299.3343630249431
 30
0.0
 10
447.4557704439928
 20
299.3758166044207
 30
0.0
 10
447.4506676848169
 20
299.4179029492872
 30
0.0
 10
447.450422229928
 20
299.4712932310705
 30
0.0
 10
447.4506862900646
 20
299.4820334997033
 30
0.0
 10
447.4518321177268
 20
299.5033522660573
 30
0.0
 10
447.4527124612642
 20
299.5139562383245
 30
0.0
 10
447.4561452531632
 20
299.5445895855174
 30
0.0
 10
447.4594871927218
 20
299.5644765949955
 30
0.0
 10
447.4639134613153
 20
299.5841680125199
 30
0.0
  0
SPLINE
  5
1A4
330
1F
100
AcDbEntity
  8
1
100
AcDbSpline
210
0.0
220
0.0
230
1.0
 70
     8
 71
     3
 72
     8
 73
     4
 74
     0
 42
0.000000001
 43
0.0000000001
 40
0.0
 40
0.0
 40
0.0
 40
0.0
 40
1.0
 40
1.0
 40
1.0
 40
1.0
 10
449.9327615408534
 20
298.8851713861106
 30
0.0
 10
449.9142687924323
 20
298.848056770937
 30
0.0
 10
449.8918032825209
 20
298.81334433914
 30
0.0
 10
449.8652649853268
 20
298.781101882534
 30
0.0
  0
SPLINE
  5
1A5
330
1F
100
AcDbEntity
  8
1
100
AcDbSpline
210
0.0
220
0.0
230
1.0
 70
     8
 71
     3
 72
    14
 73
    10
 74
     0
 42
0.000000001
 43
0.0000000001
 40
0.0
 40
0.0
 40
0.0
 40
0.0
 40
0.25
 40
0.25
 40
0.5
 40
0.5
 40
0.75
 40
0.75
 40
1.0
 40
1.0
 40
1.0
 40
1.0
 10
448.1085422751415
 20
300.2782661659538
 30
0.0
 10
448.112316007092
 20
300.2724394590534
 30
0.0
 10
448.1154546396492
 20
300.2662243682504
 30
0.0
 10
448.1203281976186
 20
300.2533103276418
 30
0.0
 10
448.1220562959978
 20
300.2466620460978
 30
0.0
 10
448.1240800295728
 20
300.2329755790713
 30
0.0
 10
448.1243560838266
 20
300.2259032734922
 30
0.0
 10
448.1233723852117
 20
300.2119780640012
 30
0.0
 10
448.1221329804147
 20
300.2050493354812
 30
0.0
 10
448.1200805874611
 20
300.1981546479649
 30
0.0
  0
SPLINE
  5
1A6
330
1F
100
AcDbEntity
  8
1
100
AcDbSpline
210
0.0
220
0.0
230
1.0
 70
     8
 71
     3
 72
    14
 73
    10
 74
     0
 42
0.000000001
 43
0.0000000001
 40
0.0
 40
0.0
 40
0.0
 40
0.0
 40
0.2927174621480033
 40
0.2927174621480033
 40
0.5854349242960066
 40
0.5854349242960066
 40
0.8781523864440096
 40
0.8781523864440096
 40
1.0
 40
1.0
 40
1.0
 40
1.0
 10
448.108542275141
 20
300.278266165955
 30
0.0
 10
448.1055257219641
 20
300.2829237758335
 30
0.0
 10
448.1029233371659
 20
300.2878167518076
 30
0.0
 10
448.0986115075809
 20
300.2978903388011
 30
0.0
 10
448.0968867111283
 20
300.3030930123064
 30
0.0
 10
448.0943249099267
 20
300.3138386659843
 30
0.0
 10
448.0934990294061
 20
300.3193816367084
 30
0.0
 10
448.0930189266492
 20
300.3272080698345
 30
0.0
 10
448.0929597759388
 20
300.3295135882839
 30
0.0
 10
448.0929841084185
 20
300.3318243245224
 30
0.0
  0
SPLINE
  5
1A7
330
1F
100
AcDbEntity
  8
1
100
AcDbSpline
210
0.0
220
0.0
230
1.0
 70
     8
 71
     3
 72
    14
 73
    10
 74
     0
 42
0.000000001
 43
0.0000000001
 40
0.0
 40
0.0
 40
0.0
 40
0.0
 40
0.0602057392005064
 40
0.0602057392005064
 40
0.3734704928003376
 40
0.3734704928003376
 40
0.6867352464001688
 40
0.6867352464001688
 40
1.0
 40
1.0
 40
1.0
 40
1.0
 10
449.6596559815811
 20
299.8608839857668
 30
0.0
 10
449.6601057642306
 20
299.8621623233386
 30
0.0
 10
449.6605808739094
 20
299.8634267696748
 30
0.0
 10
449.6636796978823
 20
299.8711740759656
 30
0.0
 10
449.6669308226506
 20
299.8772770428244
 30
0.0
 10
449.6746986872021
 20
299.8887206821977
 30
0.0
 10
449.6792286506948
 20
299.8940413295746
 30
0.0
 10
449.6891443277351
 20
299.9034497975111
 30
0.0
 10
449.6945728179912
 20
299.9076081828505
 30
0.0
 10
449.7004875646753
 20
299.9112034770534
 30
0.0
  0
SPLINE
  5
1A8
330
1F
100
AcDbEntity
  8
1
100
AcDbSpline
210
0.0
220
0.0
230
1.0
 70
     8
 71
     3
 72
     8
 73
     4
 74
     0
 42
0.000000001
 43
0.0000000001
 40
0.0
 40
0.0
 40
0.0
 40
0.0
 40
1.0
 40
1.0
 40
1.0
 40
1.0
 10
449.721353740547
 20
299.9282910862708
 30
0.0
 10
449.715233098519
 20
299.9216300049501
 30
0.0
 10
449.7082745609674
 20
299.9159368230649
 30
0.0
 10
449.7004875646753
 20
299.9112034770534
 30
0.0
  0
SPLINE
  5
1A9
330
1F
100
AcDbEntity
  8
1
100
AcDbSpline
210
0.0
220
0.0
230
1.0
 70
     8
 71
     3
 72
    10
 73
     6
 74
     0
 42
0.000000001
 43
0.0000000001
 40
0.0
 40
0.0
 40
0.0
 40
0.0
 40
0.5
 40
0.5
 40
1.0
 40
1.0
 40
1.0
 40
1.0
 10
291.2038318185191
 20
273.9165975707272
 30
0.0
 10
290.797826535451
 20
273.9217041078923
 30
0.0
 10
290.3996824224294
 20
273.9118459456236
 30
0.0
 10
289.6166465196241
 20
273.8669022016451
 30
0.0
 10
289.2317646032823
 20
273.8317978246304
 30
0.0
 10
288.852717890773
 20
273.7855854228595
 30
0.0
  0
SPLINE
  5
1AA
330
1F
100
AcDbEntity
  8
1
100
AcDbSpline
210
0.0
220
0.0
230
1.0
 70
     8
 71
     3
 72
     8
 73
     4
 74
     0
 42
0.000000001
 43
0.0000000001
 40
0.0
 40
0.0
 40
0.0
 40
0.0
 40
1.0
 40
1.0
 40
1.0
 40
1.0
 10
445.4947245358683
 20
292.8508599216844
 30
0.0
 10
445.2902973717012
 20
292.8476982165538
 30
0.0
 10
445.0853335760089
 20
292.847783212594
 30
0.0
 10
444.8798419471661
 20
292.8512263367649
 30
0.0
  0
SPLINE
  5
1AB
330
1F
100
AcDbEntity
  8
1
100
AcDbSpline
210
0.0
220
0.0
230
1.0
 70
     8
 71
     3
 72
    54
 73
    50
 74
     0
 42
0.000000001
 43
0.0000000001
 40
0.0
 40
0.0
 40
0.0
 40
0.0
 40
0.0312500000000016
 40
0.0312500000000016
 40
0.0625000000000032
 40
0.0625000000000032
 40
0.1250000000000057
 40
0.1250000000000057
 40
0.1562500000000075
 40
0.1562500000000075
 40
0.1875000000000093
 40
0.2187500000000111
 40
0.2187500000000111
 40
0.2500000000000129
 40
0.2500000000000129
 40
0.2812500000000147
 40
0.2812500000000147
 40
0.3125000000000165
 40
0.3125000000000165
 40
0.3750000000000222
 40
0.3750000000000222
 40
0.4062500000000238
 40
0.4062500000000238
 40
0.4375000000000253
 40
0.4375000000000253
 40
0.5000000000000283
 40
0.5000000000000283
 40
0.5625000000000312
 40
0.5625000000000312
 40
0.5937500000000312
 40
0.5937500000000312
 40
0.6250000000000311
 40
0.656250000000031
 40
0.656250000000031
 40
0.6875000000000309
 40
0.6875000000000309
 40
0.750000000000026
 40
0.750000000000026
 40
0.7812500000000213
 40
0.7812500000000213
 40
0.8125000000000163
 40
0.8125000000000163
 40
0.8750000000000103
 40
0.8750000000000103
 40
0.9062500000000067
 40
0.9062500000000067
 40
0.9375000000000031
 40
0.9375000000000031
 40
1.0
 40
1.0
 40
1.0
 40
1.0
 10
451.5767371007537
 20
284.1454935137195
 30
0.0
 10
451.5765562915039
 20
284.11284115041
 30
0.0
 10
451.576586396677
 20
284.0809037343388
 30
0.0
 10
451.5770686685748
 20
284.0184595854891
 30
0.0
 10
451.5775221620228
 20
283.9879040547423
 30
0.0
 10
451.5795118982047
 20
283.8988418765
 30
0.0
 10
451.5816712056528
 20
283.842926846784
 30
0.0
 10
451.5861540406842
 20
283.7642217057694
 30
0.0
 10
451.5878580602266
 20
283.7388389611992
 30
0.0
 10
451.5916598773135
 20
283.6901321252928
 30
0.0
 10
451.5958595956228
 20
283.6433974671647
 30
0.0
 10
451.6008514361558
 20
283.6005889237618
 30
0.0
 10
451.6062418018537
 20
283.5597556506775
 30
0.0
 10
451.6091293821354
 20
283.5403839612072
 30
0.0
 10
451.6152676278931
 20
283.5038356945612
 30
0.0
 10
451.6185209480227
 20
283.4866386903258
 30
0.0
 10
451.6253954249604
 20
283.4543956780479
 30
0.0
 10
451.6290211345151
 20
283.4393333608988
 30
0.0
 10
451.64042383983
 20
283.3975154144373
 30
0.0
 10
451.6486873085272
 20
283.3742349014607
 30
0.0
 10
451.6620655762677
 20
283.3461457558724
 30
0.0
 10
451.6666948224047
 20
283.3379167026704
 30
0.0
 10
451.6762583335105
 20
283.3238064221651
 30
0.0
 10
451.6811868534587
 20
283.3179299905204
 30
0.0
 10
451.6964120755538
 20
283.3038317541796
 30
0.0
 10
451.7071364019933
 20
283.2991656204819
 30
0.0
 10
451.7295622545414
 20
283.2993518822662
 30
0.0
 10
451.7412193161951
 20
283.30417901391
 30
0.0
 10
451.7593676547371
 20
283.3184838645564
 30
0.0
 10
451.7655380985251
 20
283.3244458408369
 30
0.0
 10
451.7780355644973
 20
283.3386795029668
 30
0.0
 10
451.7906942294539
 20
283.3552182590596
 30
0.0
 10
451.8036735952486
 20
283.3763429346374
 30
0.0
 10
451.8168141882921
 20
283.3997731083426
 30
0.0
 10
451.8234705235346
 20
283.4126554901353
 30
0.0
 10
451.8435534767852
 20
283.4545230219407
 30
0.0
 10
451.8571333266107
 20
283.4867807086551
 30
0.0
 10
451.8777915116622
 20
283.5417223484751
 30
0.0
 10
451.884717355379
 20
283.5611126510769
 30
0.0
 10
451.8985766596782
 20
283.601836877085
 30
0.0
 10
451.9055203185573
 20
283.6231974511646
 30
0.0
 10
451.9263933162512
 20
283.690274618515
 30
0.0
 10
451.940400698752
 20
283.7391300054073
 30
0.0
 10
451.961238962763
 20
283.8175529567433
 30
0.0
 10
451.96816460885
 20
283.8445751280911
 30
0.0
 10
451.9819749095328
 20
283.900386486719
 30
0.0
 10
451.9888691568183
 20
283.9292175249783
 30
0.0
 10
452.0094196863373
 20
284.0180924585874
 30
0.0
 10
452.0229009323224
 20
284.0803098632089
 30
0.0
 10
452.0361631601068
 20
284.1454935136942
 30
0.0
  0
SPLINE
  5
1AC
330
1F
100
AcDbEntity
  8
1
100
AcDbSpline
210
0.0
220
0.0
230
1.0
 70
     8
 71
     3
 72
     8
 73
     4
 74
     0
 42
0.000000001
 43
0.0000000001
 40
0.0
 40
0.0
 40
0.0
 40
0.0
 40
1.0
 40
1.0
 40
1.0
 40
1.0
 10
437.7992289195691
 20
296.8067741890624
 30
0.0
 10
437.7988309348318
 20
296.8065947341549
 30
0.0
 10
437.7984329442939
 20
296.8064153018469
 30
0.0
 10
437.7980349479834
 20
296.8062358921374
 30
0.0
  0
SPLINE
  5
1AD
330
1F
100
AcDbEntity
  8
1
100
AcDbSpline
210
0.0
220
0.0
230
1.0
 70
     8
 71
     3
 72
     8
 73
     4
 74
     0
 42
0.000000001
 43
0.0000000001
 40
0.0
 40
0.0
 40
0.0
 40
0.0
 40
1.0
 40
1.0
 40
1.0
 40
1.0
 10
448.1200805874611
 20
300.1981546479649
 30
0.0
 10
448.1175821442901
 20
300.189761525725
 30
0.0
 10
448.1148866794057
 20
300.1814420462845
 30
0.0
 10
448.1119929981957
 20
300.1731958234185
 30
0.0
  0
SPLINE
  5
1AE
330
1F
100
AcDbEntity
  8
1
100
AcDbSpline
210
0.0
220
0.0
230
1.0
 70
     8
 71
     3
 72
    22
 73
    18
 74
     0
 42
0.000000001
 43
0.0000000001
 40
0.0
 40
0.0
 40
0.0
 40
0.0
 40
0.125
 40
0.125
 40
0.25
 40
0.25
 40
0.375
 40
0.375
 40
0.5
 40
0.5
 40
0.625
 40
0.625
 40
0.75
 40
0.75
 40
0.875
 40
0.875
 40
1.0
 40
1.0
 40
1.0
 40
1.0
 10
448.1800895340373
 20
298.2810126374253
 30
0.0
 10
448.1774209398408
 20
298.2759569569613
 30
0.0
 10
448.1743412799356
 20
298.2711423028179
 30
0.0
 10
448.1674913653471
 20
298.2621471046808
 30
0.0
 10
448.1637089676278
 20
298.2579416186242
 30
0.0
 10
448.1554090902056
 20
298.2501325811618
 30
0.0
 10
448.1508858487986
 20
298.2465384921818
 30
0.0
 10
448.1413943343233
 20
298.2402210365155
 30
0.0
 10
448.1363911946781
 20
298.2374612097574
 30
0.0
 10
448.1258486777977
 20
298.2327756138248
 30
0.0
 10
448.1203266693019
 20
298.2308691059031
 30
0.0
 10
448.1091271825881
 20
298.2280596092825
 30
0.0
 10
448.1034038094975
 20
298.2271339187827
 30
0.0
 10
448.0916967194868
 20
298.2262970747599
 30
0.0
 10
448.0858020540263
 20
298.2263997033883
 30
0.0
 10
448.0741781488522
 20
298.2276368710957
 30
0.0
 10
448.0684105508581
 20
298.2287678113645
 30
0.0
 10
448.0626905080142
 20
298.2304444235784
 30
0.0
  0
SPLINE
  5
1AF
330
1F
100
AcDbEntity
  8
1
100
AcDbSpline
210
0.0
220
0.0
230
1.0
 70
     8
 71
     3
 72
    20
 73
    16
 74
     0
 42
0.000000001
 43
0.0000000001
 40
0.0
 40
0.0
 40
0.0
 40
0.0
 40
0.1250000000000244
 40
0.1250000000000244
 40
0.2500000000000489
 40
0.2500000000000489
 40
0.3750000000000734
 40
0.3750000000000734
 40
0.5000000000000978
 40
0.5000000000000978
 40
0.6250000000001224
 40
0.6250000000001224
 40
0.7500000000001468
 40
0.7500000000001468
 40
1.0
 40
1.0
 40
1.0
 40
1.0
 10
448.8458103813586
 20
298.049876606122
 30
0.0
 10
448.8399337502954
 20
298.0508734922194
 30
0.0
 10
448.8342478967666
 20
298.0523838793636
 30
0.0
 10
448.8232376543701
 20
298.0563757526048
 30
0.0
 10
448.8178636432146
 20
298.0588892737429
 30
0.0
 10
448.8077667711659
 20
298.0647533834753
 30
0.0
 10
448.803052343776
 20
298.0680841523426
 30
0.0
 10
448.7942590366919
 20
298.0755021759297
 30
0.0
 10
448.7901477422248
 20
298.0796307315033
 30
0.0
 10
448.7827505402274
 20
298.088466541075
 30
0.0
 10
448.7794840104585
 20
298.0931342966642
 30
0.0
 10
448.7737706627623
 20
298.1029419739606
 30
0.0
 10
448.7713144890422
 20
298.1081079879297
 30
0.0
 10
448.7652786835213
 20
298.1241653823368
 30
0.0
 10
448.7631125935725
 20
298.1352336844496
 30
0.0
 10
448.7627819514422
 20
298.1466583685073
 30
0.0
  0
SPLINE
  5
1B0
330
1F
100
AcDbEntity
  8
1
100
AcDbSpline
210
0.0
220
0.0
230
1.0
 70
     8
 71
     3
 72
    14
 73
    10
 74
     0
 42
0.000000001
 43
0.0000000001
 40
0.0
 40
0.0
 40
0.0
 40
0.0
 40
0.25
 40
0.25
 40
0.5
 40
0.5
 40
0.75
 40
0.75
 40
1.0
 40
1.0
 40
1.0
 40
1.0
 10
448.1800895340377
 20
298.2810126374263
 30
0.0
 10
448.1834279712741
 20
298.2873373427481
 30
0.0
 10
448.1874208818086
 20
298.2933062631025
 30
0.0
 10
448.1965208363447
 20
298.3042644099131
 30
0.0
 10
448.2015859281153
 20
298.3092210569687
 30
0.0
 10
448.2127594979419
 20
298.3180796347077
 30
0.0
 10
448.2189080819748
 20
298.3219822379685
 30
0.0
 10
448.2317567925171
 20
298.3283258889965
 30
0.0
 10
448.2385143029336
 20
298.3308240127597
 30
0.0
 10
448.2456359320361
 20
298.3325904494103
 30
0.0
  0
SPLINE
  5
1B1
330
1F
100
AcDbEntity
  8
1
100
AcDbSpline
210
0.0
220
0.0
230
1.0
 70
     8
 71
     3
 72
    14
 73
    10
 74
     0
 42
0.000000001
 43
0.0000000001
 40
0.0
 40
0.0
 40
0.0
 40
0.0
 40
0.25
 40
0.25
 40
0.5
 40
0.5
 40
0.75
 40
0.75
 40
1.0
 40
1.0
 40
1.0
 40
1.0
 10
448.7267103874295
 20
298.2216667359391
 30
0.0
 10
448.7323267033415
 20
298.2169604404607
 30
0.0
 10
448.7373898932423
 20
298.2116478198864
 30
0.0
 10
448.7461316560922
 20
298.2002731966493
 30
0.0
 10
448.7498362090406
 20
298.1942078391059
 30
0.0
 10
448.7559566603087
 20
298.1813418999729
 30
0.0
 10
448.7583492471638
 20
298.1745382175363
 30
0.0
 10
448.7616382975251
 20
298.1608063075813
 30
0.0
 10
448.7625751705674
 20
298.1538032721558
 30
0.0
 10
448.7627819514422
 20
298.1466583685073
 30
0.0
  0
SPLINE
  5
1B2
330
1F
100
AcDbEntity
  8
1
100
AcDbSpline
210
0.0
220
0.0
230
1.0
 70
     8
 71
     3
 72
   118
 73
   114
 74
     0
 42
0.000000001
 43
0.0000000001
 40
0.0
 40
0.0
 40
0.0
 40
0.0
 40
0.015625
 40
0.015625
 40
0.03125
 40
0.03125
 40
0.0468750000000001
 40
0.0468750000000001
 40
0.0625000000000001
 40
0.0781250000000001
 40
0.0781250000000001
 40
0.0937500000000001
 40
0.0937500000000001
 40
0.1093750000000001
 40
0.1093750000000001
 40
0.125
 40
0.125
 40
0.1406249999999999
 40
0.1406249999999999
 40
0.1562499999999998
 40
0.1562499999999998
 40
0.1874999999999994
 40
0.1874999999999994
 40
0.2031249999999991
 40
0.2031249999999991
 40
0.2187499999999988
 40
0.2187499999999988
 40
0.2343749999999985
 40
0.2343749999999985
 40
0.2499999999999983
 40
0.2656249999999979
 40
0.2656249999999979
 40
0.2812499999999977
 40
0.2812499999999977
 40
0.2968749999999974
 40
0.2968749999999974
 40
0.3124999999999972
 40
0.3124999999999972
 40
0.3281249999999969
 40
0.3281249999999969
 40
0.3437499999999967
 40
0.3437499999999967
 40
0.3749999999999961
 40
0.3749999999999961
 40
0.3906249999999958
 40
0.3906249999999958
 40
0.4062499999999955
 40
0.4062499999999955
 40
0.4218749999999952
 40
0.4218749999999952
 40
0.4374999999999948
 40
0.4531249999999946
 40
0.4531249999999946
 40
0.4687499999999943
 40
0.4687499999999943
 40
0.4843749999999939
 40
0.4843749999999939
 40
0.4999999999999936
 40
0.4999999999999936
 40
0.5156249999999934
 40
0.5156249999999934
 40
0.531249999999993
 40
0.531249999999993
 40
0.5624999999999938
 40
0.5624999999999938
 40
0.5781249999999945
 40
0.5781249999999945
 40
0.5937499999999952
 40
0.5937499999999952
 40
0.6015624999999955
 40
0.6015624999999955
 40
0.6093749999999958
 40
0.6093749999999958
 40
0.6249999999999958
 40
0.6249999999999958
 40
0.656249999999996
 40
0.656249999999996
 40
0.6718749999999958
 40
0.6718749999999958
 40
0.6874999999999957
 40
0.6874999999999957
 40
0.7187499999999961
 40
0.7187499999999961
 40
0.7499999999999965
 40
0.7499999999999965
 40
0.7656249999999967
 40
0.7656249999999967
 40
0.7812499999999969
 40
0.7812499999999969
 40
0.7968749999999973
 40
0.7968749999999973
 40
0.8124999999999975
 40
0.8281249999999976
 40
0.8281249999999976
 40
0.8437499999999978
 40
0.8437499999999978
 40
0.859374999999998
 40
0.859374999999998
 40
0.8749999999999984
 40
0.8749999999999984
 40
0.8906249999999985
 40
0.8906249999999985
 40
0.9062499999999987
 40
0.9062499999999987
 40
0.9374999999999992
 40
0.9374999999999992
 40
0.9531249999999992
 40
0.9531249999999992
 40
0.9687499999999996
 40
0.9687499999999996
 40
0.984375
 40
0.984375
 40
1.0
 40
1.0
 40
1.0
 40
1.0
 10
452.0361631601068
 20
284.1454935136942
 30
0.0
 10
452.0397908338658
 20
284.1829610527038
 30
0.0
 10
452.0432445246347
 20
284.2214177645526
 30
0.0
 10
452.0497512747361
 20
284.2997077049465
 30
0.0
 10
452.0528116001433
 20
284.3396123257671
 30
0.0
 10
452.0585462770799
 20
284.4209403751707
 30
0.0
 10
452.0612250553222
 20
284.4624423645853
 30
0.0
 10
452.0661675331626
 20
284.5465687989274
 30
0.0
 10
452.0706924649542
 20
284.631738931333
 30
0.0
 10
452.0743879114324
 20
284.7189824451454
 30
0.0
 10
452.0776655457287
 20
284.8072703222475
 30
0.0
 10
452.0790898520573
 20
284.8518013745287
 30
0.0
 10
452.0815021012241
 20
284.9412866469308
 30
0.0
 10
452.0824920530864
 20
284.9862939680567
 30
0.0
 10
452.0840391654753
 20
285.0768385261158
 30
0.0
 10
452.0845962863186
 20
285.1224473992716
 30
0.0
 10
452.0852686866756
 20
285.213558786243
 30
0.0
 10
452.0853856528228
 20
285.2591197510142
 30
0.0
 10
452.085183358168
 20
285.3502521692424
 30
0.0
 10
452.0848636382813
 20
285.395861137635
 30
0.0
 10
452.0832472327776
 20
285.5324628888849
 30
0.0
 10
452.0813062729176
 20
285.6225213925674
 30
0.0
 10
452.0771102096743
 20
285.756107323437
 30
0.0
 10
452.0754960085636
 20
285.8003716339738
 30
0.0
 10
452.0718623739748
 20
285.8877402850362
 30
0.0
 10
452.0698405461656
 20
285.9309283031228
 30
0.0
 10
452.0653879612937
 20
286.0163143674728
 30
0.0
 10
452.0629522075317
 20
286.0585878516706
 30
0.0
 10
452.0576947704827
 20
286.1417112548825
 30
0.0
 10
452.0520555737211
 20
286.2233797517487
 30
0.0
 10
452.0456589390228
 20
286.3021616127923
 30
0.0
 10
452.0388813467731
 20
286.3794916245687
 30
0.0
 10
452.0353135150591
 20
286.4172945365459
 30
0.0
 10
452.0278439994246
 20
286.4909734362296
 30
0.0
 10
452.0239392009921
 20
286.5268851885352
 30
0.0
 10
452.0157892496754
 20
286.5968518074527
 30
0.0
 10
452.0115378566895
 20
286.6309472836034
 30
0.0
 10
452.0027517373806
 20
286.6968137900711
 30
0.0
 10
451.9982116894656
 20
286.7286367248657
 30
0.0
 10
451.9888388011093
 20
286.7900709012289
 30
0.0
 10
451.9840008458871
 20
286.8197111525608
 30
0.0
 10
451.9690773573172
 20
286.9050897175302
 30
0.0
 10
451.9586473817487
 20
286.9569569209136
 30
0.0
 10
451.9422835839911
 20
287.0272076983892
 30
0.0
 10
451.9367117587282
 20
287.0493414179544
 30
0.0
 10
451.9254064879344
 20
287.0907683170031
 30
0.0
 10
451.9196635902783
 20
287.1101035175751
 30
0.0
 10
451.9079971900364
 20
287.146016192994
 30
0.0
 10
451.9020628260201
 20
287.1626192490629
 30
0.0
 10
451.8900752286429
 20
287.192873301546
 30
0.0
 10
451.8779701278891
 20
287.2201871532051
 30
0.0
 10
451.8656310033968
 20
287.2416452004919
 30
0.0
 10
451.8531737373368
 20
287.2601470779721
 30
0.0
 10
451.8469112561499
 20
287.2678804020692
 30
0.0
 10
451.8343437157433
 20
287.2803019338686
 30
0.0
 10
451.8280346890431
 20
287.2849960921109
 30
0.0
 10
451.8153658750466
 20
287.2913363252412
 30
0.0
 10
451.8089989771842
 20
287.2929776507906
 30
0.0
 10
451.796302940406
 20
287.2931728473921
 30
0.0
 10
451.7899639151771
 20
287.2917351641805
 30
0.0
 10
451.7773038510273
 20
287.285789236969
 30
0.0
 10
451.7709748266104
 20
287.2812729933598
 30
0.0
 10
451.7520698521659
 20
287.2631089838936
 30
0.0
 10
451.7396408448698
 20
287.2449470940931
 30
0.0
 10
451.7212597413196
 20
287.20859265922
 30
0.0
 10
451.7151835745503
 20
287.1949577978553
 30
0.0
 10
451.7032075836469
 20
287.1648298920725
 30
0.0
 10
451.6972971146411
 20
287.1483168558824
 30
0.0
 10
451.6885480903878
 20
287.1213663947044
 30
0.0
 10
451.6856512123335
 20
287.1120191087539
 30
0.0
 10
451.6798966534198
 20
287.09259188363
 30
0.0
 10
451.6770405162456
 20
287.0825156661926
 30
0.0
 10
451.6685790961736
 20
287.0513634441086
 30
0.0
 10
451.6630645408868
 20
287.0293116383763
 30
0.0
 10
451.6468925990319
 20
286.9593809147213
 30
0.0
 10
451.636605268161
 20
286.9077436340301
 30
0.0
 10
451.6219166002001
 20
286.8227484716361
 30
0.0
 10
451.6171445151371
 20
286.7931559836003
 30
0.0
 10
451.6078540821395
 20
286.7313940003831
 30
0.0
 10
451.6033256056624
 20
286.6991384635921
 30
0.0
 10
451.5902717208915
 20
286.5994634743467
 30
0.0
 10
451.5822327013901
 20
286.5288918136075
 30
0.0
 10
451.5675224419488
 20
286.3797041408249
 30
0.0
 10
451.5609262538652
 20
286.3018628554497
 30
0.0
 10
451.5521667033673
 20
286.1802455038743
 30
0.0
 10
451.549437459007
 20
286.1388877157474
 30
0.0
 10
451.5444011959274
 20
286.0551809254886
 30
0.0
 10
451.5420882599318
 20
286.0127542721082
 30
0.0
 10
451.5378723788016
 20
285.9267555669679
 30
0.0
 10
451.5359664676624
 20
285.8831015357393
 30
0.0
 10
451.5325860685492
 20
285.7950694110603
 30
0.0
 10
451.5296380614619
 20
285.7063922229361
 30
0.0
 10
451.5275485200391
 20
285.616434334
 30
0.0
 10
451.5258911226133
 20
285.5258317516412
 30
0.0
 10
451.5252816101819
 20
285.4803473317674
 30
0.0
 10
451.5245016408768
 20
285.3893636252652
 30
0.0
 10
451.5243301608014
 20
285.3438103393373
 30
0.0
 10
451.5244244447188
 20
285.2525808360817
 30
0.0
 10
451.5246915226668
 20
285.2068342998149
 30
0.0
 10
451.52566028317
 20
285.1158535270124
 30
0.0
 10
451.5263613536721
 20
285.0705599593844
 30
0.0
 10
451.5281945258716
 20
284.9803643278117
 30
0.0
 10
451.5293277514532
 20
284.9354255575303
 30
0.0
 10
451.5333723106441
 20
284.8014375257183
 30
0.0
 10
451.5369032714473
 20
284.7138995153506
 30
0.0
 10
451.5434412520151
 20
284.5852513663555
 30
0.0
 10
451.5458286206092
 20
284.5428271476561
 30
0.0
 10
451.5509830157753
 20
284.4594920005379
 30
0.0
 10
451.5537538701863
 20
284.4185010527262
 30
0.0
 10
451.5596818980284
 20
284.3378689333975
 30
0.0
 10
451.5628453059568
 20
284.2981580821844
 30
0.0
 10
451.5695282390323
 20
284.2204923163829
 30
0.0
 10
451.5730454639386
 20
284.1825506971467
 30
0.0
 10
451.5767371007512
 20
284.1454935137194
 30
0.0
  0
SPLINE
  5
1B3
330
1F
100
AcDbEntity
  8
1
100
AcDbSpline
210
0.0
220
0.0
230
1.0
 70
     8
 71
     3
 72
     8
 73
     4
 74
     0
 42
0.000000001
 43
0.0000000001
 40
0.0
 40
0.0
 40
0.0
 40
0.0
 40
1.0
 40
1.0
 40
1.0
 40
1.0
 10
438.7713199544293
 20
295.2768518142343
 30
0.0
 10
438.7518951684684
 20
295.2884692529021
 30
0.0
 10
438.7326001674783
 20
295.3002752255412
 30
0.0
 10
438.7134367235631
 20
295.3122736846655
 30
0.0
  0
SPLINE
  5
1B4
330
1F
100
AcDbEntity
  8
1
100
AcDbSpline
210
0.0
220
0.0
230
1.0
 70
     8
 71
     3
 72
    15
 73
    11
 74
     0
 42
0.000000001
 43
0.0000000001
 40
0.0
 40
0.0
 40
0.0
 40
0.0
 40
0.5000000000000031
 40
0.5000000000000031
 40
0.7500000000000047
 40
0.7500000000000047
 40
0.8125000000000033
 40
0.8125000000000033
 40
0.8750000000000023
 40
1.0
 40
1.0
 40
1.0
 40
1.0
 10
296.2397155210464
 20
273.9776676738903
 30
0.0
 10
296.5081054211378
 20
273.985718585878
 30
0.0
 10
296.7812468235619
 20
273.9925155613753
 30
0.0
 10
297.1983856227041
 20
273.9995481792385
 30
0.0
 10
297.3386729845834
 20
274.0013707010451
 30
0.0
 10
297.5156429304704
 20
274.00290506126
 30
0.0
 10
297.5511568222347
 20
274.0031750783851
 30
0.0
 10
297.6220949019798
 20
274.0036376182676
 30
0.0
 10
297.7283894369478
 20
274.0042157388436
 30
0.0
 10
297.8343490241448
 20
274.0044460613795
 30
0.0
 10
297.9048419452959
 20
274.0044460613795
 30
0.0
  0
SPLINE
  5
1B5
330
1F
100
AcDbEntity
  8
1
100
AcDbSpline
210
0.0
220
0.0
230
1.0
 70
     8
 71
     3
 72
    10
 73
     6
 74
     0
 42
0.000000001
 43
0.0000000001
 40
0.0
 40
0.0
 40
0.0
 40
0.0
 40
0.5
 40
0.5
 40
1.0
 40
1.0
 40
1.0
 40
1.0
 10
310.676282708079
 20
274.2321168230303
 30
0.0
 10
308.5485832007031
 20
274.1816230606375
 30
0.0
 10
306.4205818544632
 20
274.1375252778124
 30
0.0
 10
302.1635826332962
 20
274.0618121208691
 30
0.0
 10
300.0345823748091
 20
274.030204943387
 30
0.0
 10
297.9048419452957
 20
274.0044460613795
 30
0.0
  0
SPLINE
  5
1B6
330
1F
100
AcDbEntity
  8
1
100
AcDbSpline
210
0.0
220
0.0
230
1.0
 70
     8
 71
     3
 72
     8
 73
     4
 74
     0
 42
0.000000001
 43
0.0000000001
 40
0.0
 40
0.0
 40
0.0
 40
0.0
 40
1.0
 40
1.0
 40
1.0
 40
1.0
 10
444.8798419473947
 20
291.3089567911681
 30
0.0
 10
445.1029009870021
 20
291.3071098030809
 30
0.0
 10
445.3252452916417
 20
291.3131444314402
 30
0.0
 10
445.5468615842568
 20
291.3270115955171
 30
0.0
  0
SPLINE
  5
1B7
330
1F
100
AcDbEntity
  8
1
100
AcDbSpline
210
0.0
220
0.0
230
1.0
 70
    24
 71
     3
 72
    14
 73
    10
 74
     0
 42
0.000000001
 43
0.0000000001
 40
0.0
 40
0.0
 40
0.0
 40
0.0
 40
0.2504852579385281
 40
0.2504852579385281
 40
0.5009705158770563
 40
0.5009705158770563
 40
0.7514557738155843
 40
0.7514557738155843
 40
1.0
 40
1.0
 40
1.0
 40
1.0
 10
444.8798419471661
 20
292.8512263367649
 30
0.0
 10
444.879841947211
 20
292.6637392299026
 30
0.0
 10
444.8798419472521
 20
292.48949435741
 30
0.0
 10
444.8798419473256
 20
292.1696970265752
 30
0.0
 10
444.8798419473582
 20
292.024145426792
 30
0.0
 10
444.8798419474143
 20
291.7635807168522
 30
0.0
 10
444.8798419474381
 20
291.6485683062328
 30
0.0
 10
444.8798419474761
 20
291.4513080206973
 30
0.0
 10
444.8798419474904
 20
291.3688136803227
 30
0.0
 10
444.8798419475004
 20
291.3025853367636
 30
0.0
  0
SPLINE
  5
1B8
330
1F
100
AcDbEntity
  8
1
100
AcDbSpline
210
0.0
220
0.0
230
1.0
 70
     8
 71
     3
 72
    25
 73
    21
 74
     0
 42
0.000000001
 43
0.0000000001
 40
0.0
 40
0.0
 40
0.0
 40
0.0
 40
0.1250000000000117
 40
0.1250000000000117
 40
0.2500000000000233
 40
0.2500000000000233
 40
0.3750000000000349
 40
0.3750000000000349
 40
0.5000000000000467
 40
0.5000000000000467
 40
0.6250000000000583
 40
0.6250000000000583
 40
0.75000000000007
 40
0.75000000000007
 40
0.7812500000000651
 40
0.7812500000000651
 40
0.8125000000000602
 40
0.8750000000000401
 40
0.8750000000000401
 40
1.0
 40
1.0
 40
1.0
 40
1.0
 10
439.1644908456142
 20
295.0509894037054
 30
0.0
 10
439.3835128752696
 20
294.9044893193686
 30
0.0
 10
439.6039447791626
 20
294.7649991795525
 30
0.0
 10
440.0480562713788
 20
294.4993717739616
 30
0.0
 10
440.2717338544315
 20
294.3732352236722
 30
0.0
 10
440.7229097504119
 20
294.1339607023284
 30
0.0
 10
440.9504050058496
 20
294.0208220073667
 30
0.0
 10
441.4100111621234
 20
293.8074971774027
 30
0.0
 10
441.6421172120222
 20
293.7073085084652
 30
0.0
 10
442.1120770609667
 20
293.5201929040528
 30
0.0
 10
442.3499229616511
 20
293.4332606328263
 30
0.0
 10
442.8330174449725
 20
293.2734355287133
 30
0.0
 10
443.0782530028072
 20
293.2005324890582
 30
0.0
 10
443.3909756557475
 20
293.1190969417919
 30
0.0
 10
443.4538741677964
 20
293.1032867105698
 30
0.0
 10
443.5800789492811
 20
293.0727362385821
 30
0.0
 10
443.7700116375329
 20
293.0285104223537
 30
0.0
 10
443.9619815473366
 20
292.9891992337205
 30
0.0
 10
444.3491413122303
 20
292.9175323037982
 30
0.0
 10
444.6115086913995
 20
292.8789805773318
 30
0.0
 10
444.8798419452957
 20
292.8512263367962
 30
0.0
  0
SPLINE
  5
1B9
330
1F
100
AcDbEntity
  8
1
100
AcDbSpline
210
0.0
220
0.0
230
1.0
 70
     8
 71
     3
 72
     8
 73
     4
 74
     0
 42
0.000000001
 43
0.0000000001
 40
0.0
 40
0.0
 40
0.0
 40
0.0
 40
1.0
 40
1.0
 40
1.0
 40
1.0
 10
291.9957009585922
 20
283.4645094213343
 30
0.0
 10
291.735196873867
 20
283.5428554570432
 30
0.0
 10
291.4713432950903
 20
283.614278262439
 30
0.0
 10
291.2038318185191
 20
283.6779611815005
 30
0.0
  0
SPLINE
  5
1BA
330
1F
100
AcDbEntity
  8
1
100
AcDbSpline
210
0.0
220
0.0
230
1.0
 70
     8
 71
     3
 72
     8
 73
     4
 74
     0
 42
0.000000001
 43
0.0000000001
 40
0.0
 40
0.0
 40
0.0
 40
0.0
 40
1.0
 40
1.0
 40
1.0
 40
1.0
 10
438.868298758769
 20
292.5679732754375
 30
0.0
 10
438.5841936813478
 20
292.7065092097937
 30
0.0
 10
438.2972369174672
 20
292.8493515777675
 30
0.0
 10
438.0078585016506
 20
292.9958509688576
 30
0.0
  0
SPLINE
  5
1BB
330
1F
100
AcDbEntity
  8
1
100
AcDbSpline
210
0.0
220
0.0
230
1.0
 70
     8
 71
     3
 72
    48
 73
    44
 74
     0
 42
0.000000001
 43
0.0000000001
 40
0.0
 40
0.0
 40
0.0
 40
0.0
 40
0.1250000000000271
 40
0.1250000000000271
 40
0.2500000000000541
 40
0.2500000000000541
 40
0.3750000000000812
 40
0.3750000000000812
 40
0.4375000000000944
 40
0.4375000000000944
 40
0.5000000000001075
 40
0.5000000000001075
 40
0.5625000000001207
 40
0.5625000000001207
 40
0.5937500000001162
 40
0.5937500000001162
 40
0.6250000000001116
 40
0.6250000000001116
 40
0.6875000000000825
 40
0.6875000000000825
 40
0.7500000000000532
 40
0.7500000000000532
 40
0.7812500000000386
 40
0.7812500000000386
 40
0.8125000000000239
 40
0.8125000000000239
 40
0.8437500000000094
 40
0.8437500000000094
 40
0.8749999999999948
 40
0.8749999999999948
 40
0.8906249999999911
 40
0.8906249999999911
 40
0.9062499999999872
 40
0.9140624999999852
 40
0.9140624999999852
 40
0.9218749999999836
 40
0.9218749999999836
 40
0.9374999999999808
 40
0.9531249999999779
 40
0.9531249999999779
 40
0.9687499999999753
 40
0.9687499999999753
 40
1.0
 40
1.0
 40
1.0
 40
1.0
 10
438.7134367235631
 20
295.3122736846655
 30
0.0
 10
438.6428487500831
 20
295.3564696506001
 30
0.0
 10
438.5737321786016
 20
295.4024661575092
 30
0.0
 10
438.4385777872616
 20
295.4983051756739
 30
0.0
 10
438.372536911389
 20
295.5481440582012
 30
0.0
 10
438.2438520741238
 20
295.652121668661
 30
0.0
 10
438.1812004326198
 20
295.7062514212463
 30
0.0
 10
438.0902575954958
 20
295.7912993807246
 30
0.0
 10
438.0604522115513
 20
295.8202945539508
 30
0.0
 10
438.0020027433166
 20
295.8797538097018
 30
0.0
 10
437.9733217953964
 20
295.9102592584065
 30
0.0
 10
437.9176294074265
 20
295.9726573052167
 30
0.0
 10
437.8905916715876
 20
296.0045691471121
 30
0.0
 10
437.8515039890025
 20
296.0537186772415
 30
0.0
 10
437.8387207101038
 20
296.0703163895559
 30
0.0
 10
437.8137078348806
 20
296.1039916415303
 30
0.0
 10
437.8014652066093
 20
296.1210883056017
 30
0.0
 10
437.7658172363801
 20
296.1730072547885
 30
0.0
 10
437.7434574745355
 20
296.2084604820549
 30
0.0
 10
437.7025405924235
 20
296.2815981860849
 30
0.0
 10
437.6839496778595
 20
296.31926422854
 30
0.0
 10
437.6603903833561
 20
296.3782490514032
 30
0.0
 10
437.653246456605
 20
296.3984127410045
 30
0.0
 10
437.6410613303799
 20
296.4393343729297
 30
0.0
 10
437.636005517644
 20
296.4600930722843
 30
0.0
 10
437.6286577583293
 20
296.5023904288817
 30
0.0
 10
437.6263797045695
 20
296.5240002138367
 30
0.0
 10
437.6257015881921
 20
296.5670301511703
 30
0.0
 10
437.6272576903661
 20
296.588572251621
 30
0.0
 10
437.6334983211073
 20
296.6209262183371
 30
0.0
 10
437.6362544739256
 20
296.6317345419786
 30
0.0
 10
437.6430957465608
 20
296.6527224012093
 30
0.0
 10
437.6492396211496
 20
296.6681064662362
 30
0.0
 10
437.6570080162211
 20
296.6829160019556
 30
0.0
 10
437.6625616254171
 20
296.6926562689713
 30
0.0
 10
437.6655391929991
 20
296.6974790274782
 30
0.0
 10
437.6749236279968
 20
296.7115502607375
 30
0.0
 10
437.6886501096392
 20
296.7293028508306
 30
0.0
 10
437.7046438882431
 20
296.7451686776125
 30
0.0
 10
437.7217029811025
 20
296.7601471067055
 30
0.0
 10
437.7307408737999
 20
296.7671601455056
 30
0.0
 10
437.7586317384207
 20
296.7865250904124
 30
0.0
 10
437.7784639351394
 20
296.7974110614891
 30
0.0
 10
437.7992279961067
 20
296.8067737903893
 30
0.0
  0
SPLINE
  5
1BC
330
1F
100
AcDbEntity
  8
1
100
AcDbSpline
210
0.0
220
0.0
230
1.0
 70
     8
 71
     3
 72
     8
 73
     4
 74
     0
 42
0.000000001
 43
0.0000000001
 40
0.0
 40
0.0
 40
0.0
 40
0.0
 40
1.0
 40
1.0
 40
1.0
 40
1.0
 10
445.4671403673938
 20
293.8029572800379
 30
0.0
 10
445.4636523126414
 20
293.8030364013276
 30
0.0
 10
445.460165047926
 20
293.803125030244
 30
0.0
 10
445.4566786890396
 20
293.8032231526713
 30
0.0
  0
SPLINE
  5
1BD
330
1F
100
AcDbEntity
  8
1
100
AcDbSpline
210
0.0
220
0.0
230
1.0
 70
     8
 71
     3
 72
     8
 73
     4
 74
     0
 42
0.000000001
 43
0.0000000001
 40
0.0
 40
0.0
 40
0.0
 40
0.0
 40
1.0
 40
1.0
 40
1.0
 40
1.0
 10
445.4569126926937
 20
293.64361098227
 30
0.0
 10
445.4604704653298
 20
293.6437359621172
 30
0.0
 10
445.4640290712253
 20
293.643860536827
 30
0.0
 10
445.4675885115413
 20
293.6439847058347
 30
0.0
  0
SPLINE
  5
1BE
330
1F
100
AcDbEntity
  8
1
100
AcDbSpline
210
0.0
220
0.0
230
1.0
 70
     8
 71
     3
 72
    18
 73
    14
 74
     0
 42
0.000000001
 43
0.0000000001
 40
0.0
 40
0.0
 40
0.0
 40
0.0
 40
0.2500000000000001
 40
0.2500000000000001
 40
0.3750000000000002
 40
0.3750000000000002
 40
0.4375000000000002
 40
0.4375000000000002
 40
0.5000000000000002
 40
0.5000000000000002
 40
0.7500000000000002
 40
0.7500000000000002
 40
1.0
 40
1.0
 40
1.0
 40
1.0
 10
440.7426233465042
 20
294.3693052778497
 30
0.0
 10
441.1194247683947
 20
294.2358296416257
 30
0.0
 10
441.501631895129
 20
294.1202888830448
 30
0.0
 10
442.0830122996129
 20
293.9738764570413
 30
0.0
 10
442.278153058654
 20
293.9295626837576
 30
0.0
 10
442.5729015271193
 20
293.8698940312771
 30
0.0
 10
442.6715188958087
 20
293.8511357561897
 30
0.0
 10
442.8687940035548
 20
293.8160104133304
 30
0.0
 10
442.9675293403471
 20
293.7996267081741
 30
0.0
 10
443.4616919273742
 20
293.7235698608768
 30
0.0
 10
443.8585735377942
 20
293.6814425055608
 30
0.0
 10
444.6554171365879
 20
293.6344110897635
 30
0.0
 10
445.0553790332228
 20
293.629505635878
 30
0.0
 10
445.4569126926937
 20
293.64361098227
 30
0.0
  0
SPLINE
  5
1BF
330
1F
100
AcDbEntity
  8
1
100
AcDbSpline
210
0.0
220
0.0
230
1.0
 70
     8
 71
     3
 72
    30
 73
    26
 74
     0
 42
0.000000001
 43
0.0000000001
 40
0.0
 40
0.0
 40
0.0
 40
0.0
 40
0.0338588478313687
 40
0.0338588478313687
 40
0.1216898616648808
 40
0.1216898616648808
 40
0.2095208754983926
 40
0.2095208754983926
 40
0.2973518893319044
 40
0.2973518893319044
 40
0.3851829031654165
 40
0.3851829031654165
 40
0.4730139169989284
 40
0.4730139169989284
 40
0.5608449308324405
 40
0.5608449308324405
 40
0.6486759446659523
 40
0.6486759446659523
 40
0.7365069584994643
 40
0.7365069584994643
 40
0.8243379723329761
 40
0.8243379723329761
 40
0.9121689861664881
 40
0.9121689861664881
 40
1.0
 40
1.0
 40
1.0
 40
1.0
 10
353.4940593416005
 20
276.4997418017442
 30
0.0
 10
353.0118029323028
 20
276.4584520799041
 30
0.0
 10
352.529424244824
 20
276.4181518231248
 30
0.0
 10
350.7953354576058
 20
276.2765871453776
 30
0.0
 10
349.542985173981
 20
276.1805202665424
 30
0.0
 10
347.0371541361237
 20
275.9981418181175
 30
0.0
 10
345.7836738412884
 20
275.9118311079676
 30
0.0
 10
343.2759389233488
 20
275.7469814275669
 30
0.0
 10
342.0216846470037
 20
275.6684434611917
 30
0.0
 10
339.5127266024688
 20
275.517605164553
 30
0.0
 10
338.2580230992623
 20
275.4453058916382
 30
0.0
 10
335.748451066565
 20
275.3058291692109
 30
0.0
 10
334.4935827406246
 20
275.2386528303791
 30
0.0
 10
331.9839181990263
 20
275.1086919984349
 30
0.0
 10
330.7291221359237
 20
275.0459087236507
 30
0.0
 10
328.2197866183986
 20
274.9243551875735
 30
0.0
 10
326.9652085227344
 20
274.8655846083751
 30
0.0
 10
324.4566564489994
 20
274.7519995712734
 30
0.0
 10
323.202690988525
 20
274.6971870232919
 30
0.0
 10
320.6954703329586
 20
274.5917167302263
 30
0.0
 10
319.4422152098043
 20
274.5410609606565
 30
0.0
 10
316.9364437356104
 20
274.4443138975541
 30
0.0
 10
315.6839273911673
 20
274.3982248750091
 30
0.0
 10
313.1795999060838
 20
274.3111686825428
 30
0.0
 10
311.9277886985923
 20
274.2702040258328
 30
0.0
 10
310.6762827080791
 20
274.2321168230301
 30
0.0
  0
SPLINE
  5
1C0
330
1F
100
AcDbEntity
  8
1
100
AcDbSpline
210
0.0
220
0.0
230
1.0
 70
     8
 71
     3
 72
    30
 73
    26
 74
     0
 42
0.000000001
 43
0.0000000001
 40
0.0
 40
0.0
 40
0.0
 40
0.0
 40
0.0761643628872732
 40
0.0761643628872732
 40
0.1523287257745463
 40
0.1523287257745463
 40
0.2284930886618195
 40
0.2284930886618195
 40
0.3046574515490926
 40
0.3046574515490926
 40
0.3808218144363658
 40
0.3808218144363658
 40
0.4569861773236389
 40
0.4569861773236389
 40
0.5331505402109121
 40
0.5331505402109121
 40
0.6093149030981853
 40
0.6093149030981853
 40
0.6854792659854585
 40
0.6854792659854585
 40
0.7616436288727316
 40
0.7616436288727316
 40
0.913972354647279
 40
0.913972354647279
 40
1.0
 40
1.0
 40
1.0
 40
1.0
 10
310.6762827080792
 20
274.2321168230288
 30
0.0
 10
311.6696674297941
 20
274.3022178950213
 30
0.0
 10
312.6633716867312
 20
274.3728139593877
 30
0.0
 10
314.6514947916414
 20
274.5141596056387
 30
0.0
 10
315.6459138059988
 20
274.5849068842198
 30
0.0
 10
317.6355131221853
 20
274.7257453068673
 30
0.0
 10
318.6306935696852
 20
274.7958338743008
 30
0.0
 10
320.6218285370307
 20
274.9346496107967
 30
0.0
 10
321.6177831625045
 20
275.0033741508631
 30
0.0
 10
323.6104415094986
 20
275.1389400211995
 30
0.0
 10
324.607158671743
 20
275.2057798584735
 30
0.0
 10
326.6011652289
 20
275.3373067983011
 30
0.0
 10
327.5984647915331
 20
275.4019929233721
 30
0.0
 10
329.5935670684272
 20
275.5292752340288
 30
0.0
 10
330.5913696829314
 20
275.5918706634627
 30
0.0
 10
332.5873542099403
 20
275.7153929699139
 30
0.0
 10
333.5855359499885
 20
275.7763201448352
 30
0.0
 10
335.5821246032558
 20
275.8972944414336
 30
0.0
 10
336.5805312924138
 20
275.957342779669
 30
0.0
 10
338.5773914887349
 20
276.077691533368
 30
0.0
 10
339.575844748425
 20
276.1379937413975
 30
0.0
 10
342.5709816532154
 20
276.3214221944672
 30
0.0
 10
344.5674428898322
 20
276.4469842981707
 30
0.0
 10
347.6896517600938
 20
276.6595953335416
 30
0.0
 10
348.816160568008
 20
276.7396321709531
 30
0.0
 10
349.9421671506211
 20
276.8244454329105
 30
0.0
  0
SPLINE
  5
1C1
330
1F
100
AcDbEntity
  8
1
100
AcDbSpline
210
0.0
220
0.0
230
1.0
 70
     8
 71
     3
 72
    15
 73
    11
 74
     0
 42
0.000000001
 43
0.0000000001
 40
0.0
 40
0.0
 40
0.0
 40
0.0
 40
0.0625000000000012
 40
0.0625000000000012
 40
0.1250000000000024
 40
0.25
 40
0.25
 40
0.5
 40
0.75
 40
1.0
 40
1.0
 40
1.0
 40
1.0
 10
297.9048419452971
 20
303.6796661130478
 30
0.0
 10
297.8603900402475
 20
303.6796661130478
 30
0.0
 10
297.8158289898485
 20
303.679744120217
 30
0.0
 10
297.7267563015479
 20
303.6800563960987
 30
0.0
 10
297.5933870842484
 20
303.6807580733959
 30
0.0
 10
297.4607302887381
 20
303.6821502814049
 30
0.0
 10
297.1963513335846
 20
303.6858239612404
 30
0.0
 10
296.8463361788483
 20
303.6930981181526
 30
0.0
 10
296.3286231467839
 20
303.7104649769173
 30
0.0
 10
295.9883142468384
 20
303.7257495301455
 30
0.0
 10
295.8193742355447
 20
303.7341293142093
 30
0.0
  0
SPLINE
  5
1C2
330
1F
100
AcDbEntity
  8
1
100
AcDbSpline
210
0.0
220
0.0
230
1.0
 70
     8
 71
     3
 72
     8
 73
     4
 74
     0
 42
0.000000001
 43
0.0000000001
 40
0.0
 40
0.0
 40
0.0
 40
0.0
 40
1.0
 40
1.0
 40
1.0
 40
1.0
 10
439.1644908456141
 20
295.0509894037054
 30
0.0
 10
439.0323798778011
 20
295.1238202116299
 30
0.0
 10
438.9013384011211
 20
295.1990913007782
 30
0.0
 10
438.7713199544294
 20
295.2768518142347
 30
0.0
  0
SPLINE
  5
1C3
330
1F
100
AcDbEntity
  8
1
100
AcDbSpline
210
0.0
220
0.0
230
1.0
 70
     8
 71
     3
 72
    14
 73
    10
 74
     0
 42
0.000000001
 43
0.0000000001
 40
0.0
 40
0.0
 40
0.0
 40
0.0
 40
0.25
 40
0.25
 40
0.5
 40
0.5
 40
0.75
 40
0.75
 40
1.0
 40
1.0
 40
1.0
 40
1.0
 10
279.4048419452957
 20
270.4373698725686
 30
0.0
 10
279.5532541098664
 20
270.4790912415178
 30
0.0
 10
279.7047149773697
 20
270.5298830623413
 30
0.0
 10
280.0127911361204
 20
270.6465956422456
 30
0.0
 10
280.1694092262526
 20
270.7125264389886
 30
0.0
 10
280.4870062871212
 20
270.8571969125252
 30
0.0
 10
280.6479867333475
 20
270.9359421012157
 30
0.0
 10
280.9735934910183
 20
271.1043562805801
 30
0.0
 10
281.1382204750934
 20
271.1940282517438
 30
0.0
 10
281.3043368819198
 20
271.2883766606815
 30
0.0
  0
SPLINE
  5
1C4
330
1F
100
AcDbEntity
  8
1
100
AcDbSpline
210
0.0
220
0.0
230
1.0
 70
     8
 71
     3
 72
    14
 73
    10
 74
     0
 42
0.000000001
 43
0.0000000001
 40
0.0
 40
0.0
 40
0.0
 40
0.0
 40
0.25
 40
0.25
 40
0.5
 40
0.5
 40
0.75
 40
0.75
 40
1.0
 40
1.0
 40
1.0
 40
1.0
 10
281.3043368819074
 20
279.9163835409069
 30
0.0
 10
281.1352307640403
 20
279.7217169613946
 30
0.0
 10
280.968664749355
 20
279.5233748974896
 30
0.0
 10
280.6408152017203
 20
279.1188600784263
 30
0.0
 10
280.4795307440091
 20
278.912689067953
 30
0.0
 10
280.1625136566106
 20
278.4919013152135
 30
0.0
 10
280.0067795247104
 20
278.277287409985
 30
0.0
 10
279.7012359649091
 20
277.8387947021966
 30
0.0
 10
279.5514239529695
 20
277.6149207876249
 30
0.0
 10
279.4048419452959
 20
277.3858471134801
 30
0.0
  0
SPLINE
  5
1C5
330
1F
100
AcDbEntity
  8
1
100
AcDbSpline
210
0.0
220
0.0
230
1.0
 70
     8
 71
     3
 72
    45
 73
    41
 74
     0
 42
0.000000001
 43
0.0000000001
 40
0.0
 40
0.0
 40
0.0
 40
0.0
 40
0.1249999999999981
 40
0.1249999999999981
 40
0.2499999999999962
 40
0.2499999999999962
 40
0.3124999999999956
 40
0.3124999999999956
 40
0.3437499999999951
 40
0.3437499999999951
 40
0.359374999999995
 40
0.359374999999995
 40
0.3749999999999949
 40
0.4374999999999945
 40
0.4374999999999945
 40
0.4999999999999942
 40
0.4999999999999942
 40
0.5624999999999937
 40
0.5624999999999937
 40
0.6249999999999934
 40
0.6249999999999934
 40
0.6406249999999936
 40
0.6406249999999936
 40
0.6562499999999938
 40
0.6562499999999938
 40
0.6874999999999945
 40
0.6874999999999945
 40
0.749999999999996
 40
0.749999999999996
 40
0.8124999999999971
 40
0.8124999999999971
 40
0.8749999999999985
 40
0.8749999999999985
 40
0.8906249999999987
 40
0.8906249999999987
 40
0.9062499999999987
 40
0.9062499999999987
 40
0.9374999999999992
 40
0.9374999999999992
 40
1.0
 40
1.0
 40
1.0
 40
1.0
 10
281.3043368819074
 20
279.9163835409069
 30
0.0
 10
281.603526138109
 20
280.2607953804443
 30
0.0
 10
281.9177473110275
 20
280.5871453282715
 30
0.0
 10
282.5778182139524
 20
281.2037786991833
 30
0.0
 10
282.9236505304136
 20
281.4940750095155
 30
0.0
 10
283.4683644066825
 20
281.9011484663386
 30
0.0
 10
283.6542760471929
 20
282.0320958215614
 30
0.0
 10
283.9400827968414
 20
282.2210663891175
 30
0.0
 10
284.036509432107
 20
282.28281351086
 30
0.0
 10
284.1829515306359
 20
282.3735143104489
 30
0.0
 10
284.2321015677239
 20
282.4034487259275
 30
0.0
 10
284.3307588497751
 20
282.4625152969062
 30
0.0
 10
284.5783690849722
 20
282.6082233972352
 30
0.0
 10
284.8308432802771
 20
282.7441219039312
 30
0.0
 10
285.2412708217309
 20
282.948675103162
 30
0.0
 10
285.4497185031997
 20
283.0445107296783
 30
0.0
 10
285.8734155950212
 20
283.2227476763402
 30
0.0
 10
286.0886642801009
 20
283.3051508925835
 30
0.0
 10
286.5264048199703
 20
283.4557043561279
 30
0.0
 10
286.7488956346904
 20
283.5238574547091
 30
0.0
 10
287.0318961656849
 20
283.5994173851073
 30
0.0
 10
287.0887409988841
 20
283.6140468398952
 30
0.0
 10
287.2029307413711
 20
283.6423184423901
 30
0.0
 10
287.2603066218712
 20
283.6559676231381
 30
0.0
 10
287.4329993290514
 20
283.6953521881083
 30
0.0
 10
287.5484155179353
 20
283.7194213550112
 30
0.0
 10
287.8955304121416
 20
283.7849804773606
 30
0.0
 10
288.1280954054704
 20
283.819831556666
 30
0.0
 10
288.5955550703029
 20
283.8711391686853
 30
0.0
 10
288.8304499480995
 20
283.8875966542129
 30
0.0
 10
289.3025881014892
 20
283.9011184210749
 30
0.0
 10
289.5398316611439
 20
283.8981840699706
 30
0.0
 10
289.8378603257448
 20
283.8815524763166
 30
0.0
 10
289.8975397360219
 20
283.8775770583528
 30
0.0
 10
290.0170459079683
 20
283.8683031401517
 30
0.0
 10
290.076914131371
 20
283.8630004029008
 30
0.0
 10
290.2564487694247
 20
283.8450974763258
 30
0.0
 10
290.3757750266297
 20
283.8305339196712
 30
0.0
 10
290.7326294875598
 20
283.7788880231141
 30
0.0
 10
290.9690351740944
 20
283.7338561131666
 30
0.0
 10
291.2038318185191
 20
283.6779611815006
 30
0.0
  0
SPLINE
  5
1C6
330
1F
100
AcDbEntity
  8
1
100
AcDbSpline
210
0.0
220
0.0
230
1.0
 70
     8
 71
     3
 72
    30
 73
    26
 74
     0
 42
0.000000001
 43
0.0000000001
 40
0.0
 40
0.0
 40
0.0
 40
0.0
 40
0.1249999999999737
 40
0.1249999999999737
 40
0.1874999999999412
 40
0.1874999999999412
 40
0.2499999999999087
 40
0.2499999999999087
 40
0.3749999999998436
 40
0.3749999999998436
 40
0.4999999999997784
 40
0.4999999999997784
 40
0.5624999999997689
 40
0.5624999999997689
 40
0.6249999999997593
 40
0.6249999999997593
 40
0.7499999999997885
 40
0.7499999999997885
 40
0.8749999999998175
 40
0.8749999999998175
 40
0.9062499999998632
 40
0.9062499999998632
 40
0.9374999999999088
 40
0.9374999999999088
 40
1.0
 40
1.0
 40
1.0
 40
1.0
 10
446.9034787164555
 20
294.3812229302361
 30
0.0
 10
446.8554340224455
 20
294.3343883457918
 30
0.0
 10
446.8053327129675
 20
294.2901029080218
 30
0.0
 10
446.7270747664143
 20
294.2273829138818
 30
0.0
 10
446.7004051240277
 20
294.2070529185254
 30
0.0
 10
446.646583929623
 20
294.168034022363
 30
0.0
 10
446.6193811275211
 20
294.1492990557925
 30
0.0
 10
446.5368694152823
 20
294.0953069339085
 30
0.0
 10
446.4806621595712
 20
294.0622531617795
 30
0.0
 10
446.3656050015516
 20
294.0016982191261
 30
0.0
 10
446.3067578464661
 20
293.9741975606256
 30
0.0
 10
446.2161820606633
 20
293.9370899990248
 30
0.0
 10
446.1856042136875
 20
293.9254136454793
 30
0.0
 10
446.1235960652629
 20
293.9034729483157
 30
0.0
 10
446.0922041234896
 20
293.8932272446261
 30
0.0
 10
445.997582151462
 20
293.8649343082202
 30
0.0
 10
445.933621517935
 20
293.8492156214338
 30
0.0
 10
445.8035465417897
 20
293.8242547020189
 30
0.0
 10
445.737428255915
 20
293.8150122903983
 30
0.0
 10
445.6531609672153
 20
293.8078442992779
 30
0.0
 10
445.6362207199644
 20
293.8066313647416
 30
0.0
 10
445.6023972861817
 20
293.8046668821997
 30
0.0
 10
445.5854869317811
 20
293.8039127205556
 30
0.0
 10
445.5347600711962
 20
293.8023331489443
 30
0.0
 10
445.5009478763702
 20
293.8021904074111
 30
0.0
 10
445.4671403673937
 20
293.8029572800381
 30
0.0
  0
SPLINE
  5
1C7
330
1F
100
AcDbEntity
  8
1
100
AcDbSpline
210
0.0
220
0.0
230
1.0
 70
     8
 71
     3
 72
    13
 73
     9
 74
     0
 42
0.000000001
 43
0.0000000001
 40
0.0
 40
0.0
 40
0.0
 40
0.0
 40
0.1249999999999944
 40
0.1249999999999944
 40
0.2499999999999889
 40
0.499999999999978
 40
0.499999999999978
 40
1.0
 40
1.0
 40
1.0
 40
1.0
 10
440.7426233465042
 20
294.3693052778497
 30
0.0
 10
440.6747950509565
 20
294.3933323233337
 30
0.0
 10
440.6071115468424
 20
294.4179535673013
 30
0.0
 10
440.4723221705134
 20
294.4682787046607
 30
0.0
 10
440.2709611329034
 20
294.5454040989869
 30
0.0
 10
440.0720585779628
 20
294.6274154065675
 30
0.0
 10
439.6775145257423
 20
294.7979006113875
 30
0.0
 10
439.4188293104516
 20
294.9201675506495
 30
0.0
 10
439.1644908456141
 20
295.0509894037054
 30
0.0
  0
SPLINE
  5
1C8
330
1F
100
AcDbEntity
  8
1
100
AcDbSpline
210
0.0
220
0.0
230
1.0
 70
     8
 71
     3
 72
    28
 73
    24
 74
     0
 42
0.000000001
 43
0.0000000001
 40
0.0
 40
0.0
 40
0.0
 40
0.0
 40
0.1250000000000069
 40
0.1250000000000069
 40
0.2500000000000138
 40
0.2500000000000138
 40
0.2812500000000156
 40
0.2812500000000156
 40
0.3125000000000173
 40
0.3750000000000209
 40
0.3750000000000209
 40
0.500000000000028
 40
0.500000000000028
 40
0.5312500000000241
 40
0.5312500000000241
 40
0.5625000000000201
 40
0.5625000000000201
 40
0.6250000000000123
 40
0.6250000000000123
 40
0.7500000000000082
 40
0.875000000000004
 40
0.875000000000004
 40
1.0
 40
1.0
 40
1.0
 40
1.0
 10
438.8723963719893
 20
292.4482092834227
 30
0.0
 10
439.1199511063033
 20
292.2921361010266
 30
0.0
 10
439.3729994990547
 20
292.145525714971
 30
0.0
 10
439.8899659805576
 20
291.8713989349214
 30
0.0
 10
440.1538835648097
 20
291.7438812265408
 30
0.0
 10
440.4905948177431
 20
291.5966603675807
 30
0.0
 10
440.5583145519021
 20
291.5678109146952
 30
0.0
 10
440.6941862175859
 20
291.5114424947404
 30
0.0
 10
440.8986799089016
 20
291.4288666233001
 30
0.0
 10
441.1052209503565
 20
291.3522046104906
 30
0.0
 10
441.5210136335158
 20
291.2067491457419
 30
0.0
 10
441.801818937366
 20
291.1202599525944
 30
0.0
 10
442.1573326921866
 20
291.0253448130888
 30
0.0
 10
442.2286611089166
 20
291.0070224084387
 30
0.0
 10
442.37177039454
 20
290.9717045187941
 30
0.0
 10
442.4434925891812
 20
290.9547244233418
 30
0.0
 10
442.6587502044358
 20
290.9059064324589
 30
0.0
 10
442.8025387870968
 20
290.8761496207643
 30
0.0
 10
443.2347428365236
 20
290.7951432885616
 30
0.0
 10
443.8132477291623
 20
290.7091487477578
 30
0.0
 10
444.3961533189714
 20
290.666685404983
 30
0.0
 10
444.981269350407
 20
290.6461235261539
 30
0.0
 10
445.2749324662201
 20
290.6467921638186
 30
0.0
 10
445.5697279348248
 20
290.6586797448398
 30
0.0
  0
SPLINE
  5
1C9
330
1F
100
AcDbEntity
  8
1
100
AcDbSpline
210
0.0
220
0.0
230
1.0
 70
     8
 71
     3
 72
    25
 73
    21
 74
     0
 42
0.000000001
 43
0.0000000001
 40
0.0
 40
0.0
 40
0.0
 40
0.0
 40
0.1249999999999825
 40
0.1249999999999825
 40
0.249999999999965
 40
0.249999999999965
 40
0.3749999999999475
 40
0.3749999999999475
 40
0.49999999999993
 40
0.49999999999993
 40
0.5312499999999344
 40
0.5312499999999344
 40
0.5624999999999388
 40
0.6249999999999475
 40
0.6249999999999475
 40
0.749999999999965
 40
0.749999999999965
 40
0.8749999999999824
 40
0.8749999999999824
 40
1.0
 40
1.0
 40
1.0
 40
1.0
 10
444.8798419452963
 20
291.3089567911857
 30
0.0
 10
444.6032838551413
 20
291.3094848943444
 30
0.0
 10
444.3314255036094
 20
291.3156685157977
 30
0.0
 10
443.7950357550758
 20
291.3398927015288
 30
0.0
 10
443.5305047648328
 20
291.3579409789356
 30
0.0
 10
443.0072027563248
 20
291.4066828335951
 30
0.0
 10
442.7484351520042
 20
291.4373781501757
 30
0.0
 10
442.2355380396615
 20
291.5122839080225
 30
0.0
 10
441.981412058346
 20
291.5564933946694
 30
0.0
 10
441.6661597658795
 20
291.6207962652126
 30
0.0
 10
441.6032803720931
 20
291.6340995491429
 30
0.0
 10
441.478093208468
 20
291.6615467392986
 30
0.0
 10
441.2910593855778
 20
291.7040010522732
 30
0.0
 10
441.1061797126336
 20
291.7503327918867
 30
0.0
 10
440.7390956895957
 20
291.8482541635532
 30
0.0
 10
440.4979318692676
 20
291.92053973501
 30
0.0
 10
440.0219602367791
 20
292.0796793099746
 30
0.0
 10
439.7871555592968
 20
292.1665317598365
 30
0.0
 10
439.3234072100573
 20
292.3555378858725
 30
0.0
 10
439.0944653813431
 20
292.4576894161599
 30
0.0
 10
438.8682987587691
 20
292.5679732754376
 30
0.0
  0
SPLINE
  5
1CA
330
1F
100
AcDbEntity
  8
1
100
AcDbSpline
210
0.0
220
0.0
230
1.0
 70
     8
 71
     3
 72
    26
 73
    22
 74
     0
 42
0.000000001
 43
0.0000000001
 40
0.0
 40
0.0
 40
0.0
 40
0.0
 40
0.1249999999999932
 40
0.1249999999999932
 40
0.2499999999999864
 40
0.2499999999999864
 40
0.3125000000000069
 40
0.3125000000000069
 40
0.3750000000000273
 40
0.3750000000000273
 40
0.5000000000000219
 40
0.5000000000000219
 40
0.6250000000000165
 40
0.6250000000000165
 40
0.6875000000000137
 40
0.6875000000000137
 40
0.7500000000000109
 40
0.7500000000000109
 40
0.8750000000000055
 40
0.8750000000000055
 40
1.0
 40
1.0
 40
1.0
 40
1.0
 10
445.4566786890396
 20
293.8032231526713
 30
0.0
 10
445.387218985212
 20
293.8051780732509
 30
0.0
 10
445.3190213974963
 20
293.81088628079
 30
0.0
 10
445.184693256199
 20
293.8292304786613
 30
0.0
 10
445.1185597205621
 20
293.8418674226145
 30
0.0
 10
445.0205976145621
 20
293.8658605462239
 30
0.0
 10
444.9881506102996
 20
293.8747006231177
 30
0.0
 10
444.9236282160283
 20
293.8940712525944
 30
0.0
 10
444.8915451025349
 20
293.9046098481232
 30
0.0
 10
444.7966761732563
 20
293.938457123108
 30
0.0
 10
444.7349549392983
 20
293.964074135979
 30
0.0
 10
444.6141359347085
 20
294.0213723080997
 30
0.0
 10
444.5550406801232
 20
294.0530532446393
 30
0.0
 10
444.4681801260423
 20
294.1053247572376
 30
0.0
 10
444.4395095282454
 20
294.1235529420154
 30
0.0
 10
444.3828070960423
 20
294.1616216253267
 30
0.0
 10
444.3549751620832
 20
294.1813271217206
 30
0.0
 10
444.2729971744136
 20
294.242450544449
 30
0.0
 10
444.2203646835576
 20
294.2858679569887
 30
0.0
 10
444.1190388702528
 20
294.3781765088634
 30
0.0
 10
444.0703460952948
 20
294.4270648249858
 30
0.0
 10
444.0236390365146
 20
294.4788924373644
 30
0.0
  0
SPLINE
  5
1CB
330
1F
100
AcDbEntity
  8
1
100
AcDbSpline
210
0.0
220
0.0
230
1.0
 70
     8
 71
     3
 72
    10
 73
     6
 74
     0
 42
0.000000001
 43
0.0000000001
 40
0.0
 40
0.0
 40
0.0
 40
0.0
 40
0.5
 40
0.5
 40
1.0
 40
1.0
 40
1.0
 40
1.0
 10
440.4108334763829
 20
299.4675879338417
 30
0.0
 10
440.3189867551201
 20
300.1918632514387
 30
0.0
 10
440.2366878817118
 20
300.9172204261977
 30
0.0
 10
440.0863253202511
 20
302.3695477504367
 30
0.0
 10
440.0182969550542
 20
303.0963855415902
 30
0.0
 10
439.9557247973488
 20
303.823725356889
 30
0.0
  0
SPLINE
  5
1CC
330
1F
100
AcDbEntity
  8
1
100
AcDbSpline
210
0.0
220
0.0
230
1.0
 70
     8
 71
     3
 72
    36
 73
    32
 74
     0
 42
0.000000001
 43
0.0000000001
 40
0.0
 40
0.0
 40
0.0
 40
0.0
 40
0.1249999999998318
 40
0.1249999999998318
 40
0.1874999999997477
 40
0.1874999999997477
 40
0.2187499999997189
 40
0.2187499999997189
 40
0.2499999999996902
 40
0.2499999999996902
 40
0.374999999999662
 40
0.374999999999662
 40
0.4062499999996862
 40
0.4062499999996862
 40
0.4374999999997102
 40
0.4374999999997102
 40
0.4999999999997553
 40
0.4999999999997553
 40
0.6249999999997918
 40
0.6249999999997918
 40
0.6562499999997871
 40
0.6562499999997871
 40
0.6874999999997823
 40
0.7499999999997728
 40
0.812499999999763
 40
0.812499999999763
 40
0.8437499999997914
 40
0.8437499999997914
 40
0.8749999999998198
 40
0.8749999999998198
 40
1.0
 40
1.0
 40
1.0
 40
1.0
 10
453.4798350269056
 20
303.5626491464836
 30
0.0
 10
453.4780127583296
 20
303.6135180742305
 30
0.0
 10
453.4710422842401
 20
303.6633236895231
 30
0.0
 10
453.4533439396961
 20
303.7365362160211
 30
0.0
 10
453.4462273304813
 20
303.760688998587
 30
0.0
 10
453.4337005397045
 20
303.7965356850188
 30
0.0
 10
453.4292024692542
 20
303.8084522544269
 30
0.0
 10
453.4196477610588
 20
303.8319832839899
 30
0.0
 10
453.4145976484836
 20
303.8435872687612
 30
0.0
 10
453.3880141431574
 20
303.9008178121752
 30
0.0
 10
453.362521463942
 20
303.9440996459572
 30
0.0
 10
453.3254522534662
 20
303.9951204609853
 30
0.0
 10
453.3177757958776
 20
304.0051691007465
 30
0.0
 10
453.301889679879
 20
304.0249506139729
 30
0.0
 10
453.2936647859641
 20
304.0346985206955
 30
0.0
 10
453.2684415009321
 20
304.0631664316279
 30
0.0
 10
453.2508259326705
 20
304.0812064550458
 30
0.0
 10
453.1956452997934
 20
304.1325884449213
 30
0.0
 10
453.1557695790395
 20
304.1632196328186
 30
0.0
 10
453.1019309760092
 20
304.1968230569478
 30
0.0
 10
453.0909478216082
 20
304.2033129586686
 30
0.0
 10
453.0688140274015
 20
304.2156766818945
 30
0.0
 10
453.0352783096734
 20
304.2333521951066
 30
0.0
 10
452.9777387941596
 20
304.2585349874855
 30
0.0
 10
452.9299617704576
 20
304.2741483464852
 30
0.0
 10
452.8934585304845
 20
304.2841171333905
 30
0.0
 10
452.8811788291371
 20
304.2871493133497
 30
0.0
 10
452.8563901423464
 20
304.2926182169828
 30
0.0
 10
452.8438649153136
 20
304.2950562014803
 30
0.0
 10
452.7812459449988
 20
304.3056232509583
 30
0.0
 10
452.730746697548
 20
304.3090429934689
 30
0.0
 10
452.6798303725917
 20
304.3072668070501
 30
0.0
  0
SPLINE
  5
1CD
330
1F
100
AcDbEntity
  8
1
100
AcDbSpline
210
0.0
220
0.0
230
1.0
 70
     8
 71
     3
 72
    36
 73
    32
 74
     0
 42
0.000000001
 43
0.0000000001
 40
0.0
 40
0.0
 40
0.0
 40
0.0
 40
0.1250000000001778
 40
0.1250000000001778
 40
0.1875000000003002
 40
0.1875000000003002
 40
0.2187500000003291
 40
0.2187500000003291
 40
0.250000000000358
 40
0.250000000000358
 40
0.3750000000002831
 40
0.3750000000002831
 40
0.4062500000002631
 40
0.4062500000002631
 40
0.4375000000002431
 40
0.4375000000002431
 40
0.5000000000002033
 40
0.5000000000002033
 40
0.6250000000001704
 40
0.6250000000001704
 40
0.6562500000001549
 40
0.6562500000001549
 40
0.6875000000001394
 40
0.7500000000001123
 40
0.8125000000000852
 40
0.8125000000000852
 40
0.8437500000000717
 40
0.8437500000000717
 40
0.8750000000000582
 40
0.8750000000000582
 40
1.0
 40
1.0
 40
1.0
 40
1.0
 10
444.7071017242026
 20
304.0291427995037
 30
0.0
 10
444.6561797898281
 20
304.0273664174035
 30
0.0
 10
444.6063267552281
 20
304.0204464255022
 30
0.0
 10
444.5330509601608
 20
304.002830269612
 30
0.0
 10
444.5088784090502
 20
303.9957421431534
 30
0.0
 10
444.4730040796336
 20
303.9832597296488
 30
0.0
 10
444.4610786090975
 20
303.9787767690943
 30
0.0
 10
444.4375305838561
 20
303.9692526180266
 30
0.0
 10
444.4259185101388
 20
303.9642179366474
 30
0.0
 10
444.368649520212
 20
303.9377123331973
 30
0.0
 10
444.3253432642413
 20
303.9122843402252
 30
0.0
 10
444.2742997218518
 20
303.8752988992844
 30
0.0
 10
444.2642469303058
 20
303.8676393425587
 30
0.0
 10
444.2444579128331
 20
303.8517873266581
 30
0.0
 10
444.2347066506773
 20
303.8435796612805
 30
0.0
 10
444.2062299796801
 20
303.8184079793976
 30
0.0
 10
444.1881858142716
 20
303.8008268594976
 30
0.0
 10
444.1367963520613
 20
303.7457497066637
 30
0.0
 10
444.1061667380632
 20
303.7059431512047
 30
0.0
 10
444.0725737582575
 20
303.6521912357415
 30
0.0
 10
444.0660863790901
 20
303.6412254502744
 30
0.0
 10
444.0537285066568
 20
303.6191260412249
 30
0.0
 10
444.0360629925457
 20
303.5856415086017
 30
0.0
 10
444.0109028759397
 20
303.5281853718156
 30
0.0
 10
443.9953140286513
 20
303.4804730055769
 30
0.0
 10
443.9853660728842
 20
303.4440174729472
 30
0.0
 10
443.9823412452943
 20
303.4317535428433
 30
0.0
 10
443.9768878833318
 20
303.4069961298322
 30
0.0
 10
443.9744581008102
 20
303.3944864238203
 30
0.0
 10
443.9639337963071
 20
303.3319436492857
 30
0.0
 10
443.9605539999531
 20
303.2815014435481
 30
0.0
 10
443.9623760677931
 20
303.2306381193805
 30
0.0
  0
SPLINE
  5
1CE
330
1F
100
AcDbEntity
  8
1
100
AcDbSpline
210
0.0
220
0.0
230
1.0
 70
     8
 71
     3
 72
    36
 73
    32
 74
     0
 42
0.000000001
 43
0.0000000001
 40
0.0
 40
0.0
 40
0.0
 40
0.0
 40
0.125000000000081
 40
0.125000000000081
 40
0.1875000000001204
 40
0.1875000000001204
 40
0.2187500000001278
 40
0.2187500000001278
 40
0.2500000000001353
 40
0.2500000000001353
 40
0.375000000000165
 40
0.375000000000165
 40
0.4062500000001612
 40
0.4062500000001612
 40
0.4375000000001572
 40
0.4375000000001572
 40
0.5000000000001509
 40
0.5000000000001509
 40
0.6250000000000892
 40
0.6250000000000892
 40
0.6562500000000591
 40
0.6562500000000591
 40
0.6875000000000289
 40
0.7499999999999695
 40
0.8124999999999101
 40
0.8124999999999101
 40
0.8437499999999136
 40
0.8437499999999136
 40
0.8749999999999173
 40
0.8749999999999173
 40
1.0
 40
1.0
 40
1.0
 40
1.0
 10
444.2476844139727
 20
295.266208595225
 30
0.0
 10
444.2495066825488
 20
295.2153396674781
 30
0.0
 10
444.2564771566384
 20
295.1655340521853
 30
0.0
 10
444.2741755011824
 20
295.0923215256875
 30
0.0
 10
444.281292110397
 20
295.0681687431217
 30
0.0
 10
444.2938189011738
 20
295.0323220566897
 30
0.0
 10
444.2983169716241
 20
295.0204054872817
 30
0.0
 10
444.3078716798196
 20
294.9968744577187
 30
0.0
 10
444.3129217923947
 20
294.9852704729474
 30
0.0
 10
444.3395052977209
 20
294.9280399295334
 30
0.0
 10
444.3649979769364
 20
294.8847580957514
 30
0.0
 10
444.402067187412
 20
294.8337372807233
 30
0.0
 10
444.4097436450008
 20
294.8236886409621
 30
0.0
 10
444.4256297609995
 20
294.8039071277356
 30
0.0
 10
444.4338546549144
 20
294.794159221013
 30
0.0
 10
444.4590779399463
 20
294.7656913100806
 30
0.0
 10
444.476693508208
 20
294.7476512866627
 30
0.0
 10
444.5318741410853
 20
294.6962692967873
 30
0.0
 10
444.571749861839
 20
294.6656381088898
 30
0.0
 10
444.6255884648692
 20
294.6320346847606
 30
0.0
 10
444.6365716192703
 20
294.6255447830399
 30
0.0
 10
444.658705413477
 20
294.613181059814
 30
0.0
 10
444.6922411312049
 20
294.595505546602
 30
0.0
 10
444.7497806069441
 20
294.5703226509269
 30
0.0
 10
444.7975576704208
 20
294.5547093952234
 30
0.0
 10
444.8340609103939
 20
294.5447406083181
 30
0.0
 10
444.8463406117412
 20
294.5417084283588
 30
0.0
 10
444.871129298532
 20
294.5362395247258
 30
0.0
 10
444.8836545255649
 20
294.5338015402282
 30
0.0
 10
444.9462734958796
 20
294.5232344907503
 30
0.0
 10
444.9967727433305
 20
294.5198147482397
 30
0.0
 10
445.0476890682868
 20
294.5215909346585
 30
0.0
  0
SPLINE
  5
1CF
330
1F
100
AcDbEntity
  8
1
100
AcDbSpline
210
0.0
220
0.0
230
1.0
 70
     8
 71
     3
 72
    36
 73
    32
 74
     0
 42
0.000000001
 43
0.0000000001
 40
0.0
 40
0.0
 40
0.0
 40
0.0
 40
0.1250000000000075
 40
0.1250000000000075
 40
0.187500000000045
 40
0.187500000000045
 40
0.2187500000000961
 40
0.2187500000000961
 40
0.2500000000001472
 40
0.2500000000001472
 40
0.375000000000162
 40
0.375000000000162
 40
0.4062500000001654
 40
0.4062500000001654
 40
0.4375000000001689
 40
0.4375000000001689
 40
0.5000000000001771
 40
0.5000000000001771
 40
0.6250000000001464
 40
0.6250000000001464
 40
0.6562500000001301
 40
0.6562500000001301
 40
0.6875000000001138
 40
0.7500000000000794
 40
0.8125000000000449
 40
0.8125000000000449
 40
0.8437500000000367
 40
0.8437500000000367
 40
0.8750000000000284
 40
0.8750000000000284
 40
1.0
 40
1.0
 40
1.0
 40
1.0
 10
453.0204177166758
 20
294.7997149422048
 30
0.0
 10
453.0713396510503
 20
294.801491324305
 30
0.0
 10
453.1211926856505
 20
294.8084113162063
 30
0.0
 10
453.1944684807177
 20
294.8260274720965
 30
0.0
 10
453.2186410318281
 20
294.8331155985551
 30
0.0
 10
453.2545153612447
 20
294.8455980120597
 30
0.0
 10
453.2664408317812
 20
294.8500809726143
 30
0.0
 10
453.2899888570223
 20
294.8596051236819
 30
0.0
 10
453.3016009307396
 20
294.8646398050611
 30
0.0
 10
453.3588699206664
 20
294.8911454085112
 30
0.0
 10
453.402176176637
 20
294.9165734014833
 30
0.0
 10
453.4532197190267
 20
294.9535588424241
 30
0.0
 10
453.4632725105726
 20
294.9612183991499
 30
0.0
 10
453.4830615280453
 20
294.9770704150504
 30
0.0
 10
453.4928127902012
 20
294.9852780804281
 30
0.0
 10
453.5212894611984
 20
295.0104497623109
 30
0.0
 10
453.5393336266068
 20
295.028030882211
 30
0.0
 10
453.5907230888172
 20
295.0831080350448
 30
0.0
 10
453.6213527028151
 20
295.1229145905039
 30
0.0
 10
453.6549456826208
 20
295.1766665059671
 30
0.0
 10
453.6614330617883
 20
295.1876322914342
 30
0.0
 10
453.6737909342216
 20
295.2097317004837
 30
0.0
 10
453.6914564483326
 20
295.2432162331069
 30
0.0
 10
453.7166165649388
 20
295.3006723698929
 30
0.0
 10
453.732205412227
 20
295.3483847361317
 30
0.0
 10
453.7421533679941
 20
295.3848402687614
 30
0.0
 10
453.7451781955841
 20
295.3971041988652
 30
0.0
 10
453.7506315575466
 20
295.4218616118764
 30
0.0
 10
453.7530613400682
 20
295.4343713178883
 30
0.0
 10
453.7635856445714
 20
295.4969140924228
 30
0.0
 10
453.7669654409253
 20
295.5473562981605
 30
0.0
 10
453.7651433730854
 20
295.5982196223281
 30
0.0
  0
LINE
  5
1E9
330
1F
100
AcDbEntity
  8
SK4
100
AcDbLine
 10
210.904842
 20
288.907994
 30
0.0
 11
277.404842
 21
288.907994
 31
0.0
  0
LINE
  5
1EA
330
1F
100
AcDbEntity
  8
4
100
AcDbLine
 10
268.203832
 20
288.907994
 30
0.0
 11
458.444165
 21
288.907994
 31
0.0
  0
MTEXT
  5
1F0
330
1F
100
AcDbEntity
  8
SK6
100
AcDbMText
 10
299.563793
 20
249.353545
 30
0.0
 40
3.5
 41
0.0
 71
     7
 72
     5
  1
\W0.7240;805D-31-155-S32
  7
cesky
 73
     2
 44
0.8433729999999998
  0
MTEXT
  5
301
330
1F
100
AcDbEntity
  8
2
100
AcDbMText
 10
242.590342
 20
329.044517
 30
0.0
 40
3.5
 41
0.0
 71
     7
 72
     5
  1
\W0.7045;60
  7
cesky
 73
     2
 44
0.8433729999999998
  0
LINE
  5
302
330
1F
100
AcDbEntity
  8
2
100
AcDbLine
 10
274.404842
 20
288.907994
 30
0.0
 11
274.404842
 21
330.17035
 31
0.0
  0
LINE
  5
303
330
1F
100
AcDbEntity
  8
2
100
AcDbLine
 10
214.404842
 20
302.907994
 30
0.0
 11
214.404842
 21
330.17035
 31
0.0
  0
LINE
  5
304
330
1F
100
AcDbEntity
  8
2
100
AcDbLine
 10
274.404842
 20
329.17035
 30
0.0
 11
214.404842
 21
329.17035
 31
0.0
  0
SOLID
  5
305
330
1F
100
AcDbEntity
  8
2
100
AcDbTrace
 10
274.404842
 20
329.17035
 30
0.0
 11
270.904844
 21
328.553206
 31
0.0
 12
270.90484
 22
329.7874950000001
 32
0.0
 13
270.90484
 23
329.7874950000001
 33
0.0
  0
SOLID
  5
306
330
1F
100
AcDbEntity
  8
2
100
AcDbTrace
 10
214.404842
 20
329.17035
 30
0.0
 11
217.90484
 21
329.7874950000001
 31
0.0
 12
217.904844
 22
328.553206
 32
0.0
 13
217.904844
 23
328.553206
 33
0.0
  0
MTEXT
  5
307
330
1F
100
AcDbEntity
  8
2
100
AcDbMText
 10
369.837258
 20
314.470071
 30
0.0
 40
3.5
 41
0.0
 71
     7
 72
     5
  1
\W0.7809;163
  7
cesky
 73
     2
 44
0.8433729999999998
  0
LINE
  5
308
330
1F
100
AcDbEntity
  8
2
100
AcDbLine
 10
454.404842
 20
306.407994
 30
0.0
 11
454.404842
 21
315.595905
 31
0.0
  0
LINE
  5
309
330
1F
100
AcDbEntity
  8
2
100
AcDbLine
 10
291.423675
 20
304.718349
 30
0.0
 11
291.423675
 21
315.595905
 31
0.0
  0
LINE
  5
30A
330
1F
100
AcDbEntity
  8
2
100
AcDbLine
 10
454.404842
 20
314.595905
 30
0.0
 11
291.423675
 21
314.595905
 31
0.0
  0
SOLID
  5
30B
330
1F
100
AcDbEntity
  8
2
100
AcDbTrace
 10
454.404842
 20
314.595905
 30
0.0
 11
450.9048439999999
 21
313.97876
 31
0.0
 12
450.90484
 22
315.213049
 32
0.0
 13
450.90484
 23
315.213049
 33
0.0
  0
SOLID
  5
30C
330
1F
100
AcDbEntity
  8
2
100
AcDbTrace
 10
291.423675
 20
314.595905
 30
0.0
 11
294.923672
 21
315.213049
 31
0.0
 12
294.923677
 22
313.97876
 32
0.0
 13
294.923677
 23
313.97876
 33
0.0
  0
MTEXT
  5
30D
330
1F
100
AcDbEntity
  8
2
100
AcDbMText
 10
331.327842
 20
343.029854
 30
0.0
 40
3.5
 41
0.0
 71
     7
 72
     5
  1
\W0.7231;240
  7
cesky
 73
     2
 44
0.8433729999999998
  0
LINE
  5
30E
330
1F
100
AcDbEntity
  8
2
100
AcDbLine
 10
454.404842
 20
306.407994
 30
0.0
 11
454.404842
 21
344.155687
 31
0.0
  0
LINE
  5
30F
330
1F
100
AcDbEntity
  8
2
100
AcDbLine
 10
214.404842
 20
302.907994
 30
0.0
 11
214.404842
 21
344.155687
 31
0.0
  0
LINE
  5
310
330
1F
100
AcDbEntity
  8
2
100
AcDbLine
 10
454.404842
 20
343.155687
 30
0.0
 11
214.404842
 21
343.155687
 31
0.0
  0
SOLID
  5
311
330
1F
100
AcDbEntity
  8
2
100
AcDbTrace
 10
454.404842
 20
343.155687
 30
0.0
 11
450.9048439999999
 21
342.538543
 31
0.0
 12
450.90484
 22
343.772832
 32
0.0
 13
450.90484
 23
343.772832
 33
0.0
  0
SOLID
  5
312
330
1F
100
AcDbEntity
  8
2
100
AcDbTrace
 10
214.404842
 20
343.155687
 30
0.0
 11
217.90484
 21
343.772832
 31
0.0
 12
217.904844
 22
342.538543
 32
0.0
 13
217.904844
 23
342.538543
 33
0.0
  0
MTEXT
  5
313
330
1F
100
AcDbEntity
  8
2
100
AcDbMText
 10
361.327842
 20
329.044517
 30
0.0
 40
3.5
 41
0.0
 71
     7
 72
     5
  1
\W0.7809;180
  7
cesky
 73
     2
 44
0.8433729999999998
  0
LINE
  5
314
330
1F
100
AcDbEntity
  8
2
100
AcDbLine
 10
454.404842
 20
304.407994
 30
0.0
 11
454.404842
 21
330.17035
 31
0.0
  0
LINE
  5
315
330
1F
100
AcDbEntity
  8
2
100
AcDbLine
 10
274.404842
 20
289.907567
 30
0.0
 11
274.404842
 21
330.17035
 31
0.0
  0
LINE
  5
316
330
1F
100
AcDbEntity
  8
2
100
AcDbLine
 10
454.404842
 20
329.17035
 30
0.0
 11
274.404842
 21
329.17035
 31
0.0
  0
SOLID
  5
317
330
1F
100
AcDbEntity
  8
2
100
AcDbTrace
 10
454.404842
 20
329.17035
 30
0.0
 11
450.9048439999999
 21
328.553206
 31
0.0
 12
450.90484
 22
329.7874950000001
 32
0.0
 13
450.90484
 23
329.7874950000001
 33
0.0
  0
SOLID
  5
318
330
1F
100
AcDbEntity
  8
2
100
AcDbTrace
 10
274.404842
 20
329.17035
 30
0.0
 11
277.90484
 21
329.7874950000001
 31
0.0
 12
277.904844
 22
328.553206
 32
0.0
 13
277.904844
 23
328.553206
 33
0.0
  0
MTEXT
  5
319
330
1F
100
AcDbEntity
  8
2
100
AcDbMText
 10
471.36399
 20
289.03943
 30
0.0
 40
3.5
 41
0.0
 71
     7
 72
     5
  1
\W0.9581;31
  7
cesky
 11
0.0000000000000001
 21
1.0
 31
0.0
 73
     2
 44
0.8433729999999998
  0
MTEXT
  5
31A
330
1F
100
AcDbEntity
  8
2
100
AcDbMText
 10
471.36399
 20
282.30193
 30
0.0
 40
3.5
 41
0.0
 71
     7
 72
     5
  1
\W3.0115;\H2.63;%%c\H3.50;
  7
cesky
 11
0.0000000000000001
 21
1.0
 31
0.0
 73
     2
 44
0.8433729999999998
  0
LINE
  5
31B
330
1F
100
AcDbEntity
  8
2
100
AcDbLine
 10
456.4048419999999
 20
304.407994
 30
0.0
 11
472.551407
 21
304.407994
 31
0.0
  0
LINE
  5
31C
330
1F
100
AcDbEntity
  8
2
100
AcDbLine
 10
471.551407
 20
304.407994
 30
0.0
 11
471.551407
 21
282.14443
 31
0.0
  0
SOLID
  5
31D
330
1F
100
AcDbEntity
  8
2
100
AcDbTrace
 10
471.551407
 20
304.407994
 30
0.0
 11
472.1685509999999
 21
300.907996
 31
0.0
 12
470.934262
 22
300.907991
 32
0.0
 13
470.934262
 23
300.907991
 33
0.0
  0
MTEXT
  5
31E
330
1F
100
AcDbEntity
  8
SK2
100
AcDbMText
 10
205.348435
 20
290.434244
 30
0.0
 40
3.5
 41
0.0
 71
     7
 72
     5
  1
\W0.7045;32
  7
cesky
 11
0.0000000000000001
 21
1.0
 31
0.0
 73
     2
 44
0.8433729999999998
  0
MTEXT
  5
31F
330
1F
100
AcDbEntity
  8
SK2
100
AcDbMText
 10
205.348435
 20
283.696744
 30
0.0
 40
3.5
 41
0.0
 71
     7
 72
     5
  1
\W3.0115;\H2.63;%%c\H3.50;
  7
cesky
 11
0.0000000000000001
 21
1.0
 31
0.0
 73
     2
 44
0.8433729999999998
  0
LINE
  5
320
330
1F
100
AcDbEntity
  8
SK2
100
AcDbLine
 10
216.404842
 20
304.907994
 30
0.0
 11
204.535852
 21
304.907994
 31
0.0
  0
LINE
  5
321
330
1F
100
AcDbEntity
  8
SK2
100
AcDbLine
 10
216.404842
 20
272.907994
 30
0.0
 11
204.535852
 21
272.907994
 31
0.0
  0
LINE
  5
322
330
1F
100
AcDbEntity
  8
SK2
100
AcDbLine
 10
205.535852
 20
304.907994
 30
0.0
 11
205.535852
 21
272.907994
 31
0.0
  0
SOLID
  5
323
330
1F
100
AcDbEntity
  8
SK2
100
AcDbTrace
 10
205.535852
 20
304.907994
 30
0.0
 11
206.152996
 21
301.407996
 31
0.0
 12
204.918707
 22
301.407991
 32
0.0
 13
204.918707
 23
301.407991
 33
0.0
  0
SOLID
  5
324
330
1F
100
AcDbEntity
  8
SK2
100
AcDbTrace
 10
205.535852
 20
272.907994
 30
0.0
 11
204.918707
 21
276.407991
 31
0.0
 12
206.152996
 22
276.407996
 32
0.0
 13
206.152996
 23
276.407996
 33
0.0
  0
MTEXT
  5
325
330
1F
100
AcDbEntity
  8
SK2
100
AcDbMText
 10
189.956072
 20
290.434244
 30
0.0
 40
3.5
 41
0.0
 71
     7
 72
     5
  1
\W0.7045;42
  7
cesky
 11
0.0000000000000001
 21
1.0
 31
0.0
 73
     2
 44
0.8433729999999998
  0
MTEXT
  5
326
330
1F
100
AcDbEntity
  8
SK2
100
AcDbMText
 10
189.956072
 20
283.696744
 30
0.0
 40
3.5
 41
0.0
 71
     7
 72
     5
  1
\W3.0115;\H2.63;%%c\H3.50;
  7
cesky
 11
0.0000000000000001
 21
1.0
 31
0.0
 73
     2
 44
0.8433729999999998
  0
LINE
  5
327
330
1F
100
AcDbEntity
  8
SK2
100
AcDbLine
 10
274.904842
 20
309.907994
 30
0.0
 11
189.143489
 21
309.907994
 31
0.0
  0
LINE
  5
328
330
1F
100
AcDbEntity
  8
SK2
100
AcDbLine
 10
274.904842
 20
267.907994
 30
0.0
 11
189.143489
 21
267.907994
 31
0.0
  0
LINE
  5
329
330
1F
100
AcDbEntity
  8
SK2
100
AcDbLine
 10
190.143489
 20
309.907994
 30
0.0
 11
190.143489
 21
267.907994
 31
0.0
  0
SOLID
  5
32A
330
1F
100
AcDbEntity
  8
SK2
100
AcDbTrace
 10
190.143489
 20
309.907994
 30
0.0
 11
190.760634
 21
306.407996
 31
0.0
 12
189.526345
 22
306.407991
 32
0.0
 13
189.526345
 23
306.407991
 33
0.0
  0
SOLID
  5
32B
330
1F
100
AcDbEntity
  8
SK2
100
AcDbTrace
 10
190.143489
 20
267.907994
 30
0.0
 11
189.526345
 21
271.4079910000001
 31
0.0
 12
190.760634
 22
271.407996
 32
0.0
 13
190.760634
 23
271.407996
 33
0.0
  0
LINE
  5
32C
330
1F
100
AcDbEntity
  8
CUT
100
AcDbLine
 10
454.2974360653503
 20
295.9531808399667
 30
0.0
 11
454.4048419452957
 21
289.8047852295759
 31
0.0
  0
LINE
  5
32D
330
1F
100
AcDbEntity
  8
CUT
100
AcDbLine
 10
453.7224435672881
 20
296.9100441811398
 30
0.0
 11
454.2974360653503
 21
295.9531808399667
 31
0.0
  0
LINE
  5
330
330
1F
100
AcDbEntity
  8
CUT
100
AcDbLine
 10
444.7071017242026
 20
304.1115452616213
 30
0.0
 11
452.6798303725917
 21
304.4045624945571
 31
0.0
  0
LINE
  5
331
330
1F
100
AcDbEntity
  8
CUT
100
AcDbLine
 10
453.4798350269056
 20
303.66218217725
 30
0.0
 11
453.7224435672881
 21
296.9100441811398
 31
0.0
  0
LINE
  5
332
330
1F
100
AcDbEntity
  8
CUT
100
AcDbLine
 10
454.404842
 20
289.804785
 30
0.0
 11
454.404842
 21
288.907994
 31
0.0
  0
LINE
  5
333
330
1F
100
AcDbEntity
  8
CUT
100
AcDbLine
 10
454.404842
 20
288.907994
 30
0.0
 11
443.9623759999999
 21
288.907994
 31
0.0
  0
LINE
  5
334
330
1F
100
AcDbEntity
  8
CUT
100
AcDbLine
 10
443.9623759999999
 20
288.907994
 30
0.0
 11
443.9623759999999
 21
303.311938
 31
0.0
  0
ARC
  5
335
330
1F
100
AcDbEntity
  8
CUT
100
AcDbCircle
 10
452.7003515617502
 20
303.6238210775592
 30
0.0
 40
0.7810110622906472
100
AcDbArc
 50
6.969160510989786
 51
91.50562894413267
  0
ARC
  5
336
330
1F
100
AcDbEntity
  8
CUT
100
AcDbCircle
 10
452.7581714399799
 20
303.6362572354755
 30
0.0
 40
0.7221290987770308
100
AcDbArc
 50
2.057400833448664
 51
6.546362859534476
  0
ARC
  5
337
330
1F
100
AcDbEntity
  8
CUT
100
AcDbCircle
 10
444.7446305561189
 20
303.3303313598813
 30
0.0
 40
0.7824707093123927
100
AcDbArc
 50
95.51515483675748
 51
181.3469842235395
  0
ARC
  5
338
330
1F
100
AcDbEntity
  8
CUT
100
AcDbCircle
 10
444.7336781355324
 20
303.387065691168
 30
0.0
 40
0.7249668638244417
100
AcDbArc
 50
92.10086493734413
 51
95.08450091650304
  0
ENDSEC
  0
SECTION
  2
OBJECTS
  0
DICTIONARY
  5
C
330
0
100
AcDbDictionary
281
     1
  3
ACAD_CIP_PREVIOUS_PRODUCT_INFO
350
2FE
  3
ACAD_COLOR
350
2F9
  3
ACAD_DETAILVIEWSTYLE
350
2F5
  3
ACAD_GROUP
350
D
  3
ACAD_LAYOUT
350
1A
  3
ACAD_MATERIAL
350
43
  3
ACAD_MLEADERSTYLE
350
6B
  3
ACAD_MLINESTYLE
350
17
  3
ACAD_PLOTSETTINGS
350
19
  3
ACAD_PLOTSTYLENAME
350
E
  3
ACAD_SCALELIST
350
47
  3
ACAD_SECTIONVIEWSTYLE
350
2F6
  3
ACAD_TABLESTYLE
350
69
  3
ACAD_VISUALSTYLE
350
2A
  3
ACDB_RECOMPOSE_DATA
350
364
  3
AcDbVariableDictionary
350
2B2
  0
DICTIONARY
  5
347
330
10
100
AcDbDictionary
280
     1
281
     1
  3
ADSK_XREC_LAYER_RECONCILED
360
348
  0
DICTIONARY
  5
349
330
339
100
AcDbDictionary
280
     1
281
     1
  3
ADSK_XREC_LAYER_RECONCILED
360
34A
  0
DICTIONARY
  5
34B
330
33A
100
AcDbDictionary
280
     1
281
     1
  3
ADSK_XREC_LAYER_RECONCILED
360
34C
  0
DICTIONARY
  5
34D
330
33B
100
AcDbDictionary
280
     1
281
     1
  3
ADSK_XREC_LAYER_RECONCILED
360
34E
  0
DICTIONARY
  5
34F
330
33D
100
AcDbDictionary
280
     1
281
     1
  3
ADSK_XREC_LAYER_RECONCILED
360
350
  0
DICTIONARY
  5
351
330
33E
100
AcDbDictionary
280
     1
281
     1
  3
ADSK_XREC_LAYER_RECONCILED
360
352
  0
DICTIONARY
  5
353
330
340
100
AcDbDictionary
280
     1
281
     1
  3
ADSK_XREC_LAYER_RECONCILED
360
354
  0
DICTIONARY
  5
355
330
341
100
AcDbDictionary
280
     1
281
     1
  3
ADSK_XREC_LAYER_RECONCILED
360
356
  0
DICTIONARY
  5
357
330
342
100
AcDbDictionary
280
     1
281
     1
  3
ADSK_XREC_LAYER_RECONCILED
360
358
  0
DICTIONARY
  5
359
330
343
100
AcDbDictionary
280
     1
281
     1
  3
ADSK_XREC_LAYER_RECONCILED
360
35A
  0
DICTIONARY
  5
35B
330
344
100
AcDbDictionary
280
     1
281
     1
  3
ADSK_XREC_LAYER_RECONCILED
360
35C
  0
DICTIONARY
  5
35D
330
345
100
AcDbDictionary
280
     1
281
     1
  3
ADSK_XREC_LAYER_RECONCILED
360
35E
  0
DICTIONARY
  5
2FF
330
1F
100
AcDbDictionary
280
     1
281
     1
  3
ACAD_SORTENTS
360
300
  0
XRECORD
  5
2FE
102
{ACAD_REACTORS
330
C
102
}
330
C
100
AcDbXrecord
280
     1
300
ACD
300
2019
300
87084ACD_2019_0F
  0
DICTIONARY
  5
2F9
102
{ACAD_REACTORS
330
C
102
}
330
C
100
AcDbDictionary
281
     1
  0
DICTIONARY
  5
2F5
102
{ACAD_REACTORS
330
C
102
}
330
C
100
AcDbDictionary
281
     1
  3
Metric50
350
2FB
  0
DICTIONARY
  5
D
102
{ACAD_REACTORS
330
C
102
}
330
C
100
AcDbDictionary
281
     1
  3
NULOVY_BOD
350
346
  0
DICTIONARY
  5
1A
102
{ACAD_REACTORS
330
C
102
}
330
C
100
AcDbDictionary
281
     1
  3
Layout1
350
1E
  3
Layout2
350
26
  3
Model
350
22
  0
DICTIONARY
  5
43
102
{ACAD_REACTORS
330
C
102
}
330
C
100
AcDbDictionary
281
     1
  3
ByBlock
350
45
  3
ByLayer
350
44
  3
Global
350
46
  0
DICTIONARY
  5
6B
102
{ACAD_REACTORS
330
C
102
}
330
C
100
AcDbDictionary
281
     1
  3
Standard
350
6C
  0
DICTIONARY
  5
17
102
{ACAD_REACTORS
330
C
102
}
330
C
100
AcDbDictionary
281
     1
  3
Standard
350
18
  0
DICTIONARY
  5
19
102
{ACAD_REACTORS
330
C
102
}
330
C
100
AcDbDictionary
281
     1
  0
ACDBDICTIONARYWDFLT
  5
E
102
{ACAD_REACTORS
330
C
102
}
330
C
100
AcDbDictionary
281
     1
  3
Normal
350
F
100
AcDbDictionaryWithDefault
340
F
  0
DICTIONARY
  5
47
102
{ACAD_REACTORS
330
C
102
}
330
C
100
AcDbDictionary
281
     1
  3
A0
350
48
  3
A1
350
49
  3
A2
350
4A
  3
A3
350
4B
  3
A4
350
4C
  3
A5
350
4D
  3
A6
350
4E
  3
A7
350
4F
  3
A8
350
50
  3
A9
350
51
  3
B0
350
52
  3
B1
350
53
  3
B2
350
54
  3
B3
350
55
  3
B4
350
56
  3
B5
350
57
  3
B6
350
58
  3
B7
350
59
  3
B8
350
5A
  3
B9
350
5B
  3
C0
350
5C
  3
C1
350
5D
  3
C2
350
5E
  3
C3
350
5F
  3
C4
350
60
  3
C5
350
61
  3
C6
350
62
  3
C7
350
63
  3
C8
350
64
  3
C9
350
65
  3
D0
350
66
  3
D1
350
67
  3
D2
350
68
  0
DICTIONARY
  5
2F6
102
{ACAD_REACTORS
330
C
102
}
330
C
100
AcDbDictionary
281
     1
  3
Metric50
350
2FA
  0
DICTIONARY
  5
69
102
{ACAD_REACTORS
330
C
102
}
330
C
100
AcDbDictionary
281
     1
  3
Standard
350
6A
  0
DICTIONARY
  5
2A
102
{ACAD_REACTORS
330
C
102
}
330
C
100
AcDbDictionary
281
     1
  3
2dWireframe
350
2F
  3
Basic
350
32
  3
Brighten
350
36
  3
ColorChange
350
3A
  3
Conceptual
350
34
  3
Dim
350
35
  3
EdgeColorOff
350
3D
  3
Facepattern
350
39
  3
Flat
350
2B
  3
FlatWithEdges
350
2C
  3
Gouraud
350
2D
  3
GouraudWithEdges
350
2E
  3
Hidden
350
31
  3
JitterOff
350
3B
  3
Linepattern
350
38
  3
OverhangOff
350
3C
  3
Realistic
350
33
  3
Shaded
350
42
  3
Shaded with edges
350
41
  3
Shades of Gray
350
3E
  3
Sketchy
350
3F
  3
Thicken
350
37
  3
Wireframe
350
30
  3
X-Ray
350
40
  0
XRECORD
  5
364
102
{ACAD_REACTORS
330
C
102
}
330
C
100
AcDbXrecord
280
     1
 90
        1
330
6A
  0
DICTIONARY
  5
2B2
102
{ACAD_REACTORS
330
C
102
}
330
C
100
AcDbDictionary
281
     1
  3
CANNOSCALE
350
2B3
  3
CMLEADERSTYLE
350
2F4
  3
CTABLESTYLE
350
2F3
  3
CVIEWDETAILSTYLE
350
35F
  3
CVIEWSECTIONSTYLE
350
360
  3
MSLTSCALE
350
2B4
  3
XCLIPFRAME
350
361
  0
XRECORD
  5
348
102
{ACAD_REACTORS
330
347
102
}
330
347
100
AcDbXrecord
280
     1
290
     1
  0
XRECORD
  5
34A
102
{ACAD_REACTORS
330
349
102
}
330
349
100
AcDbXrecord
280
     1
290
     1
  0
XRECORD
  5
34C
102
{ACAD_REACTORS
330
34B
102
}
330
34B
100
AcDbXrecord
280
     1
290
     1
  0
XRECORD
  5
34E
102
{ACAD_REACTORS
330
34D
102
}
330
34D
100
AcDbXrecord
280
     1
290
     1
  0
XRECORD
  5
350
102
{ACAD_REACTORS
330
34F
102
}
330
34F
100
AcDbXrecord
280
     1
290
     1
  0
XRECORD
  5
352
102
{ACAD_REACTORS
330
351
102
}
330
351
100
AcDbXrecord
280
     1
290
     1
  0
XRECORD
  5
354
102
{ACAD_REACTORS
330
353
102
}
330
353
100
AcDbXrecord
280
     1
290
     1
  0
XRECORD
  5
356
102
{ACAD_REACTORS
330
355
102
}
330
355
100
AcDbXrecord
280
     1
290
     1
  0
XRECORD
  5
358
102
{ACAD_REACTORS
330
357
102
}
330
357
100
AcDbXrecord
280
     1
290
     1
  0
XRECORD
  5
35A
102
{ACAD_REACTORS
330
359
102
}
330
359
100
AcDbXrecord
280
     1
290
     1
  0
XRECORD
  5
35C
102
{ACAD_REACTORS
330
35B
102
}
330
35B
100
AcDbXrecord
280
     1
290
     1
  0
XRECORD
  5
35E
102
{ACAD_REACTORS
330
35D
102
}
330
35D
100
AcDbXrecord
280
     1
290
     1
  0
SORTENTSTABLE
  5
300
102
{ACAD_REACTORS
330
2FF
102
}
330
2FF
100
AcDbSortentsTable
330
1F
331
301
  5
26C
331
302
  5
285
331
303
  5
301
331
304
  5
302
331
305
  5
303
331
306
  5
304
331
307
  5
305
331
308
  5
306
331
309
  5
307
331
30A
  5
308
331
30B
  5
309
331
30C
  5
30A
331
30D
  5
30B
331
30E
  5
30C
331
30F
  5
30D
331
310
  5
30E
331
311
  5
30F
331
312
  5
310
331
313
  5
311
331
314
  5
312
331
315
  5
313
331
316
  5
314
331
317
  5
315
331
318
  5
316
331
319
  5
317
331
31A
  5
318
331
31B
  5
319
331
31C
  5
31A
331
31D
  5
31B
331
330
  5
334
331
331
  5
335
331
332
  5
336
331
333
  5
337
331
334
  5
338
331
335
  5
330
331
336
  5
331
331
337
  5
332
331
338
  5
333
  0
ACDBDETAILVIEWSTYLE
  5
2FB
102
{ACAD_XDICTIONARY
360
398
102
}
102
{ACAD_REACTORS
330
2F5
102
}
330
2F5
100
AcDbModelDocViewStyle
 70
     0
  3
Metric50
290
     0
100
AcDbDetailViewStyle
 70
     0
 71
     0
 90
        3
 71
     1
340
11
 62
   256
 40
5.0
340
0
 62
   256
 40
5.0
300

 40
0.0
280
     1
 71
     2
340
16
 90
       25
 62
   256
 71
     3
340
11
 62
   256
 40
5.0
 90
        0
 40
15.0
 90
        1
300
%<\AcVar ViewDetailId>% (%<\AcVar ViewScale \f "%sn">%)
 71
     4
340
16
 90
       25
 62
   256
340
16
 90
       25
 62
   256
280
     0
  0
GROUP
  5
346
102
{ACAD_REACTORS
330
D
102
}
330
D
100
AcDbGroup
300

 70
     0
 71
     1
340
73
  0
LAYOUT
  5
1E
102
{ACAD_REACTORS
330
1A
102
}
330
1A
100
AcDbPlotSettings
  1

  2
none_device
  4

  6

 40
0.0
 41
0.0
 42
0.0
 43
0.0
 44
0.0
 45
0.0
 46
0.0
 47
0.0
 48
0.0
 49
0.0
140
0.0
141
0.0
142
1.0
143
1.0
 70
   688
 72
     0
 73
     0
 74
     5
  7

 75
    16
147
1.0
 76
     0
 77
     2
 78
   300
148
0.0
149
0.0
100
AcDbLayout
  1
Layout1
 70
     1
 71
     1
 10
-0.5
 20
-0.5
 11
5.0
 21
5.0
 12
0.0
 22
0.0
 32
0.0
 14
-0.5
 24
-0.5
 34
-0.5
 15
5.0
 25
5.0
 35
5.0
146
0.0
 13
0.0
 23
0.0
 33
0.0
 16
1.0
 26
0.0
 36
0.0
 17
0.0
 27
1.0
 37
0.0
 76
     0
330
1B
  0
LAYOUT
  5
26
102
{ACAD_REACTORS
330
1A
102
}
330
1A
100
AcDbPlotSettings
  1

  2
none_device
  4

  6

 40
0.0
 41
0.0
 42
0.0
 43
0.0
 44
0.0
 45
0.0
 46
0.0
 47
0.0
 48
0.0
 49
0.0
140
0.0
141
0.0
142
1.0
143
1.0
 70
   688
 72
     0
 73
     0
 74
     5
  7

 75
    16
147
1.0
 76
     0
 77
     2
 78
   300
148
0.0
149
0.0
100
AcDbLayout
  1
Layout2
 70
     1
 71
     2
 10
0.0
 20
0.0
 11
0.0
 21
0.0
 12
0.0
 22
0.0
 32
0.0
 14
0.0
 24
0.0
 34
0.0
 15
0.0
 25
0.0
 35
0.0
146
0.0
 13
0.0
 23
0.0
 33
0.0
 16
1.0
 26
0.0
 36
0.0
 17
0.0
 27
1.0
 37
0.0
 76
     0
330
23
  0
LAYOUT
  5
22
102
{ACAD_REACTORS
330
1A
102
}
330
1A
100
AcDbPlotSettings
  1

  2
none_device
  4
Letter_(8.50_x_11.00_Inches)
  6

 40
6.349999999999999
 41
6.349999999999999
 42
6.350005
 43
6.350005
 44
215.9
 45
279.4
 46
0.0
 47
0.0
 48
0.0
 49
0.0
140
0.0
141
0.0
142
1.0
143
1.0
 70
  1712
 72
     0
 73
     0
 74
     0
  7

 75
     0
147
1.0
 76
     0
 77
     2
 78
   300
148
0.0
149
0.0
100
AcDbLayout
  1
Model
 70
     1
 71
     0
 10
-0.5
 20
-0.5
 11
5.0
 21
5.0
 12
0.0
 22
0.0
 32
0.0
 14
-0.5
 24
-0.5
 34
-0.5
 15
5.0
 25
5.0
 35
5.0
146
0.0
 13
0.0
 23
0.0
 33
0.0
 16
1.0
 26
0.0
 36
0.0
 17
0.0
 27
1.0
 37
0.0
 76
     0
330
1F
331
29
  0
MATERIAL
  5
45
102
{ACAD_XDICTIONARY
360
2E8
102
}
102
{ACAD_REACTORS
330
43
102
}
330
43
100
AcDbMaterial
  1
ByBlock
  0
MATERIAL
  5
44
102
{ACAD_XDICTIONARY
360
2E6
102
}
102
{ACAD_REACTORS
330
43
102
}
330
43
100
AcDbMaterial
  1
ByLayer
  0
MATERIAL
  5
46
102
{ACAD_XDICTIONARY
360
2EA
102
}
102
{ACAD_REACTORS
330
43
102
}
330
43
100
AcDbMaterial
  1
Global
  0
MLEADERSTYLE
  5
6C
102
{ACAD_REACTORS
330
6B
102
}
330
6B
100
AcDbMLeaderStyle
170
     2
171
     1
172
     0
 90
        2
 40
0.0
 41
0.0
173
     1
 91
-1056964608
340
14
 92
       -2
290
     1
 42
0.09
291
     1
 43
0.36
  3
Standard
 44
0.18
300

342
11
174
     1
178
     6
175
     1
176
     0
 93
-1056964608
 45
0.18
292
     0
297
     0
 46
0.18
 94
-1056964608
 47
1.0
 49
1.0
140
1.0
293
     1
141
0.0
294
     1
177
     0
142
1.0
295
     0
296
     0
143
0.125
1001
ACAD_MLEADERVER
1070
     2
  0
MLINESTYLE
  5
18
102
{ACAD_REACTORS
330
17
102
}
330
17
100
AcDbMlineStyle
  2
STANDARD
 70
     0
  3

 62
   256
 51
90.0
 52
90.0
 71
     2
 49
0.5
 62
   256
  6
BYLAYER
 49
-0.5
 62
   256
  6
BYLAYER
  0
ACDBPLACEHOLDER
  5
F
102
{ACAD_REACTORS
330
E
102
}
330
E
  0
SCALE
  5
48
102
{ACAD_REACTORS
330
47
102
}
330
47
100
AcDbScale
 70
     0
300
1:1
140
1.0
141
1.0
290
     1
  0
SCALE
  5
49
102
{ACAD_REACTORS
330
47
102
}
330
47
100
AcDbScale
 70
     0
300
1:2
140
1.0
141
2.0
290
     0
  0
SCALE
  5
4A
102
{ACAD_REACTORS
330
47
102
}
330
47
100
AcDbScale
 70
     0
300
1:4
140
1.0
141
4.0
290
     0
  0
SCALE
  5
4B
102
{ACAD_REACTORS
330
47
102
}
330
47
100
AcDbScale
 70
     0
300
1:5
140
1.0
141
5.0
290
     0
  0
SCALE
  5
4C
102
{ACAD_REACTORS
330
47
102
}
330
47
100
AcDbScale
 70
     0
300
1:8
140
1.0
141
8.0
290
     0
  0
SCALE
  5
4D
102
{ACAD_REACTORS
330
47
102
}
330
47
100
AcDbScale
 70
     0
300
1:10
140
1.0
141
10.0
290
     0
  0
SCALE
  5
4E
102
{ACAD_REACTORS
330
47
102
}
330
47
100
AcDbScale
 70
     0
300
1:16
140
1.0
141
16.0
290
     0
  0
SCALE
  5
4F
102
{ACAD_REACTORS
330
47
102
}
330
47
100
AcDbScale
 70
     0
300
1:20
140
1.0
141
20.0
290
     0
  0
SCALE
  5
50
102
{ACAD_REACTORS
330
47
102
}
330
47
100
AcDbScale
 70
     0
300
1:30
140
1.0
141
30.0
290
     0
  0
SCALE
  5
51
102
{ACAD_REACTORS
330
47
102
}
330
47
100
AcDbScale
 70
     0
300
1:40
140
1.0
141
40.0
290
     0
  0
SCALE
  5
52
102
{ACAD_REACTORS
330
47
102
}
330
47
100
AcDbScale
 70
     0
300
1:50
140
1.0
141
50.0
290
     0
  0
SCALE
  5
53
102
{ACAD_REACTORS
330
47
102
}
330
47
100
AcDbScale
 70
     0
300
1:100
140
1.0
141
100.0
290
     0
  0
SCALE
  5
54
102
{ACAD_REACTORS
330
47
102
}
330
47
100
AcDbScale
 70
     0
300
2:1
140
2.0
141
1.0
290
     0
  0
SCALE
  5
55
102
{ACAD_REACTORS
330
47
102
}
330
47
100
AcDbScale
 70
     0
300
4:1
140
4.0
141
1.0
290
     0
  0
SCALE
  5
56
102
{ACAD_REACTORS
330
47
102
}
330
47
100
AcDbScale
 70
     0
300
8:1
140
8.0
141
1.0
290
     0
  0
SCALE
  5
57
102
{ACAD_REACTORS
330
47
102
}
330
47
100
AcDbScale
 70
     0
300
10:1
140
10.0
141
1.0
290
     0
  0
SCALE
  5
58
102
{ACAD_REACTORS
330
47
102
}
330
47
100
AcDbScale
 70
     0
300
100:1
140
100.0
141
1.0
290
     0
  0
SCALE
  5
59
102
{ACAD_REACTORS
330
47
102
}
330
47
100
AcDbScale
 70
     0
300
1/128" = 1'-0"
140
0.007812
141
12.0
290
     0
  0
SCALE
  5
5A
102
{ACAD_REACTORS
330
47
102
}
330
47
100
AcDbScale
 70
     0
300
1/64" = 1'-0"
140
0.015625
141
12.0
290
     0
  0
SCALE
  5
5B
102
{ACAD_REACTORS
330
47
102
}
330
47
100
AcDbScale
 70
     0
300
1/32" = 1'-0"
140
0.03125
141
12.0
290
     0
  0
SCALE
  5
5C
102
{ACAD_REACTORS
330
47
102
}
330
47
100
AcDbScale
 70
     0
300
1/16" = 1'-0"
140
0.0625
141
12.0
290
     0
  0
SCALE
  5
5D
102
{ACAD_REACTORS
330
47
102
}
330
47
100
AcDbScale
 70
     0
300
3/32" = 1'-0"
140
0.09375
141
12.0
290
     0
  0
SCALE
  5
5E
102
{ACAD_REACTORS
330
47
102
}
330
47
100
AcDbScale
 70
     0
300
1/8" = 1'-0"
140
0.125
141
12.0
290
     0
  0
SCALE
  5
5F
102
{ACAD_REACTORS
330
47
102
}
330
47
100
AcDbScale
 70
     0
300
3/16" = 1'-0"
140
0.1875
141
12.0
290
     0
  0
SCALE
  5
60
102
{ACAD_REACTORS
330
47
102
}
330
47
100
AcDbScale
 70
     0
300
1/4" = 1'-0"
140
0.25
141
12.0
290
     0
  0
SCALE
  5
61
102
{ACAD_REACTORS
330
47
102
}
330
47
100
AcDbScale
 70
     0
300
3/8" = 1'-0"
140
0.375
141
12.0
290
     0
  0
SCALE
  5
62
102
{ACAD_REACTORS
330
47
102
}
330
47
100
AcDbScale
 70
     0
300
1/2" = 1'-0"
140
0.5
141
12.0
290
     0
  0
SCALE
  5
63
102
{ACAD_REACTORS
330
47
102
}
330
47
100
AcDbScale
 70
     0
300
3/4" = 1'-0"
140
0.75
141
12.0
290
     0
  0
SCALE
  5
64
102
{ACAD_REACTORS
330
47
102
}
330
47
100
AcDbScale
 70
     0
300
1" = 1'-0"
140
1.0
141
12.0
290
     0
  0
SCALE
  5
65
102
{ACAD_REACTORS
330
47
102
}
330
47
100
AcDbScale
 70
     0
300
1-1/2" = 1'-0"
140
1.5
141
12.0
290
     0
  0
SCALE
  5
66
102
{ACAD_REACTORS
330
47
102
}
330
47
100
AcDbScale
 70
     0
300
3" = 1'-0"
140
3.0
141
12.0
290
     0
  0
SCALE
  5
67
102
{ACAD_REACTORS
330
47
102
}
330
47
100
AcDbScale
 70
     0
300
6" = 1'-0"
140
6.0
141
12.0
290
     0
  0
SCALE
  5
68
102
{ACAD_REACTORS
330
47
102
}
330
47
100
AcDbScale
 70
     0
300
1'-0" = 1'-0"
140
12.0
141
12.0
290
     0
  0
ACDBSECTIONVIEWSTYLE
  5
2FA
102
{ACAD_XDICTIONARY
360
396
102
}
102
{ACAD_REACTORS
330
2F6
102
}
330
2F6
100
AcDbModelDocViewStyle
 70
     0
  3
Metric50
290
     0
100
AcDbSectionViewStyle
 70
     0
 71
     0
 90
      102
 71
     1
340
11
 62
   256
 40
5.0
340
0
340
0
 62
   256
 40
5.0
300
I, O, Q, S, X, Z
 40
10.0
 90
        0
 40
2.5
 90
        0
 71
     2
340
16
 90
       25
 62
   256
340
16
 90
       50
 62
   256
 40
5.0
 40
2.5
 40
5.0
 71
     3
340
11
 62
   256
 40
5.0
 90
        0
 40
15.0
 90
        1
300
%<\AcVar ViewSectionStartId>%-%<\AcVar ViewSectionEndId>% (%<\AcVar ViewScale \f "%sn">%)
 71
     4
 62
   256
 62
   257
300
ANSI31
 40
1.0
 90
        0
290
     0
290
     0
 90
        6
 40
0.0
 40
1.570796326794896
 40
0.2617993877991494
 40
1.308996938995747
 40
-0.2617993877991494
 40
1.832595714594046
  0
TABLESTYLE
  5
6A
102
{ACAD_XDICTIONARY
360
2EC
102
}
102
{ACAD_REACTORS
330
69
102
}
330
69
100
AcDbTableStyle
  3
Standard
 70
     0
 71
     0
 40
0.06
 41
0.06
280
     0
281
     0
  7
Standard
140
0.18
170
     2
 62
     0
 63
     7
283
     0
274
    -2
284
     1
 64
     0
275
    -2
285
     1
 65
     0
276
    -2
286
     1
 66
     0
277
    -2
287
     1
 67
     0
278
    -2
288
     1
 68
     0
279
    -2
289
     1
 69
     0
  7
Standard
140
0.25
170
     5
 62
     0
 63
     7
283
     0
274
    -2
284
     1
 64
     0
275
    -2
285
     1
 65
     0
276
    -2
286
     1
 66
     0
277
    -2
287
     1
 67
     0
278
    -2
288
     1
 68
     0
279
    -2
289
     1
 69
     0
  7
Standard
140
0.18
170
     5
 62
     0
 63
     7
283
     0
274
    -2
284
     1
 64
     0
275
    -2
285
     1
 65
     0
276
    -2
286
     1
 66
     0
277
    -2
287
     1
 67
     0
278
    -2
288
     1
 68
     0
279
    -2
289
     1
 69
     0
  0
VISUALSTYLE
  5
2F
102
{ACAD_XDICTIONARY
360
36D
102
}
102
{ACAD_REACTORS
330
2A
102
}
330
2A
100
AcDbVisualStyle
  2

 70
     4
 71
     0
 72
     2
 73
     0
 90
        0
 40
-0.6
 41
-30.0
 62
     5
 63
     7
421
 16777215
 74
     1
 91
        4
 64
     7
 65
   257
 75
     1
175
     1
 42
1.0
 92
        0
 66
   257
 43
1.0
 76
     1
 77
     6
 78
     2
 67
     7
 79
     5
170
     0
171
     0
290
     0
174
     0
 93
        1
 44
0.0
173
     0
291
     0
 45
0.0
1001
ACAD
1000
AcDbSavedByObjectVersion
1070
     0
  0
VISUALSTYLE
  5
32
102
{ACAD_XDICTIONARY
360
373
102
}
102
{ACAD_REACTORS
330
2A
102
}
330
2A
100
AcDbVisualStyle
  2

 70
     7
 71
     1
 72
     0
 73
     1
 90
        0
 40
-0.6
 41
-30.0
 62
     5
 63
     7
421
 16777215
 74
     0
 91
        4
 64
     7
 65
   257
 75
     1
175
     1
 42
1.0
 92
        8
 66
     7
 43
1.0
 76
     1
 77
     6
 78
     2
 67
     7
 79
     5
170
     0
171
     0
290
     0
174
     0
 93
        1
 44
0.0
173
     0
291
     1
 45
0.0
1001
ACAD
1000
AcDbSavedByObjectVersion
1070
     0
  0
VISUALSTYLE
  5
36
102
{ACAD_XDICTIONARY
360
37B
102
}
102
{ACAD_REACTORS
330
2A
102
}
330
2A
100
AcDbVisualStyle
  2

 70
    12
 71
     2
 72
     2
 73
     0
 90
        0
 40
-0.6
 41
-30.0
 62
     5
 63
     7
421
 16777215
 74
     1
 91
        4
 64
     7
 65
   257
 75
     1
175
     1
 42
1.0
 92
        8
 66
     7
 43
1.0
 76
     1
 77
     6
 78
     2
 67
     7
 79
     5
170
     0
171
     0
290
     0
174
     0
 93
        1
 44
50.0
173
     0
291
     1
 45
0.0
1001
ACAD
1000
AcDbSavedByObjectVersion
1070
     0
  0
VISUALSTYLE
  5
3A
102
{ACAD_XDICTIONARY
360
383
102
}
102
{ACAD_REACTORS
330
2A
102
}
330
2A
100
AcDbVisualStyle
  2

 70
    16
 71
     2
 72
     2
 73
     3
 90
        0
 40
-0.6
 41
-30.0
 62
     5
 63
     8
421
  8421504
 74
     1
 91
        4
 64
     7
 65
   257
 75
     1
175
     1
 42
1.0
 92
        8
 66
     8
424
  8421504
 43
1.0
 76
     1
 77
     6
 78
     2
 67
     7
 79
     5
170
     0
171
     0
290
     0
174
     0
 93
        1
 44
0.0
173
     0
291
     1
 45
0.0
1001
ACAD
1000
AcDbSavedByObjectVersion
1070
     0
  0
VISUALSTYLE
  5
34
102
{ACAD_XDICTIONARY
360
377
102
}
102
{ACAD_REACTORS
330
2A
102
}
330
2A
100
AcDbVisualStyle
  2

 70
     9
 71
     3
 72
     2
 73
     0
 90
        0
 40
-0.6
 41
-30.0
 62
     5
 63
     7
421
 16777215
 74
     2
 91
        2
 64
     7
 65
   257
 75
     1
175
     1
 42
179.0
 92
        8
 66
     7
 43
1.0
 76
     1
 77
     6
 78
     2
 67
     7
 79
     3
170
     0
171
     0
290
     0
174
     0
 93
        1
 44
0.0
173
     0
291
     0
 45
0.0
1001
ACAD
1000
AcDbSavedByObjectVersion
1070
     0
  0
VISUALSTYLE
  5
35
102
{ACAD_XDICTIONARY
360
379
102
}
102
{ACAD_REACTORS
330
2A
102
}
330
2A
100
AcDbVisualStyle
  2

 70
    11
 71
     2
 72
     2
 73
     0
 90
        0
 40
-0.6
 41
-30.0
 62
     5
 63
     7
421
 16777215
 74
     1
 91
        4
 64
     7
 65
   257
 75
     1
175
     1
 42
1.0
 92
        8
 66
     7
 43
1.0
 76
     1
 77
     6
 78
     2
 67
     7
 79
     5
170
     0
171
     0
290
     0
174
     0
 93
        1
 44
-50.0
173
     0
291
     1
 45
0.0
1001
ACAD
1000
AcDbSavedByObjectVersion
1070
     0
  0
VISUALSTYLE
  5
3D
102
{ACAD_XDICTIONARY
360
389
102
}
102
{ACAD_REACTORS
330
2A
102
}
330
2A
100
AcDbVisualStyle
  2

 70
    22
 71
     2
 72
     2
 73
     0
 90
        0
 40
-0.6
 41
-30.0
 62
     5
 63
     7
421
 16777215
 74
     1
 91
        4
 64
     7
 65
   257
 75
     1
175
     1
 42
1.0
 92
        8
 66
     7
 43
1.0
 76
     1
 77
     6
 78
     2
 67
     7
 79
     5
170
     0
171
     0
290
     0
174
     0
 93
        1
 44
0.0
173
     0
291
     1
 45
0.0
1001
ACAD
1000
AcDbSavedByObjectVersion
1070
     0
  0
VISUALSTYLE
  5
39
102
{ACAD_XDICTIONARY
360
381
102
}
102
{ACAD_REACTORS
330
2A
102
}
330
2A
100
AcDbVisualStyle
  2

 70
    15
 71
     2
 72
     2
 73
     0
 90
        0
 40
-0.6
 41
-30.0
 62
     5
 63
     7
421
 16777215
 74
     1
 91
        4
 64
     7
 65
   257
 75
     1
175
     1
 42
1.0
 92
        8
 66
     7
 43
1.0
 76
     1
 77
     6
 78
     2
 67
     7
 79
     5
170
     0
171
     0
290
     0
174
     0
 93
        1
 44
0.0
173
     0
291
     1
 45
0.0
1001
ACAD
1000
AcDbSavedByObjectVersion
1070
     0
  0
VISUALSTYLE
  5
2B
102
{ACAD_XDICTIONARY
360
365
102
}
102
{ACAD_REACTORS
330
2A
102
}
330
2A
100
AcDbVisualStyle
  2

 70
     0
 71
     2
 72
     1
 73
     1
 90
        2
 40
-0.6
 41
30.0
 62
     5
 63
     7
421
 16777215
 74
     0
 91
        0
 64
     7
 65
   257
 75
     1
175
     1
 42
1.0
 92
        8
 66
     7
 43
1.0
 76
     1
 77
     6
 78
     2
 67
     7
 79
     5
170
     0
171
     0
290
     0
174
     0
 93
       13
 44
0.0
173
     0
291
     1
 45
0.0
1001
ACAD
1000
AcDbSavedByObjectVersion
1070
     0
  0
VISUALSTYLE
  5
2C
102
{ACAD_XDICTIONARY
360
367
102
}
102
{ACAD_REACTORS
330
2A
102
}
330
2A
100
AcDbVisualStyle
  2

 70
     1
 71
     2
 72
     1
 73
     1
 90
        2
 40
-0.6
 41
30.0
 62
     5
 63
     7
421
 16777215
 74
     1
 91
        0
 64
     7
 65
   257
 75
     1
175
     1
 42
1.0
 92
        0
 66
   257
 43
1.0
 76
     1
 77
     6
 78
     2
 67
     7
 79
     5
170
     0
171
     0
290
     0
174
     0
 93
       13
 44
0.0
173
     0
291
     1
 45
0.0
1001
ACAD
1000
AcDbSavedByObjectVersion
1070
     0
  0
VISUALSTYLE
  5
2D
102
{ACAD_XDICTIONARY
360
369
102
}
102
{ACAD_REACTORS
330
2A
102
}
330
2A
100
AcDbVisualStyle
  2

 70
     2
 71
     2
 72
     2
 73
     1
 90
        2
 40
-0.6
 41
30.0
 62
     5
 63
     7
421
 16777215
 74
     0
 91
        0
 64
     7
 65
   257
 75
     1
175
     1
 42
1.0
 92
        0
 66
     7
 43
1.0
 76
     1
 77
     6
 78
     2
 67
     7
 79
     5
170
     0
171
     0
290
     0
174
     0
 93
       13
 44
0.0
173
     0
291
     1
 45
0.0
1001
ACAD
1000
AcDbSavedByObjectVersion
1070
     0
  0
VISUALSTYLE
  5
2E
102
{ACAD_XDICTIONARY
360
36B
102
}
102
{ACAD_REACTORS
330
2A
102
}
330
2A
100
AcDbVisualStyle
  2

 70
     3
 71
     2
 72
     2
 73
     1
 90
        2
 40
-0.6
 41
30.0
 62
     5
 63
     7
421
 16777215
 74
     1
 91
        0
 64
     7
 65
   257
 75
     1
175
     1
 42
1.0
 92
        0
 66
   257
 43
1.0
 76
     1
 77
     6
 78
     2
 67
     7
 79
     5
170
     0
171
     0
290
     0
174
     0
 93
       13
 44
0.0
173
     0
291
     1
 45
0.0
1001
ACAD
1000
AcDbSavedByObjectVersion
1070
     0
  0
VISUALSTYLE
  5
31
102
{ACAD_XDICTIONARY
360
371
102
}
102
{ACAD_REACTORS
330
2A
102
}
330
2A
100
AcDbVisualStyle
  2

 70
     6
 71
     1
 72
     2
 73
     2
 90
        0
 40
-0.6
 41
-30.0
 62
     5
 63
     7
421
 16777215
 74
     2
 91
        2
 64
     7
 65
   257
 75
     2
175
     1
 42
40.0
 92
        0
 66
   257
 43
1.0
 76
     1
 77
     6
 78
     2
 67
     7
 79
     3
170
     0
171
     0
290
     0
174
     0
 93
        1
 44
0.0
173
     0
291
     0
 45
0.0
1001
ACAD
1000
AcDbSavedByObjectVersion
1070
     0
  0
VISUALSTYLE
  5
3B
102
{ACAD_XDICTIONARY
360
385
102
}
102
{ACAD_REACTORS
330
2A
102
}
330
2A
100
AcDbVisualStyle
  2

 70
    20
 71
     2
 72
     2
 73
     0
 90
        0
 40
-0.6
 41
-30.0
 62
     5
 63
     7
421
 16777215
 74
     1
 91
        4
 64
     7
 65
   257
 75
     1
175
     1
 42
1.0
 92
       10
 66
     7
 43
1.0
 76
     1
 77
     6
 78
     2
 67
     7
 79
     5
170
     0
171
     0
290
     0
174
     0
 93
        1
 44
0.0
173
     0
291
     1
 45
0.0
1001
ACAD
1000
AcDbSavedByObjectVersion
1070
     0
  0
VISUALSTYLE
  5
38
102
{ACAD_XDICTIONARY
360
37F
102
}
102
{ACAD_REACTORS
330
2A
102
}
330
2A
100
AcDbVisualStyle
  2

 70
    14
 71
     2
 72
     2
 73
     0
 90
        0
 40
-0.6
 41
-30.0
 62
     5
 63
     7
421
 16777215
 74
     1
 91
        4
 64
     7
 65
   257
 75
     7
175
     7
 42
1.0
 92
        8
 66
     7
 43
1.0
 76
     1
 77
     6
 78
     2
 67
     7
 79
     5
170
     0
171
     0
290
     0
174
     0
 93
        1
 44
0.0
173
     0
291
     1
 45
0.0
1001
ACAD
1000
AcDbSavedByObjectVersion
1070
     0
  0
VISUALSTYLE
  5
3C
102
{ACAD_XDICTIONARY
360
387
102
}
102
{ACAD_REACTORS
330
2A
102
}
330
2A
100
AcDbVisualStyle
  2

 70
    21
 71
     2
 72
     2
 73
     0
 90
        0
 40
-0.6
 41
-30.0
 62
     5
 63
     7
421
 16777215
 74
     1
 91
        4
 64
     7
 65
   257
 75
     1
175
     1
 42
1.0
 92
        9
 66
     7
 43
1.0
 76
     1
 77
     6
 78
     2
 67
     7
 79
     5
170
     0
171
     0
290
     0
174
     0
 93
        1
 44
0.0
173
     0
291
     1
 45
0.0
1001
ACAD
1000
AcDbSavedByObjectVersion
1070
     0
  0
VISUALSTYLE
  5
33
102
{ACAD_XDICTIONARY
360
375
102
}
102
{ACAD_REACTORS
330
2A
102
}
330
2A
100
AcDbVisualStyle
  2

 70
     8
 71
     2
 72
     3
 73
     0
 90
        2
 40
-0.6
 41
30.0
 62
     5
 63
     7
421
 16777215
 74
     0
 91
        0
 64
     7
 65
   257
 75
     1
175
     1
 42
1.0
 92
        8
 66
   257
 43
1.0
 76
     1
 77
     6
 78
     2
 67
     7
 79
     3
170
     0
171
     0
290
     0
174
     0
 93
       13
 44
0.0
173
     0
291
     0
 45
0.0
1001
ACAD
1000
AcDbSavedByObjectVersion
1070
     0
  0
VISUALSTYLE
  5
42
102
{ACAD_XDICTIONARY
360
393
102
}
102
{ACAD_REACTORS
330
2A
102
}
330
2A
100
AcDbVisualStyle
  2

 70
    27
 71
     2
 72
     2
 73
     1
 90
        2
 40
-0.6
 41
30.0
 62
     5
 63
     7
421
 16777215
 74
     0
 91
        4
 64
     7
 65
   257
 75
     1
175
     1
 42
1.0
 92
        8
 66
   257
 43
1.0
 76
     1
 77
     6
 78
     2
 67
     8
425
  7895160
 79
     3
170
     0
171
     0
290
     0
174
     0
 93
        5
 44
0.0
173
     0
291
     0
 45
0.0
1001
ACAD
1000
AcDbSavedByObjectVersion
1070
     0
  0
VISUALSTYLE
  5
41
102
{ACAD_XDICTIONARY
360
391
102
}
102
{ACAD_REACTORS
330
2A
102
}
330
2A
100
AcDbVisualStyle
  2

 70
    26
 71
     2
 72
     2
 73
     1
 90
        2
 40
-0.6
 41
30.0
 62
     5
 63
     7
421
 16777215
 74
     1
 91
       10
 64
     7
 65
   257
 75
     2
175
     1
 42
1.0
 92
        8
 66
   257
 43
1.0
 76
     1
 77
     6
 78
     2
 67
     7
 79
     3
170
     0
171
     0
290
     0
174
     0
 93
        5
 44
0.0
173
     0
291
     0
 45
0.0
1001
ACAD
1000
AcDbSavedByObjectVersion
1070
     0
  0
VISUALSTYLE
  5
3E
102
{ACAD_XDICTIONARY
360
38B
102
}
102
{ACAD_REACTORS
330
2A
102
}
330
2A
100
AcDbVisualStyle
  2

 70
    23
 71
     2
 72
     2
 73
     3
 90
        0
 40
-0.6
 41
-30.0
 62
     5
 63
     7
421
 16777215
 74
     2
 91
        2
 64
     7
 65
     7
 75
     1
175
     1
 42
40.0
 92
        8
 66
     7
 43
1.0
 76
     1
 77
     6
 78
     2
 67
     7
 79
     3
170
     0
171
     0
290
     0
174
     0
 93
        1
 44
0.0
173
     0
291
     0
 45
0.0
1001
ACAD
1000
AcDbSavedByObjectVersion
1070
     0
  0
VISUALSTYLE
  5
3F
102
{ACAD_XDICTIONARY
360
38D
102
}
102
{ACAD_REACTORS
330
2A
102
}
330
2A
100
AcDbVisualStyle
  2

 70
    24
 71
     1
 72
     2
 73
     2
 90
        0
 40
-0.6
 41
-30.0
 62
     5
 63
     7
421
 16777215
 74
     2
 91
        2
 64
     7
 65
     7
 75
     1
175
     1
 42
40.0
 92
       11
 66
     7
 43
1.0
 76
     1
 77
     6
 78
     2
 67
     7
 79
     6
170
     0
171
     0
290
     0
174
     0
 93
        1
 44
0.0
173
     0
291
     0
 45
0.0
1001
ACAD
1000
AcDbSavedByObjectVersion
1070
     0
  0
VISUALSTYLE
  5
37
102
{ACAD_XDICTIONARY
360
37D
102
}
102
{ACAD_REACTORS
330
2A
102
}
330
2A
100
AcDbVisualStyle
  2

 70
    13
 71
     2
 72
     2
 73
     0
 90
        0
 40
-0.6
 41
-30.0
 62
     5
 63
     7
421
 16777215
 74
     1
 91
        4
 64
     7
 65
   257
 75
     1
175
     1
 42
1.0
 92
       12
 66
     7
 43
1.0
 76
     1
 77
     6
 78
     2
 67
     7
 79
     5
170
     0
171
     0
290
     0
174
     0
 93
        1
 44
0.0
173
     0
291
     1
 45
0.0
1001
ACAD
1000
AcDbSavedByObjectVersion
1070
     0
  0
VISUALSTYLE
  5
30
102
{ACAD_XDICTIONARY
360
36F
102
}
102
{ACAD_REACTORS
330
2A
102
}
330
2A
100
AcDbVisualStyle
  2

 70
     5
 71
     0
 72
     2
 73
     0
 90
        0
 40
-0.6
 41
-30.0
 62
     5
 63
     7
421
 16777215
 74
     1
 91
        4
 64
     7
 65
   257
 75
     1
175
     1
 42
1.0
 92
        0
 66
   257
 43
1.0
 76
     1
 77
     6
 78
     2
 67
     7
 79
     3
170
     0
171
     0
290
     0
174
     0
 93
        1
 44
0.0
173
     0
291
     0
 45
0.0
1001
ACAD
1000
AcDbSavedByObjectVersion
1070
     0
  0
VISUALSTYLE
  5
40
102
{ACAD_XDICTIONARY
360
38F
102
}
102
{ACAD_REACTORS
330
2A
102
}
330
2A
100
AcDbVisualStyle
  2

 70
    25
 71
     2
 72
     2
 73
     1
 90
        1
 40
0.5
 41
-30.0
 62
     5
 63
     7
421
 16777215
 74
     1
 91
        0
 64
     7
 65
   257
 75
     1
175
     1
 42
1.0
 92
        8
 66
     7
 43
1.0
 76
     1
 77
     6
 78
     2
 67
     7
 79
     3
170
     0
171
     0
290
     0
174
     0
 93
       13
 44
0.0
173
     0
291
     0
 45
0.0
1001
ACAD
1000
AcDbSavedByObjectVersion
1070
     0
  0
DICTIONARYVAR
  5
2B3
102
{ACAD_REACTORS
330
2B2
102
}
330
2B2
100
DictionaryVariables
280
     0
  1
1:1
  0
DICTIONARYVAR
  5
2F4
102
{ACAD_REACTORS
330
2B2
102
}
330
2B2
100
DictionaryVariables
280
     0
  1
STANDARD
  0
DICTIONARYVAR
  5
2F3
102
{ACAD_REACTORS
330
2B2
102
}
330
2B2
100
DictionaryVariables
280
     0
  1
STANDARD
  0
DICTIONARYVAR
  5
35F
102
{ACAD_REACTORS
330
2B2
102
}
330
2B2
100
DictionaryVariables
280
     0
  1
Metric50
  0
DICTIONARYVAR
  5
360
102
{ACAD_REACTORS
330
2B2
102
}
330
2B2
100
DictionaryVariables
280
     0
  1
Metric50
  0
DICTIONARYVAR
  5
2B4
102
{ACAD_REACTORS
330
2B2
102
}
330
2B2
100
DictionaryVariables
280
     0
  1
1
  0
DICTIONARYVAR
  5
361
102
{ACAD_REACTORS
330
2B2
102
}
330
2B2
100
DictionaryVariables
280
     0
  1
2
  0
DICTIONARY
  5
398
330
2FB
100
AcDbDictionary
280
     1
281
     1
  3
ACAD_XREC_ROUNDTRIP
360
399
  0
DICTIONARY
  5
2E8
330
45
100
AcDbDictionary
280
     1
281
     1
  3
ACAD_XREC_ROUNDTRIP
360
2E9
  0
DICTIONARY
  5
2E6
330
44
100
AcDbDictionary
280
     1
281
     1
  3
ACAD_XREC_ROUNDTRIP
360
2E7
  0
DICTIONARY
  5
2EA
330
46
100
AcDbDictionary
280
     1
281
     1
  3
ACAD_XREC_ROUNDTRIP
360
2EB
  0
DICTIONARY
  5
396
330
2FA
100
AcDbDictionary
280
     1
281
     1
  3
ACAD_XREC_ROUNDTRIP
360
397
  0
DICTIONARY
  5
2EC
330
6A
100
AcDbDictionary
280
     1
281
     1
  3
ACAD_ROUNDTRIP_2008_TABLESTYLE_CELLSTYLEMAP
360
363
  3
ACAD_XREC_ROUNDTRIP
360
395
  0
DICTIONARY
  5
36D
330
2F
100
AcDbDictionary
280
     1
281
     1
  3
ACAD_XREC_ROUNDTRIP
360
36E
  0
DICTIONARY
  5
373
330
32
100
AcDbDictionary
280
     1
281
     1
  3
ACAD_XREC_ROUNDTRIP
360
374
  0
DICTIONARY
  5
37B
330
36
100
AcDbDictionary
280
     1
281
     1
  3
ACAD_XREC_ROUNDTRIP
360
37C
  0
DICTIONARY
  5
383
330
3A
100
AcDbDictionary
280
     1
281
     1
  3
ACAD_XREC_ROUNDTRIP
360
384
  0
DICTIONARY
  5
377
330
34
100
AcDbDictionary
280
     1
281
     1
  3
ACAD_XREC_ROUNDTRIP
360
378
  0
DICTIONARY
  5
379
330
35
100
AcDbDictionary
280
     1
281
     1
  3
ACAD_XREC_ROUNDTRIP
360
37A
  0
DICTIONARY
  5
389
330
3D
100
AcDbDictionary
280
     1
281
     1
  3
ACAD_XREC_ROUNDTRIP
360
38A
  0
DICTIONARY
  5
381
330
39
100
AcDbDictionary
280
     1
281
     1
  3
ACAD_XREC_ROUNDTRIP
360
382
  0
DICTIONARY
  5
365
330
2B
100
AcDbDictionary
280
     1
281
     1
  3
ACAD_XREC_ROUNDTRIP
360
366
  0
DICTIONARY
  5
367
330
2C
100
AcDbDictionary
280
     1
281
     1
  3
ACAD_XREC_ROUNDTRIP
360
368
  0
DICTIONARY
  5
369
330
2D
100
AcDbDictionary
280
     1
281
     1
  3
ACAD_XREC_ROUNDTRIP
360
36A
  0
DICTIONARY
  5
36B
330
2E
100
AcDbDictionary
280
     1
281
     1
  3
ACAD_XREC_ROUNDTRIP
360
36C
  0
DICTIONARY
  5
371
330
31
100
AcDbDictionary
280
     1
281
     1
  3
ACAD_XREC_ROUNDTRIP
360
372
  0
DICTIONARY
  5
385
330
3B
100
AcDbDictionary
280
     1
281
     1
  3
ACAD_XREC_ROUNDTRIP
360
386
  0
DICTIONARY
  5
37F
330
38
100
AcDbDictionary
280
     1
281
     1
  3
ACAD_XREC_ROUNDTRIP
360
380
  0
DICTIONARY
  5
387
330
3C
100
AcDbDictionary
280
     1
281
     1
  3
ACAD_XREC_ROUNDTRIP
360
388
  0
DICTIONARY
  5
375
330
33
100
AcDbDictionary
280
     1
281
     1
  3
ACAD_XREC_ROUNDTRIP
360
376
  0
DICTIONARY
  5
393
330
42
100
AcDbDictionary
280
     1
281
     1
  3
ACAD_XREC_ROUNDTRIP
360
394
  0
DICTIONARY
  5
391
330
41
100
AcDbDictionary
280
     1
281
     1
  3
ACAD_XREC_ROUNDTRIP
360
392
  0
DICTIONARY
  5
38B
330
3E
100
AcDbDictionary
280
     1
281
     1
  3
ACAD_XREC_ROUNDTRIP
360
38C
  0
DICTIONARY
  5
38D
330
3F
100
AcDbDictionary
280
     1
281
     1
  3
ACAD_XREC_ROUNDTRIP
360
38E
  0
DICTIONARY
  5
37D
330
37
100
AcDbDictionary
280
     1
281
     1
  3
ACAD_XREC_ROUNDTRIP
360
37E
  0
DICTIONARY
  5
36F
330
30
100
AcDbDictionary
280
     1
281
     1
  3
ACAD_XREC_ROUNDTRIP
360
370
  0
DICTIONARY
  5
38F
330
40
100
AcDbDictionary
280
     1
281
     1
  3
ACAD_XREC_ROUNDTRIP
360
390
  0
XRECORD
  5
399
102
{ACAD_REACTORS
330
398
102
}
330
398
100
AcDbXrecord
280
     1
102
DISPLAYNAME
  1
Metric50
102
FLAGS
 90
        0
  0
XRECORD
  5
2E9
102
{ACAD_REACTORS
330
2E8
102
}
330
2E8
100
AcDbXrecord
280
     1
102
MATERIAL
148
0.0
149
0.0
149
0.0
 93
        0
 94
      127
282
     0
 72
     1
 77
     1
171
     1
175
     1
179
     1
273
     0
  0
XRECORD
  5
2E7
102
{ACAD_REACTORS
330
2E6
102
}
330
2E6
100
AcDbXrecord
280
     1
102
MATERIAL
148
0.0
149
0.0
149
0.0
 93
        0
 94
      127
282
     0
 72
     1
 77
     1
171
     1
175
     1
179
     1
273
     0
  0
XRECORD
  5
2EB
102
{ACAD_REACTORS
330
2EA
102
}
330
2EA
100
AcDbXrecord
280
     1
102
MATERIAL
148
0.0
149
0.0
149
0.0
 93
        0
 94
      127
282
     0
 72
     1
 77
     1
171
     1
175
     1
179
     1
273
     0
  0
XRECORD
  5
397
102
{ACAD_REACTORS
330
396
102
}
330
396
100
AcDbXrecord
280
     1
102
DISPLAYNAME
  1
Metric50
102
FLAGS
 90
        0
  0
CELLSTYLEMAP
  5
363
102
{ACAD_REACTORS
330
2EC
102
}
330
2EC
100
AcDbCellStyleMap
 90
        3
300
CELLSTYLE
  1
TABLEFORMAT_BEGIN
 90
        5
170
     1
 91
        0
 92
    32768
 62
   257
 93
        1
300
CONTENTFORMAT
  1
CONTENTFORMAT_BEGIN
 90
        0
 91
        0
 92
        4
 93
        0
300

 40
0.0
140
1.0
 94
        5
 62
     0
340
11
144
0.25
309
CONTENTFORMAT_END
171
     1
301
MARGIN
  1
CELLMARGIN_BEGIN
 40
0.06
 40
0.06
 40
0.06
 40
0.06
 40
0.18
 40
0.18
309
CELLMARGIN_END
 94
        6
 95
        1
302
GRIDFORMAT
  1
GRIDFORMAT_BEGIN
 90
        0
 91
        1
 62
     0
 92
       -2
340
14
 93
        0
 40
0.045
309
GRIDFORMAT_END
 95
        2
302
GRIDFORMAT
  1
GRIDFORMAT_BEGIN
 90
        0
 91
        1
 62
     0
 92
       -2
340
14
 93
        0
 40
0.045
309
GRIDFORMAT_END
 95
        4
302
GRIDFORMAT
  1
GRIDFORMAT_BEGIN
 90
        0
 91
        1
 62
     0
 92
       -2
340
14
 93
        0
 40
0.045
309
GRIDFORMAT_END
 95
        8
302
GRIDFORMAT
  1
GRIDFORMAT_BEGIN
 90
        0
 91
        1
 62
     0
 92
       -2
340
14
 93
        0
 40
0.045
309
GRIDFORMAT_END
 95
       16
302
GRIDFORMAT
  1
GRIDFORMAT_BEGIN
 90
        0
 91
        1
 62
     0
 92
       -2
340
14
 93
        0
 40
0.045
309
GRIDFORMAT_END
 95
       32
302
GRIDFORMAT
  1
GRIDFORMAT_BEGIN
 90
        0
 91
        1
 62
     0
 92
       -2
340
14
 93
        0
 40
0.045
309
GRIDFORMAT_END
309
TABLEFORMAT_END
  1
CELLSTYLE_BEGIN
 90
        1
 91
        1
300
_TITLE
309
CELLSTYLE_END
300
CELLSTYLE
  1
TABLEFORMAT_BEGIN
 90
        5
170
     1
 91
        0
 92
        0
 62
   257
 93
        1
300
CONTENTFORMAT
  1
CONTENTFORMAT_BEGIN
 90
        0
 91
        0
 92
        4
 93
        0
300

 40
0.0
140
1.0
 94
        5
 62
     0
340
11
144
0.18
309
CONTENTFORMAT_END
171
     1
301
MARGIN
  1
CELLMARGIN_BEGIN
 40
0.06
 40
0.06
 40
0.06
 40
0.06
 40
0.18
 40
0.18
309
CELLMARGIN_END
 94
        6
 95
        1
302
GRIDFORMAT
  1
GRIDFORMAT_BEGIN
 90
        0
 91
        1
 62
     0
 92
       -2
340
14
 93
        0
 40
0.045
309
GRIDFORMAT_END
 95
        2
302
GRIDFORMAT
  1
GRIDFORMAT_BEGIN
 90
        0
 91
        1
 62
     0
 92
       -2
340
14
 93
        0
 40
0.045
309
GRIDFORMAT_END
 95
        4
302
GRIDFORMAT
  1
GRIDFORMAT_BEGIN
 90
        0
 91
        1
 62
     0
 92
       -2
340
14
 93
        0
 40
0.045
309
GRIDFORMAT_END
 95
        8
302
GRIDFORMAT
  1
GRIDFORMAT_BEGIN
 90
        0
 91
        1
 62
     0
 92
       -2
340
14
 93
        0
 40
0.045
309
GRIDFORMAT_END
 95
       16
302
GRIDFORMAT
  1
GRIDFORMAT_BEGIN
 90
        0
 91
        1
 62
     0
 92
       -2
340
14
 93
        0
 40
0.045
309
GRIDFORMAT_END
 95
       32
302
GRIDFORMAT
  1
GRIDFORMAT_BEGIN
 90
        0
 91
        1
 62
     0
 92
       -2
340
14
 93
        0
 40
0.045
309
GRIDFORMAT_END
309
TABLEFORMAT_END
  1
CELLSTYLE_BEGIN
 90
        2
 91
        1
300
_HEADER
309
CELLSTYLE_END
300
CELLSTYLE
  1
TABLEFORMAT_BEGIN
 90
        5
170
     1
 91
        0
 92
        0
 62
   257
 93
        1
300
CONTENTFORMAT
  1
CONTENTFORMAT_BEGIN
 90
        0
 91
        0
 92
        4
 93
        0
300

 40
0.0
140
1.0
 94
        2
 62
     0
340
11
144
0.18
309
CONTENTFORMAT_END
171
     1
301
MARGIN
  1
CELLMARGIN_BEGIN
 40
0.06
 40
0.06
 40
0.06
 40
0.06
 40
0.18
 40
0.18
309
CELLMARGIN_END
 94
        6
 95
        1
302
GRIDFORMAT
  1
GRIDFORMAT_BEGIN
 90
        0
 91
        1
 62
     0
 92
       -2
340
14
 93
        0
 40
0.045
309
GRIDFORMAT_END
 95
        2
302
GRIDFORMAT
  1
GRIDFORMAT_BEGIN
 90
        0
 91
        1
 62
     0
 92
       -2
340
14
 93
        0
 40
0.045
309
GRIDFORMAT_END
 95
        4
302
GRIDFORMAT
  1
GRIDFORMAT_BEGIN
 90
        0
 91
        1
 62
     0
 92
       -2
340
14
 93
        0
 40
0.045
309
GRIDFORMAT_END
 95
        8
302
GRIDFORMAT
  1
GRIDFORMAT_BEGIN
 90
        0
 91
        1
 62
     0
 92
       -2
340
14
 93
        0
 40
0.045
309
GRIDFORMAT_END
 95
       16
302
GRIDFORMAT
  1
GRIDFORMAT_BEGIN
 90
        0
 91
        1
 62
     0
 92
       -2
340
14
 93
        0
 40
0.045
309
GRIDFORMAT_END
 95
       32
302
GRIDFORMAT
  1
GRIDFORMAT_BEGIN
 90
        0
 91
        1
 62
     0
 92
       -2
340
14
 93
        0
 40
0.045
309
GRIDFORMAT_END
309
TABLEFORMAT_END
  1
CELLSTYLE_BEGIN
 90
        3
 91
        2
300
_DATA
309
CELLSTYLE_END
  0
XRECORD
  5
395
102
{ACAD_REACTORS
330
2EC
102
}
330
2EC
100
AcDbXrecord
280
     1
102
ACAD_ROUNDTRIP_PRE2007_TABLESTYLE
 90
        4
 91
        0
  1

 92
        4
 93
        0
  2

 94
        4
 95
        0
  3

  0
XRECORD
  5
36E
102
{ACAD_REACTORS
330
36D
102
}
330
36D
100
AcDbXrecord
280
     1
102
RTVSPost2010Prop28
280
     1
102
RTVSPost2010PropOp28
 70
     1
102
RTVSPost2010Prop29
280
     1
102
RTVSPost2010PropOp29
 70
     1
102
RTVSPost2010Prop30
280
     0
102
RTVSPost2010PropOp30
 70
     1
102
RTVSPost2010Prop31
280
     0
102
RTVSPost2010PropOp31
 70
     1
102
RTVSPost2010Prop32
280
     0
102
RTVSPost2010PropOp32
 70
     1
102
RTVSPost2010Prop33
280
     0
102
RTVSPost2010PropOp33
 70
     1
102
RTVSPost2010Prop34
280
     0
102
RTVSPost2010PropOp34
 70
     1
102
RTVSPost2010Prop35
280
     0
102
RTVSPost2010PropOp35
 70
     1
102
RTVSPost2010Prop36
280
     0
102
RTVSPost2010PropOp36
 70
     1
102
RTVSPost2010Prop37
 90
       50
102
RTVSPost2010PropOp37
 70
     1
102
RTVSPost2010Prop38
140
0.0
102
RTVSPost2010PropOp38
 70
     1
102
RTVSPost2010Prop39
140
1.0
102
RTVSPost2010PropOp39
 70
     1
102
RTVSPost2010Prop40
 90
        0
102
RTVSPost2010PropOp40
 70
     1
102
RTVSPost2010Prop41ColorIndex
 90
       18
102
RTVSPost2010Prop41ColorRGB
 90
        0
102
RTVSPost2010PropOp41
 70
     1
102
RTVSPost2010Prop42
 90
       50
102
RTVSPost2010PropOp42
 70
     1
102
RTVSPost2010Prop43
 90
        3
102
RTVSPost2010PropOp43
 70
     1
102
RTVSPost2010Prop44ColorIndex
 90
        5
102
RTVSPost2010Prop44ColorRGB
 90
      255
102
RTVSPost2010PropOp44
 70
     1
102
RTVSPost2010Prop45
280
     0
102
RTVSPost2010PropOp45
 70
     1
102
RTVSPost2010Prop46
 90
       50
102
RTVSPost2010PropOp46
 70
     1
102
RTVSPost2010Prop47
 90
       50
102
RTVSPost2010PropOp47
 70
     1
102
RTVSPost2010Prop48
 90
       50
102
RTVSPost2010PropOp48
 70
     1
102
RTVSPost2010Prop49
280
     0
102
RTVSPost2010PropOp49
 70
     1
102
RTVSPost2010Prop50
 90
       50
102
RTVSPost2010PropOp50
 70
     1
102
RTVSPost2010Prop51ColorIndex
 90
      256
102
RTVSPost2010Prop51ColorRGB
 90
-16777216
102
RTVSPost2010PropOp51
 70
     0
102
RTVSPost2010Prop52
140
1.0
102
RTVSPost2010PropOp52
 70
     0
102
RTVSPost2010Prop53
 90
        2
102
RTVSPost2010PropOp53
 70
     1
102
RTVSPost2010Prop54
  1
strokes_ogs.tif
102
RTVSPost2010PropOp54
 70
     1
102
RTVSPost2010Prop55
280
     0
102
RTVSPost2010PropOp55
 70
     1
102
RTVSPost2010Prop56
140
1.0
102
RTVSPost2010PropOp56
 70
     1
102
RTVSPost2010Prop57
140
1.0
102
RTVSPost2010PropOp57
 70
     1
102
RTVSPropertyOp0
 70
     1
102
RTVSPropertyOp1
 70
     1
102
RTVSPropertyOp2
 70
     1
102
RTVSPropertyOp3
 70
     1
102
RTVSPropertyOp4
 70
     1
102
RTVSPropertyOp5
 70
     1
102
RTVSPropertyOp6
 70
     1
102
RTVSPropertyOp7
 70
     1
102
RTVSPropertyOp8
 70
     1
102
RTVSPropertyOp9
 70
     1
102
RTVSPropertyOp10
 70
     1
102
RTVSPropertyOp11
 70
     1
102
RTVSPropertyOp12
 70
     1
102
RTVSPropertyOp13
 70
     1
102
RTVSPropertyOp14
 70
     1
102
RTVSPropertyOp15
 70
     1
102
RTVSPropertyOp16
 70
     1
102
RTVSPropertyOp17
 70
     1
102
RTVSPropertyOp18
 70
     1
102
RTVSPropertyOp19
 70
     1
102
RTVSPropertyOp20
 70
     1
102
RTVSPropertyOp21
 70
     1
102
RTVSPropertyOp22
 70
     1
102
RTVSPropertyOp23
 70
     1
102
RTVSPropertyOp24
 70
     1
102
RTVSPropertyOp25
 70
     1
102
RTVSPropertyOp26
 70
     1
102
RTVSPropertyOp27
 70
     1
102
RTVSPropertyOp28
 70
     1
102
RTVSPropertyOp29
 70
     1
102
RTVSPropertyOp30
 70
     1
102
RTVSPropertyOp31
 70
     1
102
RTVSPropertyOp32
 70
     1
102
RTVSPropertyOp33
 70
     1
102
RTVSPropertyOp34
 70
     1
102
RTVSPropertyOp35
 70
     1
102
RTVSPropertyOp36
 70
     1
102
RTVSPropertyOp37
 70
     1
102
RTVSPropertyOp38
 70
     1
102
RTVSPropertyOp39
 70
     1
102
RTVSPropertyOp40
 70
     1
102
RTVSPropertyOp41
 70
     1
102
RTVSPropertyOp42
 70
     1
102
RTVSPropertyOp43
 70
     1
102
RTVSPropertyOp44
 70
     1
102
RTVSPropertyOp45
 70
     1
102
RTVSPropertyOp46
 70
     1
102
RTVSPropertyOp47
 70
     1
102
RTVSPropertyOp48
 70
     1
102
RTVSPropertyOp49
 70
     1
102
RTVSPropertyOp50
 70
     1
102
RTVSPropertyOp51
 70
     0
102
RTVSPropertyOp52
 70
     0
102
RTVSPropertyOp53
 70
     1
102
RTVSPropertyOp54
 70
     1
102
RTVSPropertyOp55
 70
     1
102
RTVSPropertyOp56
 70
     1
102
RTVSPropertyOp57
 70
     1
102
RTVSPropertyOp58
 70
     1
102
RTVSPropertyOp59
 70
     1
102
RTVSPropertyOp60
 70
     1
102
RTVSPropertyOp61
 70
     1
102
RTVSPropertyOp62
 70
     1
  0
XRECORD
  5
374
102
{ACAD_REACTORS
330
373
102
}
330
373
100
AcDbXrecord
280
     1
102
RTVSPost2010Prop28
280
     0
102
RTVSPost2010PropOp28
 70
     1
102
RTVSPost2010Prop29
280
     1
102
RTVSPost2010PropOp29
 70
     1
102
RTVSPost2010Prop30
280
     1
102
RTVSPost2010PropOp30
 70
     1
102
RTVSPost2010Prop31
280
     0
102
RTVSPost2010PropOp31
 70
     1
102
RTVSPost2010Prop32
280
     0
102
RTVSPost2010PropOp32
 70
     1
102
RTVSPost2010Prop33
280
     0
102
RTVSPost2010PropOp33
 70
     1
102
RTVSPost2010Prop34
280
     0
102
RTVSPost2010PropOp34
 70
     1
102
RTVSPost2010Prop35
280
     0
102
RTVSPost2010PropOp35
 70
     1
102
RTVSPost2010Prop36
280
     0
102
RTVSPost2010PropOp36
 70
     1
102
RTVSPost2010Prop37
 90
       50
102
RTVSPost2010PropOp37
 70
     1
102
RTVSPost2010Prop38
140
0.0
102
RTVSPost2010PropOp38
 70
     1
102
RTVSPost2010Prop39
140
1.0
102
RTVSPost2010PropOp39
 70
     1
102
RTVSPost2010Prop40
 90
        0
102
RTVSPost2010PropOp40
 70
     1
102
RTVSPost2010Prop41ColorIndex
 90
       18
102
RTVSPost2010Prop41ColorRGB
 90
        0
102
RTVSPost2010PropOp41
 70
     1
102
RTVSPost2010Prop42
 90
       50
102
RTVSPost2010PropOp42
 70
     1
102
RTVSPost2010Prop43
 90
        3
102
RTVSPost2010PropOp43
 70
     1
102
RTVSPost2010Prop44ColorIndex
 90
        5
102
RTVSPost2010Prop44ColorRGB
 90
      255
102
RTVSPost2010PropOp44
 70
     1
102
RTVSPost2010Prop45
280
     0
102
RTVSPost2010PropOp45
 70
     1
102
RTVSPost2010Prop46
 90
       50
102
RTVSPost2010PropOp46
 70
     1
102
RTVSPost2010Prop47
 90
       50
102
RTVSPost2010PropOp47
 70
     1
102
RTVSPost2010Prop48
 90
       50
102
RTVSPost2010PropOp48
 70
     1
102
RTVSPost2010Prop49
280
     0
102
RTVSPost2010PropOp49
 70
     1
102
RTVSPost2010Prop50
 90
       50
102
RTVSPost2010PropOp50
 70
     1
102
RTVSPost2010Prop51ColorIndex
 90
      256
102
RTVSPost2010Prop51ColorRGB
 90
-16777216
102
RTVSPost2010PropOp51
 70
     0
102
RTVSPost2010Prop52
140
1.0
102
RTVSPost2010PropOp52
 70
     0
102
RTVSPost2010Prop53
 90
        2
102
RTVSPost2010PropOp53
 70
     1
102
RTVSPost2010Prop54
  1
strokes_ogs.tif
102
RTVSPost2010PropOp54
 70
     1
102
RTVSPost2010Prop55
280
     0
102
RTVSPost2010PropOp55
 70
     1
102
RTVSPost2010Prop56
140
1.0
102
RTVSPost2010PropOp56
 70
     1
102
RTVSPost2010Prop57
140
1.0
102
RTVSPost2010PropOp57
 70
     1
102
RTVSPropertyOp0
 70
     1
102
RTVSPropertyOp1
 70
     1
102
RTVSPropertyOp2
 70
     1
102
RTVSPropertyOp3
 70
     1
102
RTVSPropertyOp4
 70
     1
102
RTVSPropertyOp5
 70
     1
102
RTVSPropertyOp6
 70
     1
102
RTVSPropertyOp7
 70
     1
102
RTVSPropertyOp8
 70
     1
102
RTVSPropertyOp9
 70
     1
102
RTVSPropertyOp10
 70
     1
102
RTVSPropertyOp11
 70
     1
102
RTVSPropertyOp12
 70
     1
102
RTVSPropertyOp13
 70
     1
102
RTVSPropertyOp14
 70
     1
102
RTVSPropertyOp15
 70
     1
102
RTVSPropertyOp16
 70
     1
102
RTVSPropertyOp17
 70
     1
102
RTVSPropertyOp18
 70
     1
102
RTVSPropertyOp19
 70
     1
102
RTVSPropertyOp20
 70
     1
102
RTVSPropertyOp21
 70
     1
102
RTVSPropertyOp22
 70
     1
102
RTVSPropertyOp23
 70
     1
102
RTVSPropertyOp24
 70
     1
102
RTVSPropertyOp25
 70
     1
102
RTVSPropertyOp26
 70
     1
102
RTVSPropertyOp27
 70
     1
102
RTVSPropertyOp28
 70
     1
102
RTVSPropertyOp29
 70
     1
102
RTVSPropertyOp30
 70
     1
102
RTVSPropertyOp31
 70
     1
102
RTVSPropertyOp32
 70
     1
102
RTVSPropertyOp33
 70
     1
102
RTVSPropertyOp34
 70
     1
102
RTVSPropertyOp35
 70
     1
102
RTVSPropertyOp36
 70
     1
102
RTVSPropertyOp37
 70
     1
102
RTVSPropertyOp38
 70
     1
102
RTVSPropertyOp39
 70
     1
102
RTVSPropertyOp40
 70
     1
102
RTVSPropertyOp41
 70
     1
102
RTVSPropertyOp42
 70
     1
102
RTVSPropertyOp43
 70
     1
102
RTVSPropertyOp44
 70
     1
102
RTVSPropertyOp45
 70
     1
102
RTVSPropertyOp46
 70
     1
102
RTVSPropertyOp47
 70
     1
102
RTVSPropertyOp48
 70
     1
102
RTVSPropertyOp49
 70
     1
102
RTVSPropertyOp50
 70
     1
102
RTVSPropertyOp51
 70
     0
102
RTVSPropertyOp52
 70
     0
102
RTVSPropertyOp53
 70
     1
102
RTVSPropertyOp54
 70
     1
102
RTVSPropertyOp55
 70
     1
102
RTVSPropertyOp56
 70
     1
102
RTVSPropertyOp57
 70
     1
102
RTVSPropertyOp58
 70
     1
102
RTVSPropertyOp59
 70
     1
102
RTVSPropertyOp60
 70
     1
102
RTVSPropertyOp61
 70
     1
102
RTVSPropertyOp62
 70
     1
  0
XRECORD
  5
37C
102
{ACAD_REACTORS
330
37B
102
}
330
37B
100
AcDbXrecord
280
     1
102
RTVSPost2010Prop28
280
     0
102
RTVSPost2010PropOp28
 70
     1
102
RTVSPost2010Prop29
280
     1
102
RTVSPost2010PropOp29
 70
     1
102
RTVSPost2010Prop30
280
     1
102
RTVSPost2010PropOp30
 70
     1
102
RTVSPost2010Prop31
280
     0
102
RTVSPost2010PropOp31
 70
     1
102
RTVSPost2010Prop32
280
     0
102
RTVSPost2010PropOp32
 70
     1
102
RTVSPost2010Prop33
280
     0
102
RTVSPost2010PropOp33
 70
     1
102
RTVSPost2010Prop34
280
     0
102
RTVSPost2010PropOp34
 70
     1
102
RTVSPost2010Prop35
280
     0
102
RTVSPost2010PropOp35
 70
     1
102
RTVSPost2010Prop36
280
     0
102
RTVSPost2010PropOp36
 70
     1
102
RTVSPost2010Prop37
 90
       50
102
RTVSPost2010PropOp37
 70
     1
102
RTVSPost2010Prop38
140
0.0
102
RTVSPost2010PropOp38
 70
     1
102
RTVSPost2010Prop39
140
1.0
102
RTVSPost2010PropOp39
 70
     1
102
RTVSPost2010Prop40
 90
        0
102
RTVSPost2010PropOp40
 70
     1
102
RTVSPost2010Prop41ColorIndex
 90
       18
102
RTVSPost2010Prop41ColorRGB
 90
        0
102
RTVSPost2010PropOp41
 70
     1
102
RTVSPost2010Prop42
 90
       50
102
RTVSPost2010PropOp42
 70
     1
102
RTVSPost2010Prop43
 90
        3
102
RTVSPost2010PropOp43
 70
     1
102
RTVSPost2010Prop44ColorIndex
 90
        5
102
RTVSPost2010Prop44ColorRGB
 90
      255
102
RTVSPost2010PropOp44
 70
     1
102
RTVSPost2010Prop45
280
     0
102
RTVSPost2010PropOp45
 70
     1
102
RTVSPost2010Prop46
 90
       50
102
RTVSPost2010PropOp46
 70
     1
102
RTVSPost2010Prop47
 90
       50
102
RTVSPost2010PropOp47
 70
     1
102
RTVSPost2010Prop48
 90
       50
102
RTVSPost2010PropOp48
 70
     1
102
RTVSPost2010Prop49
280
     0
102
RTVSPost2010PropOp49
 70
     1
102
RTVSPost2010Prop50
 90
       50
102
RTVSPost2010PropOp50
 70
     1
102
RTVSPost2010Prop51ColorIndex
 90
      256
102
RTVSPost2010Prop51ColorRGB
 90
-16777216
102
RTVSPost2010PropOp51
 70
     0
102
RTVSPost2010Prop52
140
1.0
102
RTVSPost2010PropOp52
 70
     0
102
RTVSPost2010Prop53
 90
        2
102
RTVSPost2010PropOp53
 70
     1
102
RTVSPost2010Prop54
  1
strokes_ogs.tif
102
RTVSPost2010PropOp54
 70
     1
102
RTVSPost2010Prop55
280
     0
102
RTVSPost2010PropOp55
 70
     1
102
RTVSPost2010Prop56
140
1.0
102
RTVSPost2010PropOp56
 70
     1
102
RTVSPost2010Prop57
140
1.0
102
RTVSPost2010PropOp57
 70
     1
102
RTVSPropertyOp0
 70
     1
102
RTVSPropertyOp1
 70
     1
102
RTVSPropertyOp2
 70
     1
102
RTVSPropertyOp3
 70
     1
102
RTVSPropertyOp4
 70
     1
102
RTVSPropertyOp5
 70
     1
102
RTVSPropertyOp6
 70
     1
102
RTVSPropertyOp7
 70
     1
102
RTVSPropertyOp8
 70
     1
102
RTVSPropertyOp9
 70
     1
102
RTVSPropertyOp10
 70
     1
102
RTVSPropertyOp11
 70
     1
102
RTVSPropertyOp12
 70
     1
102
RTVSPropertyOp13
 70
     1
102
RTVSPropertyOp14
 70
     1
102
RTVSPropertyOp15
 70
     1
102
RTVSPropertyOp16
 70
     1
102
RTVSPropertyOp17
 70
     1
102
RTVSPropertyOp18
 70
     1
102
RTVSPropertyOp19
 70
     1
102
RTVSPropertyOp20
 70
     1
102
RTVSPropertyOp21
 70
     1
102
RTVSPropertyOp22
 70
     1
102
RTVSPropertyOp23
 70
     1
102
RTVSPropertyOp24
 70
     1
102
RTVSPropertyOp25
 70
     1
102
RTVSPropertyOp26
 70
     1
102
RTVSPropertyOp27
 70
     1
102
RTVSPropertyOp28
 70
     1
102
RTVSPropertyOp29
 70
     1
102
RTVSPropertyOp30
 70
     1
102
RTVSPropertyOp31
 70
     1
102
RTVSPropertyOp32
 70
     1
102
RTVSPropertyOp33
 70
     1
102
RTVSPropertyOp34
 70
     1
102
RTVSPropertyOp35
 70
     1
102
RTVSPropertyOp36
 70
     1
102
RTVSPropertyOp37
 70
     1
102
RTVSPropertyOp38
 70
     1
102
RTVSPropertyOp39
 70
     1
102
RTVSPropertyOp40
 70
     1
102
RTVSPropertyOp41
 70
     1
102
RTVSPropertyOp42
 70
     1
102
RTVSPropertyOp43
 70
     1
102
RTVSPropertyOp44
 70
     1
102
RTVSPropertyOp45
 70
     1
102
RTVSPropertyOp46
 70
     1
102
RTVSPropertyOp47
 70
     1
102
RTVSPropertyOp48
 70
     1
102
RTVSPropertyOp49
 70
     1
102
RTVSPropertyOp50
 70
     1
102
RTVSPropertyOp51
 70
     0
102
RTVSPropertyOp52
 70
     0
102
RTVSPropertyOp53
 70
     1
102
RTVSPropertyOp54
 70
     1
102
RTVSPropertyOp55
 70
     1
102
RTVSPropertyOp56
 70
     1
102
RTVSPropertyOp57
 70
     1
102
RTVSPropertyOp58
 70
     1
102
RTVSPropertyOp59
 70
     1
102
RTVSPropertyOp60
 70
     1
102
RTVSPropertyOp61
 70
     1
102
RTVSPropertyOp62
 70
     1
  0
XRECORD
  5
384
102
{ACAD_REACTORS
330
383
102
}
330
383
100
AcDbXrecord
280
     1
102
RTVSPost2010Prop28
280
     0
102
RTVSPost2010PropOp28
 70
     1
102
RTVSPost2010Prop29
280
     1
102
RTVSPost2010PropOp29
 70
     1
102
RTVSPost2010Prop30
280
     1
102
RTVSPost2010PropOp30
 70
     1
102
RTVSPost2010Prop31
280
     0
102
RTVSPost2010PropOp31
 70
     1
102
RTVSPost2010Prop32
280
     0
102
RTVSPost2010PropOp32
 70
     1
102
RTVSPost2010Prop33
280
     0
102
RTVSPost2010PropOp33
 70
     1
102
RTVSPost2010Prop34
280
     0
102
RTVSPost2010PropOp34
 70
     1
102
RTVSPost2010Prop35
280
     0
102
RTVSPost2010PropOp35
 70
     1
102
RTVSPost2010Prop36
280
     0
102
RTVSPost2010PropOp36
 70
     1
102
RTVSPost2010Prop37
 90
       50
102
RTVSPost2010PropOp37
 70
     1
102
RTVSPost2010Prop38
140
0.0
102
RTVSPost2010PropOp38
 70
     1
102
RTVSPost2010Prop39
140
1.0
102
RTVSPost2010PropOp39
 70
     1
102
RTVSPost2010Prop40
 90
        0
102
RTVSPost2010PropOp40
 70
     1
102
RTVSPost2010Prop41ColorIndex
 90
       18
102
RTVSPost2010Prop41ColorRGB
 90
        0
102
RTVSPost2010PropOp41
 70
     1
102
RTVSPost2010Prop42
 90
       50
102
RTVSPost2010PropOp42
 70
     1
102
RTVSPost2010Prop43
 90
        3
102
RTVSPost2010PropOp43
 70
     1
102
RTVSPost2010Prop44ColorIndex
 90
        5
102
RTVSPost2010Prop44ColorRGB
 90
      255
102
RTVSPost2010PropOp44
 70
     1
102
RTVSPost2010Prop45
280
     0
102
RTVSPost2010PropOp45
 70
     1
102
RTVSPost2010Prop46
 90
       50
102
RTVSPost2010PropOp46
 70
     1
102
RTVSPost2010Prop47
 90
       50
102
RTVSPost2010PropOp47
 70
     1
102
RTVSPost2010Prop48
 90
       50
102
RTVSPost2010PropOp48
 70
     1
102
RTVSPost2010Prop49
280
     0
102
RTVSPost2010PropOp49
 70
     1
102
RTVSPost2010Prop50
 90
       50
102
RTVSPost2010PropOp50
 70
     1
102
RTVSPost2010Prop51ColorIndex
 90
      256
102
RTVSPost2010Prop51ColorRGB
 90
-16777216
102
RTVSPost2010PropOp51
 70
     0
102
RTVSPost2010Prop52
140
1.0
102
RTVSPost2010PropOp52
 70
     0
102
RTVSPost2010Prop53
 90
        2
102
RTVSPost2010PropOp53
 70
     1
102
RTVSPost2010Prop54
  1
strokes_ogs.tif
102
RTVSPost2010PropOp54
 70
     1
102
RTVSPost2010Prop55
280
     0
102
RTVSPost2010PropOp55
 70
     1
102
RTVSPost2010Prop56
140
1.0
102
RTVSPost2010PropOp56
 70
     1
102
RTVSPost2010Prop57
140
1.0
102
RTVSPost2010PropOp57
 70
     1
102
RTVSPropertyOp0
 70
     1
102
RTVSPropertyOp1
 70
     1
102
RTVSPropertyOp2
 70
     1
102
RTVSPropertyOp3
 70
     1
102
RTVSPropertyOp4
 70
     1
102
RTVSPropertyOp5
 70
     1
102
RTVSPropertyOp6
 70
     1
102
RTVSPropertyOp7
 70
     1
102
RTVSPropertyOp8
 70
     1
102
RTVSPropertyOp9
 70
     1
102
RTVSPropertyOp10
 70
     1
102
RTVSPropertyOp11
 70
     1
102
RTVSPropertyOp12
 70
     1
102
RTVSPropertyOp13
 70
     1
102
RTVSPropertyOp14
 70
     1
102
RTVSPropertyOp15
 70
     1
102
RTVSPropertyOp16
 70
     1
102
RTVSPropertyOp17
 70
     1
102
RTVSPropertyOp18
 70
     1
102
RTVSPropertyOp19
 70
     1
102
RTVSPropertyOp20
 70
     1
102
RTVSPropertyOp21
 70
     1
102
RTVSPropertyOp22
 70
     1
102
RTVSPropertyOp23
 70
     1
102
RTVSPropertyOp24
 70
     1
102
RTVSPropertyOp25
 70
     1
102
RTVSPropertyOp26
 70
     1
102
RTVSPropertyOp27
 70
     1
102
RTVSPropertyOp28
 70
     1
102
RTVSPropertyOp29
 70
     1
102
RTVSPropertyOp30
 70
     1
102
RTVSPropertyOp31
 70
     1
102
RTVSPropertyOp32
 70
     1
102
RTVSPropertyOp33
 70
     1
102
RTVSPropertyOp34
 70
     1
102
RTVSPropertyOp35
 70
     1
102
RTVSPropertyOp36
 70
     1
102
RTVSPropertyOp37
 70
     1
102
RTVSPropertyOp38
 70
     1
102
RTVSPropertyOp39
 70
     1
102
RTVSPropertyOp40
 70
     1
102
RTVSPropertyOp41
 70
     1
102
RTVSPropertyOp42
 70
     1
102
RTVSPropertyOp43
 70
     1
102
RTVSPropertyOp44
 70
     1
102
RTVSPropertyOp45
 70
     1
102
RTVSPropertyOp46
 70
     1
102
RTVSPropertyOp47
 70
     1
102
RTVSPropertyOp48
 70
     1
102
RTVSPropertyOp49
 70
     1
102
RTVSPropertyOp50
 70
     1
102
RTVSPropertyOp51
 70
     0
102
RTVSPropertyOp52
 70
     0
102
RTVSPropertyOp53
 70
     1
102
RTVSPropertyOp54
 70
     1
102
RTVSPropertyOp55
 70
     1
102
RTVSPropertyOp56
 70
     1
102
RTVSPropertyOp57
 70
     1
102
RTVSPropertyOp58
 70
     1
102
RTVSPropertyOp59
 70
     1
102
RTVSPropertyOp60
 70
     1
102
RTVSPropertyOp61
 70
     1
102
RTVSPropertyOp62
 70
     1
  0
XRECORD
  5
378
102
{ACAD_REACTORS
330
377
102
}
330
377
100
AcDbXrecord
280
     1
102
RTVSPost2010Prop28
280
     0
102
RTVSPost2010PropOp28
 70
     1
102
RTVSPost2010Prop29
280
     1
102
RTVSPost2010PropOp29
 70
     1
102
RTVSPost2010Prop30
280
     1
102
RTVSPost2010PropOp30
 70
     1
102
RTVSPost2010Prop31
280
     0
102
RTVSPost2010PropOp31
 70
     1
102
RTVSPost2010Prop32
280
     0
102
RTVSPost2010PropOp32
 70
     1
102
RTVSPost2010Prop33
280
     0
102
RTVSPost2010PropOp33
 70
     1
102
RTVSPost2010Prop34
280
     0
102
RTVSPost2010PropOp34
 70
     1
102
RTVSPost2010Prop35
280
     0
102
RTVSPost2010PropOp35
 70
     1
102
RTVSPost2010Prop36
280
     0
102
RTVSPost2010PropOp36
 70
     1
102
RTVSPost2010Prop37
 90
       50
102
RTVSPost2010PropOp37
 70
     1
102
RTVSPost2010Prop38
140
0.0
102
RTVSPost2010PropOp38
 70
     1
102
RTVSPost2010Prop39
140
1.0
102
RTVSPost2010PropOp39
 70
     1
102
RTVSPost2010Prop40
 90
        0
102
RTVSPost2010PropOp40
 70
     1
102
RTVSPost2010Prop41ColorIndex
 90
       18
102
RTVSPost2010Prop41ColorRGB
 90
        0
102
RTVSPost2010PropOp41
 70
     1
102
RTVSPost2010Prop42
 90
       50
102
RTVSPost2010PropOp42
 70
     1
102
RTVSPost2010Prop43
 90
        3
102
RTVSPost2010PropOp43
 70
     1
102
RTVSPost2010Prop44ColorIndex
 90
        5
102
RTVSPost2010Prop44ColorRGB
 90
      255
102
RTVSPost2010PropOp44
 70
     1
102
RTVSPost2010Prop45
280
     0
102
RTVSPost2010PropOp45
 70
     1
102
RTVSPost2010Prop46
 90
       50
102
RTVSPost2010PropOp46
 70
     1
102
RTVSPost2010Prop47
 90
       50
102
RTVSPost2010PropOp47
 70
     1
102
RTVSPost2010Prop48
 90
       50
102
RTVSPost2010PropOp48
 70
     1
102
RTVSPost2010Prop49
280
     0
102
RTVSPost2010PropOp49
 70
     1
102
RTVSPost2010Prop50
 90
       50
102
RTVSPost2010PropOp50
 70
     1
102
RTVSPost2010Prop51ColorIndex
 90
      256
102
RTVSPost2010Prop51ColorRGB
 90
-16777216
102
RTVSPost2010PropOp51
 70
     0
102
RTVSPost2010Prop52
140
1.0
102
RTVSPost2010PropOp52
 70
     0
102
RTVSPost2010Prop53
 90
        2
102
RTVSPost2010PropOp53
 70
     1
102
RTVSPost2010Prop54
  1
strokes_ogs.tif
102
RTVSPost2010PropOp54
 70
     1
102
RTVSPost2010Prop55
280
     0
102
RTVSPost2010PropOp55
 70
     1
102
RTVSPost2010Prop56
140
1.0
102
RTVSPost2010PropOp56
 70
     1
102
RTVSPost2010Prop57
140
1.0
102
RTVSPost2010PropOp57
 70
     1
102
RTVSPropertyOp0
 70
     1
102
RTVSPropertyOp1
 70
     1
102
RTVSPropertyOp2
 70
     1
102
RTVSPropertyOp3
 70
     1
102
RTVSPropertyOp4
 70
     1
102
RTVSPropertyOp5
 70
     1
102
RTVSPropertyOp6
 70
     1
102
RTVSPropertyOp7
 70
     1
102
RTVSPropertyOp8
 70
     1
102
RTVSPropertyOp9
 70
     1
102
RTVSPropertyOp10
 70
     1
102
RTVSPropertyOp11
 70
     1
102
RTVSPropertyOp12
 70
     1
102
RTVSPropertyOp13
 70
     1
102
RTVSPropertyOp14
 70
     1
102
RTVSPropertyOp15
 70
     1
102
RTVSPropertyOp16
 70
     1
102
RTVSPropertyOp17
 70
     1
102
RTVSPropertyOp18
 70
     1
102
RTVSPropertyOp19
 70
     1
102
RTVSPropertyOp20
 70
     1
102
RTVSPropertyOp21
 70
     1
102
RTVSPropertyOp22
 70
     1
102
RTVSPropertyOp23
 70
     1
102
RTVSPropertyOp24
 70
     1
102
RTVSPropertyOp25
 70
     1
102
RTVSPropertyOp26
 70
     1
102
RTVSPropertyOp27
 70
     1
102
RTVSPropertyOp28
 70
     1
102
RTVSPropertyOp29
 70
     1
102
RTVSPropertyOp30
 70
     1
102
RTVSPropertyOp31
 70
     1
102
RTVSPropertyOp32
 70
     1
102
RTVSPropertyOp33
 70
     1
102
RTVSPropertyOp34
 70
     1
102
RTVSPropertyOp35
 70
     1
102
RTVSPropertyOp36
 70
     1
102
RTVSPropertyOp37
 70
     1
102
RTVSPropertyOp38
 70
     1
102
RTVSPropertyOp39
 70
     1
102
RTVSPropertyOp40
 70
     1
102
RTVSPropertyOp41
 70
     1
102
RTVSPropertyOp42
 70
     1
102
RTVSPropertyOp43
 70
     1
102
RTVSPropertyOp44
 70
     1
102
RTVSPropertyOp45
 70
     1
102
RTVSPropertyOp46
 70
     1
102
RTVSPropertyOp47
 70
     1
102
RTVSPropertyOp48
 70
     1
102
RTVSPropertyOp49
 70
     1
102
RTVSPropertyOp50
 70
     1
102
RTVSPropertyOp51
 70
     0
102
RTVSPropertyOp52
 70
     0
102
RTVSPropertyOp53
 70
     1
102
RTVSPropertyOp54
 70
     1
102
RTVSPropertyOp55
 70
     1
102
RTVSPropertyOp56
 70
     1
102
RTVSPropertyOp57
 70
     1
102
RTVSPropertyOp58
 70
     1
102
RTVSPropertyOp59
 70
     1
102
RTVSPropertyOp60
 70
     1
102
RTVSPropertyOp61
 70
     1
102
RTVSPropertyOp62
 70
     1
  0
XRECORD
  5
37A
102
{ACAD_REACTORS
330
379
102
}
330
379
100
AcDbXrecord
280
     1
102
RTVSPost2010Prop28
280
     0
102
RTVSPost2010PropOp28
 70
     1
102
RTVSPost2010Prop29
280
     1
102
RTVSPost2010PropOp29
 70
     1
102
RTVSPost2010Prop30
280
     1
102
RTVSPost2010PropOp30
 70
     1
102
RTVSPost2010Prop31
280
     0
102
RTVSPost2010PropOp31
 70
     1
102
RTVSPost2010Prop32
280
     0
102
RTVSPost2010PropOp32
 70
     1
102
RTVSPost2010Prop33
280
     0
102
RTVSPost2010PropOp33
 70
     1
102
RTVSPost2010Prop34
280
     0
102
RTVSPost2010PropOp34
 70
     1
102
RTVSPost2010Prop35
280
     0
102
RTVSPost2010PropOp35
 70
     1
102
RTVSPost2010Prop36
280
     0
102
RTVSPost2010PropOp36
 70
     1
102
RTVSPost2010Prop37
 90
       50
102
RTVSPost2010PropOp37
 70
     1
102
RTVSPost2010Prop38
140
0.0
102
RTVSPost2010PropOp38
 70
     1
102
RTVSPost2010Prop39
140
1.0
102
RTVSPost2010PropOp39
 70
     1
102
RTVSPost2010Prop40
 90
        0
102
RTVSPost2010PropOp40
 70
     1
102
RTVSPost2010Prop41ColorIndex
 90
       18
102
RTVSPost2010Prop41ColorRGB
 90
        0
102
RTVSPost2010PropOp41
 70
     1
102
RTVSPost2010Prop42
 90
       50
102
RTVSPost2010PropOp42
 70
     1
102
RTVSPost2010Prop43
 90
        3
102
RTVSPost2010PropOp43
 70
     1
102
RTVSPost2010Prop44ColorIndex
 90
        5
102
RTVSPost2010Prop44ColorRGB
 90
      255
102
RTVSPost2010PropOp44
 70
     1
102
RTVSPost2010Prop45
280
     0
102
RTVSPost2010PropOp45
 70
     1
102
RTVSPost2010Prop46
 90
       50
102
RTVSPost2010PropOp46
 70
     1
102
RTVSPost2010Prop47
 90
       50
102
RTVSPost2010PropOp47
 70
     1
102
RTVSPost2010Prop48
 90
       50
102
RTVSPost2010PropOp48
 70
     1
102
RTVSPost2010Prop49
280
     0
102
RTVSPost2010PropOp49
 70
     1
102
RTVSPost2010Prop50
 90
       50
102
RTVSPost2010PropOp50
 70
     1
102
RTVSPost2010Prop51ColorIndex
 90
      256
102
RTVSPost2010Prop51ColorRGB
 90
-16777216
102
RTVSPost2010PropOp51
 70
     0
102
RTVSPost2010Prop52
140
1.0
102
RTVSPost2010PropOp52
 70
     0
102
RTVSPost2010Prop53
 90
        2
102
RTVSPost2010PropOp53
 70
     1
102
RTVSPost2010Prop54
  1
strokes_ogs.tif
102
RTVSPost2010PropOp54
 70
     1
102
RTVSPost2010Prop55
280
     0
102
RTVSPost2010PropOp55
 70
     1
102
RTVSPost2010Prop56
140
1.0
102
RTVSPost2010PropOp56
 70
     1
102
RTVSPost2010Prop57
140
1.0
102
RTVSPost2010PropOp57
 70
     1
102
RTVSPropertyOp0
 70
     1
102
RTVSPropertyOp1
 70
     1
102
RTVSPropertyOp2
 70
     1
102
RTVSPropertyOp3
 70
     1
102
RTVSPropertyOp4
 70
     1
102
RTVSPropertyOp5
 70
     1
102
RTVSPropertyOp6
 70
     1
102
RTVSPropertyOp7
 70
     1
102
RTVSPropertyOp8
 70
     1
102
RTVSPropertyOp9
 70
     1
102
RTVSPropertyOp10
 70
     1
102
RTVSPropertyOp11
 70
     1
102
RTVSPropertyOp12
 70
     1
102
RTVSPropertyOp13
 70
     1
102
RTVSPropertyOp14
 70
     1
102
RTVSPropertyOp15
 70
     1
102
RTVSPropertyOp16
 70
     1
102
RTVSPropertyOp17
 70
     1
102
RTVSPropertyOp18
 70
     1
102
RTVSPropertyOp19
 70
     1
102
RTVSPropertyOp20
 70
     1
102
RTVSPropertyOp21
 70
     1
102
RTVSPropertyOp22
 70
     1
102
RTVSPropertyOp23
 70
     1
102
RTVSPropertyOp24
 70
     1
102
RTVSPropertyOp25
 70
     1
102
RTVSPropertyOp26
 70
     1
102
RTVSPropertyOp27
 70
     1
102
RTVSPropertyOp28
 70
     1
102
RTVSPropertyOp29
 70
     1
102
RTVSPropertyOp30
 70
     1
102
RTVSPropertyOp31
 70
     1
102
RTVSPropertyOp32
 70
     1
102
RTVSPropertyOp33
 70
     1
102
RTVSPropertyOp34
 70
     1
102
RTVSPropertyOp35
 70
     1
102
RTVSPropertyOp36
 70
     1
102
RTVSPropertyOp37
 70
     1
102
RTVSPropertyOp38
 70
     1
102
RTVSPropertyOp39
 70
     1
102
RTVSPropertyOp40
 70
     1
102
RTVSPropertyOp41
 70
     1
102
RTVSPropertyOp42
 70
     1
102
RTVSPropertyOp43
 70
     1
102
RTVSPropertyOp44
 70
     1
102
RTVSPropertyOp45
 70
     1
102
RTVSPropertyOp46
 70
     1
102
RTVSPropertyOp47
 70
     1
102
RTVSPropertyOp48
 70
     1
102
RTVSPropertyOp49
 70
     1
102
RTVSPropertyOp50
 70
     1
102
RTVSPropertyOp51
 70
     0
102
RTVSPropertyOp52
 70
     0
102
RTVSPropertyOp53
 70
     1
102
RTVSPropertyOp54
 70
     1
102
RTVSPropertyOp55
 70
     1
102
RTVSPropertyOp56
 70
     1
102
RTVSPropertyOp57
 70
     1
102
RTVSPropertyOp58
 70
     1
102
RTVSPropertyOp59
 70
     1
102
RTVSPropertyOp60
 70
     1
102
RTVSPropertyOp61
 70
     1
102
RTVSPropertyOp62
 70
     1
  0
XRECORD
  5
38A
102
{ACAD_REACTORS
330
389
102
}
330
389
100
AcDbXrecord
280
     1
102
RTVSPost2010Prop28
280
     0
102
RTVSPost2010PropOp28
 70
     0
102
RTVSPost2010Prop29
280
     1
102
RTVSPost2010PropOp29
 70
     0
102
RTVSPost2010Prop30
280
     1
102
RTVSPost2010PropOp30
 70
     0
102
RTVSPost2010Prop31
280
     0
102
RTVSPost2010PropOp31
 70
     0
102
RTVSPost2010Prop32
280
     0
102
RTVSPost2010PropOp32
 70
     0
102
RTVSPost2010Prop33
280
     0
102
RTVSPost2010PropOp33
 70
     0
102
RTVSPost2010Prop34
280
     0
102
RTVSPost2010PropOp34
 70
     0
102
RTVSPost2010Prop35
280
     0
102
RTVSPost2010PropOp35
 70
     0
102
RTVSPost2010Prop36
280
     0
102
RTVSPost2010PropOp36
 70
     0
102
RTVSPost2010Prop37
 90
       50
102
RTVSPost2010PropOp37
 70
     0
102
RTVSPost2010Prop38
140
0.0
102
RTVSPost2010PropOp38
 70
     0
102
RTVSPost2010Prop39
140
1.0
102
RTVSPost2010PropOp39
 70
     0
102
RTVSPost2010Prop40
 90
        0
102
RTVSPost2010PropOp40
 70
     0
102
RTVSPost2010Prop41ColorIndex
 90
       18
102
RTVSPost2010Prop41ColorRGB
 90
        0
102
RTVSPost2010PropOp41
 70
     0
102
RTVSPost2010Prop42
 90
       50
102
RTVSPost2010PropOp42
 70
     0
102
RTVSPost2010Prop43
 90
        3
102
RTVSPost2010PropOp43
 70
     0
102
RTVSPost2010Prop44ColorIndex
 90
        5
102
RTVSPost2010Prop44ColorRGB
 90
      255
102
RTVSPost2010PropOp44
 70
     0
102
RTVSPost2010Prop45
280
     0
102
RTVSPost2010PropOp45
 70
     0
102
RTVSPost2010Prop46
 90
       50
102
RTVSPost2010PropOp46
 70
     0
102
RTVSPost2010Prop47
 90
       50
102
RTVSPost2010PropOp47
 70
     0
102
RTVSPost2010Prop48
 90
       50
102
RTVSPost2010PropOp48
 70
     0
102
RTVSPost2010Prop49
280
     0
102
RTVSPost2010PropOp49
 70
     0
102
RTVSPost2010Prop50
 90
       50
102
RTVSPost2010PropOp50
 70
     0
102
RTVSPost2010Prop51ColorIndex
 90
      256
102
RTVSPost2010Prop51ColorRGB
 90
-16777216
102
RTVSPost2010PropOp51
 70
     0
102
RTVSPost2010Prop52
140
1.0
102
RTVSPost2010PropOp52
 70
     0
102
RTVSPost2010Prop53
 90
        2
102
RTVSPost2010PropOp53
 70
     0
102
RTVSPost2010Prop54
  1
strokes_ogs.tif
102
RTVSPost2010PropOp54
 70
     0
102
RTVSPost2010Prop55
280
     0
102
RTVSPost2010PropOp55
 70
     0
102
RTVSPost2010Prop56
140
1.0
102
RTVSPost2010PropOp56
 70
     0
102
RTVSPost2010Prop57
140
1.0
102
RTVSPost2010PropOp57
 70
     0
102
RTVSPropertyOp0
 70
     0
102
RTVSPropertyOp1
 70
     0
102
RTVSPropertyOp2
 70
     0
102
RTVSPropertyOp3
 70
     0
102
RTVSPropertyOp4
 70
     0
102
RTVSPropertyOp5
 70
     0
102
RTVSPropertyOp6
 70
     0
102
RTVSPropertyOp7
 70
     0
102
RTVSPropertyOp8
 70
     0
102
RTVSPropertyOp9
 70
     0
102
RTVSPropertyOp10
 70
     0
102
RTVSPropertyOp11
 70
     0
102
RTVSPropertyOp12
 70
     0
102
RTVSPropertyOp13
 70
     0
102
RTVSPropertyOp14
 70
     2
102
RTVSPropertyOp15
 70
     0
102
RTVSPropertyOp16
 70
     0
102
RTVSPropertyOp17
 70
     0
102
RTVSPropertyOp18
 70
     0
102
RTVSPropertyOp19
 70
     0
102
RTVSPropertyOp20
 70
     0
102
RTVSPropertyOp21
 70
     0
102
RTVSPropertyOp22
 70
     0
102
RTVSPropertyOp23
 70
     0
102
RTVSPropertyOp24
 70
     0
102
RTVSPropertyOp25
 70
     0
102
RTVSPropertyOp26
 70
     0
102
RTVSPropertyOp27
 70
     0
102
RTVSPropertyOp28
 70
     0
102
RTVSPropertyOp29
 70
     0
102
RTVSPropertyOp30
 70
     0
102
RTVSPropertyOp31
 70
     0
102
RTVSPropertyOp32
 70
     0
102
RTVSPropertyOp33
 70
     0
102
RTVSPropertyOp34
 70
     0
102
RTVSPropertyOp35
 70
     0
102
RTVSPropertyOp36
 70
     0
102
RTVSPropertyOp37
 70
     0
102
RTVSPropertyOp38
 70
     0
102
RTVSPropertyOp39
 70
     0
102
RTVSPropertyOp40
 70
     0
102
RTVSPropertyOp41
 70
     0
102
RTVSPropertyOp42
 70
     0
102
RTVSPropertyOp43
 70
     0
102
RTVSPropertyOp44
 70
     0
102
RTVSPropertyOp45
 70
     0
102
RTVSPropertyOp46
 70
     0
102
RTVSPropertyOp47
 70
     0
102
RTVSPropertyOp48
 70
     0
102
RTVSPropertyOp49
 70
     0
102
RTVSPropertyOp50
 70
     0
102
RTVSPropertyOp51
 70
     0
102
RTVSPropertyOp52
 70
     0
102
RTVSPropertyOp53
 70
     0
102
RTVSPropertyOp54
 70
     0
102
RTVSPropertyOp55
 70
     0
102
RTVSPropertyOp56
 70
     0
102
RTVSPropertyOp57
 70
     0
102
RTVSPropertyOp58
 70
     1
102
RTVSPropertyOp59
 70
     1
102
RTVSPropertyOp60
 70
     1
102
RTVSPropertyOp61
 70
     1
102
RTVSPropertyOp62
 70
     1
  0
XRECORD
  5
382
102
{ACAD_REACTORS
330
381
102
}
330
381
100
AcDbXrecord
280
     1
102
RTVSPost2010Prop28
280
     0
102
RTVSPost2010PropOp28
 70
     1
102
RTVSPost2010Prop29
280
     1
102
RTVSPost2010PropOp29
 70
     1
102
RTVSPost2010Prop30
280
     1
102
RTVSPost2010PropOp30
 70
     1
102
RTVSPost2010Prop31
280
     0
102
RTVSPost2010PropOp31
 70
     1
102
RTVSPost2010Prop32
280
     0
102
RTVSPost2010PropOp32
 70
     1
102
RTVSPost2010Prop33
280
     0
102
RTVSPost2010PropOp33
 70
     1
102
RTVSPost2010Prop34
280
     0
102
RTVSPost2010PropOp34
 70
     1
102
RTVSPost2010Prop35
280
     0
102
RTVSPost2010PropOp35
 70
     1
102
RTVSPost2010Prop36
280
     0
102
RTVSPost2010PropOp36
 70
     1
102
RTVSPost2010Prop37
 90
       50
102
RTVSPost2010PropOp37
 70
     1
102
RTVSPost2010Prop38
140
0.0
102
RTVSPost2010PropOp38
 70
     1
102
RTVSPost2010Prop39
140
1.0
102
RTVSPost2010PropOp39
 70
     1
102
RTVSPost2010Prop40
 90
        0
102
RTVSPost2010PropOp40
 70
     1
102
RTVSPost2010Prop41ColorIndex
 90
       18
102
RTVSPost2010Prop41ColorRGB
 90
        0
102
RTVSPost2010PropOp41
 70
     1
102
RTVSPost2010Prop42
 90
       50
102
RTVSPost2010PropOp42
 70
     1
102
RTVSPost2010Prop43
 90
        3
102
RTVSPost2010PropOp43
 70
     1
102
RTVSPost2010Prop44ColorIndex
 90
        5
102
RTVSPost2010Prop44ColorRGB
 90
      255
102
RTVSPost2010PropOp44
 70
     1
102
RTVSPost2010Prop45
280
     0
102
RTVSPost2010PropOp45
 70
     1
102
RTVSPost2010Prop46
 90
       50
102
RTVSPost2010PropOp46
 70
     1
102
RTVSPost2010Prop47
 90
       50
102
RTVSPost2010PropOp47
 70
     1
102
RTVSPost2010Prop48
 90
       50
102
RTVSPost2010PropOp48
 70
     1
102
RTVSPost2010Prop49
280
     0
102
RTVSPost2010PropOp49
 70
     1
102
RTVSPost2010Prop50
 90
       50
102
RTVSPost2010PropOp50
 70
     1
102
RTVSPost2010Prop51ColorIndex
 90
      256
102
RTVSPost2010Prop51ColorRGB
 90
-16777216
102
RTVSPost2010PropOp51
 70
     0
102
RTVSPost2010Prop52
140
1.0
102
RTVSPost2010PropOp52
 70
     0
102
RTVSPost2010Prop53
 90
        2
102
RTVSPost2010PropOp53
 70
     1
102
RTVSPost2010Prop54
  1
strokes_ogs.tif
102
RTVSPost2010PropOp54
 70
     1
102
RTVSPost2010Prop55
280
     0
102
RTVSPost2010PropOp55
 70
     1
102
RTVSPost2010Prop56
140
1.0
102
RTVSPost2010PropOp56
 70
     1
102
RTVSPost2010Prop57
140
1.0
102
RTVSPost2010PropOp57
 70
     1
102
RTVSPropertyOp0
 70
     1
102
RTVSPropertyOp1
 70
     1
102
RTVSPropertyOp2
 70
     1
102
RTVSPropertyOp3
 70
     1
102
RTVSPropertyOp4
 70
     1
102
RTVSPropertyOp5
 70
     1
102
RTVSPropertyOp6
 70
     1
102
RTVSPropertyOp7
 70
     1
102
RTVSPropertyOp8
 70
     1
102
RTVSPropertyOp9
 70
     1
102
RTVSPropertyOp10
 70
     1
102
RTVSPropertyOp11
 70
     1
102
RTVSPropertyOp12
 70
     1
102
RTVSPropertyOp13
 70
     1
102
RTVSPropertyOp14
 70
     1
102
RTVSPropertyOp15
 70
     1
102
RTVSPropertyOp16
 70
     1
102
RTVSPropertyOp17
 70
     1
102
RTVSPropertyOp18
 70
     1
102
RTVSPropertyOp19
 70
     1
102
RTVSPropertyOp20
 70
     1
102
RTVSPropertyOp21
 70
     1
102
RTVSPropertyOp22
 70
     1
102
RTVSPropertyOp23
 70
     1
102
RTVSPropertyOp24
 70
     1
102
RTVSPropertyOp25
 70
     1
102
RTVSPropertyOp26
 70
     1
102
RTVSPropertyOp27
 70
     1
102
RTVSPropertyOp28
 70
     1
102
RTVSPropertyOp29
 70
     1
102
RTVSPropertyOp30
 70
     1
102
RTVSPropertyOp31
 70
     1
102
RTVSPropertyOp32
 70
     1
102
RTVSPropertyOp33
 70
     1
102
RTVSPropertyOp34
 70
     1
102
RTVSPropertyOp35
 70
     1
102
RTVSPropertyOp36
 70
     1
102
RTVSPropertyOp37
 70
     1
102
RTVSPropertyOp38
 70
     1
102
RTVSPropertyOp39
 70
     1
102
RTVSPropertyOp40
 70
     1
102
RTVSPropertyOp41
 70
     1
102
RTVSPropertyOp42
 70
     1
102
RTVSPropertyOp43
 70
     1
102
RTVSPropertyOp44
 70
     1
102
RTVSPropertyOp45
 70
     1
102
RTVSPropertyOp46
 70
     1
102
RTVSPropertyOp47
 70
     1
102
RTVSPropertyOp48
 70
     1
102
RTVSPropertyOp49
 70
     1
102
RTVSPropertyOp50
 70
     1
102
RTVSPropertyOp51
 70
     0
102
RTVSPropertyOp52
 70
     0
102
RTVSPropertyOp53
 70
     1
102
RTVSPropertyOp54
 70
     1
102
RTVSPropertyOp55
 70
     1
102
RTVSPropertyOp56
 70
     1
102
RTVSPropertyOp57
 70
     1
102
RTVSPropertyOp58
 70
     1
102
RTVSPropertyOp59
 70
     1
102
RTVSPropertyOp60
 70
     1
102
RTVSPropertyOp61
 70
     1
102
RTVSPropertyOp62
 70
     1
  0
XRECORD
  5
366
102
{ACAD_REACTORS
330
365
102
}
330
365
100
AcDbXrecord
280
     1
102
RTVSPost2010Prop28
280
     0
102
RTVSPost2010PropOp28
 70
     1
102
RTVSPost2010Prop29
280
     1
102
RTVSPost2010PropOp29
 70
     1
102
RTVSPost2010Prop30
280
     1
102
RTVSPost2010PropOp30
 70
     1
102
RTVSPost2010Prop31
280
     0
102
RTVSPost2010PropOp31
 70
     1
102
RTVSPost2010Prop32
280
     0
102
RTVSPost2010PropOp32
 70
     1
102
RTVSPost2010Prop33
280
     0
102
RTVSPost2010PropOp33
 70
     1
102
RTVSPost2010Prop34
280
     0
102
RTVSPost2010PropOp34
 70
     1
102
RTVSPost2010Prop35
280
     0
102
RTVSPost2010PropOp35
 70
     1
102
RTVSPost2010Prop36
280
     0
102
RTVSPost2010PropOp36
 70
     1
102
RTVSPost2010Prop37
 90
       50
102
RTVSPost2010PropOp37
 70
     1
102
RTVSPost2010Prop38
140
0.0
102
RTVSPost2010PropOp38
 70
     1
102
RTVSPost2010Prop39
140
1.0
102
RTVSPost2010PropOp39
 70
     1
102
RTVSPost2010Prop40
 90
        0
102
RTVSPost2010PropOp40
 70
     1
102
RTVSPost2010Prop41ColorIndex
 90
       18
102
RTVSPost2010Prop41ColorRGB
 90
        0
102
RTVSPost2010PropOp41
 70
     1
102
RTVSPost2010Prop42
 90
       50
102
RTVSPost2010PropOp42
 70
     1
102
RTVSPost2010Prop43
 90
        3
102
RTVSPost2010PropOp43
 70
     1
102
RTVSPost2010Prop44ColorIndex
 90
        5
102
RTVSPost2010Prop44ColorRGB
 90
      255
102
RTVSPost2010PropOp44
 70
     1
102
RTVSPost2010Prop45
280
     0
102
RTVSPost2010PropOp45
 70
     1
102
RTVSPost2010Prop46
 90
       50
102
RTVSPost2010PropOp46
 70
     1
102
RTVSPost2010Prop47
 90
       50
102
RTVSPost2010PropOp47
 70
     1
102
RTVSPost2010Prop48
 90
       50
102
RTVSPost2010PropOp48
 70
     1
102
RTVSPost2010Prop49
280
     0
102
RTVSPost2010PropOp49
 70
     1
102
RTVSPost2010Prop50
 90
       50
102
RTVSPost2010PropOp50
 70
     1
102
RTVSPost2010Prop51ColorIndex
 90
      256
102
RTVSPost2010Prop51ColorRGB
 90
-16777216
102
RTVSPost2010PropOp51
 70
     0
102
RTVSPost2010Prop52
140
1.0
102
RTVSPost2010PropOp52
 70
     0
102
RTVSPost2010Prop53
 90
        2
102
RTVSPost2010PropOp53
 70
     1
102
RTVSPost2010Prop54
  1
strokes_ogs.tif
102
RTVSPost2010PropOp54
 70
     1
102
RTVSPost2010Prop55
280
     0
102
RTVSPost2010PropOp55
 70
     1
102
RTVSPost2010Prop56
140
1.0
102
RTVSPost2010PropOp56
 70
     1
102
RTVSPost2010Prop57
140
1.0
102
RTVSPost2010PropOp57
 70
     1
102
RTVSPropertyOp0
 70
     1
102
RTVSPropertyOp1
 70
     1
102
RTVSPropertyOp2
 70
     1
102
RTVSPropertyOp3
 70
     1
102
RTVSPropertyOp4
 70
     1
102
RTVSPropertyOp5
 70
     1
102
RTVSPropertyOp6
 70
     1
102
RTVSPropertyOp7
 70
     1
102
RTVSPropertyOp8
 70
     1
102
RTVSPropertyOp9
 70
     1
102
RTVSPropertyOp10
 70
     1
102
RTVSPropertyOp11
 70
     1
102
RTVSPropertyOp12
 70
     1
102
RTVSPropertyOp13
 70
     1
102
RTVSPropertyOp14
 70
     1
102
RTVSPropertyOp15
 70
     1
102
RTVSPropertyOp16
 70
     1
102
RTVSPropertyOp17
 70
     1
102
RTVSPropertyOp18
 70
     1
102
RTVSPropertyOp19
 70
     1
102
RTVSPropertyOp20
 70
     1
102
RTVSPropertyOp21
 70
     1
102
RTVSPropertyOp22
 70
     1
102
RTVSPropertyOp23
 70
     1
102
RTVSPropertyOp24
 70
     1
102
RTVSPropertyOp25
 70
     1
102
RTVSPropertyOp26
 70
     1
102
RTVSPropertyOp27
 70
     1
102
RTVSPropertyOp28
 70
     1
102
RTVSPropertyOp29
 70
     1
102
RTVSPropertyOp30
 70
     1
102
RTVSPropertyOp31
 70
     1
102
RTVSPropertyOp32
 70
     1
102
RTVSPropertyOp33
 70
     1
102
RTVSPropertyOp34
 70
     1
102
RTVSPropertyOp35
 70
     1
102
RTVSPropertyOp36
 70
     1
102
RTVSPropertyOp37
 70
     1
102
RTVSPropertyOp38
 70
     1
102
RTVSPropertyOp39
 70
     1
102
RTVSPropertyOp40
 70
     1
102
RTVSPropertyOp41
 70
     1
102
RTVSPropertyOp42
 70
     1
102
RTVSPropertyOp43
 70
     1
102
RTVSPropertyOp44
 70
     1
102
RTVSPropertyOp45
 70
     1
102
RTVSPropertyOp46
 70
     1
102
RTVSPropertyOp47
 70
     1
102
RTVSPropertyOp48
 70
     1
102
RTVSPropertyOp49
 70
     1
102
RTVSPropertyOp50
 70
     1
102
RTVSPropertyOp51
 70
     0
102
RTVSPropertyOp52
 70
     0
102
RTVSPropertyOp53
 70
     1
102
RTVSPropertyOp54
 70
     1
102
RTVSPropertyOp55
 70
     1
102
RTVSPropertyOp56
 70
     1
102
RTVSPropertyOp57
 70
     1
102
RTVSPropertyOp58
 70
     1
102
RTVSPropertyOp59
 70
     1
102
RTVSPropertyOp60
 70
     1
102
RTVSPropertyOp61
 70
     1
102
RTVSPropertyOp62
 70
     1
  0
XRECORD
  5
368
102
{ACAD_REACTORS
330
367
102
}
330
367
100
AcDbXrecord
280
     1
102
RTVSPost2010Prop28
280
     0
102
RTVSPost2010PropOp28
 70
     1
102
RTVSPost2010Prop29
280
     1
102
RTVSPost2010PropOp29
 70
     1
102
RTVSPost2010Prop30
280
     1
102
RTVSPost2010PropOp30
 70
     1
102
RTVSPost2010Prop31
280
     0
102
RTVSPost2010PropOp31
 70
     1
102
RTVSPost2010Prop32
280
     0
102
RTVSPost2010PropOp32
 70
     1
102
RTVSPost2010Prop33
280
     0
102
RTVSPost2010PropOp33
 70
     1
102
RTVSPost2010Prop34
280
     0
102
RTVSPost2010PropOp34
 70
     1
102
RTVSPost2010Prop35
280
     0
102
RTVSPost2010PropOp35
 70
     1
102
RTVSPost2010Prop36
280
     0
102
RTVSPost2010PropOp36
 70
     1
102
RTVSPost2010Prop37
 90
       50
102
RTVSPost2010PropOp37
 70
     1
102
RTVSPost2010Prop38
140
0.0
102
RTVSPost2010PropOp38
 70
     1
102
RTVSPost2010Prop39
140
1.0
102
RTVSPost2010PropOp39
 70
     1
102
RTVSPost2010Prop40
 90
        0
102
RTVSPost2010PropOp40
 70
     1
102
RTVSPost2010Prop41ColorIndex
 90
       18
102
RTVSPost2010Prop41ColorRGB
 90
        0
102
RTVSPost2010PropOp41
 70
     1
102
RTVSPost2010Prop42
 90
       50
102
RTVSPost2010PropOp42
 70
     1
102
RTVSPost2010Prop43
 90
        3
102
RTVSPost2010PropOp43
 70
     1
102
RTVSPost2010Prop44ColorIndex
 90
        5
102
RTVSPost2010Prop44ColorRGB
 90
      255
102
RTVSPost2010PropOp44
 70
     1
102
RTVSPost2010Prop45
280
     0
102
RTVSPost2010PropOp45
 70
     1
102
RTVSPost2010Prop46
 90
       50
102
RTVSPost2010PropOp46
 70
     1
102
RTVSPost2010Prop47
 90
       50
102
RTVSPost2010PropOp47
 70
     1
102
RTVSPost2010Prop48
 90
       50
102
RTVSPost2010PropOp48
 70
     1
102
RTVSPost2010Prop49
280
     0
102
RTVSPost2010PropOp49
 70
     1
102
RTVSPost2010Prop50
 90
       50
102
RTVSPost2010PropOp50
 70
     1
102
RTVSPost2010Prop51ColorIndex
 90
      256
102
RTVSPost2010Prop51ColorRGB
 90
-16777216
102
RTVSPost2010PropOp51
 70
     0
102
RTVSPost2010Prop52
140
1.0
102
RTVSPost2010PropOp52
 70
     0
102
RTVSPost2010Prop53
 90
        2
102
RTVSPost2010PropOp53
 70
     1
102
RTVSPost2010Prop54
  1
strokes_ogs.tif
102
RTVSPost2010PropOp54
 70
     1
102
RTVSPost2010Prop55
280
     0
102
RTVSPost2010PropOp55
 70
     1
102
RTVSPost2010Prop56
140
1.0
102
RTVSPost2010PropOp56
 70
     1
102
RTVSPost2010Prop57
140
1.0
102
RTVSPost2010PropOp57
 70
     1
102
RTVSPropertyOp0
 70
     1
102
RTVSPropertyOp1
 70
     1
102
RTVSPropertyOp2
 70
     1
102
RTVSPropertyOp3
 70
     1
102
RTVSPropertyOp4
 70
     1
102
RTVSPropertyOp5
 70
     1
102
RTVSPropertyOp6
 70
     1
102
RTVSPropertyOp7
 70
     1
102
RTVSPropertyOp8
 70
     1
102
RTVSPropertyOp9
 70
     1
102
RTVSPropertyOp10
 70
     1
102
RTVSPropertyOp11
 70
     1
102
RTVSPropertyOp12
 70
     1
102
RTVSPropertyOp13
 70
     1
102
RTVSPropertyOp14
 70
     1
102
RTVSPropertyOp15
 70
     1
102
RTVSPropertyOp16
 70
     1
102
RTVSPropertyOp17
 70
     1
102
RTVSPropertyOp18
 70
     1
102
RTVSPropertyOp19
 70
     1
102
RTVSPropertyOp20
 70
     1
102
RTVSPropertyOp21
 70
     1
102
RTVSPropertyOp22
 70
     1
102
RTVSPropertyOp23
 70
     1
102
RTVSPropertyOp24
 70
     1
102
RTVSPropertyOp25
 70
     1
102
RTVSPropertyOp26
 70
     1
102
RTVSPropertyOp27
 70
     1
102
RTVSPropertyOp28
 70
     1
102
RTVSPropertyOp29
 70
     1
102
RTVSPropertyOp30
 70
     1
102
RTVSPropertyOp31
 70
     1
102
RTVSPropertyOp32
 70
     1
102
RTVSPropertyOp33
 70
     1
102
RTVSPropertyOp34
 70
     1
102
RTVSPropertyOp35
 70
     1
102
RTVSPropertyOp36
 70
     1
102
RTVSPropertyOp37
 70
     1
102
RTVSPropertyOp38
 70
     1
102
RTVSPropertyOp39
 70
     1
102
RTVSPropertyOp40
 70
     1
102
RTVSPropertyOp41
 70
     1
102
RTVSPropertyOp42
 70
     1
102
RTVSPropertyOp43
 70
     1
102
RTVSPropertyOp44
 70
     1
102
RTVSPropertyOp45
 70
     1
102
RTVSPropertyOp46
 70
     1
102
RTVSPropertyOp47
 70
     1
102
RTVSPropertyOp48
 70
     1
102
RTVSPropertyOp49
 70
     1
102
RTVSPropertyOp50
 70
     1
102
RTVSPropertyOp51
 70
     0
102
RTVSPropertyOp52
 70
     0
102
RTVSPropertyOp53
 70
     1
102
RTVSPropertyOp54
 70
     1
102
RTVSPropertyOp55
 70
     1
102
RTVSPropertyOp56
 70
     1
102
RTVSPropertyOp57
 70
     1
102
RTVSPropertyOp58
 70
     1
102
RTVSPropertyOp59
 70
     1
102
RTVSPropertyOp60
 70
     1
102
RTVSPropertyOp61
 70
     1
102
RTVSPropertyOp62
 70
     1
  0
XRECORD
  5
36A
102
{ACAD_REACTORS
330
369
102
}
330
369
100
AcDbXrecord
280
     1
102
RTVSPost2010Prop28
280
     0
102
RTVSPost2010PropOp28
 70
     1
102
RTVSPost2010Prop29
280
     1
102
RTVSPost2010PropOp29
 70
     1
102
RTVSPost2010Prop30
280
     1
102
RTVSPost2010PropOp30
 70
     1
102
RTVSPost2010Prop31
280
     0
102
RTVSPost2010PropOp31
 70
     1
102
RTVSPost2010Prop32
280
     0
102
RTVSPost2010PropOp32
 70
     1
102
RTVSPost2010Prop33
280
     0
102
RTVSPost2010PropOp33
 70
     1
102
RTVSPost2010Prop34
280
     0
102
RTVSPost2010PropOp34
 70
     1
102
RTVSPost2010Prop35
280
     0
102
RTVSPost2010PropOp35
 70
     1
102
RTVSPost2010Prop36
280
     0
102
RTVSPost2010PropOp36
 70
     1
102
RTVSPost2010Prop37
 90
       50
102
RTVSPost2010PropOp37
 70
     1
102
RTVSPost2010Prop38
140
0.0
102
RTVSPost2010PropOp38
 70
     1
102
RTVSPost2010Prop39
140
1.0
102
RTVSPost2010PropOp39
 70
     1
102
RTVSPost2010Prop40
 90
        0
102
RTVSPost2010PropOp40
 70
     1
102
RTVSPost2010Prop41ColorIndex
 90
       18
102
RTVSPost2010Prop41ColorRGB
 90
        0
102
RTVSPost2010PropOp41
 70
     1
102
RTVSPost2010Prop42
 90
       50
102
RTVSPost2010PropOp42
 70
     1
102
RTVSPost2010Prop43
 90
        3
102
RTVSPost2010PropOp43
 70
     1
102
RTVSPost2010Prop44ColorIndex
 90
        5
102
RTVSPost2010Prop44ColorRGB
 90
      255
102
RTVSPost2010PropOp44
 70
     1
102
RTVSPost2010Prop45
280
     0
102
RTVSPost2010PropOp45
 70
     1
102
RTVSPost2010Prop46
 90
       50
102
RTVSPost2010PropOp46
 70
     1
102
RTVSPost2010Prop47
 90
       50
102
RTVSPost2010PropOp47
 70
     1
102
RTVSPost2010Prop48
 90
       50
102
RTVSPost2010PropOp48
 70
     1
102
RTVSPost2010Prop49
280
     0
102
RTVSPost2010PropOp49
 70
     1
102
RTVSPost2010Prop50
 90
       50
102
RTVSPost2010PropOp50
 70
     1
102
RTVSPost2010Prop51ColorIndex
 90
      256
102
RTVSPost2010Prop51ColorRGB
 90
-16777216
102
RTVSPost2010PropOp51
 70
     0
102
RTVSPost2010Prop52
140
1.0
102
RTVSPost2010PropOp52
 70
     0
102
RTVSPost2010Prop53
 90
        2
102
RTVSPost2010PropOp53
 70
     1
102
RTVSPost2010Prop54
  1
strokes_ogs.tif
102
RTVSPost2010PropOp54
 70
     1
102
RTVSPost2010Prop55
280
     0
102
RTVSPost2010PropOp55
 70
     1
102
RTVSPost2010Prop56
140
1.0
102
RTVSPost2010PropOp56
 70
     1
102
RTVSPost2010Prop57
140
1.0
102
RTVSPost2010PropOp57
 70
     1
102
RTVSPropertyOp0
 70
     1
102
RTVSPropertyOp1
 70
     1
102
RTVSPropertyOp2
 70
     1
102
RTVSPropertyOp3
 70
     1
102
RTVSPropertyOp4
 70
     1
102
RTVSPropertyOp5
 70
     1
102
RTVSPropertyOp6
 70
     1
102
RTVSPropertyOp7
 70
     1
102
RTVSPropertyOp8
 70
     1
102
RTVSPropertyOp9
 70
     1
102
RTVSPropertyOp10
 70
     1
102
RTVSPropertyOp11
 70
     1
102
RTVSPropertyOp12
 70
     1
102
RTVSPropertyOp13
 70
     1
102
RTVSPropertyOp14
 70
     1
102
RTVSPropertyOp15
 70
     1
102
RTVSPropertyOp16
 70
     1
102
RTVSPropertyOp17
 70
     1
102
RTVSPropertyOp18
 70
     1
102
RTVSPropertyOp19
 70
     1
102
RTVSPropertyOp20
 70
     1
102
RTVSPropertyOp21
 70
     1
102
RTVSPropertyOp22
 70
     1
102
RTVSPropertyOp23
 70
     1
102
RTVSPropertyOp24
 70
     1
102
RTVSPropertyOp25
 70
     1
102
RTVSPropertyOp26
 70
     1
102
RTVSPropertyOp27
 70
     1
102
RTVSPropertyOp28
 70
     1
102
RTVSPropertyOp29
 70
     1
102
RTVSPropertyOp30
 70
     1
102
RTVSPropertyOp31
 70
     1
102
RTVSPropertyOp32
 70
     1
102
RTVSPropertyOp33
 70
     1
102
RTVSPropertyOp34
 70
     1
102
RTVSPropertyOp35
 70
     1
102
RTVSPropertyOp36
 70
     1
102
RTVSPropertyOp37
 70
     1
102
RTVSPropertyOp38
 70
     1
102
RTVSPropertyOp39
 70
     1
102
RTVSPropertyOp40
 70
     1
102
RTVSPropertyOp41
 70
     1
102
RTVSPropertyOp42
 70
     1
102
RTVSPropertyOp43
 70
     1
102
RTVSPropertyOp44
 70
     1
102
RTVSPropertyOp45
 70
     1
102
RTVSPropertyOp46
 70
     1
102
RTVSPropertyOp47
 70
     1
102
RTVSPropertyOp48
 70
     1
102
RTVSPropertyOp49
 70
     1
102
RTVSPropertyOp50
 70
     1
102
RTVSPropertyOp51
 70
     0
102
RTVSPropertyOp52
 70
     0
102
RTVSPropertyOp53
 70
     1
102
RTVSPropertyOp54
 70
     1
102
RTVSPropertyOp55
 70
     1
102
RTVSPropertyOp56
 70
     1
102
RTVSPropertyOp57
 70
     1
102
RTVSPropertyOp58
 70
     1
102
RTVSPropertyOp59
 70
     1
102
RTVSPropertyOp60
 70
     1
102
RTVSPropertyOp61
 70
     1
102
RTVSPropertyOp62
 70
     1
  0
XRECORD
  5
36C
102
{ACAD_REACTORS
330
36B
102
}
330
36B
100
AcDbXrecord
280
     1
102
RTVSPost2010Prop28
280
     0
102
RTVSPost2010PropOp28
 70
     1
102
RTVSPost2010Prop29
280
     1
102
RTVSPost2010PropOp29
 70
     1
102
RTVSPost2010Prop30
280
     1
102
RTVSPost2010PropOp30
 70
     1
102
RTVSPost2010Prop31
280
     0
102
RTVSPost2010PropOp31
 70
     1
102
RTVSPost2010Prop32
280
     0
102
RTVSPost2010PropOp32
 70
     1
102
RTVSPost2010Prop33
280
     0
102
RTVSPost2010PropOp33
 70
     1
102
RTVSPost2010Prop34
280
     0
102
RTVSPost2010PropOp34
 70
     1
102
RTVSPost2010Prop35
280
     0
102
RTVSPost2010PropOp35
 70
     1
102
RTVSPost2010Prop36
280
     0
102
RTVSPost2010PropOp36
 70
     1
102
RTVSPost2010Prop37
 90
       50
102
RTVSPost2010PropOp37
 70
     1
102
RTVSPost2010Prop38
140
0.0
102
RTVSPost2010PropOp38
 70
     1
102
RTVSPost2010Prop39
140
1.0
102
RTVSPost2010PropOp39
 70
     1
102
RTVSPost2010Prop40
 90
        0
102
RTVSPost2010PropOp40
 70
     1
102
RTVSPost2010Prop41ColorIndex
 90
       18
102
RTVSPost2010Prop41ColorRGB
 90
        0
102
RTVSPost2010PropOp41
 70
     1
102
RTVSPost2010Prop42
 90
       50
102
RTVSPost2010PropOp42
 70
     1
102
RTVSPost2010Prop43
 90
        3
102
RTVSPost2010PropOp43
 70
     1
102
RTVSPost2010Prop44ColorIndex
 90
        5
102
RTVSPost2010Prop44ColorRGB
 90
      255
102
RTVSPost2010PropOp44
 70
     1
102
RTVSPost2010Prop45
280
     0
102
RTVSPost2010PropOp45
 70
     1
102
RTVSPost2010Prop46
 90
       50
102
RTVSPost2010PropOp46
 70
     1
102
RTVSPost2010Prop47
 90
       50
102
RTVSPost2010PropOp47
 70
     1
102
RTVSPost2010Prop48
 90
       50
102
RTVSPost2010PropOp48
 70
     1
102
RTVSPost2010Prop49
280
     0
102
RTVSPost2010PropOp49
 70
     1
102
RTVSPost2010Prop50
 90
       50
102
RTVSPost2010PropOp50
 70
     1
102
RTVSPost2010Prop51ColorIndex
 90
      256
102
RTVSPost2010Prop51ColorRGB
 90
-16777216
102
RTVSPost2010PropOp51
 70
     0
102
RTVSPost2010Prop52
140
1.0
102
RTVSPost2010PropOp52
 70
     0
102
RTVSPost2010Prop53
 90
        2
102
RTVSPost2010PropOp53
 70
     1
102
RTVSPost2010Prop54
  1
strokes_ogs.tif
102
RTVSPost2010PropOp54
 70
     1
102
RTVSPost2010Prop55
280
     0
102
RTVSPost2010PropOp55
 70
     1
102
RTVSPost2010Prop56
140
1.0
102
RTVSPost2010PropOp56
 70
     1
102
RTVSPost2010Prop57
140
1.0
102
RTVSPost2010PropOp57
 70
     1
102
RTVSPropertyOp0
 70
     1
102
RTVSPropertyOp1
 70
     1
102
RTVSPropertyOp2
 70
     1
102
RTVSPropertyOp3
 70
     1
102
RTVSPropertyOp4
 70
     1
102
RTVSPropertyOp5
 70
     1
102
RTVSPropertyOp6
 70
     1
102
RTVSPropertyOp7
 70
     1
102
RTVSPropertyOp8
 70
     1
102
RTVSPropertyOp9
 70
     1
102
RTVSPropertyOp10
 70
     1
102
RTVSPropertyOp11
 70
     1
102
RTVSPropertyOp12
 70
     1
102
RTVSPropertyOp13
 70
     1
102
RTVSPropertyOp14
 70
     1
102
RTVSPropertyOp15
 70
     1
102
RTVSPropertyOp16
 70
     1
102
RTVSPropertyOp17
 70
     1
102
RTVSPropertyOp18
 70
     1
102
RTVSPropertyOp19
 70
     1
102
RTVSPropertyOp20
 70
     1
102
RTVSPropertyOp21
 70
     1
102
RTVSPropertyOp22
 70
     1
102
RTVSPropertyOp23
 70
     1
102
RTVSPropertyOp24
 70
     1
102
RTVSPropertyOp25
 70
     1
102
RTVSPropertyOp26
 70
     1
102
RTVSPropertyOp27
 70
     1
102
RTVSPropertyOp28
 70
     1
102
RTVSPropertyOp29
 70
     1
102
RTVSPropertyOp30
 70
     1
102
RTVSPropertyOp31
 70
     1
102
RTVSPropertyOp32
 70
     1
102
RTVSPropertyOp33
 70
     1
102
RTVSPropertyOp34
 70
     1
102
RTVSPropertyOp35
 70
     1
102
RTVSPropertyOp36
 70
     1
102
RTVSPropertyOp37
 70
     1
102
RTVSPropertyOp38
 70
     1
102
RTVSPropertyOp39
 70
     1
102
RTVSPropertyOp40
 70
     1
102
RTVSPropertyOp41
 70
     1
102
RTVSPropertyOp42
 70
     1
102
RTVSPropertyOp43
 70
     1
102
RTVSPropertyOp44
 70
     1
102
RTVSPropertyOp45
 70
     1
102
RTVSPropertyOp46
 70
     1
102
RTVSPropertyOp47
 70
     1
102
RTVSPropertyOp48
 70
     1
102
RTVSPropertyOp49
 70
     1
102
RTVSPropertyOp50
 70
     1
102
RTVSPropertyOp51
 70
     0
102
RTVSPropertyOp52
 70
     0
102
RTVSPropertyOp53
 70
     1
102
RTVSPropertyOp54
 70
     1
102
RTVSPropertyOp55
 70
     1
102
RTVSPropertyOp56
 70
     1
102
RTVSPropertyOp57
 70
     1
102
RTVSPropertyOp58
 70
     1
102
RTVSPropertyOp59
 70
     1
102
RTVSPropertyOp60
 70
     1
102
RTVSPropertyOp61
 70
     1
102
RTVSPropertyOp62
 70
     1
  0
XRECORD
  5
372
102
{ACAD_REACTORS
330
371
102
}
330
371
100
AcDbXrecord
280
     1
102
RTVSPost2010Prop28
280
     0
102
RTVSPost2010PropOp28
 70
     1
102
RTVSPost2010Prop29
280
     1
102
RTVSPost2010PropOp29
 70
     1
102
RTVSPost2010Prop30
280
     1
102
RTVSPost2010PropOp30
 70
     1
102
RTVSPost2010Prop31
280
     0
102
RTVSPost2010PropOp31
 70
     1
102
RTVSPost2010Prop32
280
     0
102
RTVSPost2010PropOp32
 70
     1
102
RTVSPost2010Prop33
280
     0
102
RTVSPost2010PropOp33
 70
     1
102
RTVSPost2010Prop34
280
     0
102
RTVSPost2010PropOp34
 70
     1
102
RTVSPost2010Prop35
280
     0
102
RTVSPost2010PropOp35
 70
     1
102
RTVSPost2010Prop36
280
     0
102
RTVSPost2010PropOp36
 70
     1
102
RTVSPost2010Prop37
 90
       50
102
RTVSPost2010PropOp37
 70
     1
102
RTVSPost2010Prop38
140
0.0
102
RTVSPost2010PropOp38
 70
     1
102
RTVSPost2010Prop39
140
1.0
102
RTVSPost2010PropOp39
 70
     1
102
RTVSPost2010Prop40
 90
        0
102
RTVSPost2010PropOp40
 70
     1
102
RTVSPost2010Prop41ColorIndex
 90
       18
102
RTVSPost2010Prop41ColorRGB
 90
        0
102
RTVSPost2010PropOp41
 70
     1
102
RTVSPost2010Prop42
 90
       50
102
RTVSPost2010PropOp42
 70
     1
102
RTVSPost2010Prop43
 90
        3
102
RTVSPost2010PropOp43
 70
     1
102
RTVSPost2010Prop44ColorIndex
 90
        5
102
RTVSPost2010Prop44ColorRGB
 90
      255
102
RTVSPost2010PropOp44
 70
     1
102
RTVSPost2010Prop45
280
     0
102
RTVSPost2010PropOp45
 70
     1
102
RTVSPost2010Prop46
 90
       50
102
RTVSPost2010PropOp46
 70
     1
102
RTVSPost2010Prop47
 90
       50
102
RTVSPost2010PropOp47
 70
     1
102
RTVSPost2010Prop48
 90
       50
102
RTVSPost2010PropOp48
 70
     1
102
RTVSPost2010Prop49
280
     0
102
RTVSPost2010PropOp49
 70
     1
102
RTVSPost2010Prop50
 90
       50
102
RTVSPost2010PropOp50
 70
     1
102
RTVSPost2010Prop51ColorIndex
 90
      256
102
RTVSPost2010Prop51ColorRGB
 90
-16777216
102
RTVSPost2010PropOp51
 70
     0
102
RTVSPost2010Prop52
140
1.0
102
RTVSPost2010PropOp52
 70
     0
102
RTVSPost2010Prop53
 90
        2
102
RTVSPost2010PropOp53
 70
     1
102
RTVSPost2010Prop54
  1
strokes_ogs.tif
102
RTVSPost2010PropOp54
 70
     1
102
RTVSPost2010Prop55
280
     0
102
RTVSPost2010PropOp55
 70
     1
102
RTVSPost2010Prop56
140
1.0
102
RTVSPost2010PropOp56
 70
     1
102
RTVSPost2010Prop57
140
1.0
102
RTVSPost2010PropOp57
 70
     1
102
RTVSPropertyOp0
 70
     1
102
RTVSPropertyOp1
 70
     1
102
RTVSPropertyOp2
 70
     1
102
RTVSPropertyOp3
 70
     1
102
RTVSPropertyOp4
 70
     1
102
RTVSPropertyOp5
 70
     1
102
RTVSPropertyOp6
 70
     1
102
RTVSPropertyOp7
 70
     1
102
RTVSPropertyOp8
 70
     1
102
RTVSPropertyOp9
 70
     1
102
RTVSPropertyOp10
 70
     1
102
RTVSPropertyOp11
 70
     1
102
RTVSPropertyOp12
 70
     1
102
RTVSPropertyOp13
 70
     1
102
RTVSPropertyOp14
 70
     1
102
RTVSPropertyOp15
 70
     1
102
RTVSPropertyOp16
 70
     1
102
RTVSPropertyOp17
 70
     1
102
RTVSPropertyOp18
 70
     1
102
RTVSPropertyOp19
 70
     1
102
RTVSPropertyOp20
 70
     1
102
RTVSPropertyOp21
 70
     1
102
RTVSPropertyOp22
 70
     1
102
RTVSPropertyOp23
 70
     1
102
RTVSPropertyOp24
 70
     1
102
RTVSPropertyOp25
 70
     1
102
RTVSPropertyOp26
 70
     1
102
RTVSPropertyOp27
 70
     1
102
RTVSPropertyOp28
 70
     1
102
RTVSPropertyOp29
 70
     1
102
RTVSPropertyOp30
 70
     1
102
RTVSPropertyOp31
 70
     1
102
RTVSPropertyOp32
 70
     1
102
RTVSPropertyOp33
 70
     1
102
RTVSPropertyOp34
 70
     1
102
RTVSPropertyOp35
 70
     1
102
RTVSPropertyOp36
 70
     1
102
RTVSPropertyOp37
 70
     1
102
RTVSPropertyOp38
 70
     1
102
RTVSPropertyOp39
 70
     1
102
RTVSPropertyOp40
 70
     1
102
RTVSPropertyOp41
 70
     1
102
RTVSPropertyOp42
 70
     1
102
RTVSPropertyOp43
 70
     1
102
RTVSPropertyOp44
 70
     1
102
RTVSPropertyOp45
 70
     1
102
RTVSPropertyOp46
 70
     1
102
RTVSPropertyOp47
 70
     1
102
RTVSPropertyOp48
 70
     1
102
RTVSPropertyOp49
 70
     1
102
RTVSPropertyOp50
 70
     1
102
RTVSPropertyOp51
 70
     0
102
RTVSPropertyOp52
 70
     0
102
RTVSPropertyOp53
 70
     1
102
RTVSPropertyOp54
 70
     1
102
RTVSPropertyOp55
 70
     1
102
RTVSPropertyOp56
 70
     1
102
RTVSPropertyOp57
 70
     1
102
RTVSPropertyOp58
 70
     1
102
RTVSPropertyOp59
 70
     1
102
RTVSPropertyOp60
 70
     1
102
RTVSPropertyOp61
 70
     1
102
RTVSPropertyOp62
 70
     1
  0
XRECORD
  5
386
102
{ACAD_REACTORS
330
385
102
}
330
385
100
AcDbXrecord
280
     1
102
RTVSPost2010Prop28
280
     0
102
RTVSPost2010PropOp28
 70
     0
102
RTVSPost2010Prop29
280
     1
102
RTVSPost2010PropOp29
 70
     0
102
RTVSPost2010Prop30
280
     1
102
RTVSPost2010PropOp30
 70
     0
102
RTVSPost2010Prop31
280
     0
102
RTVSPost2010PropOp31
 70
     0
102
RTVSPost2010Prop32
280
     0
102
RTVSPost2010PropOp32
 70
     0
102
RTVSPost2010Prop33
280
     0
102
RTVSPost2010PropOp33
 70
     0
102
RTVSPost2010Prop34
280
     0
102
RTVSPost2010PropOp34
 70
     0
102
RTVSPost2010Prop35
280
     0
102
RTVSPost2010PropOp35
 70
     0
102
RTVSPost2010Prop36
280
     0
102
RTVSPost2010PropOp36
 70
     0
102
RTVSPost2010Prop37
 90
       50
102
RTVSPost2010PropOp37
 70
     0
102
RTVSPost2010Prop38
140
0.0
102
RTVSPost2010PropOp38
 70
     0
102
RTVSPost2010Prop39
140
1.0
102
RTVSPost2010PropOp39
 70
     0
102
RTVSPost2010Prop40
 90
        0
102
RTVSPost2010PropOp40
 70
     0
102
RTVSPost2010Prop41ColorIndex
 90
       18
102
RTVSPost2010Prop41ColorRGB
 90
        0
102
RTVSPost2010PropOp41
 70
     0
102
RTVSPost2010Prop42
 90
       50
102
RTVSPost2010PropOp42
 70
     0
102
RTVSPost2010Prop43
 90
        3
102
RTVSPost2010PropOp43
 70
     0
102
RTVSPost2010Prop44ColorIndex
 90
        5
102
RTVSPost2010Prop44ColorRGB
 90
      255
102
RTVSPost2010PropOp44
 70
     0
102
RTVSPost2010Prop45
280
     0
102
RTVSPost2010PropOp45
 70
     0
102
RTVSPost2010Prop46
 90
       50
102
RTVSPost2010PropOp46
 70
     0
102
RTVSPost2010Prop47
 90
       50
102
RTVSPost2010PropOp47
 70
     0
102
RTVSPost2010Prop48
 90
       50
102
RTVSPost2010PropOp48
 70
     0
102
RTVSPost2010Prop49
280
     0
102
RTVSPost2010PropOp49
 70
     0
102
RTVSPost2010Prop50
 90
       50
102
RTVSPost2010PropOp50
 70
     0
102
RTVSPost2010Prop51ColorIndex
 90
      256
102
RTVSPost2010Prop51ColorRGB
 90
-16777216
102
RTVSPost2010PropOp51
 70
     0
102
RTVSPost2010Prop52
140
1.0
102
RTVSPost2010PropOp52
 70
     0
102
RTVSPost2010Prop53
 90
        2
102
RTVSPost2010PropOp53
 70
     0
102
RTVSPost2010Prop54
  1
strokes_ogs.tif
102
RTVSPost2010PropOp54
 70
     0
102
RTVSPost2010Prop55
280
     0
102
RTVSPost2010PropOp55
 70
     0
102
RTVSPost2010Prop56
140
1.0
102
RTVSPost2010PropOp56
 70
     0
102
RTVSPost2010Prop57
140
1.0
102
RTVSPost2010PropOp57
 70
     0
102
RTVSPropertyOp0
 70
     0
102
RTVSPropertyOp1
 70
     0
102
RTVSPropertyOp2
 70
     0
102
RTVSPropertyOp3
 70
     0
102
RTVSPropertyOp4
 70
     0
102
RTVSPropertyOp5
 70
     0
102
RTVSPropertyOp6
 70
     0
102
RTVSPropertyOp7
 70
     0
102
RTVSPropertyOp8
 70
     0
102
RTVSPropertyOp9
 70
     0
102
RTVSPropertyOp10
 70
     0
102
RTVSPropertyOp11
 70
     0
102
RTVSPropertyOp12
 70
     0
102
RTVSPropertyOp13
 70
     0
102
RTVSPropertyOp14
 70
     2
102
RTVSPropertyOp15
 70
     0
102
RTVSPropertyOp16
 70
     0
102
RTVSPropertyOp17
 70
     0
102
RTVSPropertyOp18
 70
     0
102
RTVSPropertyOp19
 70
     0
102
RTVSPropertyOp20
 70
     0
102
RTVSPropertyOp21
 70
     0
102
RTVSPropertyOp22
 70
     0
102
RTVSPropertyOp23
 70
     0
102
RTVSPropertyOp24
 70
     0
102
RTVSPropertyOp25
 70
     0
102
RTVSPropertyOp26
 70
     0
102
RTVSPropertyOp27
 70
     0
102
RTVSPropertyOp28
 70
     0
102
RTVSPropertyOp29
 70
     0
102
RTVSPropertyOp30
 70
     0
102
RTVSPropertyOp31
 70
     0
102
RTVSPropertyOp32
 70
     0
102
RTVSPropertyOp33
 70
     0
102
RTVSPropertyOp34
 70
     0
102
RTVSPropertyOp35
 70
     0
102
RTVSPropertyOp36
 70
     0
102
RTVSPropertyOp37
 70
     0
102
RTVSPropertyOp38
 70
     0
102
RTVSPropertyOp39
 70
     0
102
RTVSPropertyOp40
 70
     0
102
RTVSPropertyOp41
 70
     0
102
RTVSPropertyOp42
 70
     0
102
RTVSPropertyOp43
 70
     0
102
RTVSPropertyOp44
 70
     0
102
RTVSPropertyOp45
 70
     0
102
RTVSPropertyOp46
 70
     0
102
RTVSPropertyOp47
 70
     0
102
RTVSPropertyOp48
 70
     0
102
RTVSPropertyOp49
 70
     0
102
RTVSPropertyOp50
 70
     0
102
RTVSPropertyOp51
 70
     0
102
RTVSPropertyOp52
 70
     0
102
RTVSPropertyOp53
 70
     0
102
RTVSPropertyOp54
 70
     0
102
RTVSPropertyOp55
 70
     0
102
RTVSPropertyOp56
 70
     0
102
RTVSPropertyOp57
 70
     0
102
RTVSPropertyOp58
 70
     1
102
RTVSPropertyOp59
 70
     1
102
RTVSPropertyOp60
 70
     1
102
RTVSPropertyOp61
 70
     1
102
RTVSPropertyOp62
 70
     1
  0
XRECORD
  5
380
102
{ACAD_REACTORS
330
37F
102
}
330
37F
100
AcDbXrecord
280
     1
102
RTVSPost2010Prop28
280
     0
102
RTVSPost2010PropOp28
 70
     1
102
RTVSPost2010Prop29
280
     1
102
RTVSPost2010PropOp29
 70
     1
102
RTVSPost2010Prop30
280
     1
102
RTVSPost2010PropOp30
 70
     1
102
RTVSPost2010Prop31
280
     0
102
RTVSPost2010PropOp31
 70
     1
102
RTVSPost2010Prop32
280
     0
102
RTVSPost2010PropOp32
 70
     1
102
RTVSPost2010Prop33
280
     0
102
RTVSPost2010PropOp33
 70
     1
102
RTVSPost2010Prop34
280
     0
102
RTVSPost2010PropOp34
 70
     1
102
RTVSPost2010Prop35
280
     0
102
RTVSPost2010PropOp35
 70
     1
102
RTVSPost2010Prop36
280
     0
102
RTVSPost2010PropOp36
 70
     1
102
RTVSPost2010Prop37
 90
       50
102
RTVSPost2010PropOp37
 70
     1
102
RTVSPost2010Prop38
140
0.0
102
RTVSPost2010PropOp38
 70
     1
102
RTVSPost2010Prop39
140
1.0
102
RTVSPost2010PropOp39
 70
     1
102
RTVSPost2010Prop40
 90
        0
102
RTVSPost2010PropOp40
 70
     1
102
RTVSPost2010Prop41ColorIndex
 90
       18
102
RTVSPost2010Prop41ColorRGB
 90
        0
102
RTVSPost2010PropOp41
 70
     1
102
RTVSPost2010Prop42
 90
       50
102
RTVSPost2010PropOp42
 70
     1
102
RTVSPost2010Prop43
 90
        3
102
RTVSPost2010PropOp43
 70
     1
102
RTVSPost2010Prop44ColorIndex
 90
        5
102
RTVSPost2010Prop44ColorRGB
 90
      255
102
RTVSPost2010PropOp44
 70
     1
102
RTVSPost2010Prop45
280
     0
102
RTVSPost2010PropOp45
 70
     1
102
RTVSPost2010Prop46
 90
       50
102
RTVSPost2010PropOp46
 70
     1
102
RTVSPost2010Prop47
 90
       50
102
RTVSPost2010PropOp47
 70
     1
102
RTVSPost2010Prop48
 90
       50
102
RTVSPost2010PropOp48
 70
     1
102
RTVSPost2010Prop49
280
     0
102
RTVSPost2010PropOp49
 70
     1
102
RTVSPost2010Prop50
 90
       50
102
RTVSPost2010PropOp50
 70
     1
102
RTVSPost2010Prop51ColorIndex
 90
      256
102
RTVSPost2010Prop51ColorRGB
 90
-16777216
102
RTVSPost2010PropOp51
 70
     0
102
RTVSPost2010Prop52
140
1.0
102
RTVSPost2010PropOp52
 70
     0
102
RTVSPost2010Prop53
 90
        2
102
RTVSPost2010PropOp53
 70
     1
102
RTVSPost2010Prop54
  1
strokes_ogs.tif
102
RTVSPost2010PropOp54
 70
     1
102
RTVSPost2010Prop55
280
     0
102
RTVSPost2010PropOp55
 70
     1
102
RTVSPost2010Prop56
140
1.0
102
RTVSPost2010PropOp56
 70
     1
102
RTVSPost2010Prop57
140
1.0
102
RTVSPost2010PropOp57
 70
     1
102
RTVSPropertyOp0
 70
     1
102
RTVSPropertyOp1
 70
     1
102
RTVSPropertyOp2
 70
     1
102
RTVSPropertyOp3
 70
     1
102
RTVSPropertyOp4
 70
     1
102
RTVSPropertyOp5
 70
     1
102
RTVSPropertyOp6
 70
     1
102
RTVSPropertyOp7
 70
     1
102
RTVSPropertyOp8
 70
     1
102
RTVSPropertyOp9
 70
     1
102
RTVSPropertyOp10
 70
     1
102
RTVSPropertyOp11
 70
     1
102
RTVSPropertyOp12
 70
     1
102
RTVSPropertyOp13
 70
     1
102
RTVSPropertyOp14
 70
     1
102
RTVSPropertyOp15
 70
     1
102
RTVSPropertyOp16
 70
     1
102
RTVSPropertyOp17
 70
     1
102
RTVSPropertyOp18
 70
     1
102
RTVSPropertyOp19
 70
     1
102
RTVSPropertyOp20
 70
     1
102
RTVSPropertyOp21
 70
     1
102
RTVSPropertyOp22
 70
     1
102
RTVSPropertyOp23
 70
     1
102
RTVSPropertyOp24
 70
     1
102
RTVSPropertyOp25
 70
     1
102
RTVSPropertyOp26
 70
     1
102
RTVSPropertyOp27
 70
     1
102
RTVSPropertyOp28
 70
     1
102
RTVSPropertyOp29
 70
     1
102
RTVSPropertyOp30
 70
     1
102
RTVSPropertyOp31
 70
     1
102
RTVSPropertyOp32
 70
     1
102
RTVSPropertyOp33
 70
     1
102
RTVSPropertyOp34
 70
     1
102
RTVSPropertyOp35
 70
     1
102
RTVSPropertyOp36
 70
     1
102
RTVSPropertyOp37
 70
     1
102
RTVSPropertyOp38
 70
     1
102
RTVSPropertyOp39
 70
     1
102
RTVSPropertyOp40
 70
     1
102
RTVSPropertyOp41
 70
     1
102
RTVSPropertyOp42
 70
     1
102
RTVSPropertyOp43
 70
     1
102
RTVSPropertyOp44
 70
     1
102
RTVSPropertyOp45
 70
     1
102
RTVSPropertyOp46
 70
     1
102
RTVSPropertyOp47
 70
     1
102
RTVSPropertyOp48
 70
     1
102
RTVSPropertyOp49
 70
     1
102
RTVSPropertyOp50
 70
     1
102
RTVSPropertyOp51
 70
     0
102
RTVSPropertyOp52
 70
     0
102
RTVSPropertyOp53
 70
     1
102
RTVSPropertyOp54
 70
     1
102
RTVSPropertyOp55
 70
     1
102
RTVSPropertyOp56
 70
     1
102
RTVSPropertyOp57
 70
     1
102
RTVSPropertyOp58
 70
     1
102
RTVSPropertyOp59
 70
     1
102
RTVSPropertyOp60
 70
     1
102
RTVSPropertyOp61
 70
     1
102
RTVSPropertyOp62
 70
     1
  0
XRECORD
  5
388
102
{ACAD_REACTORS
330
387
102
}
330
387
100
AcDbXrecord
280
     1
102
RTVSPost2010Prop28
280
     0
102
RTVSPost2010PropOp28
 70
     0
102
RTVSPost2010Prop29
280
     1
102
RTVSPost2010PropOp29
 70
     0
102
RTVSPost2010Prop30
280
     1
102
RTVSPost2010PropOp30
 70
     0
102
RTVSPost2010Prop31
280
     0
102
RTVSPost2010PropOp31
 70
     0
102
RTVSPost2010Prop32
280
     0
102
RTVSPost2010PropOp32
 70
     0
102
RTVSPost2010Prop33
280
     0
102
RTVSPost2010PropOp33
 70
     0
102
RTVSPost2010Prop34
280
     0
102
RTVSPost2010PropOp34
 70
     0
102
RTVSPost2010Prop35
280
     0
102
RTVSPost2010PropOp35
 70
     0
102
RTVSPost2010Prop36
280
     0
102
RTVSPost2010PropOp36
 70
     0
102
RTVSPost2010Prop37
 90
       50
102
RTVSPost2010PropOp37
 70
     0
102
RTVSPost2010Prop38
140
0.0
102
RTVSPost2010PropOp38
 70
     0
102
RTVSPost2010Prop39
140
1.0
102
RTVSPost2010PropOp39
 70
     0
102
RTVSPost2010Prop40
 90
        0
102
RTVSPost2010PropOp40
 70
     0
102
RTVSPost2010Prop41ColorIndex
 90
       18
102
RTVSPost2010Prop41ColorRGB
 90
        0
102
RTVSPost2010PropOp41
 70
     0
102
RTVSPost2010Prop42
 90
       50
102
RTVSPost2010PropOp42
 70
     0
102
RTVSPost2010Prop43
 90
        3
102
RTVSPost2010PropOp43
 70
     0
102
RTVSPost2010Prop44ColorIndex
 90
        5
102
RTVSPost2010Prop44ColorRGB
 90
      255
102
RTVSPost2010PropOp44
 70
     0
102
RTVSPost2010Prop45
280
     0
102
RTVSPost2010PropOp45
 70
     0
102
RTVSPost2010Prop46
 90
       50
102
RTVSPost2010PropOp46
 70
     0
102
RTVSPost2010Prop47
 90
       50
102
RTVSPost2010PropOp47
 70
     0
102
RTVSPost2010Prop48
 90
       50
102
RTVSPost2010PropOp48
 70
     0
102
RTVSPost2010Prop49
280
     0
102
RTVSPost2010PropOp49
 70
     0
102
RTVSPost2010Prop50
 90
       50
102
RTVSPost2010PropOp50
 70
     0
102
RTVSPost2010Prop51ColorIndex
 90
      256
102
RTVSPost2010Prop51ColorRGB
 90
-16777216
102
RTVSPost2010PropOp51
 70
     0
102
RTVSPost2010Prop52
140
1.0
102
RTVSPost2010PropOp52
 70
     0
102
RTVSPost2010Prop53
 90
        2
102
RTVSPost2010PropOp53
 70
     0
102
RTVSPost2010Prop54
  1
strokes_ogs.tif
102
RTVSPost2010PropOp54
 70
     0
102
RTVSPost2010Prop55
280
     0
102
RTVSPost2010PropOp55
 70
     0
102
RTVSPost2010Prop56
140
1.0
102
RTVSPost2010PropOp56
 70
     0
102
RTVSPost2010Prop57
140
1.0
102
RTVSPost2010PropOp57
 70
     0
102
RTVSPropertyOp0
 70
     0
102
RTVSPropertyOp1
 70
     0
102
RTVSPropertyOp2
 70
     0
102
RTVSPropertyOp3
 70
     0
102
RTVSPropertyOp4
 70
     0
102
RTVSPropertyOp5
 70
     0
102
RTVSPropertyOp6
 70
     0
102
RTVSPropertyOp7
 70
     0
102
RTVSPropertyOp8
 70
     0
102
RTVSPropertyOp9
 70
     0
102
RTVSPropertyOp10
 70
     0
102
RTVSPropertyOp11
 70
     0
102
RTVSPropertyOp12
 70
     0
102
RTVSPropertyOp13
 70
     0
102
RTVSPropertyOp14
 70
     2
102
RTVSPropertyOp15
 70
     0
102
RTVSPropertyOp16
 70
     0
102
RTVSPropertyOp17
 70
     0
102
RTVSPropertyOp18
 70
     0
102
RTVSPropertyOp19
 70
     0
102
RTVSPropertyOp20
 70
     0
102
RTVSPropertyOp21
 70
     0
102
RTVSPropertyOp22
 70
     0
102
RTVSPropertyOp23
 70
     0
102
RTVSPropertyOp24
 70
     0
102
RTVSPropertyOp25
 70
     0
102
RTVSPropertyOp26
 70
     0
102
RTVSPropertyOp27
 70
     0
102
RTVSPropertyOp28
 70
     0
102
RTVSPropertyOp29
 70
     0
102
RTVSPropertyOp30
 70
     0
102
RTVSPropertyOp31
 70
     0
102
RTVSPropertyOp32
 70
     0
102
RTVSPropertyOp33
 70
     0
102
RTVSPropertyOp34
 70
     0
102
RTVSPropertyOp35
 70
     0
102
RTVSPropertyOp36
 70
     0
102
RTVSPropertyOp37
 70
     0
102
RTVSPropertyOp38
 70
     0
102
RTVSPropertyOp39
 70
     0
102
RTVSPropertyOp40
 70
     0
102
RTVSPropertyOp41
 70
     0
102
RTVSPropertyOp42
 70
     0
102
RTVSPropertyOp43
 70
     0
102
RTVSPropertyOp44
 70
     0
102
RTVSPropertyOp45
 70
     0
102
RTVSPropertyOp46
 70
     0
102
RTVSPropertyOp47
 70
     0
102
RTVSPropertyOp48
 70
     0
102
RTVSPropertyOp49
 70
     0
102
RTVSPropertyOp50
 70
     0
102
RTVSPropertyOp51
 70
     0
102
RTVSPropertyOp52
 70
     0
102
RTVSPropertyOp53
 70
     0
102
RTVSPropertyOp54
 70
     0
102
RTVSPropertyOp55
 70
     0
102
RTVSPropertyOp56
 70
     0
102
RTVSPropertyOp57
 70
     0
102
RTVSPropertyOp58
 70
     1
102
RTVSPropertyOp59
 70
     1
102
RTVSPropertyOp60
 70
     1
102
RTVSPropertyOp61
 70
     1
102
RTVSPropertyOp62
 70
     1
  0
XRECORD
  5
376
102
{ACAD_REACTORS
330
375
102
}
330
375
100
AcDbXrecord
280
     1
102
RTVSPost2010Prop28
280
     0
102
RTVSPost2010PropOp28
 70
     1
102
RTVSPost2010Prop29
280
     1
102
RTVSPost2010PropOp29
 70
     1
102
RTVSPost2010Prop30
280
     1
102
RTVSPost2010PropOp30
 70
     1
102
RTVSPost2010Prop31
280
     0
102
RTVSPost2010PropOp31
 70
     1
102
RTVSPost2010Prop32
280
     0
102
RTVSPost2010PropOp32
 70
     1
102
RTVSPost2010Prop33
280
     0
102
RTVSPost2010PropOp33
 70
     1
102
RTVSPost2010Prop34
280
     0
102
RTVSPost2010PropOp34
 70
     1
102
RTVSPost2010Prop35
280
     0
102
RTVSPost2010PropOp35
 70
     1
102
RTVSPost2010Prop36
280
     0
102
RTVSPost2010PropOp36
 70
     1
102
RTVSPost2010Prop37
 90
       50
102
RTVSPost2010PropOp37
 70
     1
102
RTVSPost2010Prop38
140
0.0
102
RTVSPost2010PropOp38
 70
     1
102
RTVSPost2010Prop39
140
1.0
102
RTVSPost2010PropOp39
 70
     1
102
RTVSPost2010Prop40
 90
        0
102
RTVSPost2010PropOp40
 70
     1
102
RTVSPost2010Prop41ColorIndex
 90
       18
102
RTVSPost2010Prop41ColorRGB
 90
        0
102
RTVSPost2010PropOp41
 70
     1
102
RTVSPost2010Prop42
 90
       50
102
RTVSPost2010PropOp42
 70
     1
102
RTVSPost2010Prop43
 90
        3
102
RTVSPost2010PropOp43
 70
     1
102
RTVSPost2010Prop44ColorIndex
 90
        5
102
RTVSPost2010Prop44ColorRGB
 90
      255
102
RTVSPost2010PropOp44
 70
     1
102
RTVSPost2010Prop45
280
     0
102
RTVSPost2010PropOp45
 70
     1
102
RTVSPost2010Prop46
 90
       50
102
RTVSPost2010PropOp46
 70
     1
102
RTVSPost2010Prop47
 90
       50
102
RTVSPost2010PropOp47
 70
     1
102
RTVSPost2010Prop48
 90
       50
102
RTVSPost2010PropOp48
 70
     1
102
RTVSPost2010Prop49
280
     0
102
RTVSPost2010PropOp49
 70
     1
102
RTVSPost2010Prop50
 90
       50
102
RTVSPost2010PropOp50
 70
     1
102
RTVSPost2010Prop51ColorIndex
 90
      256
102
RTVSPost2010Prop51ColorRGB
 90
-16777216
102
RTVSPost2010PropOp51
 70
     0
102
RTVSPost2010Prop52
140
1.0
102
RTVSPost2010PropOp52
 70
     0
102
RTVSPost2010Prop53
 90
        2
102
RTVSPost2010PropOp53
 70
     1
102
RTVSPost2010Prop54
  1
strokes_ogs.tif
102
RTVSPost2010PropOp54
 70
     1
102
RTVSPost2010Prop55
280
     0
102
RTVSPost2010PropOp55
 70
     1
102
RTVSPost2010Prop56
140
1.0
102
RTVSPost2010PropOp56
 70
     1
102
RTVSPost2010Prop57
140
1.0
102
RTVSPost2010PropOp57
 70
     1
102
RTVSPropertyOp0
 70
     1
102
RTVSPropertyOp1
 70
     1
102
RTVSPropertyOp2
 70
     1
102
RTVSPropertyOp3
 70
     1
102
RTVSPropertyOp4
 70
     1
102
RTVSPropertyOp5
 70
     1
102
RTVSPropertyOp6
 70
     1
102
RTVSPropertyOp7
 70
     1
102
RTVSPropertyOp8
 70
     1
102
RTVSPropertyOp9
 70
     1
102
RTVSPropertyOp10
 70
     1
102
RTVSPropertyOp11
 70
     1
102
RTVSPropertyOp12
 70
     1
102
RTVSPropertyOp13
 70
     1
102
RTVSPropertyOp14
 70
     1
102
RTVSPropertyOp15
 70
     1
102
RTVSPropertyOp16
 70
     1
102
RTVSPropertyOp17
 70
     1
102
RTVSPropertyOp18
 70
     1
102
RTVSPropertyOp19
 70
     1
102
RTVSPropertyOp20
 70
     1
102
RTVSPropertyOp21
 70
     1
102
RTVSPropertyOp22
 70
     1
102
RTVSPropertyOp23
 70
     1
102
RTVSPropertyOp24
 70
     1
102
RTVSPropertyOp25
 70
     1
102
RTVSPropertyOp26
 70
     1
102
RTVSPropertyOp27
 70
     1
102
RTVSPropertyOp28
 70
     1
102
RTVSPropertyOp29
 70
     1
102
RTVSPropertyOp30
 70
     1
102
RTVSPropertyOp31
 70
     1
102
RTVSPropertyOp32
 70
     1
102
RTVSPropertyOp33
 70
     1
102
RTVSPropertyOp34
 70
     1
102
RTVSPropertyOp35
 70
     1
102
RTVSPropertyOp36
 70
     1
102
RTVSPropertyOp37
 70
     1
102
RTVSPropertyOp38
 70
     1
102
RTVSPropertyOp39
 70
     1
102
RTVSPropertyOp40
 70
     1
102
RTVSPropertyOp41
 70
     1
102
RTVSPropertyOp42
 70
     1
102
RTVSPropertyOp43
 70
     1
102
RTVSPropertyOp44
 70
     1
102
RTVSPropertyOp45
 70
     1
102
RTVSPropertyOp46
 70
     1
102
RTVSPropertyOp47
 70
     1
102
RTVSPropertyOp48
 70
     1
102
RTVSPropertyOp49
 70
     1
102
RTVSPropertyOp50
 70
     1
102
RTVSPropertyOp51
 70
     0
102
RTVSPropertyOp52
 70
     0
102
RTVSPropertyOp53
 70
     1
102
RTVSPropertyOp54
 70
     1
102
RTVSPropertyOp55
 70
     1
102
RTVSPropertyOp56
 70
     1
102
RTVSPropertyOp57
 70
     1
102
RTVSPropertyOp58
 70
     1
102
RTVSPropertyOp59
 70
     1
102
RTVSPropertyOp60
 70
     1
102
RTVSPropertyOp61
 70
     1
102
RTVSPropertyOp62
 70
     1
  0
XRECORD
  5
394
102
{ACAD_REACTORS
330
393
102
}
330
393
100
AcDbXrecord
280
     1
102
RTVSPost2010Prop28
280
     0
102
RTVSPost2010PropOp28
 70
     1
102
RTVSPost2010Prop29
280
     1
102
RTVSPost2010PropOp29
 70
     1
102
RTVSPost2010Prop30
280
     1
102
RTVSPost2010PropOp30
 70
     1
102
RTVSPost2010Prop31
280
     0
102
RTVSPost2010PropOp31
 70
     1
102
RTVSPost2010Prop32
280
     0
102
RTVSPost2010PropOp32
 70
     1
102
RTVSPost2010Prop33
280
     0
102
RTVSPost2010PropOp33
 70
     1
102
RTVSPost2010Prop34
280
     0
102
RTVSPost2010PropOp34
 70
     1
102
RTVSPost2010Prop35
280
     0
102
RTVSPost2010PropOp35
 70
     1
102
RTVSPost2010Prop36
280
     0
102
RTVSPost2010PropOp36
 70
     1
102
RTVSPost2010Prop37
 90
       50
102
RTVSPost2010PropOp37
 70
     1
102
RTVSPost2010Prop38
140
0.0
102
RTVSPost2010PropOp38
 70
     1
102
RTVSPost2010Prop39
140
1.0
102
RTVSPost2010PropOp39
 70
     1
102
RTVSPost2010Prop40
 90
        0
102
RTVSPost2010PropOp40
 70
     1
102
RTVSPost2010Prop41ColorIndex
 90
       18
102
RTVSPost2010Prop41ColorRGB
 90
        0
102
RTVSPost2010PropOp41
 70
     1
102
RTVSPost2010Prop42
 90
       50
102
RTVSPost2010PropOp42
 70
     1
102
RTVSPost2010Prop43
 90
        3
102
RTVSPost2010PropOp43
 70
     1
102
RTVSPost2010Prop44ColorIndex
 90
        5
102
RTVSPost2010Prop44ColorRGB
 90
      255
102
RTVSPost2010PropOp44
 70
     1
102
RTVSPost2010Prop45
280
     0
102
RTVSPost2010PropOp45
 70
     1
102
RTVSPost2010Prop46
 90
       50
102
RTVSPost2010PropOp46
 70
     1
102
RTVSPost2010Prop47
 90
       50
102
RTVSPost2010PropOp47
 70
     1
102
RTVSPost2010Prop48
 90
       50
102
RTVSPost2010PropOp48
 70
     1
102
RTVSPost2010Prop49
280
     0
102
RTVSPost2010PropOp49
 70
     1
102
RTVSPost2010Prop50
 90
       50
102
RTVSPost2010PropOp50
 70
     1
102
RTVSPost2010Prop51ColorIndex
 90
      256
102
RTVSPost2010Prop51ColorRGB
 90
-16777216
102
RTVSPost2010PropOp51
 70
     0
102
RTVSPost2010Prop52
140
1.0
102
RTVSPost2010PropOp52
 70
     0
102
RTVSPost2010Prop53
 90
        2
102
RTVSPost2010PropOp53
 70
     1
102
RTVSPost2010Prop54
  1
strokes_ogs.tif
102
RTVSPost2010PropOp54
 70
     1
102
RTVSPost2010Prop55
280
     0
102
RTVSPost2010PropOp55
 70
     1
102
RTVSPost2010Prop56
140
1.0
102
RTVSPost2010PropOp56
 70
     1
102
RTVSPost2010Prop57
140
1.0
102
RTVSPost2010PropOp57
 70
     1
102
RTVSPropertyOp0
 70
     1
102
RTVSPropertyOp1
 70
     1
102
RTVSPropertyOp2
 70
     1
102
RTVSPropertyOp3
 70
     1
102
RTVSPropertyOp4
 70
     1
102
RTVSPropertyOp5
 70
     1
102
RTVSPropertyOp6
 70
     1
102
RTVSPropertyOp7
 70
     1
102
RTVSPropertyOp8
 70
     1
102
RTVSPropertyOp9
 70
     1
102
RTVSPropertyOp10
 70
     1
102
RTVSPropertyOp11
 70
     1
102
RTVSPropertyOp12
 70
     1
102
RTVSPropertyOp13
 70
     1
102
RTVSPropertyOp14
 70
     1
102
RTVSPropertyOp15
 70
     1
102
RTVSPropertyOp16
 70
     1
102
RTVSPropertyOp17
 70
     1
102
RTVSPropertyOp18
 70
     1
102
RTVSPropertyOp19
 70
     1
102
RTVSPropertyOp20
 70
     1
102
RTVSPropertyOp21
 70
     1
102
RTVSPropertyOp22
 70
     1
102
RTVSPropertyOp23
 70
     1
102
RTVSPropertyOp24
 70
     1
102
RTVSPropertyOp25
 70
     1
102
RTVSPropertyOp26
 70
     1
102
RTVSPropertyOp27
 70
     1
102
RTVSPropertyOp28
 70
     1
102
RTVSPropertyOp29
 70
     1
102
RTVSPropertyOp30
 70
     1
102
RTVSPropertyOp31
 70
     1
102
RTVSPropertyOp32
 70
     1
102
RTVSPropertyOp33
 70
     1
102
RTVSPropertyOp34
 70
     1
102
RTVSPropertyOp35
 70
     1
102
RTVSPropertyOp36
 70
     1
102
RTVSPropertyOp37
 70
     1
102
RTVSPropertyOp38
 70
     1
102
RTVSPropertyOp39
 70
     1
102
RTVSPropertyOp40
 70
     1
102
RTVSPropertyOp41
 70
     1
102
RTVSPropertyOp42
 70
     1
102
RTVSPropertyOp43
 70
     1
102
RTVSPropertyOp44
 70
     1
102
RTVSPropertyOp45
 70
     1
102
RTVSPropertyOp46
 70
     1
102
RTVSPropertyOp47
 70
     1
102
RTVSPropertyOp48
 70
     1
102
RTVSPropertyOp49
 70
     1
102
RTVSPropertyOp50
 70
     1
102
RTVSPropertyOp51
 70
     0
102
RTVSPropertyOp52
 70
     0
102
RTVSPropertyOp53
 70
     1
102
RTVSPropertyOp54
 70
     1
102
RTVSPropertyOp55
 70
     1
102
RTVSPropertyOp56
 70
     1
102
RTVSPropertyOp57
 70
     1
102
RTVSPropertyOp58
 70
     1
102
RTVSPropertyOp59
 70
     1
102
RTVSPropertyOp60
 70
     1
102
RTVSPropertyOp61
 70
     1
102
RTVSPropertyOp62
 70
     1
  0
XRECORD
  5
392
102
{ACAD_REACTORS
330
391
102
}
330
391
100
AcDbXrecord
280
     1
102
RTVSPost2010Prop28
280
     0
102
RTVSPost2010PropOp28
 70
     1
102
RTVSPost2010Prop29
280
     1
102
RTVSPost2010PropOp29
 70
     1
102
RTVSPost2010Prop30
280
     1
102
RTVSPost2010PropOp30
 70
     1
102
RTVSPost2010Prop31
280
     0
102
RTVSPost2010PropOp31
 70
     1
102
RTVSPost2010Prop32
280
     0
102
RTVSPost2010PropOp32
 70
     1
102
RTVSPost2010Prop33
280
     0
102
RTVSPost2010PropOp33
 70
     1
102
RTVSPost2010Prop34
280
     0
102
RTVSPost2010PropOp34
 70
     1
102
RTVSPost2010Prop35
280
     0
102
RTVSPost2010PropOp35
 70
     1
102
RTVSPost2010Prop36
280
     0
102
RTVSPost2010PropOp36
 70
     1
102
RTVSPost2010Prop37
 90
       50
102
RTVSPost2010PropOp37
 70
     1
102
RTVSPost2010Prop38
140
0.0
102
RTVSPost2010PropOp38
 70
     1
102
RTVSPost2010Prop39
140
1.0
102
RTVSPost2010PropOp39
 70
     1
102
RTVSPost2010Prop40
 90
        0
102
RTVSPost2010PropOp40
 70
     1
102
RTVSPost2010Prop41ColorIndex
 90
       18
102
RTVSPost2010Prop41ColorRGB
 90
        0
102
RTVSPost2010PropOp41
 70
     1
102
RTVSPost2010Prop42
 90
       50
102
RTVSPost2010PropOp42
 70
     1
102
RTVSPost2010Prop43
 90
        3
102
RTVSPost2010PropOp43
 70
     1
102
RTVSPost2010Prop44ColorIndex
 90
        5
102
RTVSPost2010Prop44ColorRGB
 90
      255
102
RTVSPost2010PropOp44
 70
     1
102
RTVSPost2010Prop45
280
     0
102
RTVSPost2010PropOp45
 70
     1
102
RTVSPost2010Prop46
 90
       50
102
RTVSPost2010PropOp46
 70
     1
102
RTVSPost2010Prop47
 90
       50
102
RTVSPost2010PropOp47
 70
     1
102
RTVSPost2010Prop48
 90
       50
102
RTVSPost2010PropOp48
 70
     1
102
RTVSPost2010Prop49
280
     0
102
RTVSPost2010PropOp49
 70
     1
102
RTVSPost2010Prop50
 90
       50
102
RTVSPost2010PropOp50
 70
     1
102
RTVSPost2010Prop51ColorIndex
 90
      256
102
RTVSPost2010Prop51ColorRGB
 90
-16777216
102
RTVSPost2010PropOp51
 70
     0
102
RTVSPost2010Prop52
140
1.0
102
RTVSPost2010PropOp52
 70
     0
102
RTVSPost2010Prop53
 90
        2
102
RTVSPost2010PropOp53
 70
     1
102
RTVSPost2010Prop54
  1
strokes_ogs.tif
102
RTVSPost2010PropOp54
 70
     1
102
RTVSPost2010Prop55
280
     0
102
RTVSPost2010PropOp55
 70
     1
102
RTVSPost2010Prop56
140
1.0
102
RTVSPost2010PropOp56
 70
     1
102
RTVSPost2010Prop57
140
1.0
102
RTVSPost2010PropOp57
 70
     1
102
RTVSPropertyOp0
 70
     1
102
RTVSPropertyOp1
 70
     1
102
RTVSPropertyOp2
 70
     1
102
RTVSPropertyOp3
 70
     1
102
RTVSPropertyOp4
 70
     1
102
RTVSPropertyOp5
 70
     1
102
RTVSPropertyOp6
 70
     1
102
RTVSPropertyOp7
 70
     1
102
RTVSPropertyOp8
 70
     1
102
RTVSPropertyOp9
 70
     1
102
RTVSPropertyOp10
 70
     1
102
RTVSPropertyOp11
 70
     1
102
RTVSPropertyOp12
 70
     1
102
RTVSPropertyOp13
 70
     1
102
RTVSPropertyOp14
 70
     1
102
RTVSPropertyOp15
 70
     1
102
RTVSPropertyOp16
 70
     1
102
RTVSPropertyOp17
 70
     1
102
RTVSPropertyOp18
 70
     1
102
RTVSPropertyOp19
 70
     1
102
RTVSPropertyOp20
 70
     1
102
RTVSPropertyOp21
 70
     1
102
RTVSPropertyOp22
 70
     1
102
RTVSPropertyOp23
 70
     1
102
RTVSPropertyOp24
 70
     1
102
RTVSPropertyOp25
 70
     1
102
RTVSPropertyOp26
 70
     1
102
RTVSPropertyOp27
 70
     1
102
RTVSPropertyOp28
 70
     1
102
RTVSPropertyOp29
 70
     1
102
RTVSPropertyOp30
 70
     1
102
RTVSPropertyOp31
 70
     1
102
RTVSPropertyOp32
 70
     1
102
RTVSPropertyOp33
 70
     1
102
RTVSPropertyOp34
 70
     1
102
RTVSPropertyOp35
 70
     1
102
RTVSPropertyOp36
 70
     1
102
RTVSPropertyOp37
 70
     1
102
RTVSPropertyOp38
 70
     1
102
RTVSPropertyOp39
 70
     1
102
RTVSPropertyOp40
 70
     1
102
RTVSPropertyOp41
 70
     1
102
RTVSPropertyOp42
 70
     1
102
RTVSPropertyOp43
 70
     1
102
RTVSPropertyOp44
 70
     1
102
RTVSPropertyOp45
 70
     1
102
RTVSPropertyOp46
 70
     1
102
RTVSPropertyOp47
 70
     1
102
RTVSPropertyOp48
 70
     1
102
RTVSPropertyOp49
 70
     1
102
RTVSPropertyOp50
 70
     1
102
RTVSPropertyOp51
 70
     0
102
RTVSPropertyOp52
 70
     0
102
RTVSPropertyOp53
 70
     1
102
RTVSPropertyOp54
 70
     1
102
RTVSPropertyOp55
 70
     1
102
RTVSPropertyOp56
 70
     1
102
RTVSPropertyOp57
 70
     1
102
RTVSPropertyOp58
 70
     1
102
RTVSPropertyOp59
 70
     1
102
RTVSPropertyOp60
 70
     1
102
RTVSPropertyOp61
 70
     1
102
RTVSPropertyOp62
 70
     1
  0
XRECORD
  5
38C
102
{ACAD_REACTORS
330
38B
102
}
330
38B
100
AcDbXrecord
280
     1
102
RTVSPost2010Prop28
280
     0
102
RTVSPost2010PropOp28
 70
     1
102
RTVSPost2010Prop29
280
     1
102
RTVSPost2010PropOp29
 70
     1
102
RTVSPost2010Prop30
280
     1
102
RTVSPost2010PropOp30
 70
     1
102
RTVSPost2010Prop31
280
     0
102
RTVSPost2010PropOp31
 70
     1
102
RTVSPost2010Prop32
280
     0
102
RTVSPost2010PropOp32
 70
     1
102
RTVSPost2010Prop33
280
     0
102
RTVSPost2010PropOp33
 70
     1
102
RTVSPost2010Prop34
280
     0
102
RTVSPost2010PropOp34
 70
     1
102
RTVSPost2010Prop35
280
     0
102
RTVSPost2010PropOp35
 70
     1
102
RTVSPost2010Prop36
280
     0
102
RTVSPost2010PropOp36
 70
     1
102
RTVSPost2010Prop37
 90
       50
102
RTVSPost2010PropOp37
 70
     1
102
RTVSPost2010Prop38
140
0.0
102
RTVSPost2010PropOp38
 70
     1
102
RTVSPost2010Prop39
140
1.0
102
RTVSPost2010PropOp39
 70
     1
102
RTVSPost2010Prop40
 90
        0
102
RTVSPost2010PropOp40
 70
     1
102
RTVSPost2010Prop41ColorIndex
 90
       18
102
RTVSPost2010Prop41ColorRGB
 90
        0
102
RTVSPost2010PropOp41
 70
     1
102
RTVSPost2010Prop42
 90
       50
102
RTVSPost2010PropOp42
 70
     1
102
RTVSPost2010Prop43
 90
        3
102
RTVSPost2010PropOp43
 70
     1
102
RTVSPost2010Prop44ColorIndex
 90
        5
102
RTVSPost2010Prop44ColorRGB
 90
      255
102
RTVSPost2010PropOp44
 70
     1
102
RTVSPost2010Prop45
280
     0
102
RTVSPost2010PropOp45
 70
     1
102
RTVSPost2010Prop46
 90
       50
102
RTVSPost2010PropOp46
 70
     1
102
RTVSPost2010Prop47
 90
       50
102
RTVSPost2010PropOp47
 70
     1
102
RTVSPost2010Prop48
 90
       50
102
RTVSPost2010PropOp48
 70
     1
102
RTVSPost2010Prop49
280
     0
102
RTVSPost2010PropOp49
 70
     1
102
RTVSPost2010Prop50
 90
       50
102
RTVSPost2010PropOp50
 70
     1
102
RTVSPost2010Prop51ColorIndex
 90
      256
102
RTVSPost2010Prop51ColorRGB
 90
-16777216
102
RTVSPost2010PropOp51
 70
     0
102
RTVSPost2010Prop52
140
1.0
102
RTVSPost2010PropOp52
 70
     0
102
RTVSPost2010Prop53
 90
        2
102
RTVSPost2010PropOp53
 70
     1
102
RTVSPost2010Prop54
  1
strokes_ogs.tif
102
RTVSPost2010PropOp54
 70
     1
102
RTVSPost2010Prop55
280
     0
102
RTVSPost2010PropOp55
 70
     1
102
RTVSPost2010Prop56
140
1.0
102
RTVSPost2010PropOp56
 70
     1
102
RTVSPost2010Prop57
140
1.0
102
RTVSPost2010PropOp57
 70
     1
102
RTVSPropertyOp0
 70
     1
102
RTVSPropertyOp1
 70
     1
102
RTVSPropertyOp2
 70
     1
102
RTVSPropertyOp3
 70
     1
102
RTVSPropertyOp4
 70
     1
102
RTVSPropertyOp5
 70
     1
102
RTVSPropertyOp6
 70
     1
102
RTVSPropertyOp7
 70
     1
102
RTVSPropertyOp8
 70
     1
102
RTVSPropertyOp9
 70
     1
102
RTVSPropertyOp10
 70
     1
102
RTVSPropertyOp11
 70
     1
102
RTVSPropertyOp12
 70
     1
102
RTVSPropertyOp13
 70
     1
102
RTVSPropertyOp14
 70
     1
102
RTVSPropertyOp15
 70
     1
102
RTVSPropertyOp16
 70
     1
102
RTVSPropertyOp17
 70
     1
102
RTVSPropertyOp18
 70
     1
102
RTVSPropertyOp19
 70
     1
102
RTVSPropertyOp20
 70
     1
102
RTVSPropertyOp21
 70
     1
102
RTVSPropertyOp22
 70
     1
102
RTVSPropertyOp23
 70
     1
102
RTVSPropertyOp24
 70
     1
102
RTVSPropertyOp25
 70
     1
102
RTVSPropertyOp26
 70
     1
102
RTVSPropertyOp27
 70
     1
102
RTVSPropertyOp28
 70
     1
102
RTVSPropertyOp29
 70
     1
102
RTVSPropertyOp30
 70
     1
102
RTVSPropertyOp31
 70
     1
102
RTVSPropertyOp32
 70
     1
102
RTVSPropertyOp33
 70
     1
102
RTVSPropertyOp34
 70
     1
102
RTVSPropertyOp35
 70
     1
102
RTVSPropertyOp36
 70
     1
102
RTVSPropertyOp37
 70
     1
102
RTVSPropertyOp38
 70
     1
102
RTVSPropertyOp39
 70
     1
102
RTVSPropertyOp40
 70
     1
102
RTVSPropertyOp41
 70
     1
102
RTVSPropertyOp42
 70
     1
102
RTVSPropertyOp43
 70
     1
102
RTVSPropertyOp44
 70
     1
102
RTVSPropertyOp45
 70
     1
102
RTVSPropertyOp46
 70
     1
102
RTVSPropertyOp47
 70
     1
102
RTVSPropertyOp48
 70
     1
102
RTVSPropertyOp49
 70
     1
102
RTVSPropertyOp50
 70
     1
102
RTVSPropertyOp51
 70
     0
102
RTVSPropertyOp52
 70
     0
102
RTVSPropertyOp53
 70
     1
102
RTVSPropertyOp54
 70
     1
102
RTVSPropertyOp55
 70
     1
102
RTVSPropertyOp56
 70
     1
102
RTVSPropertyOp57
 70
     1
102
RTVSPropertyOp58
 70
     1
102
RTVSPropertyOp59
 70
     1
102
RTVSPropertyOp60
 70
     1
102
RTVSPropertyOp61
 70
     1
102
RTVSPropertyOp62
 70
     1
  0
XRECORD
  5
38E
102
{ACAD_REACTORS
330
38D
102
}
330
38D
100
AcDbXrecord
280
     1
102
RTVSPost2010Prop28
280
     0
102
RTVSPost2010PropOp28
 70
     1
102
RTVSPost2010Prop29
280
     1
102
RTVSPost2010PropOp29
 70
     1
102
RTVSPost2010Prop30
280
     1
102
RTVSPost2010PropOp30
 70
     1
102
RTVSPost2010Prop31
280
     0
102
RTVSPost2010PropOp31
 70
     1
102
RTVSPost2010Prop32
280
     0
102
RTVSPost2010PropOp32
 70
     1
102
RTVSPost2010Prop33
280
     0
102
RTVSPost2010PropOp33
 70
     1
102
RTVSPost2010Prop34
280
     0
102
RTVSPost2010PropOp34
 70
     1
102
RTVSPost2010Prop35
280
     0
102
RTVSPost2010PropOp35
 70
     1
102
RTVSPost2010Prop36
280
     0
102
RTVSPost2010PropOp36
 70
     1
102
RTVSPost2010Prop37
 90
       50
102
RTVSPost2010PropOp37
 70
     1
102
RTVSPost2010Prop38
140
0.0
102
RTVSPost2010PropOp38
 70
     1
102
RTVSPost2010Prop39
140
1.0
102
RTVSPost2010PropOp39
 70
     1
102
RTVSPost2010Prop40
 90
        0
102
RTVSPost2010PropOp40
 70
     1
102
RTVSPost2010Prop41ColorIndex
 90
       18
102
RTVSPost2010Prop41ColorRGB
 90
        0
102
RTVSPost2010PropOp41
 70
     1
102
RTVSPost2010Prop42
 90
       50
102
RTVSPost2010PropOp42
 70
     1
102
RTVSPost2010Prop43
 90
        3
102
RTVSPost2010PropOp43
 70
     1
102
RTVSPost2010Prop44ColorIndex
 90
        5
102
RTVSPost2010Prop44ColorRGB
 90
      255
102
RTVSPost2010PropOp44
 70
     1
102
RTVSPost2010Prop45
280
     0
102
RTVSPost2010PropOp45
 70
     1
102
RTVSPost2010Prop46
 90
       50
102
RTVSPost2010PropOp46
 70
     1
102
RTVSPost2010Prop47
 90
       50
102
RTVSPost2010PropOp47
 70
     1
102
RTVSPost2010Prop48
 90
       50
102
RTVSPost2010PropOp48
 70
     1
102
RTVSPost2010Prop49
280
     0
102
RTVSPost2010PropOp49
 70
     1
102
RTVSPost2010Prop50
 90
       50
102
RTVSPost2010PropOp50
 70
     1
102
RTVSPost2010Prop51ColorIndex
 90
      256
102
RTVSPost2010Prop51ColorRGB
 90
-16777216
102
RTVSPost2010PropOp51
 70
     0
102
RTVSPost2010Prop52
140
1.0
102
RTVSPost2010PropOp52
 70
     0
102
RTVSPost2010Prop53
 90
        2
102
RTVSPost2010PropOp53
 70
     1
102
RTVSPost2010Prop54
  1
strokes_ogs.tif
102
RTVSPost2010PropOp54
 70
     1
102
RTVSPost2010Prop55
280
     0
102
RTVSPost2010PropOp55
 70
     1
102
RTVSPost2010Prop56
140
1.0
102
RTVSPost2010PropOp56
 70
     1
102
RTVSPost2010Prop57
140
1.0
102
RTVSPost2010PropOp57
 70
     1
102
RTVSPropertyOp0
 70
     1
102
RTVSPropertyOp1
 70
     1
102
RTVSPropertyOp2
 70
     1
102
RTVSPropertyOp3
 70
     1
102
RTVSPropertyOp4
 70
     1
102
RTVSPropertyOp5
 70
     1
102
RTVSPropertyOp6
 70
     1
102
RTVSPropertyOp7
 70
     1
102
RTVSPropertyOp8
 70
     1
102
RTVSPropertyOp9
 70
     1
102
RTVSPropertyOp10
 70
     1
102
RTVSPropertyOp11
 70
     1
102
RTVSPropertyOp12
 70
     1
102
RTVSPropertyOp13
 70
     1
102
RTVSPropertyOp14
 70
     1
102
RTVSPropertyOp15
 70
     1
102
RTVSPropertyOp16
 70
     1
102
RTVSPropertyOp17
 70
     1
102
RTVSPropertyOp18
 70
     1
102
RTVSPropertyOp19
 70
     1
102
RTVSPropertyOp20
 70
     1
102
RTVSPropertyOp21
 70
     1
102
RTVSPropertyOp22
 70
     1
102
RTVSPropertyOp23
 70
     1
102
RTVSPropertyOp24
 70
     1
102
RTVSPropertyOp25
 70
     1
102
RTVSPropertyOp26
 70
     1
102
RTVSPropertyOp27
 70
     1
102
RTVSPropertyOp28
 70
     1
102
RTVSPropertyOp29
 70
     1
102
RTVSPropertyOp30
 70
     1
102
RTVSPropertyOp31
 70
     1
102
RTVSPropertyOp32
 70
     1
102
RTVSPropertyOp33
 70
     1
102
RTVSPropertyOp34
 70
     1
102
RTVSPropertyOp35
 70
     1
102
RTVSPropertyOp36
 70
     1
102
RTVSPropertyOp37
 70
     1
102
RTVSPropertyOp38
 70
     1
102
RTVSPropertyOp39
 70
     1
102
RTVSPropertyOp40
 70
     1
102
RTVSPropertyOp41
 70
     1
102
RTVSPropertyOp42
 70
     1
102
RTVSPropertyOp43
 70
     1
102
RTVSPropertyOp44
 70
     1
102
RTVSPropertyOp45
 70
     1
102
RTVSPropertyOp46
 70
     1
102
RTVSPropertyOp47
 70
     1
102
RTVSPropertyOp48
 70
     1
102
RTVSPropertyOp49
 70
     1
102
RTVSPropertyOp50
 70
     1
102
RTVSPropertyOp51
 70
     0
102
RTVSPropertyOp52
 70
     0
102
RTVSPropertyOp53
 70
     1
102
RTVSPropertyOp54
 70
     1
102
RTVSPropertyOp55
 70
     1
102
RTVSPropertyOp56
 70
     1
102
RTVSPropertyOp57
 70
     1
102
RTVSPropertyOp58
 70
     1
102
RTVSPropertyOp59
 70
     1
102
RTVSPropertyOp60
 70
     1
102
RTVSPropertyOp61
 70
     1
102
RTVSPropertyOp62
 70
     1
  0
XRECORD
  5
37E
102
{ACAD_REACTORS
330
37D
102
}
330
37D
100
AcDbXrecord
280
     1
102
RTVSPost2010Prop28
280
     0
102
RTVSPost2010PropOp28
 70
     1
102
RTVSPost2010Prop29
280
     1
102
RTVSPost2010PropOp29
 70
     1
102
RTVSPost2010Prop30
280
     1
102
RTVSPost2010PropOp30
 70
     1
102
RTVSPost2010Prop31
280
     0
102
RTVSPost2010PropOp31
 70
     1
102
RTVSPost2010Prop32
280
     0
102
RTVSPost2010PropOp32
 70
     1
102
RTVSPost2010Prop33
280
     0
102
RTVSPost2010PropOp33
 70
     1
102
RTVSPost2010Prop34
280
     0
102
RTVSPost2010PropOp34
 70
     1
102
RTVSPost2010Prop35
280
     0
102
RTVSPost2010PropOp35
 70
     1
102
RTVSPost2010Prop36
280
     0
102
RTVSPost2010PropOp36
 70
     1
102
RTVSPost2010Prop37
 90
       50
102
RTVSPost2010PropOp37
 70
     1
102
RTVSPost2010Prop38
140
0.0
102
RTVSPost2010PropOp38
 70
     1
102
RTVSPost2010Prop39
140
1.0
102
RTVSPost2010PropOp39
 70
     1
102
RTVSPost2010Prop40
 90
        0
102
RTVSPost2010PropOp40
 70
     1
102
RTVSPost2010Prop41ColorIndex
 90
       18
102
RTVSPost2010Prop41ColorRGB
 90
        0
102
RTVSPost2010PropOp41
 70
     1
102
RTVSPost2010Prop42
 90
       50
102
RTVSPost2010PropOp42
 70
     1
102
RTVSPost2010Prop43
 90
        3
102
RTVSPost2010PropOp43
 70
     1
102
RTVSPost2010Prop44ColorIndex
 90
        5
102
RTVSPost2010Prop44ColorRGB
 90
      255
102
RTVSPost2010PropOp44
 70
     1
102
RTVSPost2010Prop45
280
     0
102
RTVSPost2010PropOp45
 70
     1
102
RTVSPost2010Prop46
 90
       50
102
RTVSPost2010PropOp46
 70
     1
102
RTVSPost2010Prop47
 90
       50
102
RTVSPost2010PropOp47
 70
     1
102
RTVSPost2010Prop48
 90
       50
102
RTVSPost2010PropOp48
 70
     1
102
RTVSPost2010Prop49
280
     0
102
RTVSPost2010PropOp49
 70
     1
102
RTVSPost2010Prop50
 90
       50
102
RTVSPost2010PropOp50
 70
     1
102
RTVSPost2010Prop51ColorIndex
 90
      256
102
RTVSPost2010Prop51ColorRGB
 90
-16777216
102
RTVSPost2010PropOp51
 70
     0
102
RTVSPost2010Prop52
140
1.0
102
RTVSPost2010PropOp52
 70
     0
102
RTVSPost2010Prop53
 90
        2
102
RTVSPost2010PropOp53
 70
     1
102
RTVSPost2010Prop54
  1
strokes_ogs.tif
102
RTVSPost2010PropOp54
 70
     1
102
RTVSPost2010Prop55
280
     0
102
RTVSPost2010PropOp55
 70
     1
102
RTVSPost2010Prop56
140
1.0
102
RTVSPost2010PropOp56
 70
     1
102
RTVSPost2010Prop57
140
1.0
102
RTVSPost2010PropOp57
 70
     1
102
RTVSPropertyOp0
 70
     1
102
RTVSPropertyOp1
 70
     1
102
RTVSPropertyOp2
 70
     1
102
RTVSPropertyOp3
 70
     1
102
RTVSPropertyOp4
 70
     1
102
RTVSPropertyOp5
 70
     1
102
RTVSPropertyOp6
 70
     1
102
RTVSPropertyOp7
 70
     1
102
RTVSPropertyOp8
 70
     1
102
RTVSPropertyOp9
 70
     1
102
RTVSPropertyOp10
 70
     1
102
RTVSPropertyOp11
 70
     1
102
RTVSPropertyOp12
 70
     1
102
RTVSPropertyOp13
 70
     1
102
RTVSPropertyOp14
 70
     1
102
RTVSPropertyOp15
 70
     1
102
RTVSPropertyOp16
 70
     1
102
RTVSPropertyOp17
 70
     1
102
RTVSPropertyOp18
 70
     1
102
RTVSPropertyOp19
 70
     1
102
RTVSPropertyOp20
 70
     1
102
RTVSPropertyOp21
 70
     1
102
RTVSPropertyOp22
 70
     1
102
RTVSPropertyOp23
 70
     1
102
RTVSPropertyOp24
 70
     1
102
RTVSPropertyOp25
 70
     1
102
RTVSPropertyOp26
 70
     1
102
RTVSPropertyOp27
 70
     1
102
RTVSPropertyOp28
 70
     1
102
RTVSPropertyOp29
 70
     1
102
RTVSPropertyOp30
 70
     1
102
RTVSPropertyOp31
 70
     1
102
RTVSPropertyOp32
 70
     1
102
RTVSPropertyOp33
 70
     1
102
RTVSPropertyOp34
 70
     1
102
RTVSPropertyOp35
 70
     1
102
RTVSPropertyOp36
 70
     1
102
RTVSPropertyOp37
 70
     1
102
RTVSPropertyOp38
 70
     1
102
RTVSPropertyOp39
 70
     1
102
RTVSPropertyOp40
 70
     1
102
RTVSPropertyOp41
 70
     1
102
RTVSPropertyOp42
 70
     1
102
RTVSPropertyOp43
 70
     1
102
RTVSPropertyOp44
 70
     1
102
RTVSPropertyOp45
 70
     1
102
RTVSPropertyOp46
 70
     1
102
RTVSPropertyOp47
 70
     1
102
RTVSPropertyOp48
 70
     1
102
RTVSPropertyOp49
 70
     1
102
RTVSPropertyOp50
 70
     1
102
RTVSPropertyOp51
 70
     0
102
RTVSPropertyOp52
 70
     0
102
RTVSPropertyOp53
 70
     1
102
RTVSPropertyOp54
 70
     1
102
RTVSPropertyOp55
 70
     1
102
RTVSPropertyOp56
 70
     1
102
RTVSPropertyOp57
 70
     1
102
RTVSPropertyOp58
 70
     1
102
RTVSPropertyOp59
 70
     1
102
RTVSPropertyOp60
 70
     1
102
RTVSPropertyOp61
 70
     1
102
RTVSPropertyOp62
 70
     1
  0
XRECORD
  5
370
102
{ACAD_REACTORS
330
36F
102
}
330
36F
100
AcDbXrecord
280
     1
102
RTVSPost2010Prop28
280
     0
102
RTVSPost2010PropOp28
 70
     1
102
RTVSPost2010Prop29
280
     1
102
RTVSPost2010PropOp29
 70
     1
102
RTVSPost2010Prop30
280
     1
102
RTVSPost2010PropOp30
 70
     1
102
RTVSPost2010Prop31
280
     0
102
RTVSPost2010PropOp31
 70
     1
102
RTVSPost2010Prop32
280
     0
102
RTVSPost2010PropOp32
 70
     1
102
RTVSPost2010Prop33
280
     0
102
RTVSPost2010PropOp33
 70
     1
102
RTVSPost2010Prop34
280
     0
102
RTVSPost2010PropOp34
 70
     1
102
RTVSPost2010Prop35
280
     0
102
RTVSPost2010PropOp35
 70
     1
102
RTVSPost2010Prop36
280
     0
102
RTVSPost2010PropOp36
 70
     1
102
RTVSPost2010Prop37
 90
       50
102
RTVSPost2010PropOp37
 70
     1
102
RTVSPost2010Prop38
140
0.0
102
RTVSPost2010PropOp38
 70
     1
102
RTVSPost2010Prop39
140
1.0
102
RTVSPost2010PropOp39
 70
     1
102
RTVSPost2010Prop40
 90
        0
102
RTVSPost2010PropOp40
 70
     1
102
RTVSPost2010Prop41ColorIndex
 90
       18
102
RTVSPost2010Prop41ColorRGB
 90
        0
102
RTVSPost2010PropOp41
 70
     1
102
RTVSPost2010Prop42
 90
       50
102
RTVSPost2010PropOp42
 70
     1
102
RTVSPost2010Prop43
 90
        3
102
RTVSPost2010PropOp43
 70
     1
102
RTVSPost2010Prop44ColorIndex
 90
        5
102
RTVSPost2010Prop44ColorRGB
 90
      255
102
RTVSPost2010PropOp44
 70
     1
102
RTVSPost2010Prop45
280
     0
102
RTVSPost2010PropOp45
 70
     1
102
RTVSPost2010Prop46
 90
       50
102
RTVSPost2010PropOp46
 70
     1
102
RTVSPost2010Prop47
 90
       50
102
RTVSPost2010PropOp47
 70
     1
102
RTVSPost2010Prop48
 90
       50
102
RTVSPost2010PropOp48
 70
     1
102
RTVSPost2010Prop49
280
     0
102
RTVSPost2010PropOp49
 70
     1
102
RTVSPost2010Prop50
 90
       50
102
RTVSPost2010PropOp50
 70
     1
102
RTVSPost2010Prop51ColorIndex
 90
      256
102
RTVSPost2010Prop51ColorRGB
 90
-16777216
102
RTVSPost2010PropOp51
 70
     0
102
RTVSPost2010Prop52
140
1.0
102
RTVSPost2010PropOp52
 70
     0
102
RTVSPost2010Prop53
 90
        2
102
RTVSPost2010PropOp53
 70
     1
102
RTVSPost2010Prop54
  1
strokes_ogs.tif
102
RTVSPost2010PropOp54
 70
     1
102
RTVSPost2010Prop55
280
     0
102
RTVSPost2010PropOp55
 70
     1
102
RTVSPost2010Prop56
140
1.0
102
RTVSPost2010PropOp56
 70
     1
102
RTVSPost2010Prop57
140
1.0
102
RTVSPost2010PropOp57
 70
     1
102
RTVSPropertyOp0
 70
     1
102
RTVSPropertyOp1
 70
     1
102
RTVSPropertyOp2
 70
     1
102
RTVSPropertyOp3
 70
     1
102
RTVSPropertyOp4
 70
     1
102
RTVSPropertyOp5
 70
     1
102
RTVSPropertyOp6
 70
     1
102
RTVSPropertyOp7
 70
     1
102
RTVSPropertyOp8
 70
     1
102
RTVSPropertyOp9
 70
     1
102
RTVSPropertyOp10
 70
     1
102
RTVSPropertyOp11
 70
     1
102
RTVSPropertyOp12
 70
     1
102
RTVSPropertyOp13
 70
     1
102
RTVSPropertyOp14
 70
     1
102
RTVSPropertyOp15
 70
     1
102
RTVSPropertyOp16
 70
     1
102
RTVSPropertyOp17
 70
     1
102
RTVSPropertyOp18
 70
     1
102
RTVSPropertyOp19
 70
     1
102
RTVSPropertyOp20
 70
     1
102
RTVSPropertyOp21
 70
     1
102
RTVSPropertyOp22
 70
     1
102
RTVSPropertyOp23
 70
     1
102
RTVSPropertyOp24
 70
     1
102
RTVSPropertyOp25
 70
     1
102
RTVSPropertyOp26
 70
     1
102
RTVSPropertyOp27
 70
     1
102
RTVSPropertyOp28
 70
     1
102
RTVSPropertyOp29
 70
     1
102
RTVSPropertyOp30
 70
     1
102
RTVSPropertyOp31
 70
     1
102
RTVSPropertyOp32
 70
     1
102
RTVSPropertyOp33
 70
     1
102
RTVSPropertyOp34
 70
     1
102
RTVSPropertyOp35
 70
     1
102
RTVSPropertyOp36
 70
     1
102
RTVSPropertyOp37
 70
     1
102
RTVSPropertyOp38
 70
     1
102
RTVSPropertyOp39
 70
     1
102
RTVSPropertyOp40
 70
     1
102
RTVSPropertyOp41
 70
     1
102
RTVSPropertyOp42
 70
     1
102
RTVSPropertyOp43
 70
     1
102
RTVSPropertyOp44
 70
     1
102
RTVSPropertyOp45
 70
     1
102
RTVSPropertyOp46
 70
     1
102
RTVSPropertyOp47
 70
     1
102
RTVSPropertyOp48
 70
     1
102
RTVSPropertyOp49
 70
     1
102
RTVSPropertyOp50
 70
     1
102
RTVSPropertyOp51
 70
     0
102
RTVSPropertyOp52
 70
     0
102
RTVSPropertyOp53
 70
     1
102
RTVSPropertyOp54
 70
     1
102
RTVSPropertyOp55
 70
     1
102
RTVSPropertyOp56
 70
     1
102
RTVSPropertyOp57
 70
     1
102
RTVSPropertyOp58
 70
     1
102
RTVSPropertyOp59
 70
     1
102
RTVSPropertyOp60
 70
     1
102
RTVSPropertyOp61
 70
     1
102
RTVSPropertyOp62
 70
     1
  0
XRECORD
  5
390
102
{ACAD_REACTORS
330
38F
102
}
330
38F
100
AcDbXrecord
280
     1
102
RTVSPost2010Prop28
280
     0
102
RTVSPost2010PropOp28
 70
     1
102
RTVSPost2010Prop29
280
     1
102
RTVSPost2010PropOp29
 70
     1
102
RTVSPost2010Prop30
280
     1
102
RTVSPost2010PropOp30
 70
     1
102
RTVSPost2010Prop31
280
     0
102
RTVSPost2010PropOp31
 70
     1
102
RTVSPost2010Prop32
280
     0
102
RTVSPost2010PropOp32
 70
     1
102
RTVSPost2010Prop33
280
     0
102
RTVSPost2010PropOp33
 70
     1
102
RTVSPost2010Prop34
280
     0
102
RTVSPost2010PropOp34
 70
     1
102
RTVSPost2010Prop35
280
     0
102
RTVSPost2010PropOp35
 70
     1
102
RTVSPost2010Prop36
280
     0
102
RTVSPost2010PropOp36
 70
     1
102
RTVSPost2010Prop37
 90
       50
102
RTVSPost2010PropOp37
 70
     1
102
RTVSPost2010Prop38
140
0.0
102
RTVSPost2010PropOp38
 70
     1
102
RTVSPost2010Prop39
140
1.0
102
RTVSPost2010PropOp39
 70
     1
102
RTVSPost2010Prop40
 90
        0
102
RTVSPost2010PropOp40
 70
     1
102
RTVSPost2010Prop41ColorIndex
 90
       18
102
RTVSPost2010Prop41ColorRGB
 90
        0
102
RTVSPost2010PropOp41
 70
     1
102
RTVSPost2010Prop42
 90
       50
102
RTVSPost2010PropOp42
 70
     1
102
RTVSPost2010Prop43
 90
        3
102
RTVSPost2010PropOp43
 70
     1
102
RTVSPost2010Prop44ColorIndex
 90
        5
102
RTVSPost2010Prop44ColorRGB
 90
      255
102
RTVSPost2010PropOp44
 70
     1
102
RTVSPost2010Prop45
280
     0
102
RTVSPost2010PropOp45
 70
     1
102
RTVSPost2010Prop46
 90
       50
102
RTVSPost2010PropOp46
 70
     1
102
RTVSPost2010Prop47
 90
       50
102
RTVSPost2010PropOp47
 70
     1
102
RTVSPost2010Prop48
 90
       50
102
RTVSPost2010PropOp48
 70
     1
102
RTVSPost2010Prop49
280
     0
102
RTVSPost2010PropOp49
 70
     1
102
RTVSPost2010Prop50
 90
       50
102
RTVSPost2010PropOp50
 70
     1
102
RTVSPost2010Prop51ColorIndex
 90
      256
102
RTVSPost2010Prop51ColorRGB
 90
-16777216
102
RTVSPost2010PropOp51
 70
     0
102
RTVSPost2010Prop52
140
1.0
102
RTVSPost2010PropOp52
 70
     0
102
RTVSPost2010Prop53
 90
        2
102
RTVSPost2010PropOp53
 70
     1
102
RTVSPost2010Prop54
  1
strokes_ogs.tif
102
RTVSPost2010PropOp54
 70
     1
102
RTVSPost2010Prop55
280
     0
102
RTVSPost2010PropOp55
 70
     1
102
RTVSPost2010Prop56
140
1.0
102
RTVSPost2010PropOp56
 70
     1
102
RTVSPost2010Prop57
140
1.0
102
RTVSPost2010PropOp57
 70
     1
102
RTVSPropertyOp0
 70
     1
102
RTVSPropertyOp1
 70
     1
102
RTVSPropertyOp2
 70
     1
102
RTVSPropertyOp3
 70
     1
102
RTVSPropertyOp4
 70
     1
102
RTVSPropertyOp5
 70
     1
102
RTVSPropertyOp6
 70
     1
102
RTVSPropertyOp7
 70
     1
102
RTVSPropertyOp8
 70
     1
102
RTVSPropertyOp9
 70
     1
102
RTVSPropertyOp10
 70
     1
102
RTVSPropertyOp11
 70
     1
102
RTVSPropertyOp12
 70
     1
102
RTVSPropertyOp13
 70
     1
102
RTVSPropertyOp14
 70
     1
102
RTVSPropertyOp15
 70
     1
102
RTVSPropertyOp16
 70
     1
102
RTVSPropertyOp17
 70
     1
102
RTVSPropertyOp18
 70
     1
102
RTVSPropertyOp19
 70
     1
102
RTVSPropertyOp20
 70
     1
102
RTVSPropertyOp21
 70
     1
102
RTVSPropertyOp22
 70
     1
102
RTVSPropertyOp23
 70
     1
102
RTVSPropertyOp24
 70
     1
102
RTVSPropertyOp25
 70
     1
102
RTVSPropertyOp26
 70
     1
102
RTVSPropertyOp27
 70
     1
102
RTVSPropertyOp28
 70
     1
102
RTVSPropertyOp29
 70
     1
102
RTVSPropertyOp30
 70
     1
102
RTVSPropertyOp31
 70
     1
102
RTVSPropertyOp32
 70
     1
102
RTVSPropertyOp33
 70
     1
102
RTVSPropertyOp34
 70
     1
102
RTVSPropertyOp35
 70
     1
102
RTVSPropertyOp36
 70
     1
102
RTVSPropertyOp37
 70
     1
102
RTVSPropertyOp38
 70
     1
102
RTVSPropertyOp39
 70
     1
102
RTVSPropertyOp40
 70
     1
102
RTVSPropertyOp41
 70
     1
102
RTVSPropertyOp42
 70
     1
102
RTVSPropertyOp43
 70
     1
102
RTVSPropertyOp44
 70
     1
102
RTVSPropertyOp45
 70
     1
102
RTVSPropertyOp46
 70
     1
102
RTVSPropertyOp47
 70
     1
102
RTVSPropertyOp48
 70
     1
102
RTVSPropertyOp49
 70
     1
102
RTVSPropertyOp50
 70
     1
102
RTVSPropertyOp51
 70
     0
102
RTVSPropertyOp52
 70
     0
102
RTVSPropertyOp53
 70
     1
102
RTVSPropertyOp54
 70
     1
102
RTVSPropertyOp55
 70
     1
102
RTVSPropertyOp56
 70
     1
102
RTVSPropertyOp57
 70
     1
102
RTVSPropertyOp58
 70
     1
102
RTVSPropertyOp59
 70
     1
102
RTVSPropertyOp60
 70
     1
102
RTVSPropertyOp61
 70
     1
102
RTVSPropertyOp62
 70
     1
  0
ENDSEC
  0
EOF
