  0
SECTION
  2
HEADER
  9
$ACADVER
  1
AC1018
  9
$ACADMAINTVER
 70
   104
  9
$DWGCODEPAGE
  3
ANSI_1250
  9
$LASTSAVEDBY
  1
wq7085
  9
$INSBASE
 10
0.0
 20
0.0
 30
0.0
  9
$EXTMIN
 10
185.2894053333333
 20
118.534924
 30
0.0
  9
$EXTMAX
 10
448.464751
 20
347.6965206666668
 30
0.0
  9
$LIMMIN
 10
-0.5
 20
-0.5
  9
$LIMMAX
 10
5.0
 20
5.0
  9
$ORTHOMODE
 70
     0
  9
$REGENMODE
 70
     1
  9
$FILLMODE
 70
     1
  9
$QTEXTMODE
 70
     0
  9
$MIRRTEXT
 70
     1
  9
$LTSCALE
 40
1.0
  9
$ATTMODE
 70
     1
  9
$TEXTSIZE
 40
0.2
  9
$TRACEWID
 40
0.05
  9
$TEXTSTYLE
  7
Standard
  9
$CLAYER
  8
0
  9
$CELTYPE
  6
ByLayer
  9
$CECOLOR
 62
   256
  9
$CELTSCALE
 40
1.0
  9
$DISPSILH
 70
     0
  9
$DIMSCALE
 40
1.0
  9
$DIMASZ
 40
0.18
  9
$DIMEXO
 40
0.0625
  9
$DIMDLI
 40
0.38
  9
$DIMRND
 40
0.0
  9
$DIMDLE
 40
0.0
  9
$DIMEXE
 40
0.18
  9
$DIMTP
 40
0.0
  9
$DIMTM
 40
0.0
  9
$DIMTXT
 40
0.18
  9
$DIMCEN
 40
0.09
  9
$DIMTSZ
 40
0.0
  9
$DIMTOL
 70
     0
  9
$DIMLIM
 70
     0
  9
$DIMTIH
 70
     1
  9
$DIMTOH
 70
     1
  9
$DIMSE1
 70
     0
  9
$DIMSE2
 70
     0
  9
$DIMTAD
 70
     0
  9
$DIMZIN
 70
     0
  9
$DIMBLK
  1

  9
$DIMASO
 70
     1
  9
$DIMSHO
 70
     1
  9
$DIMPOST
  1

  9
$DIMAPOST
  1

  9
$DIMALT
 70
     0
  9
$DIMALTD
 70
     2
  9
$DIMALTF
 40
25.4
  9
$DIMLFAC
 40
1.0
  9
$DIMTOFL
 70
     0
  9
$DIMTVP
 40
0.0
  9
$DIMTIX
 70
     0
  9
$DIMSOXD
 70
     0
  9
$DIMSAH
 70
     0
  9
$DIMBLK1
  1

  9
$DIMBLK2
  1

  9
$DIMSTYLE
  2
Standard
  9
$DIMCLRD
 70
     0
  9
$DIMCLRE
 70
     0
  9
$DIMCLRT
 70
     0
  9
$DIMTFAC
 40
1.0
  9
$DIMGAP
 40
0.09
  9
$DIMJUST
 70
     0
  9
$DIMSD1
 70
     0
  9
$DIMSD2
 70
     0
  9
$DIMTOLJ
 70
     1
  9
$DIMTZIN
 70
     0
  9
$DIMALTZ
 70
     0
  9
$DIMALTTZ
 70
     0
  9
$DIMUPT
 70
     0
  9
$DIMDEC
 70
     4
  9
$DIMTDEC
 70
     4
  9
$DIMALTU
 70
     2
  9
$DIMALTTD
 70
     2
  9
$DIMTXSTY
  7
Standard
  9
$DIMAUNIT
 70
     0
  9
$DIMADEC
 70
     0
  9
$DIMALTRND
 40
0.0
  9
$DIMAZIN
 70
     0
  9
$DIMDSEP
 70
    46
  9
$DIMATFIT
 70
     3
  9
$DIMFRAC
 70
     0
  9
$DIMLDRBLK
  1

  9
$DIMLUNIT
 70
     2
  9
$DIMLWD
 70
    -2
  9
$DIMLWE
 70
    -2
  9
$DIMTMOVE
 70
     0
  9
$LUNITS
 70
     2
  9
$LUPREC
 70
     4
  9
$SKETCHINC
 40
0.1
  9
$FILLETRAD
 40
0.5
  9
$AUNITS
 70
     0
  9
$AUPREC
 70
     0
  9
$MENU
  1
.
  9
$ELEVATION
 40
0.0
  9
$PELEVATION
 40
0.0
  9
$THICKNESS
 40
0.0
  9
$LIMCHECK
 70
     0
  9
$CHAMFERA
 40
0.0
  9
$CHAMFERB
 40
0.0
  9
$CHAMFERC
 40
0.0
  9
$CHAMFERD
 40
0.0
  9
$SKPOLY
 70
     0
  9
$TDCREATE
 40
2459095.399386574
  9
$TDUCREATE
 40
2459095.316062500
  9
$TDUPDATE
 40
2459095.418344908
  9
$TDUUPDATE
 40
2459095.335011574
  9
$TDINDWG
 40
0.0003009375
  9
$TDUSRTIMER
 40
0.0003009375
  9
$USRTIMER
 70
     1
  9
$ANGBASE
 50
0.0
  9
$ANGDIR
 70
     0
  9
$PDMODE
 70
     0
  9
$PDSIZE
 40
0.0
  9
$PLINEWID
 40
0.0
  9
$SPLFRAME
 70
     0
  9
$SPLINETYPE
 70
     6
  9
$SPLINESEGS
 70
     8
  9
$HANDSEED
  5
396
  9
$SURFTAB1
 70
     6
  9
$SURFTAB2
 70
     6
  9
$SURFTYPE
 70
     6
  9
$SURFU
 70
     6
  9
$SURFV
 70
     6
  9
$UCSBASE
  2

  9
$UCSNAME
  2

  9
$UCSORG
 10
274.404842
 20
288.907994
 30
0.0
  9
$UCSXDIR
 10
1.0
 20
0.0
 30
0.0
  9
$UCSYDIR
 10
0.0
 20
1.0
 30
0.0
  9
$UCSORTHOREF
  2

  9
$UCSORTHOVIEW
 70
     0
  9
$UCSORGTOP
 10
0.0
 20
0.0
 30
0.0
  9
$UCSORGBOTTOM
 10
0.0
 20
0.0
 30
0.0
  9
$UCSORGLEFT
 10
0.0
 20
0.0
 30
0.0
  9
$UCSORGRIGHT
 10
0.0
 20
0.0
 30
0.0
  9
$UCSORGFRONT
 10
0.0
 20
0.0
 30
0.0
  9
$UCSORGBACK
 10
0.0
 20
0.0
 30
0.0
  9
$PUCSBASE
  2

  9
$PUCSNAME
  2

  9
$PUCSORG
 10
0.0
 20
0.0
 30
0.0
  9
$PUCSXDIR
 10
1.0
 20
0.0
 30
0.0
  9
$PUCSYDIR
 10
0.0
 20
1.0
 30
0.0
  9
$PUCSORTHOREF
  2

  9
$PUCSORTHOVIEW
 70
     0
  9
$PUCSORGTOP
 10
0.0
 20
0.0
 30
0.0
  9
$PUCSORGBOTTOM
 10
0.0
 20
0.0
 30
0.0
  9
$PUCSORGLEFT
 10
0.0
 20
0.0
 30
0.0
  9
$PUCSORGRIGHT
 10
0.0
 20
0.0
 30
0.0
  9
$PUCSORGFRONT
 10
0.0
 20
0.0
 30
0.0
  9
$PUCSORGBACK
 10
0.0
 20
0.0
 30
0.0
  9
$USERI1
 70
     0
  9
$USERI2
 70
     0
  9
$USERI3
 70
     0
  9
$USERI4
 70
     0
  9
$USERI5
 70
     0
  9
$USERR1
 40
0.0
  9
$USERR2
 40
0.0
  9
$USERR3
 40
0.0
  9
$USERR4
 40
0.0
  9
$USERR5
 40
0.0
  9
$WORLDVIEW
 70
     1
  9
$SHADEDGE
 70
     3
  9
$SHADEDIF
 70
    70
  9
$TILEMODE
 70
     1
  9
$MAXACTVP
 70
    64
  9
$PINSBASE
 10
0.0
 20
0.0
 30
0.0
  9
$PLIMCHECK
 70
     0
  9
$PEXTMIN
 10
-0.5
 20
-0.5
 30
-0.5
  9
$PEXTMAX
 10
5.0
 20
5.0
 30
5.0
  9
$PLIMMIN
 10
-0.5
 20
-0.5
  9
$PLIMMAX
 10
5.0
 20
5.0
  9
$UNITMODE
 70
     0
  9
$VISRETAIN
 70
     1
  9
$PLINEGEN
 70
     0
  9
$PSLTSCALE
 70
     1
  9
$TREEDEPTH
 70
  3020
  9
$CMLSTYLE
  2
Standard
  9
$CMLJUST
 70
     0
  9
$CMLSCALE
 40
1.0
  9
$PROXYGRAPHICS
 70
     1
  9
$MEASUREMENT
 70
     1
  9
$CELWEIGHT
370
    13
  9
$ENDCAPS
280
     0
  9
$JOINSTYLE
280
     0
  9
$LWDISPLAY
290
     0
  9
$INSUNITS
 70
     4
  9
$HYPERLINKBASE
  1

  9
$STYLESHEET
  1

  9
$XEDIT
290
     1
  9
$CEPSNTYPE
380
     0
  9
$PSTYLEMODE
290
     1
  9
$FINGERPRINTGUID
  2
{CE1C694F-F2C7-4ECF-850B-CE0E14DB944E}
  9
$VERSIONGUID
  2
{8194B5B4-BE8F-BE42-9693-BAF8DD16D5AB}
  9
$EXTNAMES
290
     1
  9
$PSVPSCALE
 40
0.0
  9
$OLESTARTUP
290
     0
  9
$SORTENTS
280
   127
  9
$INDEXCTL
280
     0
  9
$HIDETEXT
280
     1
  9
$XCLIPFRAME
290
     0
  9
$HALOGAP
280
     0
  9
$OBSCOLOR
 70
   257
  9
$OBSLTYPE
280
     0
  9
$INTERSECTIONDISPLAY
280
     0
  9
$INTERSECTIONCOLOR
 70
   257
  9
$DIMASSOC
280
     2
  9
$PROJECTNAME
  1

  0
ENDSEC
  0
SECTION
  2
CLASSES
  0
CLASS
  1
ACDBDICTIONARYWDFLT
  2
AcDbDictionaryWithDefault
  3
ObjectDBX Classes
 90
        0
 91
        1
280
     0
281
     0
  0
CLASS
  1
VISUALSTYLE
  2
AcDbVisualStyle
  3
ObjectDBX Classes
 90
     4095
 91
       24
280
     0
281
     0
  0
CLASS
  1
MATERIAL
  2
AcDbMaterial
  3
ObjectDBX Classes
 90
     1153
 91
        3
280
     0
281
     0
  0
CLASS
  1
SCALE
  2
AcDbScale
  3
ObjectDBX Classes
 90
     1153
 91
       33
280
     0
281
     0
  0
CLASS
  1
TABLESTYLE
  2
AcDbTableStyle
  3
ObjectDBX Classes
 90
     4095
 91
        1
280
     0
281
     0
  0
CLASS
  1
MLEADERSTYLE
  2
AcDbMLeaderStyle
  3
ACDB_MLEADERSTYLE_CLASS
 90
     4095
 91
        1
280
     0
281
     0
  0
CLASS
  1
SUN
  2
AcDbSun
  3
SCENEOE
 90
     1153
 91
        0
280
     0
281
     0
  0
CLASS
  1
DIMASSOC
  2
AcDbDimAssoc
  3
"AcDbDimAssoc|Product Desc:     AcDim ARX App For Dimension|Company:          Autodesk, Inc.|WEB Address:      www.autodesk.com"
 90
        0
 91
        7
280
     0
281
     0
  0
CLASS
  1
DICTIONARYVAR
  2
AcDbDictionaryVar
  3
ObjectDBX Classes
 90
        0
 91
        8
280
     0
281
     0
  0
CLASS
  1
CELLSTYLEMAP
  2
AcDbCellStyleMap
  3
ObjectDBX Classes
 90
     1152
 91
        2
280
     0
281
     0
  0
CLASS
  1
ACDBSECTIONVIEWSTYLE
  2
AcDbSectionViewStyle
  3
ObjectDBX Classes
 90
     1025
 91
        1
280
     0
281
     0
  0
CLASS
  1
ACDBDETAILVIEWSTYLE
  2
AcDbDetailViewStyle
  3
ObjectDBX Classes
 90
     1025
 91
        1
280
     0
281
     0
  0
CLASS
  1
SORTENTSTABLE
  2
AcDbSortentsTable
  3
ObjectDBX Classes
 90
        0
 91
        1
280
     0
281
     0
  0
ENDSEC
  0
SECTION
  2
TABLES
  0
TABLE
  2
VPORT
  5
8
330
0
100
AcDbSymbolTable
 70
    16
  0
VPORT
  5
29
330
8
100
AcDbSymbolTableRecord
100
AcDbViewportTableRecord
  2
*Active
 70
     0
 10
0.0
 20
0.0
 11
1.0
 21
1.0
 12
325.1927977279223
 22
288.1739130003629
 13
0.0
 23
0.0
 14
0.5
 24
0.5
 15
0.5
 25
0.5
 16
0.0
 26
0.0
 36
1.0
 17
0.0
 27
0.0
 37
0.0
 40
211.8004416583833
 41
2.292712066905615
 42
50.0
 43
463.199444
 44
-463.199444
 50
0.0
 51
0.0
 71
     0
 72
   100
 73
     1
 74
     3
 75
     0
 76
     0
 77
     0
 78
     0
281
     0
 65
     1
110
274.404842
120
288.907994
130
0.0
111
1.0
121
0.0
131
0.0
112
0.0
122
1.0
132
0.0
 79
     0
146
0.0
1001
ACAD_NAV_VCDISPLAY
1070
     3
  0
VPORT
  5
29A
330
8
100
AcDbSymbolTableRecord
100
AcDbViewportTableRecord
  2
L1
 70
     0
 10
0.0
 20
0.0
 11
1.0
 21
1.0
 12
316.372871
 22
232.96988
 13
0.0
 23
0.0
 14
0.5
 24
0.5
 15
0.5
 25
0.5
 16
0.0
 26
0.0
 36
1.0
 17
0.0
 27
0.0
 37
0.0
 40
207.433333
 41
0.085602
 42
50.0
 43
463.199444
 44
-463.199444
 50
0.0
 51
0.0
 71
     0
 72
   100
 73
     1
 74
     3
 75
     0
 76
     0
 77
     0
 78
     0
281
     0
 65
     1
110
0.0
120
0.0
130
0.0
111
1.0
121
0.0
131
0.0
112
0.0
122
1.0
132
0.0
 79
     0
146
0.0
  0
VPORT
  5
29B
330
8
100
AcDbSymbolTableRecord
100
AcDbViewportTableRecord
  2
L2
 70
     0
 10
0.0
 20
0.0
 11
0.5
 21
1.0
 12
0.0
 22
0.0
 13
0.0
 23
0.0
 14
0.5
 24
0.5
 15
0.5
 25
0.5
 16
0.0
 26
-1.0
 36
0.0
 17
0.0
 27
0.0
 37
0.0
 40
1316.18997
 41
0.013491
 42
50.0
 43
678.00864
 44
-678.00864
 50
0.0
 51
0.0
 71
     0
 72
   100
 73
     1
 74
     3
 75
     0
 76
     0
 77
     0
 78
     0
281
     0
 65
     1
110
0.0
120
0.0
130
0.0
111
1.0
121
0.0
131
0.0
112
0.0
122
1.0
132
0.0
 79
     0
146
0.0
  0
VPORT
  5
29C
330
8
100
AcDbSymbolTableRecord
100
AcDbViewportTableRecord
  2
L2
 70
     0
 10
0.5
 20
0.0
 11
1.0
 21
1.0
 12
0.0
 22
0.0
 13
0.0
 23
0.0
 14
0.5
 24
0.5
 15
0.5
 25
0.5
 16
1.0
 26
0.0
 36
0.0
 17
0.0
 27
0.0
 37
0.0
 40
1316.18997
 41
0.013491
 42
50.0
 43
666.2177989999999
 44
-666.2177989999999
 50
0.0
 51
0.0
 71
     0
 72
   100
 73
     1
 74
     3
 75
     0
 76
     0
 77
     0
 78
     0
281
     0
 65
     1
110
0.0
120
0.0
130
0.0
111
1.0
121
0.0
131
0.0
112
0.0
122
1.0
132
0.0
 79
     0
146
0.0
  0
VPORT
  5
29D
330
8
100
AcDbSymbolTableRecord
100
AcDbViewportTableRecord
  2
L3
 70
     0
 10
0.0
 20
0.5
 11
1.0
 21
1.0
 12
316.372871
 22
232.96988
 13
0.0
 23
0.0
 14
0.5
 24
0.5
 15
0.5
 25
0.5
 16
0.0
 26
0.0
 36
1.0
 17
0.0
 27
0.0
 37
0.0
 40
207.433333
 41
0.085602
 42
50.0
 43
463.199444
 44
-463.199444
 50
0.0
 51
0.0
 71
     0
 72
   100
 73
     1
 74
     3
 75
     0
 76
     0
 77
     0
 78
     0
281
     0
 65
     1
110
0.0
120
0.0
130
0.0
111
1.0
121
0.0
131
0.0
112
0.0
122
1.0
132
0.0
 79
     0
146
0.0
  0
VPORT
  5
29E
330
8
100
AcDbSymbolTableRecord
100
AcDbViewportTableRecord
  2
L3
 70
     0
 10
0.0
 20
0.0
 11
1.0
 21
0.5
 12
0.0
 22
0.0
 13
0.0
 23
0.0
 14
0.5
 24
0.5
 15
0.5
 25
0.5
 16
0.0
 26
-1.0
 36
0.0
 17
0.0
 27
0.0
 37
0.0
 40
1316.18997
 41
0.013491
 42
50.0
 43
678.00864
 44
-678.00864
 50
0.0
 51
0.0
 71
     0
 72
   100
 73
     1
 74
     3
 75
     0
 76
     0
 77
     0
 78
     0
281
     0
 65
     1
110
0.0
120
0.0
130
0.0
111
1.0
121
0.0
131
0.0
112
0.0
122
1.0
132
0.0
 79
     0
146
0.0
  0
VPORT
  5
29F
330
8
100
AcDbSymbolTableRecord
100
AcDbViewportTableRecord
  2
L4
 70
     0
 10
0.0
 20
0.5
 11
0.5
 21
1.0
 12
316.372871
 22
232.96988
 13
0.0
 23
0.0
 14
0.5
 24
0.5
 15
0.5
 25
0.5
 16
0.0
 26
0.0
 36
1.0
 17
0.0
 27
0.0
 37
0.0
 40
207.433333
 41
0.085602
 42
50.0
 43
463.199444
 44
-463.199444
 50
0.0
 51
0.0
 71
     0
 72
   100
 73
     1
 74
     3
 75
     0
 76
     0
 77
     0
 78
     0
281
     0
 65
     1
110
0.0
120
0.0
130
0.0
111
1.0
121
0.0
131
0.0
112
0.0
122
1.0
132
0.0
 79
     0
146
0.0
  0
VPORT
  5
2A0
330
8
100
AcDbSymbolTableRecord
100
AcDbViewportTableRecord
  2
L4
 70
     0
 10
0.0
 20
0.0
 11
0.5
 21
0.5
 12
0.0
 22
0.0
 13
0.0
 23
0.0
 14
0.5
 24
0.5
 15
0.5
 25
0.5
 16
0.0
 26
-1.0
 36
0.0
 17
0.0
 27
0.0
 37
0.0
 40
1316.18997
 41
0.013491
 42
50.0
 43
678.00864
 44
-678.00864
 50
0.0
 51
0.0
 71
     0
 72
   100
 73
     1
 74
     3
 75
     0
 76
     0
 77
     0
 78
     0
281
     0
 65
     1
110
0.0
120
0.0
130
0.0
111
1.0
121
0.0
131
0.0
112
0.0
122
1.0
132
0.0
 79
     0
146
0.0
  0
VPORT
  5
2A1
330
8
100
AcDbSymbolTableRecord
100
AcDbViewportTableRecord
  2
L4
 70
     0
 10
0.5
 20
0.0
 11
1.0
 21
0.5
 12
0.0
 22
0.0
 13
0.0
 23
0.0
 14
0.5
 24
0.5
 15
0.5
 25
0.5
 16
1.0
 26
0.0
 36
0.0
 17
0.0
 27
0.0
 37
0.0
 40
1316.18997
 41
0.013491
 42
50.0
 43
666.2177989999999
 44
-666.2177989999999
 50
0.0
 51
0.0
 71
     0
 72
   100
 73
     1
 74
     3
 75
     0
 76
     0
 77
     0
 78
     0
281
     0
 65
     1
110
0.0
120
0.0
130
0.0
111
1.0
121
0.0
131
0.0
112
0.0
122
1.0
132
0.0
 79
     0
146
0.0
  0
VPORT
  5
2A2
330
8
100
AcDbSymbolTableRecord
100
AcDbViewportTableRecord
  2
L4
 70
     0
 10
0.5
 20
0.5
 11
1.0
 21
1.0
 12
0.0
 22
0.0
 13
0.0
 23
0.0
 14
0.5
 24
0.5
 15
0.5
 25
0.5
 16
0.5773502691896259
 26
-0.5773502691896259
 36
0.5773502691896259
 17
0.0
 27
0.0
 37
0.0
 40
1292.532264
 41
0.013738
 42
50.0
 43
673.245608
 44
-673.245608
 50
0.0
 51
0.0
 71
     0
 72
   100
 73
     1
 74
     3
 75
     0
 76
     0
 77
     0
 78
     0
281
     0
 65
     1
110
0.0
120
0.0
130
0.0
111
1.0
121
0.0
131
0.0
112
0.0
122
1.0
132
0.0
 79
     0
146
0.0
  0
VPORT
  5
2A3
330
8
100
AcDbSymbolTableRecord
100
AcDbViewportTableRecord
  2
L6
 70
     0
 10
0.0
 20
0.5
 11
0.333333
 21
1.0
 12
0.0
 22
0.0
 13
0.0
 23
0.0
 14
0.5
 24
0.5
 15
0.5
 25
0.5
 16
0.7188730927569434
 26
-0.5850486126764433
 36
0.3754192287502549
 17
0.0
 27
0.0
 37
0.0
 40
1364.064247
 41
0.013018
 42
50.0
 43
706.2613849999999
 44
-706.2613849999999
 50
0.0
 51
0.0
 71
     0
 72
   100
 73
     1
 74
     3
 75
     0
 76
     0
 77
     0
 78
     0
281
     0
 65
     1
110
0.0
120
0.0
130
0.0
111
1.0
121
0.0
131
0.0
112
0.0
122
1.0
132
0.0
 79
     0
146
0.0
  0
VPORT
  5
2A4
330
8
100
AcDbSymbolTableRecord
100
AcDbViewportTableRecord
  2
L6
 70
     0
 10
0.0
 20
0.0
 11
0.333333
 21
0.5
 12
0.0
 22
0.0
 13
0.0
 23
0.0
 14
0.5
 24
0.5
 15
0.5
 25
0.5
 16
-1.0
 26
0.0
 36
0.0
 17
0.0
 27
0.0
 37
0.0
 40
1316.18997
 41
0.013491
 42
50.0
 43
666.2177989999999
 44
-666.2177989999999
 50
0.0
 51
0.0
 71
     0
 72
   100
 73
     1
 74
     3
 75
     0
 76
     0
 77
     0
 78
     0
281
     0
 65
     1
110
0.0
120
0.0
130
0.0
111
1.0
121
0.0
131
0.0
112
0.0
122
1.0
132
0.0
 79
     0
146
0.0
  0
VPORT
  5
2A5
330
8
100
AcDbSymbolTableRecord
100
AcDbViewportTableRecord
  2
L6
 70
     0
 10
0.333333
 20
0.5
 11
0.666667
 21
1.0
 12
316.372871
 22
232.96988
 13
0.0
 23
0.0
 14
0.5
 24
0.5
 15
0.5
 25
0.5
 16
0.0
 26
0.0
 36
1.0
 17
0.0
 27
0.0
 37
0.0
 40
207.433333
 41
0.085602
 42
50.0
 43
463.199444
 44
-463.199444
 50
0.0
 51
0.0
 71
     0
 72
   100
 73
     1
 74
     3
 75
     0
 76
     0
 77
     0
 78
     0
281
     0
 65
     1
110
0.0
120
0.0
130
0.0
111
1.0
121
0.0
131
0.0
112
0.0
122
1.0
132
0.0
 79
     0
146
0.0
  0
VPORT
  5
2A6
330
8
100
AcDbSymbolTableRecord
100
AcDbViewportTableRecord
  2
L6
 70
     0
 10
0.333333
 20
0.0
 11
0.666667
 21
0.5
 12
0.0
 22
0.0
 13
0.0
 23
0.0
 14
0.5
 24
0.5
 15
0.5
 25
0.5
 16
0.0
 26
-1.0
 36
0.0
 17
0.0
 27
0.0
 37
0.0
 40
1316.18997
 41
0.013491
 42
50.0
 43
678.00864
 44
-678.00864
 50
0.0
 51
0.0
 71
     0
 72
   100
 73
     1
 74
     3
 75
     0
 76
     0
 77
     0
 78
     0
281
     0
 65
     1
110
0.0
120
0.0
130
0.0
111
1.0
121
0.0
131
0.0
112
0.0
122
1.0
132
0.0
 79
     0
146
0.0
  0
VPORT
  5
2A7
330
8
100
AcDbSymbolTableRecord
100
AcDbViewportTableRecord
  2
L6
 70
     0
 10
0.666667
 20
0.5
 11
1.0
 21
1.0
 12
0.0
 22
0.0
 13
0.0
 23
0.0
 14
0.5
 24
0.5
 15
0.5
 25
0.5
 16
0.5773502691896259
 26
-0.5773502691896259
 36
0.5773502691896259
 17
0.0
 27
0.0
 37
0.0
 40
1292.532264
 41
0.013738
 42
50.0
 43
673.245608
 44
-673.245608
 50
0.0
 51
0.0
 71
     0
 72
   100
 73
     1
 74
     3
 75
     0
 76
     0
 77
     0
 78
     0
281
     0
 65
     1
110
0.0
120
0.0
130
0.0
111
1.0
121
0.0
131
0.0
112
0.0
122
1.0
132
0.0
 79
     0
146
0.0
  0
VPORT
  5
2A8
330
8
100
AcDbSymbolTableRecord
100
AcDbViewportTableRecord
  2
L6
 70
     0
 10
0.666667
 20
0.0
 11
1.0
 21
0.5
 12
0.0
 22
0.0
 13
0.0
 23
0.0
 14
0.5
 24
0.5
 15
0.5
 25
0.5
 16
1.0
 26
0.0
 36
0.0
 17
0.0
 27
0.0
 37
0.0
 40
1316.18997
 41
0.013491
 42
50.0
 43
666.2177989999999
 44
-666.2177989999999
 50
0.0
 51
0.0
 71
     0
 72
   100
 73
     1
 74
     3
 75
     0
 76
     0
 77
     0
 78
     0
281
     0
 65
     1
110
0.0
120
0.0
130
0.0
111
1.0
121
0.0
131
0.0
112
0.0
122
1.0
132
0.0
 79
     0
146
0.0
  0
ENDTAB
  0
TABLE
  2
LTYPE
  5
5
330
0
100
AcDbSymbolTable
 70
     7
  0
LTYPE
  5
14
330
5
100
AcDbSymbolTableRecord
100
AcDbLinetypeTableRecord
  2
ByBlock
 70
     0
  3

 72
    65
 73
     0
 40
0.0
  0
LTYPE
  5
15
330
5
100
AcDbSymbolTableRecord
100
AcDbLinetypeTableRecord
  2
ByLayer
 70
     0
  3

 72
    65
 73
     0
 40
0.0
  0
LTYPE
  5
16
330
5
100
AcDbSymbolTableRecord
100
AcDbLinetypeTableRecord
  2
Continuous
 70
     0
  3
Solid line
 72
    65
 73
     0
 40
0.0
  0
LTYPE
  5
6E
330
5
100
AcDbSymbolTableRecord
100
AcDbLinetypeTableRecord
  2
CENTER
 70
     0
  3
____ _ ____ _ ____ _ ____
 72
    65
 73
     4
 40
47.4
 49
22.0
 74
     4
 75
     0
340
0
 46
0.0
 50
0.0
 44
0.0
 45
0.0
 49
-8.5
 74
     4
 75
     0
340
0
 46
0.0
 50
0.0
 44
0.0
 45
0.0
 49
8.5
 74
     4
 75
     0
340
0
 46
0.0
 50
0.0
 44
0.0
 45
0.0
 49
-8.5
 74
     4
 75
     0
340
0
 46
0.0
 50
0.0
 44
0.0
 45
0.0
  0
LTYPE
  5
6F
330
5
100
AcDbSymbolTableRecord
100
AcDbLinetypeTableRecord
  2
DASHDOT
 70
     0
  3
_._._._._._._._._._._._._._._._.
 72
    65
 73
     4
 40
70.0
 49
31.0
 74
     4
 75
     0
340
0
 46
0.0
 50
0.0
 44
0.0
 45
0.0
 49
-13.0
 74
     4
 75
     0
340
0
 46
0.0
 50
0.0
 44
0.0
 45
0.0
 49
13.0
 74
     4
 75
     0
340
0
 46
0.0
 50
0.0
 44
0.0
 45
0.0
 49
-13.0
 74
     4
 75
     0
340
0
 46
0.0
 50
0.0
 44
0.0
 45
0.0
  0
LTYPE
  5
70
330
5
100
AcDbSymbolTableRecord
100
AcDbLinetypeTableRecord
  2
DASHED
 70
     0
  3
__ __ __ __ __ __ __ __ __
 72
    65
 73
     2
 40
25.72
 49
12.86
 74
     4
 75
     0
340
0
 46
0.0
 50
0.0
 44
0.0
 45
0.0
 49
-12.86
 74
     4
 75
     0
340
0
 46
0.0
 50
0.0
 44
0.0
 45
0.0
  0
LTYPE
  5
71
330
5
100
AcDbSymbolTableRecord
100
AcDbLinetypeTableRecord
  2
DOT
 70
     0
  3
.........................
 72
    65
 73
     2
 40
10.0
 49
0.0
 74
     4
 75
     0
340
0
 46
0.0
 50
0.0
 44
0.0
 45
0.0
 49
-10.0
 74
     4
 75
     0
340
0
 46
0.0
 50
0.0
 44
0.0
 45
0.0
  0
LTYPE
  5
72
330
5
100
AcDbSymbolTableRecord
100
AcDbLinetypeTableRecord
  2
PHANTOM
 70
     0
  3
____ _ _ ____ _ _ _____ _ _ ____
 72
    65
 73
     6
 40
50.5
 49
18.0
 74
     4
 75
     0
340
0
 46
0.0
 50
0.0
 44
0.0
 45
0.0
 49
-6.5
 74
     4
 75
     0
340
0
 46
0.0
 50
0.0
 44
0.0
 45
0.0
 49
6.5
 74
     4
 75
     0
340
0
 46
0.0
 50
0.0
 44
0.0
 45
0.0
 49
-6.5
 74
     4
 75
     0
340
0
 46
0.0
 50
0.0
 44
0.0
 45
0.0
 49
6.5
 74
     4
 75
     0
340
0
 46
0.0
 50
0.0
 44
0.0
 45
0.0
 49
-6.5
 74
     4
 75
     0
340
0
 46
0.0
 50
0.0
 44
0.0
 45
0.0
  0
LTYPE
  5
338
330
5
100
AcDbSymbolTableRecord
100
AcDbLinetypeTableRecord
  2
CENTER2
 70
     0
  3
Center (.5x) ___ _ ___ _ ___ _ ___ _ ___ _ ___
 72
    65
 73
     4
 40
1.125
 49
0.75
 74
     0
 49
-0.125
 74
     0
 49
0.125
 74
     0
 49
-0.125
 74
     0
  0
ENDTAB
  0
TABLE
  2
LAYER
  5
2
330
0
100
AcDbSymbolTable
 70
    22
  0
LAYER
  5
10
102
{ACAD_XDICTIONARY
360
343
102
}
330
2
100
AcDbSymbolTableRecord
100
AcDbLayerTableRecord
  2
0
 70
     0
 62
     7
  6
Continuous
370
    -3
390
F
  0
LAYER
  5
1F4
330
2
100
AcDbSymbolTableRecord
100
AcDbLayerTableRecord
  2
Defpoints
 70
     0
 62
     7
  6
Continuous
290
     0
370
    -3
390
F
  0
LAYER
  5
335
102
{ACAD_XDICTIONARY
360
345
102
}
330
2
100
AcDbSymbolTableRecord
100
AcDbLayerTableRecord
  2
1
 70
     0
 62
     4
  6
Continuous
370
    -3
390
F
  0
LAYER
  5
336
102
{ACAD_XDICTIONARY
360
347
102
}
330
2
100
AcDbSymbolTableRecord
100
AcDbLayerTableRecord
  2
2
 70
     0
 62
     7
  6
Continuous
370
    -3
390
F
  0
LAYER
  5
337
102
{ACAD_XDICTIONARY
360
349
102
}
330
2
100
AcDbSymbolTableRecord
100
AcDbLayerTableRecord
  2
4
 70
     0
 62
     2
  6
CENTER2
370
    -3
390
F
  0
LAYER
  5
339
102
{ACAD_XDICTIONARY
360
34B
102
}
330
2
100
AcDbSymbolTableRecord
100
AcDbLayerTableRecord
  2
SK1
 70
     0
 62
     4
  6
Continuous
370
    -3
390
F
  0
LAYER
  5
33A
102
{ACAD_XDICTIONARY
360
34D
102
}
330
2
100
AcDbSymbolTableRecord
100
AcDbLayerTableRecord
  2
SK2
 70
     0
 62
     7
  6
Continuous
370
    -3
390
F
  0
LAYER
  5
33C
102
{ACAD_XDICTIONARY
360
34F
102
}
330
2
100
AcDbSymbolTableRecord
100
AcDbLayerTableRecord
  2
SK4
 70
     0
 62
     2
  6
CENTER2
370
    -3
390
F
  0
LAYER
  5
33D
102
{ACAD_XDICTIONARY
360
351
102
}
330
2
100
AcDbSymbolTableRecord
100
AcDbLayerTableRecord
  2
SK6
 70
     0
 62
     5
  6
Continuous
370
    -3
390
F
  0
LAYER
  5
33E
102
{ACAD_XDICTIONARY
360
353
102
}
330
2
100
AcDbSymbolTableRecord
100
AcDbLayerTableRecord
  2
CUT
 70
     0
 62
     1
  6
Continuous
370
    -3
390
F
  0
LAYER
  5
33F
102
{ACAD_XDICTIONARY
360
355
102
}
330
2
100
AcDbSymbolTableRecord
100
AcDbLayerTableRecord
  2
NOCUT
 70
     0
 62
     7
  6
Continuous
370
    -3
390
F
  0
LAYER
  5
340
102
{ACAD_XDICTIONARY
360
357
102
}
330
2
100
AcDbSymbolTableRecord
100
AcDbLayerTableRecord
  2
80
 70
     0
 62
     6
  6
Continuous
370
    -3
390
F
  0
LAYER
  5
341
102
{ACAD_XDICTIONARY
360
359
102
}
330
2
100
AcDbSymbolTableRecord
100
AcDbLayerTableRecord
  2
81
 70
     0
 62
     3
  6
Continuous
370
    -3
390
F
  0
ENDTAB
  0
TABLE
  2
STYLE
  5
3
330
0
100
AcDbSymbolTable
 70
     3
  0
STYLE
  5
11
330
3
100
AcDbSymbolTableRecord
100
AcDbTextStyleTableRecord
  2
Standard
 70
     0
 40
0.0
 41
1.0
 50
0.0
 71
     0
 42
0.2
  3
txt
  4

  0
STYLE
  5
1ED
330
3
100
AcDbSymbolTableRecord
100
AcDbTextStyleTableRecord
  2
cesky
 70
     0
 40
0.0
 41
1.0
 50
0.0
 71
     0
 42
0.2
  3
simplex.shx
  4

  0
STYLE
  5
1EE
330
3
100
AcDbSymbolTableRecord
100
AcDbTextStyleTableRecord
  2
DWGDirectTextStyle
 70
     0
 40
0.0
 41
1.0
 50
0.0
 71
     0
 42
0.2
  3
simplex
  4

  0
ENDTAB
  0
TABLE
  2
VIEW
  5
6
330
0
100
AcDbSymbolTable
 70
     0
  0
ENDTAB
  0
TABLE
  2
UCS
  5
7
330
0
100
AcDbSymbolTable
 70
     0
  0
ENDTAB
  0
TABLE
  2
APPID
  5
9
330
0
100
AcDbSymbolTable
 70
     7
  0
APPID
  5
12
330
9
100
AcDbSymbolTableRecord
100
AcDbRegAppTableRecord
  2
ACAD
 70
     0
  0
APPID
  5
1F0
330
9
100
AcDbSymbolTableRecord
100
AcDbRegAppTableRecord
  2
ACAD_DSTYLE_DIMBREAK
 70
     0
  0
APPID
  5
2A9
330
9
100
AcDbSymbolTableRecord
100
AcDbRegAppTableRecord
  2
ACAD_DSTYLE_DIM_LINETYPE
 70
     0
  0
APPID
  5
2AA
330
9
100
AcDbSymbolTableRecord
100
AcDbRegAppTableRecord
  2
ACAD_DSTYLE_DIM_EXT1_LINETYPE
 70
     0
  0
APPID
  5
2AB
330
9
100
AcDbSymbolTableRecord
100
AcDbRegAppTableRecord
  2
ACAD_DSTYLE_DIM_EXT2_LINETYPE
 70
     0
  0
APPID
  5
2EB
330
9
100
AcDbSymbolTableRecord
100
AcDbRegAppTableRecord
  2
ACAD_MLEADERVER
 70
     0
  0
APPID
  5
35E
330
9
100
AcDbSymbolTableRecord
100
AcDbRegAppTableRecord
  2
ACAD_NAV_VCDISPLAY
 70
     0
  0
ENDTAB
  0
TABLE
  2
DIMSTYLE
  5
A
330
0
100
AcDbSymbolTable
 70
     1
100
AcDbDimStyleTable
 71
     0
  0
DIMSTYLE
105
27
330
A
100
AcDbSymbolTableRecord
100
AcDbDimStyleTableRecord
  2
Standard
 70
     0
340
11
1001
ACAD_DSTYLE_DIMBREAK
1070
   391
1040
6.349999999999999
  0
ENDTAB
  0
TABLE
  2
BLOCK_RECORD
  5
1
330
0
100
AcDbSymbolTable
 70
    16
  0
BLOCK_RECORD
  5
1F
102
{ACAD_XDICTIONARY
360
2FB
102
}
330
1
100
AcDbSymbolTableRecord
100
AcDbBlockTableRecord
  2
*Model_Space
340
22
  0
BLOCK_RECORD
  5
1B
330
1
100
AcDbSymbolTableRecord
100
AcDbBlockTableRecord
  2
*Paper_Space
340
1E
  0
BLOCK_RECORD
  5
23
330
1
100
AcDbSymbolTableRecord
100
AcDbBlockTableRecord
  2
*Paper_Space0
340
26
  0
BLOCK_RECORD
  5
1E7
330
1
100
AcDbSymbolTableRecord
100
AcDbBlockTableRecord
  2
ASSORTED_DRAFT1
340
0
  0
BLOCK_RECORD
  5
1F5
330
1
100
AcDbSymbolTableRecord
100
AcDbBlockTableRecord
  2
*D2
340
0
  0
BLOCK_RECORD
  5
201
330
1
100
AcDbSymbolTableRecord
100
AcDbBlockTableRecord
  2
_U0
340
0
  0
BLOCK_RECORD
  5
20D
330
1
100
AcDbSymbolTableRecord
100
AcDbBlockTableRecord
  2
*D4
340
0
  0
BLOCK_RECORD
  5
219
330
1
100
AcDbSymbolTableRecord
100
AcDbBlockTableRecord
  2
_U1
340
0
  0
BLOCK_RECORD
  5
225
330
1
100
AcDbSymbolTableRecord
100
AcDbBlockTableRecord
  2
*D6
340
0
  0
BLOCK_RECORD
  5
230
330
1
100
AcDbSymbolTableRecord
100
AcDbBlockTableRecord
  2
_U2
340
0
  0
BLOCK_RECORD
  5
23B
330
1
100
AcDbSymbolTableRecord
100
AcDbBlockTableRecord
  2
*D8
340
0
  0
BLOCK_RECORD
  5
247
330
1
100
AcDbSymbolTableRecord
100
AcDbBlockTableRecord
  2
_U3
340
0
  0
BLOCK_RECORD
  5
254
330
1
100
AcDbSymbolTableRecord
100
AcDbBlockTableRecord
  2
*D10
340
0
  0
BLOCK_RECORD
  5
260
330
1
100
AcDbSymbolTableRecord
100
AcDbBlockTableRecord
  2
_U4
340
0
  0
BLOCK_RECORD
  5
26D
330
1
100
AcDbSymbolTableRecord
100
AcDbBlockTableRecord
  2
*D12
340
0
  0
BLOCK_RECORD
  5
279
330
1
100
AcDbSymbolTableRecord
100
AcDbBlockTableRecord
  2
_U5
340
0
  0
BLOCK_RECORD
  5
285
330
1
100
AcDbSymbolTableRecord
100
AcDbBlockTableRecord
  2
*D14
340
0
  0
BLOCK_RECORD
  5
291
330
1
100
AcDbSymbolTableRecord
100
AcDbBlockTableRecord
  2
_U6
340
0
  0
ENDTAB
  0
ENDSEC
  0
SECTION
  2
BLOCKS
  0
BLOCK
  5
20
330
1F
100
AcDbEntity
  8
0
100
AcDbBlockBegin
  2
*Model_Space
 70
     0
 10
0.0
 20
0.0
 30
0.0
  3
*Model_Space
  1

  0
ENDBLK
  5
21
330
1F
100
AcDbEntity
  8
0
100
AcDbBlockEnd
  0
BLOCK
  5
1C
330
1B
100
AcDbEntity
 67
     1
  8
0
100
AcDbBlockBegin
  2
*Paper_Space
 70
     0
 10
0.0
 20
0.0
 30
0.0
  3
*Paper_Space
  1

  0
ENDBLK
  5
1D
330
1B
100
AcDbEntity
 67
     1
  8
0
100
AcDbBlockEnd
  0
BLOCK
  5
24
330
23
100
AcDbEntity
 67
     1
  8
0
100
AcDbBlockBegin
  2
*Paper_Space0
 70
     0
 10
0.0
 20
0.0
 30
0.0
  3
*Paper_Space0
  1

  0
ENDBLK
  5
25
330
23
100
AcDbEntity
 67
     1
  8
0
100
AcDbBlockEnd
  0
BLOCK
  5
1EA
330
1E7
100
AcDbEntity
  8
0
100
AcDbBlockBegin
  2
ASSORTED_DRAFT1
 70
     0
 10
0.0
 20
0.0
 30
0.0
  3
ASSORTED_DRAFT1
  1

  0
SOLID
  5
1E8
330
1E7
100
AcDbEntity
  8
0
 62
   254
370
    13
100
AcDbTrace
 10
270.185042
 20
164.534924
 30
0.0
 11
265.185046
 21
163.42645
 31
0.0
 12
265.1850379999999
 22
165.643397
 32
0.0
 13
270.185042
 23
164.534924
 33
0.0
  0
ENDBLK
  5
1EB
330
1E7
100
AcDbEntity
  8
0
100
AcDbBlockEnd
  0
BLOCK
  5
1F6
330
1F5
100
AcDbEntity
  8
0
100
AcDbBlockBegin
  2
*D2
 70
     1
 10
0.0
 20
0.0
 30
0.0
  3
*D2
  1

  0
LINE
  5
1F8
330
1F5
100
AcDbEntity
  8
0
 62
   254
370
    -2
100
AcDbLine
 10
429.404842
 20
301.907994
 30
0.0
 11
429.404842
 21
330.17035
 31
0.0
  0
LINE
  5
1F9
330
1F5
100
AcDbEntity
  8
0
 62
   254
370
    -2
100
AcDbLine
 10
274.404842
 20
288.907994
 30
0.0
 11
274.404842
 21
330.17035
 31
0.0
  0
LINE
  5
1FA
330
1F5
100
AcDbEntity
  8
0
 62
   254
370
    -2
100
AcDbLine
 10
425.904842
 20
329.17035
 30
0.0
 11
277.904842
 21
329.17035
 31
0.0
  0
SOLID
  5
1FB
330
1F5
100
AcDbEntity
  8
0
 62
   254
100
AcDbTrace
 10
425.904842
 20
328.587017
 30
0.0
 11
425.904842
 21
329.753684
 31
0.0
 12
429.404842
 22
329.17035
 32
0.0
 13
429.404842
 23
329.17035
 33
0.0
  0
SOLID
  5
1FC
330
1F5
100
AcDbEntity
  8
0
 62
   254
100
AcDbTrace
 10
277.904842
 20
329.753684
 30
0.0
 11
277.904842
 21
328.587017
 31
0.0
 12
274.404842
 22
329.17035
 32
0.0
 13
274.404842
 23
329.17035
 33
0.0
  0
MTEXT
  5
1FD
330
1F5
100
AcDbEntity
  8
0
 62
   254
370
    13
100
AcDbMText
 10
351.904842
 20
334.42035
 30
0.0
 40
3.5
 41
0.0
 71
     5
 72
     1
  1
\A1;155
  7
cesky
 73
     1
 44
1.0
  0
POINT
  5
1FE
330
1F5
100
AcDbEntity
  8
Defpoints
 62
     0
100
AcDbPoint
 10
429.404842
 20
301.907994
 30
0.0
  0
POINT
  5
1FF
330
1F5
100
AcDbEntity
  8
Defpoints
 62
     0
100
AcDbPoint
 10
274.404842
 20
288.907994
 30
0.0
  0
POINT
  5
200
330
1F5
100
AcDbEntity
  8
Defpoints
 62
     0
100
AcDbPoint
 10
274.404842
 20
329.17035
 30
0.0
  0
ENDBLK
  5
1F7
330
1F5
100
AcDbEntity
  8
0
100
AcDbBlockEnd
  0
BLOCK
  5
208
330
201
100
AcDbEntity
  8
0
100
AcDbBlockBegin
  2
_U0
 70
     0
 10
0.0
 20
0.0
 30
0.0
  3
_U0
  1

  0
ENDBLK
  5
209
330
201
100
AcDbEntity
  8
0
100
AcDbBlockEnd
  0
BLOCK
  5
20E
330
20D
100
AcDbEntity
  8
0
100
AcDbBlockBegin
  2
*D4
 70
     1
 10
0.0
 20
0.0
 30
0.0
  3
*D4
  1

  0
LINE
  5
210
330
20D
100
AcDbEntity
  8
0
 62
   254
370
    -2
100
AcDbLine
 10
429.404842
 20
303.907994
 30
0.0
 11
429.404842
 21
344.155687
 31
0.0
  0
LINE
  5
211
330
20D
100
AcDbEntity
  8
0
 62
   254
370
    -2
100
AcDbLine
 10
214.404842
 20
302.907994
 30
0.0
 11
214.404842
 21
344.155687
 31
0.0
  0
LINE
  5
212
330
20D
100
AcDbEntity
  8
0
 62
   254
370
    -2
100
AcDbLine
 10
425.904842
 20
343.155687
 30
0.0
 11
217.904842
 21
343.155687
 31
0.0
  0
SOLID
  5
213
330
20D
100
AcDbEntity
  8
0
 62
   254
100
AcDbTrace
 10
425.904842
 20
342.572354
 30
0.0
 11
425.904842
 21
343.739021
 31
0.0
 12
429.404842
 22
343.155687
 32
0.0
 13
429.404842
 23
343.155687
 33
0.0
  0
SOLID
  5
214
330
20D
100
AcDbEntity
  8
0
 62
   254
100
AcDbTrace
 10
217.904842
 20
343.739021
 30
0.0
 11
217.904842
 21
342.572354
 31
0.0
 12
214.404842
 22
343.155687
 32
0.0
 13
214.404842
 23
343.155687
 33
0.0
  0
MTEXT
  5
215
330
20D
100
AcDbEntity
  8
0
 62
   254
370
    13
100
AcDbMText
 10
321.904842
 20
348.405687
 30
0.0
 40
3.5
 41
0.0
 71
     5
 72
     1
  1
\A1;215
  7
cesky
 73
     1
 44
1.0
  0
POINT
  5
216
330
20D
100
AcDbEntity
  8
Defpoints
 62
     0
100
AcDbPoint
 10
429.404842
 20
303.907994
 30
0.0
  0
POINT
  5
217
330
20D
100
AcDbEntity
  8
Defpoints
 62
     0
100
AcDbPoint
 10
214.404842
 20
302.907994
 30
0.0
  0
POINT
  5
218
330
20D
100
AcDbEntity
  8
Defpoints
 62
     0
100
AcDbPoint
 10
214.404842
 20
343.155687
 30
0.0
  0
ENDBLK
  5
20F
330
20D
100
AcDbEntity
  8
0
100
AcDbBlockEnd
  0
BLOCK
  5
220
330
219
100
AcDbEntity
  8
0
100
AcDbBlockBegin
  2
_U1
 70
     0
 10
0.0
 20
0.0
 30
0.0
  3
_U1
  1

  0
ENDBLK
  5
221
330
219
100
AcDbEntity
  8
0
100
AcDbBlockEnd
  0
BLOCK
  5
226
330
225
100
AcDbEntity
  8
0
100
AcDbBlockBegin
  2
*D6
 70
     1
 10
0.0
 20
0.0
 30
0.0
  3
*D6
  1

  0
LINE
  5
228
330
225
100
AcDbEntity
  8
0
 62
   254
370
    -2
100
AcDbLine
 10
293.703832
 20
288.907994
 30
0.0
 11
448.464751
 21
288.907994
 31
0.0
  0
LINE
  5
229
330
225
100
AcDbEntity
  8
0
 62
   254
370
    -2
100
AcDbLine
 10
330.83929
 20
301.907994
 30
0.0
 11
448.464751
 21
301.907994
 31
0.0
  0
LINE
  5
22A
330
225
100
AcDbEntity
  8
0
 62
   254
370
    -2
100
AcDbLine
 10
447.4647509999999
 20
305.407994
 30
0.0
 11
447.4647509999999
 21
308.907994
 31
0.0
  0
SOLID
  5
22B
330
225
100
AcDbEntity
  8
0
 62
   254
100
AcDbTrace
 10
446.8814169999999
 20
305.407994
 30
0.0
 11
448.0480839999999
 21
305.407994
 31
0.0
 12
447.4647509999999
 22
301.907994
 32
0.0
 13
447.4647509999999
 23
301.907994
 33
0.0
  0
MTEXT
  5
22C
330
225
100
AcDbEntity
  8
0
 62
   254
370
    13
100
AcDbMText
 10
442.214751
 20
275.657994
 30
0.0
 40
3.5
 41
0.0
 71
     5
 72
     1
  1
\A1;26
  7
cesky
 11
0.0
 21
1.0
 31
0.0
 73
     1
 44
1.0
  0
POINT
  5
22D
330
225
100
AcDbEntity
  8
Defpoints
 62
     0
100
AcDbPoint
 10
293.703832
 20
288.907994
 30
0.0
  0
POINT
  5
22E
330
225
100
AcDbEntity
  8
Defpoints
 62
     0
100
AcDbPoint
 10
330.83929
 20
301.907994
 30
0.0
  0
POINT
  5
22F
330
225
100
AcDbEntity
  8
Defpoints
 62
     0
100
AcDbPoint
 10
447.4647509999999
 20
301.907994
 30
0.0
  0
ENDBLK
  5
227
330
225
100
AcDbEntity
  8
0
100
AcDbBlockEnd
  0
BLOCK
  5
236
330
230
100
AcDbEntity
  8
0
100
AcDbBlockBegin
  2
_U2
 70
     0
 10
0.0
 20
0.0
 30
0.0
  3
_U2
  1

  0
ENDBLK
  5
237
330
230
100
AcDbEntity
  8
0
100
AcDbBlockEnd
  0
BLOCK
  5
23C
330
23B
100
AcDbEntity
  8
0
100
AcDbBlockBegin
  2
*D8
 70
     1
 10
0.0
 20
0.0
 30
0.0
  3
*D8
  1

  0
LINE
  5
23E
330
23B
100
AcDbEntity
  8
0
 62
    95
370
    -2
100
AcDbLine
 10
216.404842
 20
304.907994
 30
0.0
 11
204.535852
 21
304.907994
 31
0.0
  0
LINE
  5
23F
330
23B
100
AcDbEntity
  8
0
 62
    95
370
    -2
100
AcDbLine
 10
216.404842
 20
272.907994
 30
0.0
 11
204.535852
 21
272.907994
 31
0.0
  0
LINE
  5
240
330
23B
100
AcDbEntity
  8
0
 62
    95
370
    -2
100
AcDbLine
 10
205.535852
 20
301.407994
 30
0.0
 11
205.535852
 21
276.407994
 31
0.0
  0
SOLID
  5
241
330
23B
100
AcDbEntity
  8
0
 62
    95
100
AcDbTrace
 10
206.119185
 20
301.407994
 30
0.0
 11
204.952518
 21
301.407994
 31
0.0
 12
205.535852
 22
304.907994
 32
0.0
 13
205.535852
 23
304.907994
 33
0.0
  0
SOLID
  5
242
330
23B
100
AcDbEntity
  8
0
 62
    95
100
AcDbTrace
 10
204.952518
 20
276.407994
 30
0.0
 11
206.119185
 21
276.407994
 31
0.0
 12
205.535852
 22
272.907994
 32
0.0
 13
205.535852
 23
272.907994
 33
0.0
  0
MTEXT
  5
243
330
23B
100
AcDbEntity
  8
0
 62
    95
370
    13
100
AcDbMText
 10
200.285852
 20
288.907994
 30
0.0
 40
3.5
 41
0.0
 71
     5
 72
     1
  1
\A1;32
  7
cesky
 11
0.0
 21
1.0
 31
0.0
 73
     1
 44
1.0
  0
POINT
  5
244
330
23B
100
AcDbEntity
  8
Defpoints
 62
     0
100
AcDbPoint
 10
216.404842
 20
304.907994
 30
0.0
  0
POINT
  5
245
330
23B
100
AcDbEntity
  8
Defpoints
 62
     0
100
AcDbPoint
 10
216.404842
 20
272.907994
 30
0.0
  0
POINT
  5
246
330
23B
100
AcDbEntity
  8
Defpoints
 62
     0
100
AcDbPoint
 10
205.535852
 20
272.907994
 30
0.0
  0
ENDBLK
  5
23D
330
23B
100
AcDbEntity
  8
0
100
AcDbBlockEnd
  0
BLOCK
  5
24F
330
247
100
AcDbEntity
  8
0
100
AcDbBlockBegin
  2
_U3
 70
     0
 10
0.0
 20
0.0
 30
0.0
  3
_U3
  1

  0
ENDBLK
  5
250
330
247
100
AcDbEntity
  8
0
100
AcDbBlockEnd
  0
BLOCK
  5
255
330
254
100
AcDbEntity
  8
0
100
AcDbBlockBegin
  2
*D10
 70
     1
 10
0.0
 20
0.0
 30
0.0
  3
*D10
  1

  0
LINE
  5
257
330
254
100
AcDbEntity
  8
0
 62
    95
370
    -2
100
AcDbLine
 10
277.154842
 20
309.907994
 30
0.0
 11
189.143489
 21
309.907994
 31
0.0
  0
LINE
  5
258
330
254
100
AcDbEntity
  8
0
 62
    95
370
    -2
100
AcDbLine
 10
277.154842
 20
267.907994
 30
0.0
 11
189.143489
 21
267.907994
 31
0.0
  0
LINE
  5
259
330
254
100
AcDbEntity
  8
0
 62
    95
370
    -2
100
AcDbLine
 10
190.143489
 20
306.407994
 30
0.0
 11
190.143489
 21
271.407994
 31
0.0
  0
SOLID
  5
25A
330
254
100
AcDbEntity
  8
0
 62
    95
100
AcDbTrace
 10
190.726823
 20
306.407994
 30
0.0
 11
189.560156
 21
306.407994
 31
0.0
 12
190.143489
 22
309.907994
 32
0.0
 13
190.143489
 23
309.907994
 33
0.0
  0
SOLID
  5
25B
330
254
100
AcDbEntity
  8
0
 62
    95
100
AcDbTrace
 10
189.560156
 20
271.407994
 30
0.0
 11
190.726823
 21
271.407994
 31
0.0
 12
190.143489
 22
267.907994
 32
0.0
 13
190.143489
 23
267.907994
 33
0.0
  0
MTEXT
  5
25C
330
254
100
AcDbEntity
  8
0
 62
    95
370
    13
100
AcDbMText
 10
184.893489
 20
288.907994
 30
0.0
 40
3.5
 41
0.0
 71
     5
 72
     1
  1
\A1;42
  7
cesky
 11
0.0
 21
1.0
 31
0.0
 73
     1
 44
1.0
  0
POINT
  5
25D
330
254
100
AcDbEntity
  8
Defpoints
 62
     0
100
AcDbPoint
 10
277.154842
 20
309.907994
 30
0.0
  0
POINT
  5
25E
330
254
100
AcDbEntity
  8
Defpoints
 62
     0
100
AcDbPoint
 10
277.154842
 20
267.907994
 30
0.0
  0
POINT
  5
25F
330
254
100
AcDbEntity
  8
Defpoints
 62
     0
100
AcDbPoint
 10
190.143489
 20
267.907994
 30
0.0
  0
ENDBLK
  5
256
330
254
100
AcDbEntity
  8
0
100
AcDbBlockEnd
  0
BLOCK
  5
268
330
260
100
AcDbEntity
  8
0
100
AcDbBlockBegin
  2
_U4
 70
     0
 10
0.0
 20
0.0
 30
0.0
  3
_U4
  1

  0
ENDBLK
  5
269
330
260
100
AcDbEntity
  8
0
100
AcDbBlockEnd
  0
BLOCK
  5
26E
330
26D
100
AcDbEntity
  8
0
100
AcDbBlockBegin
  2
*D12
 70
     1
 10
0.0
 20
0.0
 30
0.0
  3
*D12
  1

  0
LINE
  5
270
330
26D
100
AcDbEntity
  8
0
 62
   254
370
    -2
100
AcDbLine
 10
274.404842
 20
288.907994
 30
0.0
 11
274.404842
 21
330.17035
 31
0.0
  0
LINE
  5
271
330
26D
100
AcDbEntity
  8
0
 62
   254
370
    -2
100
AcDbLine
 10
214.404842
 20
295.907994
 30
0.0
 11
214.404842
 21
330.17035
 31
0.0
  0
LINE
  5
272
330
26D
100
AcDbEntity
  8
0
 62
   254
370
    -2
100
AcDbLine
 10
270.904842
 20
329.17035
 30
0.0
 11
217.904842
 21
329.17035
 31
0.0
  0
SOLID
  5
273
330
26D
100
AcDbEntity
  8
0
 62
   254
100
AcDbTrace
 10
270.904842
 20
328.587017
 30
0.0
 11
270.904842
 21
329.753684
 31
0.0
 12
274.404842
 22
329.17035
 32
0.0
 13
274.404842
 23
329.17035
 33
0.0
  0
SOLID
  5
274
330
26D
100
AcDbEntity
  8
0
 62
   254
100
AcDbTrace
 10
217.904842
 20
329.753684
 30
0.0
 11
217.904842
 21
328.587017
 31
0.0
 12
214.404842
 22
329.17035
 32
0.0
 13
214.404842
 23
329.17035
 33
0.0
  0
MTEXT
  5
275
330
26D
100
AcDbEntity
  8
0
 62
   254
370
    13
100
AcDbMText
 10
244.404842
 20
334.42035
 30
0.0
 40
3.5
 41
0.0
 71
     5
 72
     1
  1
\A1;60
  7
cesky
 73
     1
 44
1.0
  0
POINT
  5
276
330
26D
100
AcDbEntity
  8
Defpoints
 62
     0
100
AcDbPoint
 10
274.404842
 20
288.907994
 30
0.0
  0
POINT
  5
277
330
26D
100
AcDbEntity
  8
Defpoints
 62
     0
100
AcDbPoint
 10
214.404842
 20
295.907994
 30
0.0
  0
POINT
  5
278
330
26D
100
AcDbEntity
  8
Defpoints
 62
     0
100
AcDbPoint
 10
214.404842
 20
329.17035
 30
0.0
  0
ENDBLK
  5
26F
330
26D
100
AcDbEntity
  8
0
100
AcDbBlockEnd
  0
BLOCK
  5
280
330
279
100
AcDbEntity
  8
0
100
AcDbBlockBegin
  2
_U5
 70
     0
 10
0.0
 20
0.0
 30
0.0
  3
_U5
  1

  0
ENDBLK
  5
281
330
279
100
AcDbEntity
  8
0
100
AcDbBlockEnd
  0
BLOCK
  5
286
330
285
100
AcDbEntity
  8
0
100
AcDbBlockBegin
  2
*D14
 70
     1
 10
0.0
 20
0.0
 30
0.0
  3
*D14
  1

  0
LINE
  5
288
330
285
100
AcDbEntity
  8
0
 62
   254
370
    -2
100
AcDbLine
 10
429.404842
 20
301.907994
 30
0.0
 11
429.404842
 21
315.595905
 31
0.0
  0
LINE
  5
289
330
285
100
AcDbEntity
  8
0
 62
   254
370
    -2
100
AcDbLine
 10
293.947675
 20
301.733998
 30
0.0
 11
293.947675
 21
315.595905
 31
0.0
  0
LINE
  5
28A
330
285
100
AcDbEntity
  8
0
 62
   254
370
    -2
100
AcDbLine
 10
425.904842
 20
314.595905
 30
0.0
 11
297.447675
 21
314.595905
 31
0.0
  0
SOLID
  5
28B
330
285
100
AcDbEntity
  8
0
 62
   254
100
AcDbTrace
 10
425.904842
 20
314.012571
 30
0.0
 11
425.904842
 21
315.179238
 31
0.0
 12
429.404842
 22
314.595905
 32
0.0
 13
429.404842
 23
314.595905
 33
0.0
  0
SOLID
  5
28C
330
285
100
AcDbEntity
  8
0
 62
   254
100
AcDbTrace
 10
297.447675
 20
315.179238
 30
0.0
 11
297.447675
 21
314.012571
 31
0.0
 12
293.947675
 22
314.595905
 32
0.0
 13
293.947675
 23
314.595905
 33
0.0
  0
MTEXT
  5
28D
330
285
100
AcDbEntity
  8
0
 62
   254
370
    13
100
AcDbMText
 10
361.676258
 20
319.845905
 30
0.0
 40
3.5
 41
0.0
 71
     5
 72
     1
  1
\A1;135.5
  7
cesky
 73
     1
 44
1.0
  0
POINT
  5
28E
330
285
100
AcDbEntity
  8
Defpoints
 62
     0
100
AcDbPoint
 10
429.404842
 20
301.907994
 30
0.0
  0
POINT
  5
28F
330
285
100
AcDbEntity
  8
Defpoints
 62
     0
100
AcDbPoint
 10
293.947675
 20
301.733998
 30
0.0
  0
POINT
  5
290
330
285
100
AcDbEntity
  8
Defpoints
 62
     0
100
AcDbPoint
 10
293.947675
 20
314.595905
 30
0.0
  0
ENDBLK
  5
287
330
285
100
AcDbEntity
  8
0
100
AcDbBlockEnd
  0
BLOCK
  5
298
330
291
100
AcDbEntity
  8
0
100
AcDbBlockBegin
  2
_U6
 70
     0
 10
0.0
 20
0.0
 30
0.0
  3
_U6
  1

  0
ENDBLK
  5
299
330
291
100
AcDbEntity
  8
0
100
AcDbBlockEnd
  0
ENDSEC
  0
SECTION
  2
ENTITIES
  0
POINT
  5
73
102
{ACAD_REACTORS
330
342
102
}
330
1F
100
AcDbEntity
  8
80
100
AcDbPoint
 10
274.404842
 20
288.907994
 30
0.0
  0
POINT
  5
76
330
1F
100
AcDbEntity
  8
4
 60
     1
100
AcDbPoint
 10
293.703832
 20
288.907994
 30
0.0
  0
POINT
  5
78
330
1F
100
AcDbEntity
  8
4
 60
     1
100
AcDbPoint
 10
428.927717
 20
288.907994
 30
0.0
  0
POINT
  5
79
330
1F
100
AcDbEntity
  8
SK4
 60
     1
100
AcDbPoint
 10
216.404842
 20
288.907994
 30
0.0
  0
POINT
  5
7A
330
1F
100
AcDbEntity
  8
SK4
 60
     1
100
AcDbPoint
 10
274.404842
 20
288.907994
 30
0.0
  0
POINT
  5
7B
330
1F
100
AcDbEntity
  8
SK6
 60
     1
100
AcDbPoint
 10
274.404842
 20
288.907994
 30
0.0
  0
POINT
  5
7C
330
1F
100
AcDbEntity
  8
SK6
 60
     1
100
AcDbPoint
 10
293.947675
 20
301.733998
 30
0.0
  0
LINE
  5
7D
330
1F
100
AcDbEntity
  8
1
100
AcDbLine
 10
420.98348
 20
301.407994
 30
0.0
 11
408.3460419999999
 21
301.407994
 31
0.0
  0
LINE
  5
7F
330
1F
100
AcDbEntity
  8
1
100
AcDbLine
 10
423.8615269999999
 20
297.003797
 30
0.0
 11
423.8863019999999
 21
297.074277
 31
0.0
  0
LINE
  5
81
330
1F
100
AcDbEntity
  8
1
100
AcDbLine
 10
425.4388709999999
 20
296.781935
 30
0.0
 11
425.4139219999999
 21
296.710961
 31
0.0
  0
LINE
  5
82
330
1F
100
AcDbEntity
  8
1
100
AcDbLine
 10
424.175369
 20
298.4344660000001
 30
0.0
 11
424.200317
 21
298.50544
 31
0.0
  0
LINE
  5
83
330
1F
100
AcDbEntity
  8
1
100
AcDbLine
 10
425.752538
 20
298.21211
 30
0.0
 11
425.7277629999999
 21
298.14163
 31
0.0
  0
LINE
  5
84
330
1F
100
AcDbEntity
  8
1
100
AcDbLine
 10
428.3383409999999
 20
282.617322
 30
0.0
 11
427.986115
 21
282.982063
 31
0.0
  0
LINE
  5
86
330
1F
100
AcDbEntity
  8
1
100
AcDbLine
 10
428.3383409999999
 20
282.617322
 30
0.0
 11
427.922965
 21
282.387075
 31
0.0
  0
LINE
  5
87
330
1F
100
AcDbEntity
  8
1
100
AcDbLine
 10
428.428971
 20
288.592186
 30
0.0
 11
428.193871
 21
288.365154
 31
0.0
  0
LINE
  5
88
330
1F
100
AcDbEntity
  8
1
100
AcDbLine
 10
428.8778360000001
 20
287.782412
 30
0.0
 11
428.291699
 21
287.636272
 31
0.0
  0
LINE
  5
89
330
1F
100
AcDbEntity
  8
1
100
AcDbLine
 10
428.428971
 20
288.592186
 30
0.0
 11
428.8778360000001
 21
287.782412
 31
0.0
  0
LINE
  5
8A
330
1F
100
AcDbEntity
  8
1
100
AcDbLine
 10
429.404842
 20
287.91381
 30
0.0
 11
429.323222
 21
283.237809
 31
0.0
  0
LINE
  5
8B
330
1F
100
AcDbEntity
  8
1
100
AcDbLine
 10
424.8462879999999
 20
296.415964
 30
0.0
 11
424.8706499999999
 21
296.485268
 31
0.0
  0
LINE
  5
8C
330
1F
100
AcDbEntity
  8
1
100
AcDbLine
 10
415.5176809999999
 20
295.295553
 30
0.0
 11
415.5124559999999
 21
295.293421
 31
0.0
  0
LINE
  5
8D
330
1F
100
AcDbEntity
  8
1
100
AcDbLine
 10
420.8597179999999
 20
294.910557
 30
0.0
 11
420.582334
 21
301.343844
 31
0.0
  0
LINE
  5
8E
330
1F
100
AcDbEntity
  8
1
100
AcDbLine
 10
420.577928
 20
301.309838
 30
0.0
 11
420.8544869999999
 21
294.895676
 31
0.0
  0
LINE
  5
8F
330
1F
100
AcDbEntity
  8
1
100
AcDbLine
 10
427.749333
 20
276.407994
 30
0.0
 11
407.6416779999999
 21
276.407994
 31
0.0
  0
LINE
  5
90
330
1F
100
AcDbEntity
  8
1
100
AcDbLine
 10
274.904842
 20
267.907994
 30
0.0
 11
274.904842
 21
288.907994
 31
0.0
  0
LINE
  5
91
330
1F
100
AcDbEntity
  8
1
100
AcDbLine
 10
274.904842
 20
288.907994
 30
0.0
 11
274.904842
 21
309.907994
 31
0.0
  0
LINE
  5
92
330
1F
100
AcDbEntity
  8
1
100
AcDbLine
 10
426.778596
 20
296.88423
 30
0.0
 11
426.7932449999999
 21
296.925904
 31
0.0
  0
LINE
  5
93
330
1F
100
AcDbEntity
  8
1
100
AcDbLine
 10
279.404842
 20
267.907994
 30
0.0
 11
283.804337
 21
272.307488
 31
0.0
  0
LINE
  5
94
330
1F
100
AcDbEntity
  8
1
100
AcDbLine
 10
283.804337
 20
305.508499
 30
0.0
 11
279.404842
 21
309.907994
 31
0.0
  0
LINE
  5
95
330
1F
100
AcDbEntity
  8
SK1
100
AcDbLine
 10
214.404842
 20
274.907994
 30
0.0
 11
216.404842
 21
272.907994
 31
0.0
  0
LINE
  5
96
330
1F
100
AcDbEntity
  8
SK1
100
AcDbLine
 10
216.404842
 20
304.907994
 30
0.0
 11
214.404842
 21
302.907994
 31
0.0
  0
LINE
  5
97
330
1F
100
AcDbEntity
  8
SK1
100
AcDbLine
 10
274.404842
 20
304.907994
 30
0.0
 11
216.404842
 21
304.907994
 31
0.0
  0
LINE
  5
98
330
1F
100
AcDbEntity
  8
1
100
AcDbLine
 10
274.904842
 20
267.907994
 30
0.0
 11
274.404842
 21
268.407994
 31
0.0
  0
LINE
  5
99
330
1F
100
AcDbEntity
  8
1
100
AcDbLine
 10
274.404842
 20
309.407994
 30
0.0
 11
274.904842
 21
309.907994
 31
0.0
  0
LINE
  5
9A
330
1F
100
AcDbEntity
  8
1
100
AcDbLine
 10
279.404842
 20
309.907994
 30
0.0
 11
274.904842
 21
309.907994
 31
0.0
  0
LINE
  5
9B
330
1F
100
AcDbEntity
  8
80
100
AcDbLine
 10
274.404842
 20
287.90842
 30
0.0
 11
274.404842
 21
289.907567
 31
0.0
  0
LINE
  5
9C
330
1F
100
AcDbEntity
  8
SK1
100
AcDbLine
 10
216.404842
 20
272.907994
 30
0.0
 11
274.404842
 21
272.907994
 31
0.0
  0
LINE
  5
9D
330
1F
100
AcDbEntity
  8
81
100
AcDbLine
 10
427.4048419999999
 20
301.907994
 30
0.0
 11
431.4048419999999
 21
301.907994
 31
0.0
  0
LINE
  5
9E
330
1F
100
AcDbEntity
  8
81
100
AcDbLine
 10
429.404842
 20
303.907994
 30
0.0
 11
429.404842
 21
299.907994
 31
0.0
  0
LINE
  5
9F
330
1F
100
AcDbEntity
  8
1
100
AcDbLine
 10
274.904842
 20
267.907994
 30
0.0
 11
279.404842
 21
267.907994
 31
0.0
  0
LINE
  5
A0
330
1F
100
AcDbEntity
  8
1
100
AcDbLine
 10
428.509408
 20
293.927891
 30
0.0
 11
428.4821499999999
 21
293.926702
 31
0.0
  0
LINE
  5
A1
330
1F
100
AcDbEntity
  8
1
100
AcDbLine
 10
428.4653669999999
 20
293.685854
 30
0.0
 11
422.4801849999999
 21
293.424808
 31
0.0
  0
LINE
  5
A2
330
1F
100
AcDbEntity
  8
1
100
AcDbLine
 10
428.3935089999999
 20
293.092287
 30
0.0
 11
422.113124
 21
292.818365
 31
0.0
  0
LINE
  5
A3
330
1F
100
AcDbEntity
  8
1
100
AcDbLine
 10
421.0511659999999
 20
301.309224
 30
0.0
 11
421.0472559999999
 21
301.399897
 31
0.0
  0
LINE
  5
A4
330
1F
100
AcDbEntity
  8
1
100
AcDbLine
 10
279.404842
 20
309.907994
 30
0.0
 11
279.404842
 21
277.057572
 31
0.0
  0
LINE
  5
A5
330
1F
100
AcDbEntity
  8
1
100
AcDbLine
 10
279.404842
 20
267.907994
 30
0.0
 11
279.404842
 21
270.689926
 31
0.0
  0
LINE
  5
AA
330
1F
100
AcDbEntity
  8
80
100
AcDbLine
 10
275.404416
 20
288.907994
 30
0.0
 11
273.405268
 21
288.907994
 31
0.0
  0
LINE
  5
AB
330
1F
100
AcDbEntity
  8
1
100
AcDbLine
 10
424.1888679999999
 20
298.493849
 30
0.0
 11
424.213576
 21
298.564138
 31
0.0
  0
LINE
  5
AC
330
1F
100
AcDbEntity
  8
1
100
AcDbLine
 10
423.613865
 20
297.602266
 30
0.0
 11
423.5897969999999
 21
297.533798
 31
0.0
  0
LINE
  5
AD
330
1F
100
AcDbEntity
  8
1
100
AcDbLine
 10
423.6964559999999
 20
297.588746
 30
0.0
 11
423.671878
 21
297.518826
 31
0.0
  0
LINE
  5
AE
330
1F
100
AcDbEntity
  8
1
100
AcDbLine
 10
425.881486
 20
297.029911
 30
0.0
 11
425.905495
 21
297.098212
 31
0.0
  0
LINE
  5
AF
330
1F
100
AcDbEntity
  8
1
100
AcDbLine
 10
425.7869519999998
 20
297.050312
 30
0.0
 11
425.811555
 21
297.120301
 31
0.0
  0
LINE
  5
B0
330
1F
100
AcDbEntity
  8
1
100
AcDbLine
 10
274.404842
 20
309.407994
 30
0.0
 11
274.404842
 21
288.907994
 31
0.0
  0
LINE
  5
B1
330
1F
100
AcDbEntity
  8
1
100
AcDbLine
 10
274.404842
 20
288.907994
 30
0.0
 11
274.404842
 21
268.407994
 31
0.0
  0
LINE
  5
B2
330
1F
100
AcDbEntity
  8
1
100
AcDbLine
 10
422.300608
 20
300.082678
 30
0.0
 11
427.294899
 21
300.300506
 31
0.0
  0
LINE
  5
B3
330
1F
100
AcDbEntity
  8
1
100
AcDbLine
 10
422.522997
 20
295.093585
 30
0.0
 11
422.300608
 21
300.082678
 31
0.0
  0
LINE
  5
B4
330
1F
100
AcDbEntity
  8
1
100
AcDbLine
 10
427.517288
 20
295.311414
 30
0.0
 11
422.522997
 21
295.093585
 31
0.0
  0
LINE
  5
B5
330
1F
100
AcDbEntity
  8
1
100
AcDbLine
 10
427.294899
 20
300.300506
 30
0.0
 11
427.517288
 21
295.311414
 31
0.0
  0
LINE
  5
B6
330
1F
100
AcDbEntity
  8
1
100
AcDbLine
 10
428.733199
 20
301.070484
 30
0.0
 11
429.017865
 21
294.68427
 31
0.0
  0
LINE
  5
B7
330
1F
100
AcDbEntity
  8
1
100
AcDbLine
 10
421.538619
 20
301.524915
 30
0.0
 11
427.931488
 21
301.803743
 31
0.0
  0
LINE
  5
B8
330
1F
100
AcDbEntity
  8
1
100
AcDbLine
 10
421.089928
 20
294.338489
 30
0.0
 11
420.805262
 21
300.724703
 31
0.0
  0
LINE
  5
B9
330
1F
100
AcDbEntity
  8
1
100
AcDbLine
 10
428.284508
 20
293.884058
 30
0.0
 11
421.89164
 21
293.605229
 31
0.0
  0
LINE
  5
BA
330
1F
100
AcDbEntity
  8
1
100
AcDbLine
 10
428.291699
 20
287.636272
 30
0.0
 11
428.193866
 21
287.812769
 31
0.0
  0
LINE
  5
BB
330
1F
100
AcDbEntity
  8
1
100
AcDbLine
 10
429.323222
 20
283.237809
 30
0.0
 11
428.7156379999999
 21
282.2266200000001
 31
0.0
  0
LINE
  5
BC
330
1F
100
AcDbEntity
  8
1
100
AcDbLine
 10
428.8011219999999
 20
283.387519
 30
0.0
 11
429.323222
 21
283.237809
 31
0.0
  0
LINE
  5
BD
330
1F
100
AcDbEntity
  8
1
100
AcDbLine
 10
428.8778360000001
 20
287.782412
 30
0.0
 11
429.404842
 21
287.91381
 31
0.0
  0
LINE
  5
BE
330
1F
100
AcDbEntity
  8
1
100
AcDbLine
 10
428.819673
 20
288.969483
 30
0.0
 11
429.404842
 21
287.91381
 31
0.0
  0
LINE
  5
BF
330
1F
100
AcDbEntity
  8
1
100
AcDbLine
 10
428.428971
 20
288.592186
 30
0.0
 11
428.819673
 21
288.969483
 31
0.0
  0
LINE
  5
C0
330
1F
100
AcDbEntity
  8
1
100
AcDbLine
 10
428.392524
 20
289.22614
 30
0.0
 11
428.819673
 21
288.969483
 31
0.0
  0
LINE
  5
C1
330
1F
100
AcDbEntity
  8
1
100
AcDbLine
 10
428.3383409999999
 20
282.617322
 30
0.0
 11
428.7156379999999
 21
282.2266200000001
 31
0.0
  0
LINE
  5
C2
330
1F
100
AcDbEntity
  8
1
100
AcDbLine
 10
428.7156379999999
 20
282.2266200000001
 30
0.0
 11
428.046176
 21
281.855531
 31
0.0
  0
LINE
  5
C3
330
1F
100
AcDbEntity
  8
1
100
AcDbLine
 10
428.8778360000001
 20
287.782412
 30
0.0
 11
428.8011219999999
 21
283.387519
 31
0.0
  0
LINE
  5
C4
330
1F
100
AcDbEntity
  8
1
100
AcDbLine
 10
428.8011219999999
 20
283.387519
 30
0.0
 11
428.220443
 21
283.554026
 31
0.0
  0
LINE
  5
C5
330
1F
100
AcDbEntity
  8
1
100
AcDbLine
 10
428.8011219999999
 20
283.387519
 30
0.0
 11
428.3383409999999
 21
282.617322
 31
0.0
  0
LINE
  5
C6
330
1F
100
AcDbEntity
  8
1
100
AcDbLine
 10
428.009571
 20
283.203075
 30
0.0
 11
428.220443
 21
283.554026
 31
0.0
  0
LINE
  5
C7
330
1F
100
AcDbEntity
  8
1
100
AcDbLine
 10
428.220443
 20
283.554026
 30
0.0
 11
428.291699
 21
287.636272
 31
0.0
  0
LINE
  5
C8
330
1F
100
AcDbEntity
  8
1
100
AcDbLine
 10
428.1938679999999
 20
288.73345
 30
0.0
 11
428.428971
 21
288.592186
 31
0.0
  0
LINE
  5
C9
330
1F
100
AcDbEntity
  8
1
100
AcDbLine
 10
424.8440179999999
 20
296.435962
 30
0.0
 11
424.8685099999999
 21
296.505637
 31
0.0
  0
LINE
  5
CA
330
1F
100
AcDbEntity
  8
1
100
AcDbLine
 10
422.113237
 20
292.846063
 30
0.0
 11
422.103471
 21
292.845637
 31
0.0
  0
LINE
  5
CB
330
1F
100
AcDbEntity
  8
1
100
AcDbLine
 10
287.904842
 20
301.165394
 30
0.0
 11
287.904842
 21
285.749034
 31
0.0
  0
LINE
  5
CC
330
1F
100
AcDbEntity
  8
1
100
AcDbLine
 10
425.4307129999999
 20
296.5476779999999
 30
0.0
 11
425.4249249999999
 21
296.541604
 31
0.0
  0
LINE
  5
CD
330
1F
100
AcDbEntity
  8
1
100
AcDbLine
 10
420.8251940000001
 20
300.916324
 30
0.0
 11
420.806778
 21
301.343447
 31
0.0
  0
LINE
  5
CE
330
1F
100
AcDbEntity
  8
1
100
AcDbLine
 10
428.3935089999999
 20
293.092287
 30
0.0
 11
426.914804
 21
290.628632
 31
0.0
  0
LINE
  5
CF
330
1F
100
AcDbEntity
  8
1
100
AcDbLine
 10
428.044615
 20
281.858035
 30
0.0
 11
427.909203
 21
281.860202
 31
0.0
  0
LINE
  5
D0
330
1F
100
AcDbEntity
  8
1
100
AcDbLine
 10
427.8989029999999
 20
282.160405
 30
0.0
 11
428.1938679999999
 21
284.939494
 31
0.0
  0
LINE
  5
D1
330
1F
100
AcDbEntity
  8
1
100
AcDbLine
 10
428.1938679999999
 20
284.939494
 30
0.0
 11
428.1938679999999
 21
288.900916
 31
0.0
  0
LINE
  5
D2
330
1F
100
AcDbEntity
  8
1
100
AcDbLine
 10
428.2360299999999
 20
289.200225
 30
0.0
 11
428.371672
 21
289.197858
 31
0.0
  0
LINE
  5
D3
330
1F
100
AcDbEntity
  8
1
100
AcDbLine
 10
428.510969
 20
293.703751
 30
0.0
 11
422.4858639999999
 21
293.440963
 31
0.0
  0
LINE
  5
D4
330
1F
100
AcDbEntity
  8
1
100
AcDbLine
 10
422.4801849999999
 20
293.424808
 30
0.0
 11
422.4858639999999
 21
293.440963
 31
0.0
  0
LINE
  5
D5
330
1F
100
AcDbEntity
  8
1
100
AcDbLine
 10
428.371672
 20
289.197858
 30
0.0
 11
428.6126799999999
 21
289.52445
 31
0.0
  0
LINE
  5
D6
330
1F
100
AcDbEntity
  8
1
100
AcDbLine
 10
428.6126799999999
 20
289.76306
 30
0.0
 11
428.6126799999999
 21
289.52445
 31
0.0
  0
LINE
  5
D7
330
1F
100
AcDbEntity
  8
1
100
AcDbLine
 10
428.6126799999999
 20
289.76306
 30
0.0
 11
428.6548419999999
 21
289.7623240000001
 31
0.0
  0
LINE
  5
D8
330
1F
100
AcDbEntity
  8
1
100
AcDbLine
 10
428.6548419999999
 20
294.012656
 30
0.0
 11
428.6548419999999
 21
289.7623240000001
 31
0.0
  0
LINE
  5
D9
330
1F
100
AcDbEntity
  8
1
100
AcDbLine
 10
428.510969
 20
293.703751
 30
0.0
 11
428.509408
 21
293.927891
 31
0.0
  0
LINE
  5
DA
330
1F
100
AcDbEntity
  8
1
100
AcDbLine
 10
428.510969
 20
293.703751
 30
0.0
 11
428.4653669999999
 21
293.685854
 31
0.0
  0
LINE
  5
DB
330
1F
100
AcDbEntity
  8
1
100
AcDbLine
 10
427.749333
 20
276.407994
 30
0.0
 11
428.2669730000001
 21
281.285082
 31
0.0
  0
LINE
  5
DC
330
1F
100
AcDbEntity
  8
1
100
AcDbLine
 10
428.2669730000001
 20
281.285082
 30
0.0
 11
428.224882
 21
281.285755
 31
0.0
  0
LINE
  5
DD
330
1F
100
AcDbEntity
  8
1
100
AcDbLine
 10
428.2501639999999
 20
281.523956
 30
0.0
 11
428.224882
 21
281.285755
 31
0.0
  0
LINE
  5
DE
330
1F
100
AcDbEntity
  8
1
100
AcDbLine
 10
428.2501639999999
 20
281.523956
 30
0.0
 11
428.044615
 21
281.858035
 31
0.0
  0
LINE
  5
DF
330
1F
100
AcDbEntity
  8
1
100
AcDbLine
 10
426.9889679999999
 20
284.939494
 30
0.0
 11
428.1938679999999
 21
284.939494
 31
0.0
  0
LINE
  5
E0
330
1F
100
AcDbEntity
  8
SK1
100
AcDbLine
 10
216.404842
 20
304.907994
 30
0.0
 11
216.404842
 21
272.907994
 31
0.0
  0
LINE
  5
E1
330
1F
100
AcDbEntity
  8
SK1
100
AcDbLine
 10
214.404842
 20
302.907994
 30
0.0
 11
214.404842
 21
274.907994
 31
0.0
  0
LINE
  5
E2
330
1F
100
AcDbEntity
  8
1
100
AcDbLine
 10
420.8597179999999
 20
294.910557
 30
0.0
 11
420.8544869999999
 21
294.895676
 31
0.0
  0
LINE
  5
112
330
1F
100
AcDbEntity
  8
NOCUT
100
AcDbLine
 10
279.404842
 20
309.907994
 30
0.0
 11
283.804337
 21
305.508499
 31
0.0
  0
LINE
  5
113
330
1F
100
AcDbEntity
  8
NOCUT
100
AcDbLine
 10
293.703832
 20
301.407994
 30
0.0
 11
428.337162
 21
301.407994
 31
0.0
  0
LINE
  5
114
330
1F
100
AcDbEntity
  8
NOCUT
100
AcDbLine
 10
428.337162
 20
301.407994
 30
0.0
 11
428.6548419999999
 21
294.194454
 31
0.0
  0
LINE
  5
115
330
1F
100
AcDbEntity
  8
NOCUT
100
AcDbLine
 10
428.6548419999999
 20
294.194454
 30
0.0
 11
428.6548419999999
 21
288.907994
 31
0.0
  0
LINE
  5
116
330
1F
100
AcDbEntity
  8
NOCUT
100
AcDbLine
 10
428.6548419999999
 20
288.907994
 30
0.0
 11
214.404842
 21
288.907994
 31
0.0
  0
LINE
  5
117
330
1F
100
AcDbEntity
  8
NOCUT
100
AcDbLine
 10
279.404842
 20
309.907994
 30
0.0
 11
274.904842
 21
309.907994
 31
0.0
  0
LINE
  5
118
330
1F
100
AcDbEntity
  8
NOCUT
100
AcDbLine
 10
274.404842
 20
304.907994
 30
0.0
 11
216.404842
 21
304.907994
 31
0.0
  0
LINE
  5
119
330
1F
100
AcDbEntity
  8
NOCUT
100
AcDbLine
 10
214.404842
 20
302.907994
 30
0.0
 11
214.404842
 21
288.907994
 31
0.0
  0
LINE
  5
11A
330
1F
100
AcDbEntity
  8
NOCUT
100
AcDbLine
 10
274.404842
 20
304.907994
 30
0.0
 11
274.404842
 21
309.407994
 31
0.0
  0
LINE
  5
11B
330
1F
100
AcDbEntity
  8
NOCUT
100
AcDbLine
 10
274.404842
 20
309.407994
 30
0.0
 11
274.904842
 21
309.907994
 31
0.0
  0
LINE
  5
11C
330
1F
100
AcDbEntity
  8
NOCUT
100
AcDbLine
 10
214.404842
 20
302.907994
 30
0.0
 11
216.404842
 21
304.907994
 31
0.0
  0
ARC
  5
125
330
1F
100
AcDbEntity
  8
1
100
AcDbCircle
 10
293.703832
 20
262.407994
 30
0.0
 40
14.0
100
AcDbArc
 50
100.818451
 51
135.0
  0
ARC
  5
126
330
1F
100
AcDbEntity
  8
1
100
AcDbCircle
 10
293.703832
 20
315.407994
 30
0.0
 40
14.0
100
AcDbArc
 50
225.0
 51
253.445467
  0
ARC
  5
127
330
1F
100
AcDbEntity
  8
1
100
AcDbCircle
 10
425.278336
 20
285.772145
 30
0.0
 40
1.25
100
AcDbArc
 50
75.0
 51
345.0
  0
CIRCLE
  5
128
330
1F
100
AcDbEntity
  8
1
100
AcDbCircle
 10
425.278336
 20
285.772145
 30
0.0
 40
0.8499999999999991
  0
ARC
  5
137
330
1F
100
AcDbEntity
  8
NOCUT
100
AcDbCircle
 10
293.703832
 20
315.407994
 30
0.0
 40
14.0
100
AcDbArc
 50
225.0
 51
270.0
  0
ELLIPSE
  5
138
330
1F
100
AcDbEntity
  8
1
100
AcDbEllipse
 10
421.7293289999999
 20
294.229093
 30
0.0
 11
1.037752597290183
 21
-0.3647869882787496
 31
0.0
210
0.0
220
0.0
230
1.0
 40
0.9986169999999999
 41
2.828108178481316
 42
4.057820953139238
  0
ELLIPSE
  5
139
330
1F
100
AcDbEntity
  8
1
100
AcDbEllipse
 10
421.131365
 20
288.908017
 30
0.0
 11
0.5272052311746781
 21
-12.49997208257988
 31
0.0
210
0.0
220
0.0
230
1.0
 40
0.019519
 41
3.242123876082848
 42
3.266170824003906
  0
ELLIPSE
  5
13A
330
1F
100
AcDbEntity
  8
1
100
AcDbEllipse
 10
366.312071
 20
288.906985
 30
0.0
 11
716.8346413499152
 21
-0.6202551369219637
 31
0.0
210
0.0
220
0.0
230
1.0
 40
0.017418
 41
1.495036848251541
 42
1.499368522922231
  0
ELLIPSE
  5
13B
330
1F
100
AcDbEntity
  8
1
100
AcDbEllipse
 10
421.760465
 20
291.473608
 30
0.0
 11
-3.151536541070127
 21
-0.1515210577789875
 31
0.0
210
0.0
220
0.0
230
0.9999999999999998
 40
0.221493
 41
1.694360137956704
 42
4.58269354386479
  0
ELLIPSE
  5
13C
330
1F
100
AcDbEntity
  8
1
100
AcDbEllipse
 10
421.565124
 20
288.907992
 30
0.0
 11
0.5272063287259325
 21
-12.49999690453425
 31
0.0
210
0.0
220
0.0
230
1.0
 40
0.019519
 41
3.027629397890075
 42
3.104774961639146
  0
ELLIPSE
  5
13D
330
1F
100
AcDbEntity
  8
1
100
AcDbEllipse
 10
421.4361489999999
 20
288.907994
 30
0.0
 11
0.4618480837454494
 21
-12.49983051980341
 31
0.0
210
0.0
220
0.0
230
0.9999999999999998
 40
0.140936
 41
3.100390901365884
 42
3.238053261972595
  0
ELLIPSE
  5
13E
330
1F
100
AcDbEntity
  8
1
100
AcDbEllipse
 10
423.7672749999999
 20
297.036928
 30
0.0
 11
-0.0942521876921316
 21
0.0331311834599838
 31
0.0
210
0.0
220
0.0
230
1.0
 40
0.9986169999999999
 41
2.476486624738406
 42
3.325421777149303
  0
ELLIPSE
  5
13F
330
1F
100
AcDbEntity
  8
1
100
AcDbEllipse
 10
423.3166599999999
 20
297.107082
 30
0.0
 11
-0.5245088146424643
 21
0.1843734155122308
 31
0.0
210
0.0
220
0.0
230
1.0
 40
0.9986169999999999
 41
3.325421777149263
 42
4.245545350319046
  0
ELLIPSE
  5
140
330
1F
100
AcDbEntity
  8
1
100
AcDbEllipse
 10
423.6451769999999
 20
297.422697
 30
0.0
 11
-0.0942521876921316
 21
0.0331311834599839
 31
0.0
210
0.0
220
0.0
230
0.9999999999999998
 40
0.9986169999999999
 41
4.245545350319221
 42
5.094480502729931
  0
ELLIPSE
  5
141
330
1F
100
AcDbEntity
  8
1
100
AcDbEllipse
 10
423.63629
 20
297.622073
 30
0.0
 11
-0.0942521876921317
 21
0.0331311834599839
 31
0.0
210
0.0
220
0.0
230
1.0
 40
0.9986169999999999
 41
0.5803539211311413
 42
1.95288784913982
  0
ELLIPSE
  5
142
330
1F
100
AcDbEntity
  8
1
100
AcDbEllipse
 10
424.0789139999999
 20
297.731186
 30
0.0
 11
-0.5245088146424645
 21
0.1843734155122308
 31
0.0
210
0.0
220
0.0
230
1.0
 40
0.9986169999999999
 41
5.943415655140782
 42
6.863539228310622
  0
ELLIPSE
  5
143
330
1F
100
AcDbEntity
  8
1
100
AcDbEllipse
 10
423.72359
 20
298.016975
 30
0.0
 11
-0.0942521876921316
 21
0.0331311834599838
 31
0.0
210
0.0
220
0.0
230
1.0
 40
0.9986169999999999
 41
4.570881727131737
 42
5.943415655140732
  0
ELLIPSE
  5
144
330
1F
100
AcDbEntity
  8
1
100
AcDbEllipse
 10
423.815685
 20
298.193992
 30
0.0
 11
-0.0942521876921316
 21
0.0331311834599838
 31
0.0
210
0.0
220
0.0
230
1.0
 40
0.9986169999999999
 41
1.429289073541663
 42
2.278224225952659
  0
ELLIPSE
  5
145
330
1F
100
AcDbEntity
  8
1
100
AcDbEllipse
 10
423.6508599999999
 20
298.618839
 30
0.0
 11
-0.5245088146424643
 21
0.1843734155122308
 31
0.0
210
0.0
220
0.0
230
1.0
 40
0.9986169999999999
 41
2.278224225952709
 42
3.198347799122515
  0
ELLIPSE
  5
146
330
1F
100
AcDbEntity
  8
1
100
AcDbEllipse
 10
424.0889909999999
 20
298.492213
 30
0.0
 11
-0.0942521876921316
 21
0.0331311834599839
 31
0.0
210
0.0
220
0.0
230
0.9999999999999998
 40
0.9986169999999999
 41
3.19834779912237
 42
4.047282951533381
  0
ELLIPSE
  5
147
330
1F
100
AcDbEntity
  8
1
100
AcDbEllipse
 10
424.257391
 20
298.59944
 30
0.0
 11
-0.0942521876921317
 21
0.0331311834599839
 31
0.0
210
0.0
220
0.0
230
1.0
 40
0.9986169999999999
 41
5.816341677114087
 42
7.188875605122906
  0
ELLIPSE
  5
148
330
1F
100
AcDbEntity
  8
1
100
AcDbEllipse
 10
424.573632
 20
298.271003
 30
0.0
 11
-0.5245088146424645
 21
0.1843734155122308
 31
0.0
210
0.0
220
0.0
230
1.0
 40
0.9986169999999999
 41
4.896218103944068
 42
5.816341677113987
  0
ELLIPSE
  5
149
330
1F
100
AcDbEntity
  8
1
100
AcDbEllipse
 10
424.6434719999999
 20
298.721072
 30
0.0
 11
-0.0942521876921316
 21
0.0331311834599838
 31
0.0
210
0.0
220
0.0
230
1.0
 40
0.9986169999999999
 41
3.523684175935089
 42
4.896218103944078
  0
ELLIPSE
  5
14A
330
1F
100
AcDbEntity
  8
1
100
AcDbEllipse
 10
424.843055
 20
298.729777
 30
0.0
 11
-0.0942521876921316
 21
0.0331311834599838
 31
0.0
210
0.0
220
0.0
230
1.0
 40
0.9986169999999999
 41
0.3820915223450853
 42
1.231026674755928
  0
ELLIPSE
  5
14B
330
1F
100
AcDbEntity
  8
1
100
AcDbEllipse
 10
425.128845
 20
299.084471
 30
0.0
 11
-0.5245088146424643
 21
0.1843734155122308
 31
0.0
210
0.0
220
0.0
230
1.0
 40
0.9986169999999999
 41
1.231026674756109
 42
2.151150247925903
  0
ELLIPSE
  5
14C
330
1F
100
AcDbEntity
  8
1
100
AcDbEllipse
 10
425.238459
 20
298.642229
 30
0.0
 11
-0.0942521876921316
 21
0.0331311834599839
 31
0.0
210
0.0
220
0.0
230
0.9999999999999998
 40
0.9986169999999999
 41
2.151150247926242
 42
3.000085400336881
  0
ELLIPSE
  5
14D
330
1F
100
AcDbEntity
  8
1
100
AcDbEllipse
 10
425.4157469999999
 20
298.55008
 30
0.0
 11
-0.0942521876921317
 21
0.0331311834599839
 31
0.0
210
0.0
220
0.0
230
1.0
 40
0.9986169999999999
 41
4.769144125917235
 42
6.141678053926212
  0
ELLIPSE
  5
14E
330
1F
100
AcDbEntity
  8
1
100
AcDbEllipse
 10
425.2893629999999
 20
298.112531
 30
0.0
 11
-0.5245088146424645
 21
0.1843734155122308
 31
0.0
210
0.0
220
0.0
230
1.0
 40
0.9986169999999999
 41
3.849020552747573
 42
4.769144125917459
  0
ELLIPSE
  5
14F
330
1F
100
AcDbEntity
  8
1
100
AcDbEllipse
 10
425.7145269999999
 20
298.276811
 30
0.0
 11
-0.0942521876921316
 21
0.0331311834599838
 31
0.0
210
0.0
220
0.0
230
1.0
 40
0.9986169999999999
 41
2.476486624738639
 42
3.849020552747563
  0
ELLIPSE
  5
150
330
1F
100
AcDbEntity
  8
1
100
AcDbEllipse
 10
425.822016
 20
298.108499
 30
0.0
 11
-0.0942521876921316
 21
0.0331311834599838
 31
0.0
210
0.0
220
0.0
230
1.0
 40
0.9986169999999999
 41
5.618079278328432
 42
6.467014430739045
  0
ELLIPSE
  5
151
330
1F
100
AcDbEntity
  8
1
100
AcDbEllipse
 10
426.2726309999999
 20
298.038345
 30
0.0
 11
-0.5245088146424643
 21
0.1843734155122308
 31
0.0
210
0.0
220
0.0
230
1.0
 40
0.9986169999999999
 41
0.1838291235594967
 42
1.10395269672931
  0
ELLIPSE
  5
152
330
1F
100
AcDbEntity
  8
1
100
AcDbEllipse
 10
425.9441139999999
 20
297.72273
 30
0.0
 11
-0.0942521876921316
 21
0.0331311834599839
 31
0.0
210
0.0
220
0.0
230
0.9999999999999998
 40
0.9986169999999999
 41
1.103952696729587
 42
1.952887849140745
  0
ELLIPSE
  5
153
330
1F
100
AcDbEntity
  8
1
100
AcDbEllipse
 10
425.9530009999999
 20
297.523354
 30
0.0
 11
-0.0942521876921317
 21
0.0331311834599839
 31
0.0
210
0.0
220
0.0
230
1.0
 40
0.9986169999999999
 41
3.721946574720756
 42
5.094480502729666
  0
ELLIPSE
  5
154
330
1F
100
AcDbEntity
  8
1
100
AcDbEllipse
 10
425.5103759999999
 20
297.414241
 30
0.0
 11
-0.5245088146424645
 21
0.1843734155122308
 31
0.0
210
0.0
220
0.0
230
1.0
 40
0.9986169999999999
 41
2.801823001550948
 42
3.721946574720746
  0
ELLIPSE
  5
155
330
1F
100
AcDbEntity
  8
1
100
AcDbEllipse
 10
425.865701
 20
297.128452
 30
0.0
 11
-0.0942521876921316
 21
0.0331311834599838
 31
0.0
210
0.0
220
0.0
230
1.0
 40
0.9986169999999999
 41
1.42928907354109
 42
2.801823001550844
  0
ELLIPSE
  5
156
330
1F
100
AcDbEntity
  8
1
100
AcDbEllipse
 10
425.773606
 20
296.951436
 30
0.0
 11
-0.0942521876921316
 21
0.0331311834599838
 31
0.0
210
0.0
220
0.0
230
1.0
 40
0.9986169999999999
 41
4.570881727131153
 42
5.419816879542374
  0
ELLIPSE
  5
157
330
1F
100
AcDbEntity
  8
1
100
AcDbEllipse
 10
425.9384309999999
 20
296.526588
 30
0.0
 11
-0.5245088146424643
 21
0.1843734155122308
 31
0.0
210
0.0
220
0.0
230
1.0
 40
0.9986169999999999
 41
5.419816879542467
 42
6.339940452712261
  0
ELLIPSE
  5
158
330
1F
100
AcDbEntity
  8
1
100
AcDbEllipse
 10
425.5003
 20
296.653214
 30
0.0
 11
-0.0942521876921316
 21
0.0331311834599839
 31
0.0
210
0.0
220
0.0
230
0.9999999999999998
 40
0.9986169999999999
 41
0.0567551455326479
 42
0.9056902979436806
  0
ELLIPSE
  5
159
330
1F
100
AcDbEntity
  8
1
100
AcDbEllipse
 10
425.331899
 20
296.545988
 30
0.0
 11
-0.0942521876921317
 21
0.0331311834599839
 31
0.0
210
0.0
220
0.0
230
1.0
 40
0.9986169999999999
 41
2.674749023524356
 42
4.047282951533381
  0
ELLIPSE
  5
15A
330
1F
100
AcDbEntity
  8
1
100
AcDbEllipse
 10
425.0156589999999
 20
296.874424
 30
0.0
 11
-0.5245088146424645
 21
0.1843734155122308
 31
0.0
210
0.0
220
0.0
230
1.0
 40
0.9986169999999999
 41
1.754625450354373
 42
2.674749023524181
  0
ELLIPSE
  5
15B
330
1F
100
AcDbEntity
  8
1
100
AcDbEllipse
 10
424.945819
 20
296.424355
 30
0.0
 11
-0.0942521876921316
 21
0.0331311834599838
 31
0.0
210
0.0
220
0.0
230
1.0
 40
0.9986169999999999
 41
0.3820915223451252
 42
1.754625450354895
  0
ELLIPSE
  5
15C
330
1F
100
AcDbEntity
  8
1
100
AcDbEllipse
 10
424.746236
 20
296.4156500000001
 30
0.0
 11
-0.0942521876921316
 21
0.0331311834599838
 31
0.0
210
0.0
220
0.0
230
1.0
 40
0.9986169999999999
 41
3.523684175935024
 42
4.372619328345721
  0
ELLIPSE
  5
15D
330
1F
100
AcDbEntity
  8
1
100
AcDbEllipse
 10
424.4604459999999
 20
296.060956
 30
0.0
 11
-0.5245088146424643
 21
0.1843734155122308
 31
0.0
210
0.0
220
0.0
230
1.0
 40
0.9986169999999999
 41
4.372619328345888
 42
5.292742901515746
  0
ELLIPSE
  5
15E
330
1F
100
AcDbEntity
  8
1
100
AcDbEllipse
 10
424.7946449999999
 20
297.572714
 30
0.0
 11
1.415117178122975
 21
-0.4974368021982948
 31
0.0
210
0.0
220
0.0
230
1.0
 40
0.9986169999999999
 41
0.0
 42
6.283185307179585
  0
ELLIPSE
  5
15F
330
1F
100
AcDbEntity
  8
1
100
AcDbEllipse
 10
424.931615
 20
297.761528
 30
0.0
 11
1.976686973435237
 21
-0.6948377577586032
 31
0.0
210
0.0
220
0.0
230
1.0
 40
0.9986169999999999
 41
1.952887808078915
 42
2.788649820988443
  0
ELLIPSE
  5
160
330
1F
100
AcDbEntity
  8
1
100
AcDbEllipse
 10
424.931615
 20
297.761528
 30
0.0
 11
1.976686973435237
 21
-0.6948377577586032
 31
0.0
210
0.0
220
0.0
230
1.0
 40
0.9986169999999999
 41
5.950564527487061
 42
6.283185307179585
  0
ELLIPSE
  5
161
330
1F
100
AcDbEntity
  8
1
100
AcDbEllipse
 10
424.931615
 20
297.761528
 30
0.0
 11
1.976686973435237
 21
-0.6948377577586032
 31
0.0
210
0.0
220
0.0
230
1.0
 40
0.9986169999999999
 41
0.0
 42
1.952887937557281
  0
ELLIPSE
  5
162
330
1F
100
AcDbEntity
  8
1
100
AcDbEllipse
 10
422.005426
 20
294.502841
 30
0.0
 11
0.9544181501593349
 21
1.042471547625801
 31
0.0
210
0.0
220
0.0
230
0.9999999999999998
 40
0.014608
 41
0.9817638394120063
 42
1.53657487311224
  0
ELLIPSE
  5
163
330
1F
100
AcDbEntity
  8
1
100
AcDbEllipse
 10
424.911825
 20
297.70523
 30
0.0
 11
2.032803755974808
 21
-0.7145637234155016
 31
0.0
210
0.0
220
0.0
230
1.0
 40
0.9986169999999997
 41
0.0
 42
6.283185307179585
  0
ELLIPSE
  5
164
330
1F
100
AcDbEntity
  8
1
100
AcDbEllipse
 10
421.736176
 20
300.5432
 30
0.0
 11
1.042970518041463
 21
-0.9548749745322128
 31
0.0
210
0.0
220
0.0
230
1.0
 40
0.034202
 41
1.030578139255962
 42
1.585389172393299
  0
ELLIPSE
  5
165
330
1F
100
AcDbEntity
  8
1
100
AcDbEllipse
 10
424.908948
 20
297.697046
 30
0.0
 11
-2.122675767184468
 21
0.7461552032974362
 31
0.0
210
0.0
220
0.0
230
1.0
 40
0.9986169999999999
 41
0.0
 42
6.283185307179585
  0
ELLIPSE
  5
166
330
1F
100
AcDbEntity
  8
1
100
AcDbEllipse
 10
427.78283
 20
300.806928
 30
0.0
 11
0.9544181524777172
 21
1.042471550167203
 31
0.0
210
0.0
220
0.0
230
1.0
 40
0.014608
 41
1.536574872889823
 42
2.091385905294909
  0
ELLIPSE
  5
167
330
1F
100
AcDbEntity
  8
1
100
AcDbEllipse
 10
428.0520789999999
 20
294.766569
 30
0.0
 11
1.042970518592012
 21
-0.9548749750316524
 31
0.0
210
0.0
220
0.0
230
0.9999999999999998
 40
0.034202
 41
1.585389172311514
 42
2.140200205170434
  0
ELLIPSE
  5
168
330
1F
100
AcDbEntity
  8
1
100
AcDbEllipse
 10
421.5527889999999
 20
305.418574
 30
0.0
 11
11.88698429623301
 21
-4.178469138465681
 31
0.0
210
0.0
220
0.0
230
1.0
 40
0.9986169999999999
 41
4.586986753369429
 42
4.71172059388117
  0
ELLIPSE
  5
169
330
1F
100
AcDbEntity
  8
1
100
AcDbEllipse
 10
424.8120809999999
 20
297.622315
 30
0.0
 11
-1.98116404937217
 21
0.6964115230776069
 31
0.0
210
0.0
220
0.0
230
1.0
 40
0.9986169999999999
 41
3.141686055608171
 42
6.283185307179585
  0
ELLIPSE
  5
16A
330
1F
100
AcDbEntity
  8
1
100
AcDbEllipse
 10
424.7974319999999
 20
297.580641
 30
0.0
 11
1.981164049372166
 21
-0.6964115230776127
 31
0.0
210
0.0
220
0.0
230
0.9999999999999998
 40
0.9986169999999999
 41
0.0000933414325836
 42
3.141587824503788
  0
ELLIPSE
  5
16B
330
1F
100
AcDbEntity
  8
1
100
AcDbEllipse
 10
424.350832
 20
296.503198
 30
0.0
 11
-0.0942521876921316
 21
0.0331311834599839
 31
0.0
210
0.0
220
0.0
230
0.9999999999999998
 40
0.9986169999999999
 41
5.292742901515718
 42
6.141678053926675
  0
ELLIPSE
  5
16C
330
1F
100
AcDbEntity
  8
1
100
AcDbEllipse
 10
424.173544
 20
296.595347
 30
0.0
 11
-0.0942521876921317
 21
0.0331311834599839
 31
0.0
210
0.0
220
0.0
230
1.0
 40
0.9986169999999999
 41
1.627551472327716
 42
3.000085400336671
  0
ELLIPSE
  5
16D
330
1F
100
AcDbEntity
  8
1
100
AcDbEllipse
 10
424.2999269999999
 20
297.032896
 30
0.0
 11
-0.5245088146424645
 21
0.1843734155122308
 31
0.0
210
0.0
220
0.0
230
1.0
 40
0.9986169999999999
 41
0.7074278991577677
 42
1.627551472327563
  0
ELLIPSE
  5
16E
330
1F
100
AcDbEntity
  8
1
100
AcDbEllipse
 10
423.8747629999999
 20
296.868617
 30
0.0
 11
-0.0942521876921316
 21
0.0331311834599838
 31
0.0
210
0.0
220
0.0
230
1.0
 40
0.9986169999999999
 41
5.6180792783282
 42
6.990613206337356
  0
ELLIPSE
  5
16F
330
1F
100
AcDbEntity
  8
1
100
AcDbEllipse
 10
332.568315
 20
288.907995
 30
0.0
 11
266.6287332469222
 21
12.19014191828346
 31
0.0
210
0.0
220
0.0
230
0.9999999999999998
 40
0.010374
 41
5.054742579835632
 42
5.073598537046856
  0
ELLIPSE
  5
170
330
1F
100
AcDbEntity
  8
1
100
AcDbEllipse
 10
427.940994
 20
282.1597310000001
 30
0.0
 11
0.0323262014620301
 21
0.2994966855088046
 31
0.0
210
0.0
220
0.0
230
0.9999999999999998
 40
0.139171
 41
1.583568179259525
 42
3.154364506041106
  0
ELLIPSE
  5
171
330
1F
100
AcDbEntity
  8
1
100
AcDbEllipse
 10
428.2360299999999
 20
288.90018
 30
0.0
 11
0.0001054973287413
 21
-0.3000466005948902
 31
0.0
210
0.0
220
0.0
230
1.0
 40
0.140519
 41
3.1390904759675
 42
4.709886802779882
  0
ELLIPSE
  5
172
330
1F
100
AcDbEntity
  8
1
100
AcDbEllipse
 10
314.113834
 20
288.907994
 30
0.0
 11
43.5562105160236
 21
-8.338784514739684
 31
0.0
210
0.0
220
0.0
230
1.0
 40
0.213794
 41
4.266046564567136
 42
4.41128280472198
  0
ELLIPSE
  5
173
330
1F
100
AcDbEntity
  8
1
100
AcDbEllipse
 10
421.7345589999999
 20
294.243973
 30
0.0
 11
-1.037752597290183
 21
0.3647869882787463
 31
0.0
210
0.0
220
0.0
230
1.0
 40
0.9986169999999999
 41
2.660398593174646
 42
2.896276136521323
  0
ELLIPSE
  5
174
330
1F
100
AcDbEntity
  8
1
100
AcDbEllipse
 10
428.3555599999999
 20
293.844381
 30
0.0
 11
0.0006009006050833
 21
0.8007713148687622
 31
0.0
210
0.0
220
0.0
230
1.0
 40
0.140044
 41
3.492165543172306
 42
4.513209706325168
  0
ELLIPSE
  5
175
330
1F
100
AcDbEntity
  8
1
100
AcDbEllipse
 10
429.0760469999999
 20
288.907994
 30
0.0
 11
1.35298461775519
 21
12.49858631514562
 31
0.0
210
0.0
220
0.0
230
0.9999999999999996
 40
0.138944
 41
1.908906884669045
 42
3.156632395651066
  0
ELLIPSE
  5
176
330
1F
100
AcDbEntity
  8
1
100
AcDbEllipse
 10
428.6548419999999
 20
288.907994
 30
0.0
 11
0.0
 21
12.49999999916904
 31
0.0
210
0.0
220
0.0
230
1.0
 40
0.140541
 41
1.432706838737535
 42
1.893867142629499
  0
ELLIPSE
  5
177
330
1F
100
AcDbEntity
  8
1
100
AcDbEllipse
 10
421.788262
 20
294.396747
 30
0.0
 11
-1.037752597290183
 21
0.3647869882787462
 31
0.0
210
0.0
220
0.0
230
1.0
 40
0.9986169999999999
 41
0.0808915618592316
 42
1.952888276015091
  0
ELLIPSE
  5
178
330
1F
100
AcDbEntity
  8
1
100
AcDbEllipse
 10
421.788262
 20
294.396747
 30
0.0
 11
-1.037752597290183
 21
0.3647869882787462
 31
0.0
210
0.0
220
0.0
230
1.0
 40
0.9986169999999999
 41
1.952888276015089
 42
2.71442964307429
  0
ELLIPSE
  5
179
330
1F
100
AcDbEntity
  8
1
100
AcDbEllipse
 10
421.7345589999999
 20
294.243973
 30
0.0
 11
-1.037752597290183
 21
0.3647869882787463
 31
0.0
210
0.0
220
0.0
230
1.0
 40
0.9986169999999999
 41
5.715339719273473
 42
5.969700832071146
  0
SPLINE
  5
180
330
1F
100
AcDbEntity
  8
1
100
AcDbSpline
210
0.0
220
0.0
230
1.0
 70
     8
 71
     3
 72
    18
 73
    14
 74
     0
 42
0.000000001
 43
0.0000000001
 40
0.0
 40
0.0
 40
0.0
 40
0.0
 40
0.1249999999999998
 40
0.1249999999999998
 40
0.2499999999999995
 40
0.2499999999999995
 40
0.3749999999999992
 40
0.3749999999999992
 40
0.4999999999999998
 40
0.4999999999999998
 40
0.7499999999999999
 40
0.7499999999999999
 40
1.0
 40
1.0
 40
1.0
 40
1.0
 10
292.3810028726027
 20
276.3533951988481
 30
0.0
 10
292.1309111845972
 20
276.3254940064727
 30
0.0
 10
291.8839332818073
 20
276.2926341298764
 30
0.0
 10
291.3955469216243
 20
276.2180450684002
 30
0.0
 10
291.1541400744767
 20
276.1763133192138
 30
0.0
 10
290.6764311642679
 20
276.0847204828982
 30
0.0
 10
290.4401302611753
 20
276.0348575485257
 30
0.0
 10
289.9723166811297
 20
275.9275064584638
 30
0.0
 10
289.7408048454531
 20
275.8700169630465
 30
0.0
 10
289.0531546639533
 20
275.6865836373158
 30
0.0
 10
288.6038625946241
 20
275.5497371528786
 30
0.0
 10
287.7230779115942
 20
275.2476986580128
 30
0.0
 10
287.2915946438332
 20
275.082491764231
 30
0.0
 10
286.8693559459797
 20
274.9025629484946
 30
0.0
  0
SPLINE
  5
181
330
1F
100
AcDbEntity
  8
1
100
AcDbSpline
210
0.0
220
0.0
230
1.0
 70
     8
 71
     3
 72
    35
 73
    31
 74
     0
 42
0.000000001
 43
0.0000000001
 40
0.0
 40
0.0
 40
0.0
 40
0.0
 40
0.124999999999957
 40
0.124999999999957
 40
0.2499999999999139
 40
0.2499999999999139
 40
0.3124999999998924
 40
0.3124999999998924
 40
0.3749999999998709
 40
0.3749999999998709
 40
0.4374999999998493
 40
0.4374999999998493
 40
0.4687499999998376
 40
0.4687499999998376
 40
0.4999999999998259
 40
0.4999999999998259
 40
0.6249999999997934
 40
0.6249999999997934
 40
0.6874999999997772
 40
0.6874999999997772
 40
0.749999999999761
 40
0.749999999999761
 40
0.781249999999791
 40
0.781249999999791
 40
0.8124999999998207
 40
0.8749999999998806
 40
0.8749999999998806
 40
0.9374999999999403
 40
0.9374999999999403
 40
1.0
 40
1.0
 40
1.0
 40
1.0
 10
415.3892746975576
 20
294.7344801493795
 30
0.0
 10
415.3770315205552
 20
294.7581677140103
 30
0.0
 10
415.3657352851515
 20
294.7822910402922
 30
0.0
 10
415.3455458144726
 20
294.8316238185067
 30
0.0
 10
415.3366439184788
 20
294.8568296777006
 30
0.0
 10
415.3257309928068
 20
294.8957203571676
 30
0.0
 10
415.3225117845334
 20
294.9088495413547
 30
0.0
 10
415.3171116617336
 20
294.9352256624101
 30
0.0
 10
415.3149205767334
 20
294.9485049330751
 30
0.0
 10
415.3117344196105
 20
294.9752734851085
 30
0.0
 10
415.3107383120089
 20
294.9887626070646
 30
0.0
 10
415.3103249882674
 20
295.0091822399966
 30
0.0
 10
415.3103679771418
 20
295.0160198721005
 30
0.0
 10
415.310856035271
 20
295.0297635796495
 30
0.0
 10
415.3113038211028
 20
295.0366921133164
 30
0.0
 10
415.3146291742292
 20
295.0711520107146
 30
0.0
 10
415.3206978147434
 20
295.0982253806604
 30
0.0
 10
415.3365911705027
 20
295.1378121042488
 30
0.0
 10
415.3429201355988
 20
295.1505322838093
 30
0.0
 10
415.3575369243216
 20
295.1747891421703
 30
0.0
 10
415.3658398257102
 20
295.1863637293
 30
0.0
 10
415.3797880885671
 20
295.2028907101773
 30
0.0
 10
415.3847104040558
 20
295.2082833384412
 30
0.0
 10
415.394906213709
 20
295.2186434087784
 30
0.0
 10
415.4107295960399
 20
295.2335626707039
 30
0.0
 10
415.4280241072933
 20
295.2467565905913
 30
0.0
 10
415.4522262481206
 20
295.2630069168534
 30
0.0
 10
415.4649068519876
 20
295.2704552455828
 30
0.0
 10
415.490810245073
 20
295.2839512556033
 30
0.0
 10
415.5040906417851
 20
295.2900396943277
 30
0.0
 10
415.5176474892401
 20
295.2955734513109
 30
0.0
  0
SPLINE
  5
182
330
1F
100
AcDbEntity
  8
1
100
AcDbSpline
210
0.0
220
0.0
230
1.0
 70
     8
 71
     3
 72
    32
 73
    28
 74
     0
 42
0.000000001
 43
0.0000000001
 40
0.0
 40
0.0
 40
0.0
 40
0.0
 40
0.1249999999999993
 40
0.1249999999999993
 40
0.2499999999999986
 40
0.2499999999999986
 40
0.3749999999999979
 40
0.3749999999999979
 40
0.4062499999999978
 40
0.4218749999999982
 40
0.4218749999999982
 40
0.4374999999999984
 40
0.4374999999999984
 40
0.5
 40
0.5
 40
0.6250000000000026
 40
0.6250000000000026
 40
0.6875000000000039
 40
0.6875000000000039
 40
0.7187500000000045
 40
0.7343750000000043
 40
0.7343750000000043
 40
0.750000000000004
 40
0.750000000000004
 40
0.8750000000000021
 40
0.8750000000000021
 40
1.0
 40
1.0
 40
1.0
 40
1.0
 10
283.8043368819074
 20
282.0307451452636
 30
0.0
 10
284.0944088151152
 20
282.279424862325
 30
0.0
 10
284.3965527007149
 20
282.5130199089872
 30
0.0
 10
285.0255928497635
 20
282.949498243685
 30
0.0
 10
285.3524830342122
 20
283.1523924106388
 30
0.0
 10
286.0325590100323
 20
283.5256558561655
 30
0.0
 10
286.3857321561151
 20
283.6960476697548
 30
0.0
 10
286.8453533993952
 20
283.8864775332181
 30
0.0
 10
286.9846067460134
 20
283.9419063860705
 30
0.0
 10
287.1259769043054
 20
283.9946945489582
 30
0.0
 10
287.2207023076411
 20
284.029288421739
 30
0.0
 10
287.2682658341084
 20
284.0462716301843
 30
0.0
 10
287.5065308621164
 20
284.1294062650641
 30
0.0
 10
287.699095782296
 20
284.1904107231019
 30
0.0
 10
288.2827219705729
 20
284.3564853548733
 30
0.0
 10
288.6797037449749
 20
284.4446956256074
 30
0.0
 10
289.287532079522
 20
284.5402186714045
 30
0.0
 10
289.4922037079346
 20
284.5659086527509
 30
0.0
 10
289.8023903623143
 20
284.5946496637346
 30
0.0
 10
289.9582786932535
 20
284.6065695727304
 30
0.0
 10
290.1153771781732
 20
284.6146871894524
 30
0.0
 10
290.2203804666736
 20
284.6192384739854
 30
0.0
 10
290.2730486919488
 20
284.6210847455705
 30
0.0
 10
290.7476757208589
 20
284.6337418261662
 30
0.0
 10
291.1675315952672
 20
284.6167514898427
 30
0.0
 10
292.002063862382
 20
284.5258238533702
 30
0.0
 10
292.4167372796674
 20
284.4518498483615
 30
0.0
 10
292.8280851889368
 20
284.3488248368402
 30
0.0
  0
SPLINE
  5
183
330
1F
100
AcDbEntity
  8
1
100
AcDbSpline
210
0.0
220
0.0
230
1.0
 70
     8
 71
     3
 72
     8
 73
     4
 74
     0
 42
0.000000001
 43
0.0000000001
 40
0.0
 40
0.0
 40
0.0
 40
0.0
 40
1.0
 40
1.0
 40
1.0
 40
1.0
 10
424.2098281454756
 20
298.5351967540628
 30
0.0
 10
424.2070198303168
 20
298.5254485194265
 30
0.0
 10
424.2039461896213
 20
298.5157968123486
 30
0.0
 10
424.2006053686314
 20
298.5062410161393
 30
0.0
  0
SPLINE
  5
184
330
1F
100
AcDbEntity
  8
1
100
AcDbSpline
210
0.0
220
0.0
230
1.0
 70
    12
 71
     2
 72
     6
 73
     3
 74
     0
 42
0.000000001
 43
0.0000000001
 40
0.0
 40
0.0
 40
0.0
 40
1.0
 40
1.0
 40
1.0
 10
420.5823337296453
 20
301.3438440082227
 30
0.0
 41
0.4999974530233637
 10
420.6945568269737
 20
301.343645731838
 30
0.0
 41
0.5000025469766363
 10
420.8067780974407
 20
301.3434468441968
 30
0.0
 41
0.4999974530233637
  0
SPLINE
  5
185
330
1F
100
AcDbEntity
  8
1
100
AcDbSpline
210
0.0
220
0.0
230
1.0
 70
     8
 71
     3
 72
    14
 73
    10
 74
     0
 42
0.000000001
 43
0.0000000001
 40
0.0
 40
0.0
 40
0.0
 40
0.0
 40
0.25
 40
0.25
 40
0.5
 40
0.5
 40
0.75
 40
0.75
 40
1.0
 40
1.0
 40
1.0
 40
1.0
 10
422.4801850575278
 20
293.4248076683094
 30
0.0
 10
422.4531010147563
 20
293.3993172663228
 30
0.0
 10
422.4245504050067
 20
293.3750056138697
 30
0.0
 10
422.3658437006568
 20
293.3298181361651
 30
0.0
 10
422.3355732542676
 20
293.3088165166692
 30
0.0
 10
422.2731352497708
 20
293.2698877034578
 30
0.0
 10
422.240968041904
 20
293.251960612127
 30
0.0
 10
422.1745866002938
 20
293.2192106962781
 30
0.0
 10
422.1403363672593
 20
293.2043873098469
 30
0.0
 10
422.1053700515851
 20
293.1913394875051
 30
0.0
  0
SPLINE
  5
186
330
1F
100
AcDbEntity
  8
1
100
AcDbSpline
210
0.0
220
0.0
230
1.0
 70
     8
 71
     3
 72
     8
 73
     4
 74
     0
 42
0.000000001
 43
0.0000000001
 40
0.0
 40
0.0
 40
0.0
 40
0.0
 40
1.0
 40
1.0
 40
1.0
 40
1.0
 10
422.1033236838497
 20
292.8179365079416
 30
0.0
 10
422.1065897821573
 20
292.8180796932681
 30
0.0
 10
422.1098564866132
 20
292.8182225388217
 30
0.0
 10
422.1131237978976
 20
292.818365044221
 30
0.0
  0
SPLINE
  5
187
330
1F
100
AcDbEntity
  8
1
100
AcDbSpline
210
0.0
220
0.0
230
1.0
 70
     8
 71
     3
 72
    18
 73
    14
 74
     0
 42
0.000000001
 43
0.0000000001
 40
0.0
 40
0.0
 40
0.0
 40
0.0
 40
0.2500000000000086
 40
0.2500000000000086
 40
0.3750000000000129
 40
0.3750000000000129
 40
0.437500000000015
 40
0.437500000000015
 40
0.5000000000000173
 40
0.5000000000000173
 40
0.7500000000000086
 40
0.7500000000000086
 40
1.0
 40
1.0
 40
1.0
 40
1.0
 10
417.3581874315847
 20
293.5111518689159
 30
0.0
 10
417.737864309984
 20
293.3794939727478
 30
0.0
 10
418.123006089363
 20
293.2659533500797
 30
0.0
 10
418.708893300602
 20
293.1228693118362
 30
0.0
 10
418.9055538506506
 20
293.0797198583135
 30
0.0
 10
419.202610859313
 20
293.0218885985984
 30
0.0
 10
419.3018036560728
 20
293.0037950139297
 30
0.0
 10
419.5003022531099
 20
292.9700033996305
 30
0.0
 10
419.5996451078086
 20
292.9542981162621
 30
0.0
 10
420.0968243678821
 20
292.8816920955537
 30
0.0
 10
420.4960524917503
 20
292.8425125129533
 30
0.0
 10
421.2974592321268
 20
292.801786761672
 30
0.0
 10
421.6996377444318
 20
292.8002389686799
 30
0.0
 10
422.1033236838497
 20
292.8179365079416
 30
0.0
  0
SPLINE
  5
188
330
1F
100
AcDbEntity
  8
1
100
AcDbSpline
210
0.0
220
0.0
230
1.0
 70
     8
 71
     3
 72
     8
 73
     4
 74
     0
 42
0.000000001
 43
0.0000000001
 40
0.0
 40
0.0
 40
0.0
 40
0.0
 40
1.0
 40
1.0
 40
1.0
 40
1.0
 10
292.8280851889368
 20
284.3488248368402
 30
0.0
 10
293.1200759843988
 20
284.2756936639603
 30
0.0
 10
293.4119904262315
 20
284.1952476658795
 30
0.0
 10
293.7038318185191
 20
284.1078033802481
 30
0.0
  0
SPLINE
  5
189
330
1F
100
AcDbEntity
  8
1
100
AcDbSpline
210
0.0
220
0.0
230
1.0
 70
     8
 71
     3
 72
     8
 73
     4
 74
     0
 42
0.000000001
 43
0.0000000001
 40
0.0
 40
0.0
 40
0.0
 40
0.0
 40
1.0
 40
1.0
 40
1.0
 40
1.0
 10
422.1347806459486
 20
292.1853842240066
 30
0.0
 10
421.9133656337886
 20
292.1811412279164
 30
0.0
 10
421.6910475488486
 20
292.1800739661916
 30
0.0
 10
421.4678419452948
 20
292.1823799798752
 30
0.0
  0
SPLINE
  5
18A
330
1F
100
AcDbEntity
  8
1
100
AcDbSpline
210
0.0
220
0.0
230
1.0
 70
     9
 71
     3
 72
   167
 73
   163
 74
     0
 42
0.000000001
 43
0.0000000001
 40
0.0
 40
0.0
 40
0.0
 40
0.0
 40
0.0156249999999972
 40
0.0156249999999972
 40
0.0234374999999952
 40
0.0234374999999952
 40
0.0312499999999932
 40
0.0312499999999932
 40
0.0468749999999891
 40
0.0468749999999891
 40
0.0624999999999851
 40
0.0624999999999851
 40
0.0781249999999811
 40
0.0781249999999811
 40
0.0859374999999782
 40
0.0859374999999782
 40
0.0937499999999753
 40
0.0937499999999753
 40
0.1093749999999712
 40
0.1093749999999712
 40
0.1249999999999672
 40
0.1249999999999672
 40
0.1328124999999659
 40
0.1328124999999659
 40
0.1406249999999646
 40
0.1406249999999646
 40
0.1562499999999621
 40
0.1562499999999621
 40
0.1640624999999609
 40
0.1640624999999609
 40
0.1718749999999598
 40
0.1718749999999598
 40
0.187499999999959
 40
0.187499999999959
 40
0.2031249999999583
 40
0.2031249999999583
 40
0.2109374999999586
 40
0.2109374999999586
 40
0.2187499999999589
 40
0.2187499999999589
 40
0.2499999999999625
 40
0.2499999999999625
 40
0.2656249999999639
 40
0.2656249999999639
 40
0.2812499999999652
 40
0.2812499999999652
 40
0.2968749999999665
 40
0.2968749999999665
 40
0.3124999999999679
 40
0.3124999999999679
 40
0.3203124999999684
 40
0.3203124999999684
 40
0.3281249999999688
 40
0.3359374999999692
 40
0.3359374999999692
 40
0.3437499999999697
 40
0.3437499999999697
 40
0.359374999999971
 40
0.359374999999971
 40
0.3749999999999724
 40
0.3749999999999724
 40
0.3906249999999737
 40
0.3906249999999737
 40
0.3984374999999742
 40
0.3984374999999742
 40
0.4062499999999747
 40
0.4062499999999747
 40
0.4374999999999753
 40
0.4374999999999753
 40
0.4531249999999757
 40
0.4531249999999757
 40
0.4687499999999761
 40
0.4687499999999761
 40
0.4765624999999764
 40
0.4765624999999764
 40
0.4843749999999768
 40
0.4843749999999768
 40
0.4999999999999775
 40
0.4999999999999775
 40
0.5156249999999779
 40
0.5156249999999779
 40
0.5234374999999786
 40
0.5234374999999786
 40
0.5312499999999791
 40
0.5312499999999791
 40
0.54687499999998
 40
0.54687499999998
 40
0.5546874999999804
 40
0.5546874999999804
 40
0.5624999999999807
 40
0.5624999999999807
 40
0.5781249999999814
 40
0.5781249999999814
 40
0.5937499999999821
 40
0.5937499999999821
 40
0.6015624999999818
 40
0.6015624999999818
 40
0.6093749999999815
 40
0.6093749999999815
 40
0.6249999999999823
 40
0.6249999999999823
 40
0.6406249999999832
 40
0.6406249999999832
 40
0.656249999999984
 40
0.656249999999984
 40
0.6640624999999849
 40
0.6640624999999849
 40
0.6718749999999858
 40
0.6796874999999867
 40
0.6796874999999867
 40
0.6874999999999877
 40
0.6874999999999877
 40
0.7031249999999898
 40
0.7031249999999898
 40
0.718749999999992
 40
0.718749999999992
 40
0.734374999999994
 40
0.734374999999994
 40
0.7421874999999945
 40
0.7421874999999945
 40
0.7499999999999949
 40
0.7578124999999956
 40
0.7578124999999956
 40
0.765624999999996
 40
0.765624999999996
 40
0.781249999999997
 40
0.781249999999997
 40
0.7890624999999975
 40
0.7890624999999975
 40
0.7968749999999978
 40
0.7968749999999978
 40
0.8124999999999987
 40
0.8124999999999987
 40
0.8281249999999998
 40
0.8281249999999998
 40
0.8359375000000003
 40
0.8359375000000003
 40
0.8437500000000007
 40
0.8437500000000007
 40
0.8750000000000026
 40
0.8750000000000026
 40
0.8906250000000035
 40
0.8906250000000035
 40
0.9062500000000044
 40
0.9062500000000044
 40
0.9140625000000042
 40
0.9140625000000042
 40
0.9218750000000042
 40
0.9218750000000042
 40
0.9375000000000042
 40
0.9375000000000042
 40
0.9453125000000035
 40
0.9453125000000035
 40
0.953125000000003
 40
0.953125000000003
 40
0.9687500000000017
 40
0.9687500000000017
 40
0.976562500000001
 40
0.976562500000001
 40
0.9843750000000003
 40
0.9843750000000003
 40
1.0
 40
1.0
 40
1.0
 40
1.0
 10
427.2717336461736
 20
281.1874967087471
 30
0.0
 10
427.2785179358737
 20
281.1866077568603
 30
0.0
 10
427.2855242040561
 20
281.1880549045216
 30
0.0
 10
427.2963633958586
 20
281.1936963280455
 30
0.0
 10
427.3000315225634
 20
281.1961562826546
 30
0.0
 10
427.3074785456257
 20
281.2022419306987
 30
0.0
 10
427.3112611012734
 20
281.2058727410326
 30
0.0
 10
427.3227189768173
 20
281.2184660901651
 30
0.0
 10
427.3305194700943
 20
281.2291339916334
 30
0.0
 10
427.3464442173238
 20
281.2550136445091
 30
0.0
 10
427.3545845541698
 20
281.2702675222726
 30
0.0
 10
427.3710290155968
 20
281.3050581162428
 30
0.0
 10
427.3793495057501
 20
281.3246138951302
 30
0.0
 10
427.3919789773379
 20
281.357217907883
 30
0.0
 10
427.3962166335913
 20
281.3686415931085
 30
0.0
 10
427.4046975822551
 20
281.3924670993539
 30
0.0
 10
427.4089459797996
 20
281.4048813686415
 30
0.0
 10
427.4217149040707
 20
281.4436263197366
 30
0.0
 10
427.4302674987014
 20
281.4714848194727
 30
0.0
 10
427.4474015771551
 20
281.5311503407462
 30
0.0
 10
427.455931185104
 20
281.5627728842382
 30
0.0
 10
427.4686695281296
 20
281.6128876432657
 30
0.0
 10
427.4729062809281
 20
281.6300401867093
 30
0.0
 10
427.4813608719286
 20
281.6652496782257
 30
0.0
 10
427.4855758199682
 20
281.6832961500468
 30
0.0
 10
427.4981238662796
 20
281.7385037906303
 30
0.0
 10
427.5063824789267
 20
281.776821443974
 30
0.0
 10
427.5186090571641
 20
281.8365839559448
 30
0.0
 10
427.5226630415846
 20
281.8569148996054
 30
0.0
 10
427.5306798505744
 20
281.8981612689246
 30
0.0
 10
427.5346444139105
 20
281.9190835782334
 30
0.0
 10
427.5464069469086
 20
281.982745379734
 30
0.0
 10
427.5540779840739
 20
282.026400879793
 30
0.0
 10
427.5690491769979
 20
282.1160374082169
 30
0.0
 10
427.576294761369
 20
282.1616893584496
 30
0.0
 10
427.5868046619048
 20
282.2314124562658
 30
0.0
 10
427.5902481064751
 20
282.2548613983303
 30
0.0
 10
427.5970142095469
 20
282.3021788348933
 30
0.0
 10
427.6003311788428
 20
282.3260103796644
 30
0.0
 10
427.6164788459778
 20
282.4452222130475
 30
0.0
 10
427.6281151515492
 20
282.5414876880322
 30
0.0
 10
427.6436744980848
 20
282.6872105990639
 30
0.0
 10
427.6485472405052
 20
282.7360548650911
 30
0.0
 10
427.6576144697664
 20
282.8340083308378
 30
0.0
 10
427.6617601209752
 20
282.8825830201465
 30
0.0
 10
427.6692835974579
 20
282.9789367065435
 30
0.0
 10
427.672668326427
 20
283.0268408753083
 30
0.0
 10
427.6786029100788
 20
283.1209469469052
 30
0.0
 10
427.6811592216012
 20
283.1672048244363
 30
0.0
 10
427.6843782505026
 20
283.2354009001721
 30
0.0
 10
427.685348996174
 20
283.2579528265524
 30
0.0
 10
427.6870746279023
 20
283.3024194769834
 30
0.0
 10
427.6885873111038
 20
283.3463035513489
 30
0.0
 10
427.6896771682786
 20
283.3890308751764
 30
0.0
 10
427.6905555944036
 20
283.4311797743908
 30
0.0
 10
427.6908893271068
 20
283.4519915540138
 30
0.0
 10
427.6915690191621
 20
283.5133401232313
 30
0.0
 10
427.6915950764571
 20
283.5527482772248
 30
0.0
 10
427.6908032341006
 20
283.6286183548499
 30
0.0
 10
427.6899811744088
 20
283.6651439620721
 30
0.0
 10
427.6875098814882
 20
283.7345291976746
 30
0.0
 10
427.6858615052338
 20
283.7674711676273
 30
0.0
 10
427.6827708022842
 20
283.8142622063018
 30
0.0
 10
427.6816376877142
 20
283.8294071610491
 30
0.0
 10
427.6791846521838
 20
283.8585960053525
 30
0.0
 10
427.6778628409561
 20
283.8726701934007
 30
0.0
 10
427.6707857505546
 20
283.9404860015516
 30
0.0
 10
427.6636394155399
 20
283.9866334523677
 30
0.0
 10
427.6506935133868
 20
284.0437000800817
 30
0.0
 10
427.6459893184632
 20
284.0607064935667
 30
0.0
 10
427.6359612633603
 20
284.0900772239686
 30
0.0
 10
427.6306252144808
 20
284.1025142002184
 30
0.0
 10
427.6221374573315
 20
284.1177925299651
 30
0.0
 10
427.6192261055731
 20
284.1223212426511
 30
0.0
 10
427.6132719192307
 20
284.1302038881411
 30
0.0
 10
427.6102255596928
 20
284.1335649797563
 30
0.0
 10
427.600879715006
 20
284.1419162146738
 30
0.0
 10
427.5943660043557
 20
284.1451792573724
 30
0.0
 10
427.5808160938566
 20
284.1470388511663
 30
0.0
 10
427.5738162137384
 20
284.145636188821
 30
0.0
 10
427.5629813522754
 20
284.1400578345227
 30
0.0
 10
427.5593137927359
 20
284.1376182980178
 30
0.0
 10
427.551865993887
 20
284.1315707416287
 30
0.0
 10
427.5480876003704
 20
284.1279625597746
 30
0.0
 10
427.5366415736235
 20
284.1154395417465
 30
0.0
 10
427.5288447654324
 20
284.1048163548419
 30
0.0
 10
427.5168996127203
 20
284.0854594765125
 30
0.0
 10
427.512870900701
 20
284.0784256677813
 30
0.0
 10
427.5047579675828
 20
284.0632567798415
 30
0.0
 10
427.5006754481483
 20
284.0551264832491
 30
0.0
 10
427.4883500662839
 20
284.0291050558097
 30
0.0
 10
427.4800295673383
 20
284.0095873062093
 30
0.0
 10
427.4631787449333
 20
283.9661556219791
 30
0.0
 10
427.4546957892066
 20
283.9423593118443
 30
0.0
 10
427.4419291217728
 20
283.903675649831
 30
0.0
 10
427.4376641843536
 20
283.8902760464962
 30
0.0
 10
427.4291154046769
 20
283.8624591170816
 30
0.0
 10
427.4248260472094
 20
283.8480219653824
 30
0.0
 10
427.4119885345518
 20
283.8033715265518
 30
0.0
 10
427.4034615549113
 20
283.7717975963562
 30
0.0
 10
427.3864704794845
 20
283.7050265989464
 30
0.0
 10
427.3779897075012
 20
283.6697481194242
 30
0.0
 10
427.3612659884016
 20
283.596245452354
 30
0.0
 10
427.3530048374527
 20
283.557957522124
 30
0.0
 10
427.3407659255323
 20
283.4981940060591
 30
0.0
 10
427.3367114778346
 20
283.4778799898817
 30
0.0
 10
427.3286986120756
 20
283.4366944613682
 30
0.0
 10
427.3207704097013
 20
283.3948969392384
 30
0.0
 10
427.3130113983618
 20
283.3518764110372
 30
0.0
 10
427.3053375380978
 20
283.3082403639179
 30
0.0
 10
427.3015379824427
 20
283.2860829638378
 30
0.0
 10
427.2903154790193
 20
283.2189566399917
 30
0.0
 10
427.2830679049205
 20
283.1733414373866
 30
0.0
 10
427.2690408323027
 20
283.0803828134462
 30
0.0
 10
427.2622496987992
 20
283.0329419138521
 30
0.0
 10
427.2492845680622
 20
282.9373249428018
 30
0.0
 10
427.2430936284108
 20
282.8890460544157
 30
0.0
 10
427.2342483398421
 20
282.815916177809
 30
0.0
 10
427.2313764579775
 20
282.7914423885509
 30
0.0
 10
427.2258117694055
 20
282.7425277981863
 30
0.0
 10
427.2204183710753
 20
282.6935825201969
 30
0.0
 10
427.2153666464737
 20
282.6445760294085
 30
0.0
 10
427.21048657463
 20
282.5955387860483
 30
0.0
 10
427.2081300618221
 20
282.5709779202675
 30
0.0
 10
427.2013558171078
 20
282.4976354669365
 30
0.0
 10
427.197221869466
 20
282.4490925135375
 30
0.0
 10
427.1915919161693
 20
282.3768039376675
 30
0.0
 10
427.1898085383689
 20
282.3527657298368
 30
0.0
 10
427.186444553681
 20
282.3050157064461
 30
0.0
 10
427.1848654905504
 20
282.2813295182939
 30
0.0
 10
427.1804343974514
 20
282.210832487194
 30
0.0
 10
427.1778877155065
 20
282.1645818049021
 30
0.0
 10
427.1736129278576
 20
282.0735821176496
 30
0.0
 10
427.1719012765406
 20
282.0291776114158
 30
0.0
 10
427.1699661001656
 20
281.9642642987672
 30
0.0
 10
427.1694264234241
 20
281.9429050799183
 30
0.0
 10
427.1685585152773
 20
281.9007455469715
 30
0.0
 10
427.1682309583733
 20
281.8799523643009
 30
0.0
 10
427.1671302866911
 20
281.7782188257249
 30
0.0
 10
427.1679368441349
 20
281.7032143476983
 30
0.0
 10
427.1715975098293
 20
281.5999792251684
 30
0.0
 10
427.173229530874
 20
281.5671181995537
 30
0.0
 10
427.177337488625
 20
281.5046175743532
 30
0.0
 10
427.1797893448173
 20
281.4753418503689
 30
0.0
 10
427.1840544930748
 20
281.4343432388248
 30
0.0
 10
427.1855742830079
 20
281.4211637566233
 30
0.0
 10
427.1888105630615
 20
281.3957809774241
 30
0.0
 10
427.190527625112
 20
281.383577713802
 30
0.0
 10
427.1959463869724
 20
281.3486208627251
 30
0.0
 10
427.1999231547851
 20
281.3274477319819
 30
0.0
 10
427.2064315885398
 20
281.2988670056633
 30
0.0
 10
427.2086948854412
 20
281.289860220393
 30
0.0
 10
427.2133874274742
 20
281.2729752028025
 30
0.0
 10
427.2158153415258
 20
281.2650989728742
 30
0.0
 10
427.223341831677
 20
281.2431539914453
 30
0.0
 10
427.2286825861721
 20
281.2307649975289
 30
0.0
 10
427.2371800286926
 20
281.2155545747433
 30
0.0
 10
427.240093253374
 20
281.2110508933692
 30
0.0
 10
427.2460499827131
 20
281.2032179965929
 30
0.0
 10
427.2490973167018
 20
281.1998813968468
 30
0.0
 10
427.2584451371705
 20
281.1916019841291
 30
0.0
 10
427.2649493564738
 20
281.1883856606339
 30
0.0
 10
427.2717336461736
 20
281.1874967087471
 30
0.0
  0
SPLINE
  5
18B
330
1F
100
AcDbEntity
  8
1
100
AcDbSpline
210
0.0
220
0.0
230
1.0
 70
     8
 71
     3
 72
     8
 73
     4
 74
     0
 42
0.000000001
 43
0.0000000001
 40
0.0
 40
0.0
 40
0.0
 40
0.0
 40
1.0
 40
1.0
 40
1.0
 40
1.0
 10
421.4678419452956
 20
290.7748014444754
 30
0.0
 10
421.7071235512071
 20
290.7733452043977
 30
0.0
 10
421.9452487065007
 20
290.7816282916443
 30
0.0
 10
422.1821952561414
 20
290.7995621145629
 30
0.0
  0
SPLINE
  5
18C
330
1F
100
AcDbEntity
  8
1
100
AcDbSpline
210
0.0
220
0.0
230
1.0
 70
    24
 71
     3
 72
    22
 73
    18
 74
     0
 42
0.000000001
 43
0.0000000001
 40
0.0
 40
0.0
 40
0.0
 40
0.0
 40
0.125566217879835
 40
0.125566217879835
 40
0.2511324357596701
 40
0.2511324357596701
 40
0.3766986536395051
 40
0.3766986536395051
 40
0.5022648715193402
 40
0.5022648715193402
 40
0.6278310893991752
 40
0.6278310893991752
 40
0.7533973072790103
 40
0.7533973072790103
 40
0.8789635251588451
 40
0.8789635251588451
 40
1.0
 40
1.0
 40
1.0
 40
1.0
 10
421.4678419452956
 20
292.1823799798753
 30
0.0
 10
421.4678419452956
 20
292.0062812456189
 30
0.0
 10
421.4678419452957
 20
291.8426538885368
 30
0.0
 10
421.4678419452956
 20
291.5426113141019
 30
0.0
 10
421.4678419452956
 20
291.4061970620389
 30
0.0
 10
421.4678419452956
 20
291.1624745888021
 30
0.0
 10
421.4678419452956
 20
291.0551671517263
 30
0.0
 10
421.4678419452956
 20
290.8711481481404
 30
0.0
 10
421.4678419452956
 20
290.794437173652
 30
0.0
 10
421.4678419452956
 20
290.6726762014006
 30
0.0
 10
421.4678419452956
 20
290.6276265953641
 30
0.0
 10
421.4678419452956
 20
290.5698139467983
 30
0.0
 10
421.4678419452956
 20
290.5570510902623
 30
0.0
 10
421.4678419452956
 20
290.563989323672
 30
0.0
 10
421.4678419452956
 20
290.5836903912961
 30
0.0
 10
421.4678419452956
 20
290.6539918512626
 30
0.0
 10
421.4678419452956
 20
290.7034517123761
 30
0.0
 10
421.4678419452956
 20
290.7675440823068
 30
0.0
  0
SPLINE
  5
18D
330
1F
100
AcDbEntity
  8
1
100
AcDbSpline
210
0.0
220
0.0
230
1.0
 70
     8
 71
     3
 72
    24
 73
    20
 74
     0
 42
0.000000001
 43
0.0000000001
 40
0.0
 40
0.0
 40
0.0
 40
0.0
 40
0.1250000000000162
 40
0.1250000000000162
 40
0.2500000000000325
 40
0.2500000000000325
 40
0.3125000000000347
 40
0.3125000000000347
 40
0.375000000000037
 40
0.375000000000037
 40
0.5000000000000297
 40
0.5000000000000297
 40
0.6250000000000223
 40
0.6250000000000223
 40
0.750000000000015
 40
0.750000000000015
 40
0.8750000000000074
 40
0.8750000000000074
 40
1.0
 40
1.0
 40
1.0
 40
1.0
 10
416.5541408704481
 20
293.8206995068894
 30
0.0
 10
416.7454960318406
 20
293.7121711012459
 30
0.0
 10
416.9380815540145
 20
293.6084482613477
 30
0.0
 10
417.3261008571569
 20
293.4104354550571
 30
0.0
 10
417.5215333420437
 20
293.3161451627301
 30
0.0
 10
417.8171916216256
 20
293.1817760061825
 30
0.0
 10
417.916163635761
 20
293.1381653345182
 30
0.0
 10
418.1150228971568
 20
293.0533178560935
 30
0.0
 10
418.2149593131858
 20
293.012061503919
 30
0.0
 10
418.5159351034016
 20
292.8920302325698
 30
0.0
 10
418.7177464185066
 20
292.8171348940828
 30
0.0
 10
419.1243875894092
 20
292.6777709018647
 30
0.0
 10
419.3292150438225
 20
292.6133002676395
 30
0.0
 10
419.742787885958
 20
292.4952262805765
 30
0.0
 10
419.9515300245469
 20
292.4416196163262
 30
0.0
 10
420.3741216057624
 20
292.3460589206097
 30
0.0
 10
420.5879669221421
 20
292.3040997498881
 30
0.0
 10
421.0223550899432
 20
292.2330888892696
 30
0.0
 10
421.2428935619374
 20
292.2040298038147
 30
0.0
 10
421.4678419452956
 20
292.1823799798752
 30
0.0
  0
SPLINE
  5
18E
330
1F
100
AcDbEntity
  8
1
100
AcDbSpline
210
0.0
220
0.0
230
1.0
 70
     8
 71
     3
 72
    15
 73
    11
 74
     0
 42
0.000000001
 43
0.0000000001
 40
0.0
 40
0.0
 40
0.0
 40
0.0
 40
0.1262942233143803
 40
0.3010353786515043
 40
0.4757765339886282
 40
0.6505176893257522
 40
0.6505176893257522
 40
0.825258844662876
 40
0.825258844662876
 40
1.0
 40
1.0
 40
1.0
 40
1.0
 10
289.7122669289277
 20
301.9890719256888
 30
0.0
 10
289.8702667325066
 20
301.942040816064
 30
0.0
 10
290.2495200158824
 20
301.8339377833013
 30
0.0
 10
290.859287861811
 20
301.6789756234205
 30
0.0
 10
291.5453242955354
 20
301.5305874770767
 30
0.0
 10
292.0128677959188
 20
301.4483385454814
 30
0.0
 10
292.4859369806128
 20
301.3755464263295
 30
0.0
 10
292.7252341145914
 20
301.3438782018537
 30
0.0
 10
293.2098605650491
 20
301.2913739010892
 30
0.0
 10
293.4551891527192
 20
301.2705364593889
 30
0.0
 10
293.7038318185307
 20
301.2559470903219
 30
0.0
  0
SPLINE
  5
18F
330
1F
100
AcDbEntity
  8
1
100
AcDbSpline
210
0.0
220
0.0
230
1.0
 70
     8
 71
     3
 72
    30
 73
    26
 74
     0
 42
0.000000001
 43
0.0000000001
 40
0.0
 40
0.0
 40
0.0
 40
0.0
 40
0.0683492945347431
 40
0.0683492945347431
 40
0.1530448132134027
 40
0.1530448132134027
 40
0.2377403318920627
 40
0.2377403318920627
 40
0.3224358505707223
 40
0.3224358505707223
 40
0.407131369249382
 40
0.407131369249382
 40
0.4918268879280416
 40
0.4918268879280416
 40
0.5765224066067015
 40
0.5765224066067015
 40
0.6612179252853612
 40
0.6612179252853612
 40
0.7459134439640209
 40
0.7459134439640209
 40
0.8306089626426803
 40
0.8306089626426803
 40
0.9153044813213403
 40
0.9153044813213403
 40
1.0
 40
1.0
 40
1.0
 40
1.0
 10
342.0772122173518
 20
278.9318166911188
 30
0.0
 10
341.1598036729403
 20
278.8564439401364
 30
0.0
 10
340.2419882138438
 20
278.7845591514003
 30
0.0
 10
338.1861672702307
 20
278.6298794548313
 30
0.0
 10
337.0479978367623
 20
278.548586815028
 30
0.0
 10
334.7710799238668
 20
278.3924938780747
 30
0.0
 10
333.6323318549974
 20
278.3176939532328
 30
0.0
 10
331.3545900524516
 20
278.1729334012522
 30
0.0
 10
330.215596613533
 20
278.1029733802843
 30
0.0
 10
327.9376560024544
 20
277.9666943173721
 30
0.0
 10
326.7987090342864
 20
277.9003760685884
 30
0.0
 10
324.5211044544458
 20
277.7706158696998
 30
0.0
 10
323.3824282824288
 20
277.7071739048243
 30
0.0
 10
321.1056349007318
 20
277.5828127849265
 30
0.0
 10
319.9676028001999
 20
277.5218995152978
 30
0.0
 10
317.692437723236
 20
277.4026203429366
 30
0.0
 10
316.5553048164921
 20
277.3442560400184
 30
0.0
 10
314.2820492675024
 20
277.230419784141
 30
0.0
 10
313.1459266310151
 20
277.1749497474015
 30
0.0
 10
310.8747425646725
 20
277.0675238816787
 30
0.0
 10
309.739681077911
 20
277.0155702571423
 30
0.0
 10
307.4706108261953
 20
276.9160139880292
 30
0.0
 10
306.3366019426044
 20
276.8684137681307
 30
0.0
 10
304.0695716228528
 20
276.7785462553088
 30
0.0
 10
302.9365500083367
 20
276.7362815056243
 30
0.0
 10
301.8039633178398
 20
276.6972093078599
 30
0.0
  0
SPLINE
  5
190
330
1F
100
AcDbEntity
  8
1
100
AcDbSpline
210
0.0
220
0.0
230
1.0
 70
     8
 71
     3
 72
    32
 73
    28
 74
     0
 42
0.000000001
 43
0.0000000001
 40
0.0
 40
0.0
 40
0.0
 40
0.0
 40
0.080955271294022
 40
0.080955271294022
 40
0.161910542588044
 40
0.161910542588044
 40
0.2428658138820665
 40
0.2428658138820665
 40
0.323821085176089
 40
0.323821085176089
 40
0.4047763564701116
 40
0.4047763564701116
 40
0.4857316277641341
 40
0.4857316277641341
 40
0.5666868990581567
 40
0.5666868990581567
 40
0.6476421703521793
 40
0.6476421703521793
 40
0.7285974416462019
 40
0.7285974416462019
 40
0.8095527129402244
 40
0.8095527129402244
 40
0.890507984234247
 40
0.890507984234247
 40
0.9714632555282696
 40
0.9714632555282696
 40
1.0
 40
1.0
 40
1.0
 40
1.0
 10
301.8039633178398
 20
276.6972093078586
 30
0.0
 10
302.7231906945235
 20
276.7869320518856
 30
0.0
 10
303.6428641627019
 20
276.8770084359693
 30
0.0
 10
305.4832010430662
 20
277.0569549255063
 30
0.0
 10
306.4038646725605
 20
277.1468234362365
 30
0.0
 10
308.2462611996194
 20
277.3253482216953
 30
0.0
 10
309.1679943320653
 20
277.4140022878471
 30
0.0
 10
311.0125835584529
 20
277.5890586700973
 30
0.0
 10
311.9354657417277
 20
277.6754604839791
 30
0.0
 10
313.7822611248616
 20
277.8450050425897
 30
0.0
 10
314.7060817213737
 20
277.9281358648798
 30
0.0
 10
316.5545542250809
 20
278.090266761321
 30
0.0
 10
317.4792062620276
 20
278.169263177313
 30
0.0
 10
319.3292933620971
 20
278.3225187263481
 30
0.0
 10
320.2547284880364
 20
278.3967745221131
 30
0.0
 10
322.106296354573
 20
278.5402977547483
 30
0.0
 10
323.0324290641842
 20
278.6095628686613
 30
0.0
 10
324.885268987854
 20
278.7432967527712
 30
0.0
 10
325.8119760665542
 20
278.8077648024133
 30
0.0
 10
327.6658063954857
 20
278.932587345516
 30
0.0
 10
328.5929294198226
 20
278.9929429272772
 30
0.0
 10
330.4474035814407
 20
279.1107089001589
 30
0.0
 10
331.3747544371409
 20
279.1681218859192
 30
0.0
 10
333.2294742390658
 20
279.2815997191162
 30
0.0
 10
334.1568428894711
 20
279.3376679816018
 30
0.0
 10
335.4109704361258
 20
279.4138956228146
 30
0.0
 10
335.7378190486187
 20
279.4337973169268
 30
0.0
 10
336.0646498970568
 20
279.4537823578287
 30
0.0
  0
SPLINE
  5
191
330
1F
100
AcDbEntity
  8
1
100
AcDbSpline
210
0.0
220
0.0
230
1.0
 70
     8
 71
     3
 72
    16
 73
    12
 74
     0
 42
0.000000001
 43
0.0000000001
 40
0.0
 40
0.0
 40
0.0
 40
0.0
 40
0.0624999999999975
 40
0.0624999999999975
 40
0.1249999999999951
 40
0.1249999999999951
 40
0.2499999999999958
 40
0.2499999999999958
 40
0.4999999999999973
 40
0.4999999999999973
 40
1.0
 40
1.0
 40
1.0
 40
1.0
 10
297.9048419452973
 20
301.0362018909245
 30
0.0
 10
297.8669749068268
 20
301.0362018909245
 30
0.0
 10
297.8290561462305
 20
301.0362888593298
 30
0.0
 10
297.7531142865985
 20
301.0366380538635
 30
0.0
 10
297.7150735079682
 20
301.0369006226925
 30
0.0
 10
297.6012513416431
 20
301.0379475845673
 30
0.0
 10
297.5256252703001
 20
301.0389916151051
 30
0.0
 10
297.2995014249439
 20
301.0431330385772
 30
0.0
 10
297.1497572259091
 20
301.0472412884882
 30
0.0
 10
296.7034759623855
 20
301.0633219251471
 30
0.0
 10
296.4098786315437
 20
301.0790767648917
 30
0.0
 10
296.1201811672153
 20
301.0987997261572
 30
0.0
  0
SPLINE
  5
192
330
1F
100
AcDbEntity
  8
1
100
AcDbSpline
210
0.0
220
0.0
230
1.0
 70
     8
 71
     3
 72
     8
 73
     4
 74
     0
 42
0.000000001
 43
0.0000000001
 40
0.0
 40
0.0
 40
0.0
 40
0.0
 40
1.0
 40
1.0
 40
1.0
 40
1.0
 10
416.5541408704489
 20
293.8206995068893
 30
0.0
 10
416.4897230867966
 20
293.8501433540992
 30
0.0
 10
416.4255343622011
 20
293.8801314432021
 30
0.0
 10
416.3615680694733
 20
293.9106664525413
 30
0.0
  0
SPLINE
  5
193
330
1F
100
AcDbEntity
  8
1
100
AcDbSpline
210
0.0
220
0.0
230
1.0
 70
     8
 71
     3
 72
    20
 73
    16
 74
     0
 42
0.000000001
 43
0.0000000001
 40
0.0
 40
0.0
 40
0.0
 40
0.0
 40
0.2499999999999962
 40
0.2499999999999962
 40
0.4999999999999923
 40
0.4999999999999923
 40
0.6249999999999689
 40
0.6249999999999689
 40
0.7499999999999453
 40
0.7499999999999453
 40
0.8124999999999511
 40
0.8124999999999511
 40
0.874999999999957
 40
0.874999999999957
 40
1.0
 40
1.0
 40
1.0
 40
1.0
 10
416.3615680694733
 20
293.9106664525416
 30
0.0
 10
416.262563778253
 20
293.9579272336207
 30
0.0
 10
416.1670419650651
 20
294.0093936057514
 30
0.0
 10
415.9836193082641
 20
294.1218306194247
 30
0.0
 10
415.8956948003413
 20
294.1827715438781
 30
0.0
 10
415.770598944216
 20
294.2828827837191
 30
0.0
 10
415.7300395260369
 20
294.3177126716072
 30
0.0
 10
415.6515612269311
 20
294.390784834661
 30
0.0
 10
415.613635893374
 20
294.4290191252455
 30
0.0
 10
415.5591896388752
 20
294.4895375586863
 30
0.0
 10
415.5414773604788
 20
294.5102178931551
 30
0.0
 10
415.5073235778026
 20
294.5523635738363
 30
0.0
 10
415.490841517913
 20
294.5738719217285
 30
0.0
 10
415.4434197379626
 20
294.6398744909105
 30
0.0
 10
415.4144357847155
 20
294.6857995758555
 30
0.0
 10
415.3892746975576
 20
294.7344801493795
 30
0.0
  0
SPLINE
  5
194
330
1F
100
AcDbEntity
  8
1
100
AcDbSpline
210
0.0
220
0.0
230
1.0
 70
     8
 71
     3
 72
    24
 73
    20
 74
     0
 42
0.000000001
 43
0.0000000001
 40
0.0
 40
0.0
 40
0.0
 40
0.0
 40
0.1249999999999997
 40
0.1249999999999997
 40
0.2499999999999994
 40
0.2499999999999994
 40
0.3749999999999992
 40
0.3749999999999992
 40
0.499999999999999
 40
0.499999999999999
 40
0.6249999999999991
 40
0.6249999999999991
 40
0.6874999999999992
 40
0.6874999999999992
 40
0.7499999999999992
 40
0.7499999999999992
 40
0.8749999999999996
 40
0.8749999999999996
 40
1.0
 40
1.0
 40
1.0
 40
1.0
 10
279.4048419452957
 20
270.6899260548067
 30
0.0
 10
279.5707446660173
 20
270.7381140933033
 30
0.0
 10
279.7402868105899
 20
270.7979812858572
 30
0.0
 10
280.0853555344534
 20
270.9362698569732
 30
0.0
 10
280.2608881108798
 20
271.0147153047005
 30
0.0
 10
280.6168999097592
 20
271.1866744979931
 30
0.0
 10
280.7973821703531
 20
271.2802003705905
 30
0.0
 10
281.1623629258588
 20
271.4795554801191
 30
0.0
 10
281.346862915691
 20
271.5853909708146
 30
0.0
 10
281.7189925338754
 20
271.8070648649688
 30
0.0
 10
281.9066226690548
 20
271.9229062024334
 30
0.0
 10
282.1897618179683
 20
272.102696290687
 30
0.0
 10
282.2844164964104
 20
272.1636293842232
 30
0.0
 10
282.473887533768
 20
272.2870945857779
 30
0.0
 10
282.5687437455644
 20
272.3496518459296
 30
0.0
 10
282.8535553195019
 20
272.5395097387754
 30
0.0
 10
283.0437527851097
 20
272.6689867962697
 30
0.0
 10
283.4241729761564
 20
272.9324527551942
 30
0.0
 10
283.6143948247979
 20
273.0664413104111
 30
0.0
 10
283.8043368819074
 20
273.2021942229824
 30
0.0
  0
SPLINE
  5
195
330
1F
100
AcDbEntity
  8
1
100
AcDbSpline
210
0.0
220
0.0
230
1.0
 70
     8
 71
     3
 72
    24
 73
    20
 74
     0
 42
0.000000001
 43
0.0000000001
 40
0.0
 40
0.0
 40
0.0
 40
0.0
 40
0.2500000000000018
 40
0.2500000000000018
 40
0.3750000000000024
 40
0.3750000000000024
 40
0.5000000000000031
 40
0.5000000000000031
 40
0.6250000000000038
 40
0.6250000000000038
 40
0.6875000000000038
 40
0.6875000000000038
 40
0.7187500000000036
 40
0.7187500000000036
 40
0.7500000000000034
 40
0.7500000000000034
 40
0.8750000000000015
 40
0.8750000000000015
 40
1.0
 40
1.0
 40
1.0
 40
1.0
 10
283.8043368819074
 20
282.0307451452636
 30
0.0
 10
283.4087745438912
 20
281.6916281227711
 30
0.0
 10
283.0189843419669
 20
281.3375591824319
 30
0.0
 10
282.4438590333413
 20
280.779905281339
 30
0.0
 10
282.253744838219
 20
280.5895845641445
 30
0.0
 10
281.8768726837595
 20
280.1992035568631
 30
0.0
 10
281.690114295116
 20
279.9991456629364
 30
0.0
 10
281.3201431384746
 20
279.5882410962466
 30
0.0
 10
281.1369296183132
 20
279.377398459272
 30
0.0
 10
280.8649400350305
 20
279.0520475041126
 30
0.0
 10
280.7747489976789
 20
278.9420801528283
 30
0.0
 10
280.6401967547436
 20
278.774699549747
 30
0.0
 10
280.595468430062
 20
278.7185008527054
 30
0.0
 10
280.5062614886087
 20
278.6052643077274
 30
0.0
 10
280.4618077057702
 20
278.5482569299763
 30
0.0
 10
280.2408846759093
 20
278.261979216578
 30
0.0
 10
280.0679209209283
 20
278.0283344333905
 30
0.0
 10
279.730101120914
 20
277.5508879355224
 30
0.0
 10
279.5652402195138
 20
277.3070931560453
 30
0.0
 10
279.4048419452956
 20
277.0575724076178
 30
0.0
  0
SPLINE
  5
196
330
1F
100
AcDbEntity
  8
1
100
AcDbSpline
210
0.0
220
0.0
230
1.0
 70
     8
 71
     3
 72
    17
 73
    13
 74
     0
 42
0.000000001
 43
0.0000000001
 40
0.0
 40
0.0
 40
0.0
 40
0.0
 40
0.2499999999999987
 40
0.4999999999999973
 40
0.4999999999999973
 40
0.749999999999996
 40
0.749999999999996
 40
0.8749999999999953
 40
0.8749999999999953
 40
0.9374999999999975
 40
0.9374999999999975
 40
1.0
 40
1.0
 40
1.0
 40
1.0
 10
295.9821309659458
 20
276.5566507551653
 30
0.0
 10
296.1361341724238
 20
276.5659545835718
 30
0.0
 10
296.4472711968486
 20
276.5831566379557
 30
0.0
 10
296.7646684959057
 20
276.5964410956619
 30
0.0
 10
297.0852486755268
 20
276.6073207150856
 30
0.0
 10
297.2471299709569
 20
276.6115581807259
 30
0.0
 10
297.4924214671031
 20
276.6158520270711
 30
0.0
 10
297.5745973603688
 20
276.6169403632989
 30
0.0
 10
297.6984942423983
 20
276.6180332878701
 30
0.0
 10
297.7399027163329
 20
276.6183074055069
 30
0.0
 10
297.8224716715815
 20
276.6186715972563
 30
0.0
 10
297.8636896979432
 20
276.6187622700235
 30
0.0
 10
297.9048419452957
 20
276.6187622700235
 30
0.0
  0
SPLINE
  5
197
330
1F
100
AcDbEntity
  8
1
100
AcDbSpline
210
0.0
220
0.0
230
1.0
 70
     8
 71
     3
 72
     8
 73
     4
 74
     0
 42
0.000000001
 43
0.0000000001
 40
0.0
 40
0.0
 40
0.0
 40
0.0
 40
1.0
 40
1.0
 40
1.0
 40
1.0
 10
301.8039633178397
 20
276.6972093078601
 30
0.0
 10
300.504464044167
 20
276.6686453125018
 30
0.0
 10
299.2047776002287
 20
276.642513370295
 30
0.0
 10
297.9048419452957
 20
276.6187622700245
 30
0.0
  0
SPLINE
  5
198
330
1F
100
AcDbEntity
  8
1
100
AcDbSpline
210
0.0
220
0.0
230
1.0
 70
     8
 71
     3
 72
    10
 73
     6
 74
     0
 42
0.000000001
 43
0.0000000001
 40
0.0
 40
0.0
 40
0.0
 40
0.0
 40
0.5
 40
0.5
 40
1.0
 40
1.0
 40
1.0
 40
1.0
 10
293.7038318185192
 20
276.4495656431082
 30
0.0
 10
294.0839200514657
 20
276.4618680784408
 30
0.0
 10
294.4633702575584
 20
276.4770421578153
 30
0.0
 10
295.2222531503083
 20
276.5129384871291
 30
0.0
 10
295.6016993176938
 20
276.5336676572372
 30
0.0
 10
295.9821309659459
 20
276.5566507551653
 30
0.0
  0
SPLINE
  5
199
330
1F
100
AcDbEntity
  8
1
100
AcDbSpline
210
0.0
220
0.0
230
1.0
 70
     8
 71
     3
 72
    10
 73
     6
 74
     0
 42
0.000000001
 43
0.0000000001
 40
0.0
 40
0.0
 40
0.0
 40
0.0
 40
0.5
 40
0.5
 40
1.0
 40
1.0
 40
1.0
 40
1.0
 10
293.7038318185192
 20
276.4495656431082
 30
0.0
 10
293.4787515721209
 20
276.4422804000095
 30
0.0
 10
293.2561617484338
 20
276.4302670421014
 30
0.0
 10
292.8153913878774
 20
276.397885632582
 30
0.0
 10
292.5972112653877
 20
276.3775162402485
 30
0.0
 10
292.3810028726029
 20
276.3533951988481
 30
0.0
  0
SPLINE
  5
1A0
330
1F
100
AcDbEntity
  8
1
100
AcDbSpline
210
0.0
220
0.0
230
1.0
 70
     8
 71
     3
 72
    36
 73
    32
 74
     0
 42
0.000000001
 43
0.0000000001
 40
0.0
 40
0.0
 40
0.0
 40
0.0
 40
0.1250000000003722
 40
0.1250000000003722
 40
0.1875000000005241
 40
0.1875000000005241
 40
0.2187500000005684
 40
0.2187500000005684
 40
0.2500000000006126
 40
0.2500000000006126
 40
0.3750000000006705
 40
0.3750000000006705
 40
0.4062500000006421
 40
0.4062500000006421
 40
0.4375000000006137
 40
0.4375000000006137
 40
0.5000000000005567
 40
0.5000000000005567
 40
0.6250000000003961
 40
0.6250000000003961
 40
0.6562500000003451
 40
0.6562500000003451
 40
0.6875000000002941
 40
0.7500000000002225
 40
0.8125000000001509
 40
0.8125000000001509
 40
0.8437500000001261
 40
0.8437500000001261
 40
0.8750000000001012
 40
0.8750000000001012
 40
1.0
 40
1.0
 40
1.0
 40
1.0
 10
421.5386191380928
 20
301.5249146426214
 30
0.0
 10
421.4880383050786
 20
301.522708534548
 30
0.0
 10
421.4385768144516
 20
301.5153441434049
 30
0.0
 10
421.3659485099826
 20
301.4970904667711
 30
0.0
 10
421.3420019808283
 20
301.4897943555792
 30
0.0
 10
421.3064811865912
 20
301.4770114731658
 30
0.0
 10
421.2946757372258
 20
301.4724296122748
 30
0.0
 10
421.2713898104862
 20
301.4627222301799
 30
0.0
 10
421.2599093752189
 20
301.4575991933795
 30
0.0
 10
421.2033009007558
 20
301.4306686662124
 30
0.0
 10
421.1605301281379
 20
301.4049546530261
 30
0.0
 10
421.1101591846092
 20
301.3676871291189
 30
0.0
 10
421.1002410958913
 20
301.3599749314213
 30
0.0
 10
421.0807217861399
 20
301.3440254147478
 30
0.0
 10
421.0711164220731
 20
301.3357817920069
 30
0.0
 10
421.0430779704478
 20
301.3105232858715
 30
0.0
 10
421.0253160826182
 20
301.2929001852596
 30
0.0
 10
420.9747477214955
 20
301.2377409038637
 30
0.0
 10
420.9446310178653
 20
301.1979379464317
 30
0.0
 10
420.9116491604688
 20
301.1442536913412
 30
0.0
 10
420.9052890946707
 20
301.1333154869841
 30
0.0
 10
420.8931804764825
 20
301.1112799086396
 30
0.0
 10
420.8758797278123
 20
301.0778993412285
 30
0.0
 10
420.8512881803716
 20
301.02065481562
 30
0.0
 10
420.8361250806835
 20
300.9731475813883
 30
0.0
 10
420.8264909131356
 20
300.9368575187787
 30
0.0
 10
420.8235697697121
 20
300.9246506819293
 30
0.0
 10
420.8183230187993
 20
300.9000110001947
 30
0.0
 10
420.815996930313
 20
300.887565053346
 30
0.0
 10
420.8059881245849
 20
300.8253596186015
 30
0.0
 10
420.8030098585089
 20
300.7752241245274
 30
0.0
 10
420.8052618585156
 20
300.7247026134932
 30
0.0
  0
SPLINE
  5
1A1
330
1F
100
AcDbEntity
  8
1
100
AcDbSpline
210
0.0
220
0.0
230
1.0
 70
     8
 71
     3
 72
    36
 73
    32
 74
     0
 42
0.000000001
 43
0.0000000001
 40
0.0
 40
0.0
 40
0.0
 40
0.0
 40
0.1250000000001015
 40
0.1250000000001015
 40
0.1875000000001437
 40
0.1875000000001437
 40
0.2187500000001648
 40
0.2187500000001648
 40
0.250000000000186
 40
0.250000000000186
 40
0.3750000000001773
 40
0.3750000000001773
 40
0.4062500000001742
 40
0.4062500000001742
 40
0.4375000000001713
 40
0.4375000000001713
 40
0.5000000000001668
 40
0.5000000000001668
 40
0.625000000000108
 40
0.625000000000108
 40
0.6562500000000933
 40
0.6562500000000933
 40
0.6875000000000786
 40
0.7500000000000493
 40
0.8125000000000198
 40
0.8125000000000198
 40
0.8437500000000051
 40
0.8437500000000051
 40
0.8749999999999905
 40
0.8749999999999905
 40
1.0
 40
1.0
 40
1.0
 40
1.0
 10
421.0899278056343
 20
294.3384886952664
 30
0.0
 10
421.092180103004
 20
294.2879605131787
 30
0.0
 10
421.0995952881599
 20
294.2385459987321
 30
0.0
 10
421.1179315894667
 20
294.1659802298488
 30
0.0
 10
421.1252563237496
 20
294.1420532130329
 30
0.0
 10
421.1380837821916
 20
294.1065596644905
 30
0.0
 10
421.1426808183766
 20
294.0947629815537
 30
0.0
 10
421.1524188571063
 20
294.0714937662889
 30
0.0
 10
421.1575573725261
 20
294.0600212781741
 30
0.0
 10
421.1845660267885
 20
294.0034505441601
 30
0.0
 10
421.2103448683963
 20
293.9607036388271
 30
0.0
 10
421.2476962877238
 20
293.9103547550081
 30
0.0
 10
421.2554254088632
 20
293.9004406858074
 30
0.0
 10
421.2714090654522
 20
293.8809286185056
 30
0.0
 10
421.2796699150666
 20
293.8713264763812
 30
0.0
 10
421.3049799985238
 20
293.8432963947837
 30
0.0
 10
421.3226375255427
 20
293.8255384042725
 30
0.0
 10
421.3779002074365
 20
293.7749768207241
 30
0.0
 10
421.4177722590075
 20
293.7448581327631
 30
0.0
 10
421.4715430899336
 20
293.7118653598293
 30
0.0
 10
421.4824986223916
 20
293.70550268164
 30
0.0
 10
421.5045684993403
 20
293.6933880411811
 30
0.0
 10
421.5380001215483
 20
293.6760770457033
 30
0.0
 10
421.595327803878
 20
293.6514624487434
 30
0.0
 10
421.6428995070941
 20
293.6362745620193
 30
0.0
 10
421.6792371289312
 20
293.6266193579692
 30
0.0
 10
421.6914596865191
 20
293.6236907938959
 30
0.0
 10
421.7161305381968
 20
293.6184283635458
 30
0.0
 10
421.7285919488248
 20
293.6160940054439
 30
0.0
 10
421.7908732717951
 20
293.6060421234238
 30
0.0
 10
421.8410655223611
 20
293.6030236503435
 30
0.0
 10
421.8916396773706
 20
293.6052294671524
 30
0.0
  0
SPLINE
  5
1A2
330
1F
100
AcDbEntity
  8
1
100
AcDbSpline
210
0.0
220
0.0
230
1.0
 70
     8
 71
     3
 72
    36
 73
    32
 74
     0
 42
0.000000001
 43
0.0000000001
 40
0.0
 40
0.0
 40
0.0
 40
0.0
 40
0.1249999999998712
 40
0.1249999999998712
 40
0.187499999999807
 40
0.187499999999807
 40
0.2187499999998073
 40
0.2187499999998073
 40
0.2499999999998077
 40
0.2499999999998077
 40
0.3749999999999355
 40
0.3749999999999355
 40
0.4062499999999407
 40
0.4062499999999407
 40
0.4374999999999459
 40
0.4374999999999459
 40
0.4999999999999576
 40
0.4999999999999576
 40
0.6249999999999326
 40
0.6249999999999326
 40
0.6562499999999539
 40
0.6562499999999539
 40
0.6874999999999751
 40
0.7499999999999888
 40
0.8125000000000026
 40
0.8125000000000026
 40
0.8437500000000007
 40
0.8437500000000007
 40
0.8749999999999989
 40
0.8749999999999989
 40
1.0
 40
1.0
 40
1.0
 40
1.0
 10
428.2845081013866
 20
293.8840575884377
 30
0.0
 10
428.3350889344007
 20
293.8862636965111
 30
0.0
 10
428.384550425028
 20
293.8936280876542
 30
0.0
 10
428.4571787294968
 20
293.9118817642881
 30
0.0
 10
428.4811252586512
 20
293.9191778754799
 30
0.0
 10
428.5166460528883
 20
293.9319607578933
 30
0.0
 10
428.5284515022536
 20
293.9365426187844
 30
0.0
 10
428.5517374289932
 20
293.9462500008793
 30
0.0
 10
428.5632178642607
 20
293.9513730376797
 30
0.0
 10
428.6198263387238
 20
293.9783035648467
 30
0.0
 10
428.6625971113415
 20
294.004017578033
 30
0.0
 10
428.7129680548703
 20
294.0412851019402
 30
0.0
 10
428.7228861435882
 20
294.0489972996378
 30
0.0
 10
428.7424054533396
 20
294.0649468163114
 30
0.0
 10
428.7520108174064
 20
294.0731904390522
 30
0.0
 10
428.7800492690316
 20
294.0984489451876
 30
0.0
 10
428.7978111568613
 20
294.1160720457996
 30
0.0
 10
428.848379517984
 20
294.1712313271955
 30
0.0
 10
428.8784962216142
 20
294.2110342846275
 30
0.0
 10
428.9114780790108
 20
294.2647185397179
 30
0.0
 10
428.9178381448086
 20
294.2756567440751
 30
0.0
 10
428.929946762997
 20
294.2976923224195
 30
0.0
 10
428.9472475116671
 20
294.3310728898307
 30
0.0
 10
428.9718391986032
 20
294.3883173625002
 30
0.0
 10
428.987002158796
 20
294.4358246496707
 30
0.0
 10
428.9966363263438
 20
294.4721147122804
 30
0.0
 10
428.9995574697673
 20
294.4843215491299
 30
0.0
 10
429.0048042206802
 20
294.5089612308645
 30
0.0
 10
429.0071303091664
 20
294.5214071777132
 30
0.0
 10
429.0171391148946
 20
294.5836126124576
 30
0.0
 10
429.0201173809705
 20
294.6337481065317
 30
0.0
 10
429.0178653809638
 20
294.6842696175659
 30
0.0
  0
SPLINE
  5
1A3
330
1F
100
AcDbEntity
  8
1
100
AcDbSpline
210
0.0
220
0.0
230
1.0
 70
     8
 71
     3
 72
    36
 73
    32
 74
     0
 42
0.000000001
 43
0.0000000001
 40
0.0
 40
0.0
 40
0.0
 40
0.0
 40
0.1249999999999892
 40
0.1249999999999892
 40
0.1874999999999944
 40
0.1874999999999944
 40
0.218749999999995
 40
0.218749999999995
 40
0.2499999999999956
 40
0.2499999999999956
 40
0.3750000000000276
 40
0.3750000000000276
 40
0.406250000000034
 40
0.406250000000034
 40
0.4375000000000402
 40
0.4375000000000402
 40
0.5000000000000529
 40
0.5000000000000529
 40
0.6250000000000239
 40
0.6250000000000239
 40
0.656250000000016
 40
0.656250000000016
 40
0.6875000000000082
 40
0.7499999999999926
 40
0.812499999999977
 40
0.812499999999977
 40
0.8437499999999698
 40
0.8437499999999698
 40
0.8749999999999625
 40
0.8749999999999625
 40
1.0
 40
1.0
 40
1.0
 40
1.0
 10
428.7331994338452
 20
301.0704835357927
 30
0.0
 10
428.7309471364756
 20
301.1210117178804
 30
0.0
 10
428.7235319513197
 20
301.1704262323271
 30
0.0
 10
428.7051956500126
 20
301.2429920012103
 30
0.0
 10
428.6978709157296
 20
301.2669190180261
 30
0.0
 10
428.6850434572876
 20
301.3024125665686
 30
0.0
 10
428.6804464211028
 20
301.3142092495054
 30
0.0
 10
428.6707083823732
 20
301.3374784647702
 30
0.0
 10
428.6655698669532
 20
301.348950952885
 30
0.0
 10
428.6385612126909
 20
301.405521686899
 30
0.0
 10
428.6127823710831
 20
301.4482685922321
 30
0.0
 10
428.5754309517556
 20
301.4986174760509
 30
0.0
 10
428.5677018306163
 20
301.5085315452518
 30
0.0
 10
428.5517181740273
 20
301.5280436125536
 30
0.0
 10
428.5434573244128
 20
301.5376457546779
 30
0.0
 10
428.5181472409554
 20
301.5656758362754
 30
0.0
 10
428.5004897139366
 20
301.5834338267866
 30
0.0
 10
428.4452270320429
 20
301.633995410335
 30
0.0
 10
428.405354980472
 20
301.664114098296
 30
0.0
 10
428.3515841495458
 20
301.6971068712297
 30
0.0
 10
428.3406286170879
 20
301.703469549419
 30
0.0
 10
428.3185587401391
 20
301.715584189878
 30
0.0
 10
428.2851271179312
 20
301.7328951853558
 30
0.0
 10
428.2277994356016
 20
301.7575097823158
 30
0.0
 10
428.1802277323854
 20
301.7726976690398
 30
0.0
 10
428.1438901105483
 20
301.78235287309
 30
0.0
 10
428.1316675529604
 20
301.7852814371632
 30
0.0
 10
428.1069967012826
 20
301.7905438675133
 30
0.0
 10
428.0945352906546
 20
301.7928782256152
 30
0.0
 10
428.0322539676844
 20
301.8029301076353
 30
0.0
 10
427.9820617171183
 20
301.8059485807157
 30
0.0
 10
427.9314875621088
 20
301.8037427639066
 30
0.0
  0
SPLINE
  5
1A4
330
1F
100
AcDbEntity
  8
1
100
AcDbSpline
210
0.0
220
0.0
230
1.0
 70
     8
 71
     3
 72
    10
 73
     6
 74
     0
 42
0.000000001
 43
0.0000000001
 40
0.0
 40
0.0
 40
0.0
 40
0.0
 40
0.5625543070167054
 40
0.5625543070167054
 40
1.0
 40
1.0
 40
1.0
 40
1.0
 10
423.8053766007631
 20
296.9001931397109
 30
0.0
 10
423.8032302563391
 20
296.9057786991411
 30
0.0
 10
423.8016182334822
 20
296.9114668584115
 30
0.0
 10
423.7996511127403
 20
296.9217502854492
 30
0.0
 10
423.7990974495041
 20
296.9263433008845
 30
0.0
 10
423.7988574865453
 20
296.9309271301787
 30
0.0
  0
SPLINE
  5
1A5
330
1F
100
AcDbEntity
  8
1
100
AcDbSpline
210
0.0
220
0.0
230
1.0
 70
     8
 71
     3
 72
    20
 73
    16
 74
     0
 42
0.000000001
 43
0.0000000001
 40
0.0
 40
0.0
 40
0.0
 40
0.0
 40
0.1250000000000251
 40
0.1250000000000251
 40
0.2500000000000501
 40
0.2500000000000501
 40
0.3750000000000752
 40
0.3750000000000752
 40
0.5000000000001002
 40
0.5000000000001002
 40
0.6250000000001253
 40
0.6250000000001253
 40
0.7500000000001502
 40
0.7500000000001502
 40
1.0
 40
1.0
 40
1.0
 40
1.0
 10
424.95426992675
 20
296.3933266828679
 30
0.0
 10
424.9483850925046
 20
296.3942723046254
 30
0.0
 10
424.9426866092308
 20
296.3957330711776
 30
0.0
 10
424.9316427380124
 20
296.3996288177071
 30
0.0
 10
424.9262474555108
 20
296.402095398963
 30
0.0
 10
424.9161008081099
 20
296.4078712736488
 30
0.0
 10
424.9113580465344
 20
296.4111608216104
 30
0.0
 10
424.9025015347
 20
296.4185019151295
 30
0.0
 10
424.8983550167887
 20
296.42259447743
 30
0.0
 10
424.8908823505397
 20
296.4313654737193
 30
0.0
 10
424.8875759181158
 20
296.4360045796979
 30
0.0
 10
424.8817786656963
 20
296.4457620855717
 30
0.0
 10
424.8792782663614
 20
296.4509064951954
 30
0.0
 10
424.8731049110499
 20
296.4669106730076
 30
0.0
 10
424.8708439037327
 20
296.4779596782195
 30
0.0
 10
424.8704151918129
 20
296.4893810518069
 30
0.0
  0
SPLINE
  5
1A6
330
1F
100
AcDbEntity
  8
1
100
AcDbSpline
210
0.0
220
0.0
230
1.0
 70
     8
 71
     3
 72
    21
 73
    17
 74
     0
 42
0.000000001
 43
0.0000000001
 40
0.0
 40
0.0
 40
0.0
 40
0.0
 40
0.2500000000001568
 40
0.2500000000001568
 40
0.3125000000001955
 40
0.3125000000001955
 40
0.3750000000002341
 40
0.3750000000002341
 40
0.5000000000001823
 40
0.6250000000001305
 40
0.6250000000001305
 40
0.6875000000001574
 40
0.6875000000001574
 40
0.7500000000001843
 40
0.7500000000001843
 40
1.0
 40
1.0
 40
1.0
 40
1.0
 10
424.1696078615738
 20
296.5670610724778
 30
0.0
 10
424.128358181328
 20
296.5787618686647
 30
0.0
 10
424.0890235499278
 20
296.5950510252067
 30
0.0
 10
424.0422525288828
 20
296.6211425271092
 30
0.0
 10
424.0330012217686
 20
296.6266644131156
 30
0.0
 10
424.0149501156713
 20
296.638166847679
 30
0.0
 10
424.0061273956633
 20
296.6441586733278
 30
0.0
 10
423.9802566772306
 20
296.662842812133
 30
0.0
 10
423.9473517170906
 20
296.6896401876895
 30
0.0
 10
423.9176039356633
 20
296.7201822656352
 30
0.0
 10
423.8965165884291
 20
296.7445400700407
 30
0.0
 10
423.8897074966944
 20
296.7528874744409
 30
0.0
 10
423.8766747608551
 20
296.7698470022233
 30
0.0
 10
423.870428665118
 20
296.7784845004894
 30
0.0
 10
423.8405252763958
 20
296.8224464155313
 30
0.0
 10
423.8207970010875
 20
296.8600637171057
 30
0.0
 10
423.8053766007631
 20
296.9001931397109
 30
0.0
  0
SPLINE
  5
1A7
330
1F
100
AcDbEntity
  8
1
100
AcDbSpline
210
0.0
220
0.0
230
1.0
 70
     8
 71
     3
 72
    14
 73
    10
 74
     0
 42
0.000000001
 43
0.0000000001
 40
0.0
 40
0.0
 40
0.0
 40
0.0
 40
0.25
 40
0.25
 40
0.5
 40
0.5
 40
0.75
 40
0.75
 40
1.0
 40
1.0
 40
1.0
 40
1.0
 10
424.8337013970996
 20
296.5640721678856
 30
0.0
 10
424.8393578598351
 20
296.5594150069163
 30
0.0
 10
424.8444664208923
 20
296.5541467218852
 30
0.0
 10
424.8533054188046
 20
296.5428487279309
 30
0.0
 10
424.857061863322
 20
296.5368158907241
 30
0.0
 10
424.8632924706966
 20
296.5240037864693
 30
0.0
 10
424.8657433498449
 20
296.5172212154818
 30
0.0
 10
424.8691501290623
 20
296.5035184912289
 30
0.0
 10
424.8701470788966
 20
296.4965238851144
 30
0.0
 10
424.8704151918129
 20
296.4893810518069
 30
0.0
  0
SPLINE
  5
1A8
330
1F
100
AcDbEntity
  8
1
100
AcDbSpline
210
0.0
220
0.0
230
1.0
 70
     8
 71
     3
 72
     8
 73
     4
 74
     0
 42
0.000000001
 43
0.0000000001
 40
0.0
 40
0.0
 40
0.0
 40
0.0
 40
1.0
 40
1.0
 40
1.0
 40
1.0
 10
423.8908474036739
 20
297.0922829565081
 30
0.0
 10
423.8898800616528
 20
297.0861386141715
 30
0.0
 10
423.8883464005897
 20
297.0801076195664
 30
0.0
 10
423.8863220996566
 20
297.0743348908722
 30
0.0
  0
SPLINE
  5
1A9
330
1F
100
AcDbEntity
  8
1
100
AcDbSpline
210
0.0
220
0.0
230
1.0
 70
     8
 71
     3
 72
    21
 73
    17
 74
     0
 42
0.000000001
 43
0.0000000001
 40
0.0
 40
0.0
 40
0.0
 40
0.0
 40
0.2499999999997843
 40
0.2499999999997843
 40
0.312499999999778
 40
0.312499999999778
 40
0.3749999999997716
 40
0.3749999999997716
 40
0.4999999999998157
 40
0.6249999999998597
 40
0.6249999999998597
 40
0.6874999999998868
 40
0.6874999999998868
 40
0.7499999999999137
 40
0.7499999999999137
 40
1.0
 40
1.0
 40
1.0
 40
1.0
 10
423.7420021857952
 20
297.5625587180223
 30
0.0
 10
423.7715117333991
 20
297.5325753245418
 30
0.0
 10
423.7972606480131
 20
297.4995060075388
 30
0.0
 10
423.8246837893367
 20
297.4541402332837
 30
0.0
 10
423.8299270985636
 20
297.4448630781616
 30
0.0
 10
423.8399160595423
 20
297.4258857369317
 30
0.0
 10
423.8446705907842
 20
297.4161606336533
 30
0.0
 10
423.8579648923625
 20
297.3867740349615
 30
0.0
 10
423.8732565001831
 20
297.3467828214263
 30
0.0
 10
423.8837888812216
 20
297.3052077317337
 30
0.0
 10
423.8898722796133
 20
297.2734228284571
 30
0.0
 10
423.8916012990153
 20
297.2626881834552
 30
0.0
 10
423.8944130985924
 20
297.2412166295308
 30
0.0
 10
423.8954959512124
 20
297.2305008612321
 30
0.0
 10
423.8993485257322
 20
297.1770161194748
 30
0.0
 10
423.8974980687872
 20
297.1345265087615
 30
0.0
 10
423.8908474036739
 20
297.0922829565081
 30
0.0
  0
SPLINE
  5
1AA
330
1F
100
AcDbEntity
  8
1
100
AcDbSpline
210
0.0
220
0.0
230
1.0
 70
     8
 71
     3
 72
    22
 73
    18
 74
     0
 42
0.000000001
 43
0.0000000001
 40
0.0
 40
0.0
 40
0.0
 40
0.0
 40
0.125
 40
0.125
 40
0.25
 40
0.25
 40
0.375
 40
0.375
 40
0.5
 40
0.5
 40
0.625
 40
0.625
 40
0.75
 40
0.75
 40
0.875
 40
0.875
 40
1.0
 40
1.0
 40
1.0
 40
1.0
 10
423.665121014482
 20
297.5917634778095
 30
0.0
 10
423.6594736034087
 20
297.5914172901595
 30
0.0
 10
423.653824584086
 20
297.5915473384144
 30
0.0
 10
423.6427199934548
 20
297.5927265285443
 30
0.0
 10
423.6372369748418
 20
297.5937730724875
 30
0.0
 10
423.6264145302359
 20
297.5968062918139
 30
0.0
 10
423.6210799511098
 20
297.5988029081146
 30
0.0
 10
423.6109293060652
 20
297.6036279874896
 30
0.0
 10
423.6060646451373
 20
297.6064672826383
 30
0.0
 10
423.5967769376621
 20
297.6130361973577
 30
0.0
 10
423.5923787181756
 20
297.6167612337637
 30
0.0
 10
423.5843599288514
 20
297.6248641760882
 30
0.0
 10
423.5806968940426
 20
297.6292695154792
 30
0.0
 10
423.5741052488121
 20
297.6388279969987
 30
0.0
 10
423.5712328210391
 20
297.6439127630797
 30
0.0
 10
423.566451463665
 20
297.654475130978
 30
0.0
 10
423.5645200777597
 20
297.6599837799387
 30
0.0
 10
423.5630780399763
 20
297.665734295898
 30
0.0
  0
SPLINE
  5
1AB
330
1F
100
AcDbEntity
  8
1
100
AcDbSpline
210
0.0
220
0.0
230
1.0
 70
     8
 71
     3
 72
    15
 73
    11
 74
     0
 42
0.000000001
 43
0.0000000001
 40
0.0
 40
0.0
 40
0.0
 40
0.0
 40
0.4990953836732136
 40
0.4990953836732136
 40
0.6238692295915156
 40
0.6238692295915156
 40
0.7486430755098182
 40
0.7486430755098182
 40
0.9981907673464228
 40
1.0
 40
1.0
 40
1.0
 40
1.0
 10
423.5630780399763
 20
297.665734295898
 30
0.0
 10
423.5527051412463
 20
297.707099037085
 30
0.0
 10
423.5472335679707
 20
297.7491392930397
 30
0.0
 10
423.5465205003727
 20
297.8025253979835
 30
0.0
 10
423.5466905063034
 20
297.8132675587584
 30
0.0
 10
423.5476496679537
 20
297.8345955004093
 30
0.0
 10
423.5484371765149
 20
297.8452067424455
 30
0.0
 10
423.5517067043181
 20
297.876885086845
 30
0.0
 10
423.555117461694
 20
297.8979488953508
 30
0.0
 10
423.5597438286339
 20
297.9188043705696
 30
0.0
 10
423.5597771915834
 20
297.9189544746224
 30
0.0
  0
SPLINE
  5
1AC
330
1F
100
AcDbEntity
  8
1
100
AcDbSpline
210
0.0
220
0.0
230
1.0
 70
     8
 71
     3
 72
    14
 73
    10
 74
     0
 42
0.000000001
 43
0.0000000001
 40
0.0
 40
0.0
 40
0.0
 40
0.0
 40
0.2500000000000002
 40
0.2500000000000002
 40
0.5000000000000001
 40
0.5000000000000001
 40
0.75
 40
0.75
 40
1.0
 40
1.0
 40
1.0
 40
1.0
 10
424.1975787531538
 20
298.6152045957149
 30
0.0
 10
424.2014043207507
 20
298.6094110110153
 30
0.0
 10
424.2045982106836
 20
298.6032235209584
 30
0.0
 10
424.2095865218537
 20
298.5903524637694
 30
0.0
 10
424.2113736662958
 20
298.5837195034293
 30
0.0
 10
424.2135188918243
 20
298.570051206417
 30
0.0
 10
424.213857693803
 20
298.5629815802688
 30
0.0
 10
424.2129974749229
 20
298.5490483328103
 30
0.0
 10
424.2118194756493
 20
298.542109067202
 30
0.0
 10
424.2098281454756
 20
298.5351967540628
 30
0.0
  0
SPLINE
  5
1AD
330
1F
100
AcDbEntity
  8
1
100
AcDbSpline
210
0.0
220
0.0
230
1.0
 70
     8
 71
     3
 72
    14
 73
    10
 74
     0
 42
0.000000001
 43
0.0000000001
 40
0.0
 40
0.0
 40
0.0
 40
0.0
 40
0.3104399994995318
 40
0.3104399994995318
 40
0.6208799989990636
 40
0.6208799989990636
 40
0.9313199984985956
 40
0.9313199984985956
 40
1.0
 40
1.0
 40
1.0
 40
1.0
 10
424.1975787531533
 20
298.615204595716
 30
0.0
 10
424.1945207648702
 20
298.6198357291829
 30
0.0
 10
424.1918748725679
 20
298.6247058301523
 30
0.0
 10
424.1874735094919
 20
298.6347414401907
 30
0.0
 10
424.1857024907404
 20
298.6399288770666
 30
0.0
 10
424.1830452574866
 20
298.6506517836214
 30
0.0
 10
424.1821701676823
 20
298.6561873408265
 30
0.0
 10
424.1816962849219
 20
298.6629321511492
 30
0.0
 10
424.1816335766912
 20
298.664155686719
 30
0.0
 10
424.1815942358156
 20
298.6653808973819
 30
0.0
  0
SPLINE
  5
1AE
330
1F
100
AcDbEntity
  8
1
100
AcDbSpline
210
0.0
220
0.0
230
1.0
 70
     8
 71
     3
 72
     8
 73
     4
 74
     0
 42
0.000000001
 43
0.0000000001
 40
0.0
 40
0.0
 40
0.0
 40
0.0
 40
1.0
 40
1.0
 40
1.0
 40
1.0
 10
426.0320831946462
 20
297.2344346652262
 30
0.0
 10
426.0142559823216
 20
297.1985218744627
 30
0.0
 10
425.992688101722
 20
297.1648270628392
 30
0.0
 10
425.9672884729305
 20
297.1334108274896
 30
0.0
  0
SPLINE
  5
1AF
330
1F
100
AcDbEntity
  8
1
100
AcDbSpline
210
0.0
220
0.0
230
1.0
 70
     8
 71
     3
 72
    20
 73
    16
 74
     0
 42
0.000000001
 43
0.0000000001
 40
0.0
 40
0.0
 40
0.0
 40
0.0
 40
0.125
 40
0.125
 40
0.25
 40
0.25
 40
0.375
 40
0.375
 40
0.5
 40
0.5
 40
0.625
 40
0.625
 40
0.75
 40
0.75
 40
1.0
 40
1.0
 40
1.0
 40
1.0
 10
425.9672884729305
 20
297.1334108274896
 30
0.0
 10
425.9635595994651
 20
297.1287986669208
 30
0.0
 10
425.9594854512723
 20
297.1246072131267
 30
0.0
 10
425.9506847034629
 20
297.1170206246225
 30
0.0
 10
425.945906320851
 20
297.1135982797447
 30
0.0
 10
425.9359562410677
 20
297.1077364350829
 30
0.0
 10
425.9308041641061
 20
297.1052934799955
 30
0.0
 10
425.9201652244642
 20
297.1013354127257
 30
0.0
 10
425.9146267517193
 20
297.0998126087131
 30
0.0
 10
425.9034639137633
 20
297.0977724334598
 30
0.0
 10
425.8978808432344
 20
297.0972517983186
 30
0.0
 10
425.8867134585733
 20
297.0971575608589
 30
0.0
 10
425.8811013675074
 20
297.0975889606311
 30
0.0
 10
425.8644480653894
 20
297.1003187053906
 30
0.0
 10
425.8539464181576
 20
297.103933675936
 30
0.0
 10
425.8440412184212
 20
297.1093221971098
 30
0.0
  0
SPLINE
  5
1B0
330
1F
100
AcDbEntity
  8
1
100
AcDbSpline
210
0.0
220
0.0
230
1.0
 70
     8
 71
     3
 72
    14
 73
    10
 74
     0
 42
0.000000001
 43
0.0000000001
 40
0.0
 40
0.0
 40
0.0
 40
0.0
 40
0.25
 40
0.25
 40
0.5
 40
0.5
 40
0.75
 40
0.75
 40
1.0
 40
1.0
 40
1.0
 40
1.0
 10
425.7623595186558
 20
297.1152253198675
 30
0.0
 10
425.7691334477626
 20
297.1177701831483
 30
0.0
 10
425.776151800231
 20
297.1195328253012
 30
0.0
 10
425.7901451397038
 20
297.1214819026944
 30
0.0
 10
425.7971368358556
 20
297.1216894553653
 30
0.0
 10
425.8111148207968
 20
297.1206186922465
 30
0.0
 10
425.8180905664538
 20
297.1193188333746
 30
0.0
 10
425.8314146306835
 20
297.115356648656
 30
0.0
 10
425.837846484773
 20
297.1126921900748
 30
0.0
 10
425.8440412184212
 20
297.1093221971098
 30
0.0
  0
SPLINE
  5
1B1
330
1F
100
AcDbEntity
  8
1
100
AcDbSpline
210
0.0
220
0.0
230
1.0
 70
     8
 71
     3
 72
    21
 73
    17
 74
     0
 42
0.000000001
 43
0.0000000001
 40
0.0
 40
0.0
 40
0.0
 40
0.0
 40
0.2014772452817114
 40
0.2014772452817114
 40
0.2680208081749344
 40
0.2680208081749344
 40
0.3345643710681573
 40
0.3345643710681573
 40
0.4676514968545031
 40
0.6007386226408489
 40
0.6007386226408489
 40
0.6672821855340184
 40
0.6672821855340184
 40
0.7338257484271878
 40
0.7338257484271878
 40
1.0
 40
1.0
 40
1.0
 40
1.0
 10
425.4386426899716
 20
296.781305445663
 30
0.0
 10
425.4492795045529
 20
296.8117264701064
 30
0.0
 10
425.4624659839858
 20
296.8410994291037
 30
0.0
 10
425.4834651581468
 20
296.8787791796702
 30
0.0
 10
425.4889659933598
 20
296.8880183156948
 30
0.0
 10
425.5005613011861
 20
296.9062581447042
 30
0.0
 10
425.5066729274956
 20
296.9152789307139
 30
0.0
 10
425.5256388022233
 20
296.9415760423288
 30
0.0
 10
425.5527494244378
 20
296.9748535593908
 30
0.0
 10
425.5834225308093
 20
297.0046384292903
 30
0.0
 10
425.6077872152081
 20
297.0256451936615
 30
0.0
 10
425.6161671071008
 20
297.0324480930771
 30
0.0
 10
425.6332293430239
 20
297.0454761743884
 30
0.0
 10
425.641893686163
 20
297.0516911694853
 30
0.0
 10
425.6858633061762
 20
297.0813231421242
 30
0.0
 10
425.7230839470333
 20
297.1004700783405
 30
0.0
 10
425.7623595186558
 20
297.1152253198675
 30
0.0
  0
SPLINE
  5
1B2
330
1F
100
AcDbEntity
  8
1
100
AcDbSpline
210
0.0
220
0.0
230
1.0
 70
     8
 71
     3
 72
     8
 73
     4
 74
     0
 42
0.000000001
 43
0.0000000001
 40
0.0
 40
0.0
 40
0.0
 40
0.0
 40
1.0
 40
1.0
 40
1.0
 40
1.0
 10
425.8139054100427
 20
298.27989918655
 30
0.0
 10
425.8077171307387
 20
298.2729283432006
 30
0.0
 10
425.8006315514436
 20
298.2669758728953
 30
0.0
 10
425.7926590480756
 20
298.2620330665741
 30
0.0
  0
SPLINE
  5
1B3
330
1F
100
AcDbEntity
  8
1
100
AcDbSpline
210
0.0
220
0.0
230
1.0
 70
     8
 71
     3
 72
    14
 73
    10
 74
     0
 42
0.000000001
 43
0.0000000001
 40
0.0
 40
0.0
 40
0.0
 40
0.0
 40
0.0496410008861619
 40
0.0496410008861619
 40
0.366427333924108
 40
0.366427333924108
 40
0.6832136669620539
 40
0.6832136669620539
 40
1.0
 40
1.0
 40
1.0
 40
1.0
 10
425.7525241301796
 20
298.2120684396796
 30
0.0
 10
425.7528892419268
 20
298.2131097357786
 30
0.0
 10
425.7532711624351
 20
298.214141741546
 30
0.0
 10
425.7562109095879
 20
298.2216843631522
 30
0.0
 10
425.7594076165498
 20
298.2278154344219
 30
0.0
 10
425.7670731385411
 20
298.2393263437354
 30
0.0
 10
425.7715553515173
 20
298.2446862726761
 30
0.0
 10
425.7813862490101
 20
298.2541808103133
 30
0.0
 10
425.7867770800581
 20
298.2583863539474
 30
0.0
 10
425.7926590480756
 20
298.2620330665741
 30
0.0
  0
SPLINE
  5
1B4
330
1F
100
AcDbEntity
  8
1
100
AcDbSpline
210
0.0
220
0.0
230
1.0
 70
     8
 71
     3
 72
    21
 73
    17
 74
     0
 42
0.000000001
 43
0.0000000001
 40
0.0
 40
0.0
 40
0.0
 40
0.0
 40
0.2499999999998889
 40
0.2499999999998889
 40
0.3124999999999319
 40
0.3124999999999319
 40
0.3749999999999749
 40
0.3749999999999749
 40
0.4999999999999144
 40
0.6249999999998537
 40
0.6249999999998537
 40
0.687499999999824
 40
0.687499999999824
 40
0.7499999999997941
 40
0.7499999999997941
 40
1.0
 40
1.0
 40
1.0
 40
1.0
 10
425.4249249685411
 20
296.5416040609123
 30
0.0
 10
425.3939775578776
 20
296.5117391940922
 30
0.0
 10
425.3600619216531
 20
296.4858388241518
 30
0.0
 10
425.3139597741598
 20
296.458418431205
 30
0.0
 10
425.3045306613179
 20
296.4531759600118
 30
0.0
 10
425.2855070401448
 20
296.4433125508446
 30
0.0
 10
425.275891276488
 20
296.4386774380411
 30
0.0
 10
425.2467377762135
 20
296.4256456670471
 30
0.0
 10
425.2070518509655
 20
296.4105938524618
 30
0.0
 10
425.1657476914917
 20
296.4001581912966
 30
0.0
 10
425.1341425018824
 20
296.394120361942
 30
0.0
 10
425.1235227492604
 20
296.3924129398471
 30
0.0
 10
425.1023524417366
 20
296.3896383264598
 30
0.0
 10
425.0917686883043
 20
296.388564418921
 30
0.0
 10
425.0388570057546
 20
296.3847337085153
 30
0.0
 10
424.9965497873307
 20
296.3865328201347
 30
0.0
 10
424.95426992675
 20
296.3933266828679
 30
0.0
  0
SPLINE
  5
1B5
330
1F
100
AcDbEntity
  8
1
100
AcDbSpline
210
0.0
220
0.0
230
1.0
 70
     8
 71
     3
 72
    21
 73
    17
 74
     0
 42
0.000000001
 43
0.0000000001
 40
0.0
 40
0.0
 40
0.0
 40
0.0
 40
0.2499999999998435
 40
0.2499999999998435
 40
0.3124999999998445
 40
0.3124999999998445
 40
0.3749999999998456
 40
0.3749999999998456
 40
0.4999999999998477
 40
0.6249999999998499
 40
0.6249999999998499
 40
0.6874999999998512
 40
0.6874999999998512
 40
0.7499999999998521
 40
0.7499999999998521
 40
1.0
 40
1.0
 40
1.0
 40
1.0
 10
424.3516795655498
 20
296.6707980724496
 30
0.0
 10
424.3929135418013
 20
296.6814071478578
 30
0.0
 10
424.4348439067669
 20
296.6871988214032
 30
0.0
 10
424.4882169788088
 20
296.6882712394154
 30
0.0
 10
424.4989401493433
 20
296.6881733352122
 30
0.0
 10
424.5204881358668
 20
296.6873320343779
 30
0.0
 10
424.5313388460008
 20
296.6865838549603
 30
0.0
 10
424.5635619762387
 20
296.6833897853627
 30
0.0
 10
424.6059396205751
 20
296.6766065112444
 30
0.0
 10
424.6471696646491
 20
296.6648856969819
 30
0.0
 10
424.6776546135641
 20
296.6542116566553
 30
0.0
 10
424.6877789915809
 20
296.6503234459409
 30
0.0
 10
424.7076893500424
 20
296.6419838797067
 30
0.0
 10
424.7174575526024
 20
296.6375430784708
 30
0.0
 10
424.7653981194238
 20
296.6140277907712
 30
0.0
 10
424.8009052756207
 20
296.5910743464629
 30
0.0
 10
424.8337013970997
 20
296.5640721678856
 30
0.0
  0
SPLINE
  5
1B6
330
1F
100
AcDbEntity
  8
1
100
AcDbSpline
210
0.0
220
0.0
230
1.0
 70
     8
 71
     3
 72
    14
 73
    10
 74
     0
 42
0.000000001
 43
0.0000000001
 40
0.0
 40
0.0
 40
0.0
 40
0.0
 40
0.25
 40
0.25
 40
0.5
 40
0.5
 40
0.75
 40
0.75
 40
1.0
 40
1.0
 40
1.0
 40
1.0
 10
424.2865752827956
 20
296.6186508033658
 30
0.0
 10
424.2898593932523
 20
296.6250043736785
 30
0.0
 10
424.2938010551362
 20
296.6310078776916
 30
0.0
 10
424.3028069690088
 20
296.6420449409538
 30
0.0
 10
424.3078295479753
 20
296.6470455563118
 30
0.0
 10
424.3189271885631
 20
296.6560012058604
 30
0.0
 10
424.3250423512948
 20
296.6599572622227
 30
0.0
 10
424.3378367971076
 20
296.666412682314
 30
0.0
 10
424.3445729745937
 20
296.6689696201342
 30
0.0
 10
424.3516795655498
 20
296.6707980724496
 30
0.0
  0
SPLINE
  5
1B7
330
1F
100
AcDbEntity
  8
1
100
AcDbSpline
210
0.0
220
0.0
230
1.0
 70
     8
 71
     3
 72
    22
 73
    18
 74
     0
 42
0.000000001
 43
0.0000000001
 40
0.0
 40
0.0
 40
0.0
 40
0.0
 40
0.125
 40
0.125
 40
0.25
 40
0.25
 40
0.3749999999999999
 40
0.3749999999999999
 40
0.5
 40
0.5
 40
0.625
 40
0.625
 40
0.75
 40
0.75
 40
0.875
 40
0.875
 40
1.0
 40
1.0
 40
1.0
 40
1.0
 10
424.2865752827952
 20
296.6186508033649
 30
0.0
 10
424.2839501149441
 20
296.613572049546
 30
0.0
 10
424.2809117970648
 20
296.6087307295716
 30
0.0
 10
424.2741390926091
 20
296.5996761557668
 30
0.0
 10
424.2703927772669
 20
296.5954378549542
 30
0.0
 10
424.2621598648936
 20
296.5875567573635
 30
0.0
 10
424.2576674245658
 20
296.5839233724287
 30
0.0
 10
424.2482300055281
 20
296.5775234126199
 30
0.0
 10
424.2432504730173
 20
296.5747200750973
 30
0.0
 10
424.2327479738346
 20
296.5699427516897
 30
0.0
 10
424.2272422105902
 20
296.5679881777441
 30
0.0
 10
424.2160665674832
 20
296.5650811560637
 30
0.0
 10
424.2103509868091
 20
296.5641056072962
 30
0.0
 10
424.1986507335453
 20
296.5631667390677
 30
0.0
 10
424.1927549964944
 20
296.5632179775392
 30
0.0
 10
424.1811200613001
 20
296.5643537682137
 30
0.0
 10
424.1753425346725
 20
296.5654343873561
 30
0.0
 10
424.1696078615738
 20
296.5670610724778
 30
0.0
  0
SPLINE
  5
1B8
330
1F
100
AcDbEntity
  8
1
100
AcDbSpline
210
0.0
220
0.0
230
1.0
 70
     8
 71
     3
 72
    14
 73
    10
 74
     0
 42
0.000000001
 43
0.0000000001
 40
0.0
 40
0.0
 40
0.0
 40
0.0
 40
0.25
 40
0.25
 40
0.5
 40
0.5
 40
0.75
 40
0.75
 40
1.0
 40
1.0
 40
1.0
 40
1.0
 10
423.665121014482
 20
297.5917634778095
 30
0.0
 10
423.6721857203783
 20
297.5921965459711
 30
0.0
 10
423.6792769689977
 20
297.5918859339961
 30
0.0
 10
423.6931837275876
 20
297.5898044638975
 30
0.0
 10
423.6999513339036
 20
297.5880524726226
 30
0.0
 10
423.7131134382916
 20
297.583108910952
 30
0.0
 10
423.7195279897155
 20
297.5798837243368
 30
0.0
 10
423.7313904609328
 20
297.5722023190552
 30
0.0
 10
423.7369159733089
 20
297.5677266017306
 30
0.0
 10
423.7420021857952
 20
297.5625587180224
 30
0.0
  0
SPLINE
  5
1B9
330
1F
100
AcDbEntity
  8
1
100
AcDbSpline
210
0.0
220
0.0
230
1.0
 70
     8
 71
     3
 72
     8
 73
     4
 74
     0
 42
0.000000001
 43
0.0000000001
 40
0.0
 40
0.0
 40
0.0
 40
0.0
 40
1.0
 40
1.0
 40
1.0
 40
1.0
 10
422.1053700515851
 20
293.1913394875053
 30
0.0
 10
422.1023038938055
 20
293.1901953383089
 30
0.0
 10
422.0992321243088
 20
293.1890646774933
 30
0.0
 10
422.0961549004757
 20
293.1879475917296
 30
0.0
  0
SPLINE
  5
1BA
330
1F
100
AcDbEntity
  8
1
100
AcDbSpline
210
0.0
220
0.0
230
1.0
 70
     8
 71
     3
 72
    10
 73
     6
 74
     0
 42
0.000000001
 43
0.0000000001
 40
0.0
 40
0.0
 40
0.0
 40
0.0
 40
0.5
 40
0.5
 40
1.0
 40
1.0
 40
1.0
 40
1.0
 10
417.3581874315847
 20
293.5111518689159
 30
0.0
 10
417.2223258742098
 20
293.5582636311321
 30
0.0
 10
417.0870743669961
 20
293.6077387865333
 30
0.0
 10
416.8189703868334
 20
293.7109688791714
 30
0.0
 10
416.6860120138858
 20
293.7647570097145
 30
0.0
 10
416.5541408704486
 20
293.8206995068892
 30
0.0
  0
SPLINE
  5
1BB
330
1F
100
AcDbEntity
  8
1
100
AcDbSpline
210
0.0
220
0.0
230
1.0
 70
     8
 71
     3
 72
    22
 73
    18
 74
     0
 42
0.000000001
 43
0.0000000001
 40
0.0
 40
0.0
 40
0.0
 40
0.0
 40
0.125
 40
0.125
 40
0.25
 40
0.25
 40
0.375
 40
0.375
 40
0.4375
 40
0.4375
 40
0.5
 40
0.5
 40
0.625
 40
0.625
 40
0.75
 40
0.875
 40
1.0
 40
1.0
 40
1.0
 40
1.0
 10
416.1490393724533
 20
291.7448767042106
 30
0.0
 10
416.3781991584815
 20
291.6226956957865
 30
0.0
 10
416.6110584662674
 20
291.5084442775975
 30
0.0
 10
417.0840375936848
 20
291.2957788032566
 30
0.0
 10
417.3241572921961
 20
291.1973641698303
 30
0.0
 10
417.811609665241
 20
291.0165084936236
 30
0.0
 10
418.0589420301385
 20
290.9340665554063
 30
0.0
 10
418.4353875926116
 20
290.8226213399865
 30
0.0
 10
418.5617780714416
 20
290.7875107096617
 30
0.0
 10
418.8163926757181
 20
290.7214243175416
 30
0.0
 10
418.9447865282036
 20
290.6904171650579
 30
0.0
 10
419.3300696043678
 20
290.6042695139211
 30
0.0
 10
419.5877880720466
 20
290.5557812498512
 30
0.0
 10
420.1049085907782
 20
290.4763308000785
 30
0.0
 10
420.6237127938892
 20
290.4144072799937
 30
0.0
 10
421.4069251905584
 20
290.3737893474306
 30
0.0
 10
421.9324284491094
 20
290.3818547764093
 30
0.0
 10
422.1960409468133
 20
290.3948838060046
 30
0.0
  0
SPLINE
  5
1BC
330
1F
100
AcDbEntity
  8
1
100
AcDbSpline
210
0.0
220
0.0
230
1.0
 70
     8
 71
     3
 72
    24
 73
    20
 74
     0
 42
0.000000001
 43
0.0000000001
 40
0.0
 40
0.0
 40
0.0
 40
0.0
 40
0.125
 40
0.125
 40
0.2500000000000001
 40
0.2500000000000001
 40
0.3750000000000001
 40
0.3750000000000001
 40
0.5000000000000001
 40
0.5000000000000001
 40
0.5625000000000002
 40
0.5625000000000002
 40
0.6250000000000004
 40
0.6250000000000004
 40
0.7500000000000004
 40
0.7500000000000004
 40
0.8750000000000001
 40
0.8750000000000001
 40
1.0
 40
1.0
 40
1.0
 40
1.0
 10
421.4678419452957
 20
290.7748014444754
 30
0.0
 10
421.2285575927223
 20
290.7754697232875
 30
0.0
 10
420.9922806896941
 20
290.7805524122109
 30
0.0
 10
420.5246754187613
 20
290.7998930658457
 30
0.0
 10
420.2933469206796
 20
290.8141544227011
 30
0.0
 10
419.8347877476761
 20
290.8523273995063
 30
0.0
 10
419.6075581905218
 20
290.8762399439711
 30
0.0
 10
419.1565470948809
 20
290.9342452545681
 30
0.0
 10
418.9327669093183
 20
290.9683377039547
 30
0.0
 10
418.5993157099852
 20
291.0275465774271
 30
0.0
 10
418.4885372159891
 20
291.0486269431945
 30
0.0
 10
418.2676680130408
 20
291.0935642896978
 30
0.0
 10
418.1574493194508
 20
291.1174542415052
 30
0.0
 10
417.8291721696572
 20
291.1930879577677
 30
0.0
 10
417.6132179123471
 20
291.2488325867441
 30
0.0
 10
417.1864851992414
 20
291.3712850679982
 30
0.0
 10
416.9757086483564
 20
291.4379923722082
 30
0.0
 10
416.5588948665772
 20
291.58277786053
 30
0.0
 10
416.3528588917834
 20
291.6608552333316
 30
0.0
 10
416.1490393724533
 20
291.7448767042106
 30
0.0
  0
SPLINE
  5
1BD
330
1F
100
AcDbEntity
  8
1
100
AcDbSpline
210
0.0
220
0.0
230
1.0
 70
     8
 71
     3
 72
    34
 73
    30
 74
     0
 42
0.000000001
 43
0.0000000001
 40
0.0
 40
0.0
 40
0.0
 40
0.0
 40
0.1249999999999801
 40
0.1249999999999801
 40
0.1874999999999979
 40
0.1874999999999979
 40
0.2500000000000157
 40
0.2500000000000157
 40
0.3749999999999952
 40
0.3749999999999952
 40
0.4375000000000127
 40
0.4375000000000127
 40
0.468750000000048
 40
0.468750000000048
 40
0.5000000000000834
 40
0.5000000000000834
 40
0.6250000000000681
 40
0.6250000000000681
 40
0.6875000000000363
 40
0.6875000000000363
 40
0.7500000000000046
 40
0.7500000000000046
 40
0.8749999999999847
 40
0.8749999999999847
 40
0.9062499999999886
 40
0.9062499999999886
 40
0.9374999999999925
 40
0.9374999999999925
 40
1.0
 40
1.0
 40
1.0
 40
1.0
 10
422.0961549004754
 20
293.1879475917296
 30
0.0
 10
422.038239509281
 20
293.1669232975907
 30
0.0
 10
421.9791726738414
 20
293.1509557253654
 30
0.0
 10
421.8887179043321
 20
293.1345717945371
 30
0.0
 10
421.8582560352546
 20
293.1303792346835
 30
0.0
 10
421.7966774952992
 20
293.1246188564403
 30
0.0
 10
421.7654025840459
 20
293.1230602847874
 30
0.0
 10
421.6725524210246
 20
293.1224982135361
 30
0.0
 10
421.6114959117167
 20
293.1274828874674
 30
0.0
 10
421.5210734100991
 20
293.142690835669
 30
0.0
 10
421.4911263067566
 20
293.1490553825585
 30
0.0
 10
421.446484745706
 20
293.1605695153686
 30
0.0
 10
421.4316943022066
 20
293.1647260022241
 30
0.0
 10
421.4024610141121
 20
293.1736142232288
 30
0.0
 10
421.387990886632
 20
293.1783528648293
 30
0.0
 10
421.3163402655887
 20
293.2034919192692
 30
0.0
 10
421.2612421008637
 20
293.2281887129749
 30
0.0
 10
421.1815267143577
 20
293.2721046079303
 30
0.0
 10
421.1553593239316
 20
293.2879627202973
 30
0.0
 10
421.1047475969625
 20
293.3215460029641
 30
0.0
 10
421.0802282387306
 20
293.3393024004436
 30
0.0
 10
421.0089243478257
 20
293.3954509625406
 30
0.0
 10
420.9643744800933
 20
293.4366934770221
 30
0.0
 10
420.9123795923871
 20
293.4933685278885
 30
0.0
 10
420.902166811071
 20
293.5049619562042
 30
0.0
 10
420.8821191611896
 20
293.5286848855664
 30
0.0
 10
420.8723039234467
 20
293.5407933738743
 30
0.0
 10
420.8436738369519
 20
293.5776301687191
 30
0.0
 10
420.8255980954257
 20
293.6029563292287
 30
0.0
 10
420.8085383659535
 20
293.6290592267901
 30
0.0
  0
SPLINE
  5
1BE
330
1F
100
AcDbEntity
  8
1
100
AcDbSpline
210
0.0
220
0.0
230
1.0
 70
     8
 71
     3
 72
     8
 73
     4
 74
     0
 42
0.000000001
 43
0.0000000001
 40
0.0
 40
0.0
 40
0.0
 40
0.0
 40
1.0
 40
1.0
 40
1.0
 40
1.0
 10
418.2829212581436
 20
298.074400213276
 30
0.0
 10
417.9886342926316
 20
299.1484566220183
 30
0.0
 10
417.7232892840271
 20
300.2296161536488
 30
0.0
 10
417.4812438557526
 20
301.3164940194905
 30
0.0
  0
SPLINE
  5
1BF
330
1F
100
AcDbEntity
  8
1
100
AcDbSpline
210
0.0
220
0.0
230
1.0
 70
     8
 71
     3
 72
    51
 73
    47
 74
     0
 42
0.000000001
 43
0.0000000001
 40
0.0
 40
0.0
 40
0.0
 40
0.0
 40
0.0468471846962998
 40
0.0468471846962998
 40
0.0936943693925995
 40
0.0936943693925995
 40
0.1171179617407489
 40
0.1171179617407489
 40
0.1405415540888983
 40
0.1405415540888983
 40
0.187388738785198
 40
0.187388738785198
 40
0.2342359234814988
 40
0.2342359234814988
 40
0.2810831081777996
 40
0.2810831081777996
 40
0.3279302928741004
 40
0.3279302928741004
 40
0.3513538852222505
 40
0.3513538852222505
 40
0.3747774775704007
 40
0.3747774775704007
 40
0.4216246622667014
 40
0.4216246622667014
 40
0.4684718469630022
 40
0.4684718469630022
 40
0.515319031659303
 40
0.515319031659303
 40
0.5621662163556037
 40
0.5621662163556037
 40
0.6558605857482054
 40
0.6558605857482054
 40
0.7027077704445059
 40
0.7027077704445059
 40
0.7261313627926567
 40
0.7495549551408073
 40
0.7495549551408073
 40
0.7964021398371081
 40
0.7964021398371081
 40
0.8432493245334088
 40
0.8432493245334088
 40
0.8900965092297095
 40
0.8900965092297095
 40
0.9369436939260104
 40
0.9369436939260104
 40
1.0
 40
1.0
 40
1.0
 40
1.0
 10
417.4812438557527
 20
301.3164940194794
 30
0.0
 10
416.2658477841326
 20
301.3449323629753
 30
0.0
 10
415.0479696845978
 20
301.3650804607798
 30
0.0
 10
412.6076551663452
 20
301.3933346938277
 30
0.0
 10
411.3852181161649
 20
301.401435688879
 30
0.0
 10
409.5484968281263
 20
301.4071937107892
 30
0.0
 10
408.9357460251993
 20
301.4080400640153
 30
0.0
 10
407.7092901544081
 20
301.4079430344498
 30
0.0
 10
407.0955402142786
 20
301.4069993483967
 30
0.0
 10
405.2536128663278
 20
301.4019408103086
 30
0.0
 10
404.0245787026846
 20
301.3956236005875
 30
0.0
 10
401.5647311174091
 20
301.3789336588332
 30
0.0
 10
400.3339177022963
 20
301.3685589722755
 30
0.0
 10
397.8709671484594
 20
301.3448203481054
 30
0.0
 10
396.6388300955759
 20
301.3314551704825
 30
0.0
 10
394.1737561456093
 20
301.3020876917025
 30
0.0
 10
392.9408073523839
 20
301.2860850911975
 30
0.0
 10
391.0912936090097
 20
301.2598494693772
 30
0.0
 10
390.4747753826656
 20
301.2507198219913
 30
0.0
 10
389.2417452223412
 20
301.2316427666599
 30
0.0
 10
388.6252302945639
 20
301.2216999014519
 30
0.0
 10
386.7757023098333
 20
301.1906267429678
 30
0.0
 10
385.5427065625752
 20
301.1682539955157
 30
0.0
 10
383.0768405476162
 20
301.1199614666714
 30
0.0
 10
381.843970533261
 20
301.0940403325532
 30
0.0
 10
379.3784170847802
 20
301.0383652062083
 30
0.0
 10
378.1457244965493
 20
301.0086099577624
 30
0.0
 10
375.6806846388375
 20
300.9449698652358
 30
0.0
 10
374.4483242572421
 20
300.9110845994965
 30
0.0
 10
370.7517601006606
 20
300.8027921878476
 30
0.0
 10
368.2880667728513
 20
300.7217842483918
 30
0.0
 10
364.5936756118771
 20
300.5850476619992
 30
0.0
 10
363.3624038845525
 20
300.5369270963413
 30
0.0
 10
361.5158321830739
 20
300.4605150796545
 30
0.0
 10
360.2848971070324
 20
300.4081595391803
 30
0.0
 10
359.0542152197632
 20
300.3527724884303
 30
0.0
 10
357.2083677434289
 20
300.2673879990558
 30
0.0
 10
355.9780375601949
 20
300.2073884493505
 30
0.0
 10
353.5177662587114
 20
300.0811411955617
 30
0.0
 10
352.2878263136814
 20
300.0148864530193
 30
0.0
 10
349.8282151528543
 20
299.8762795708956
 30
0.0
 10
348.598590981561
 20
299.803924017066
 30
0.0
 10
346.13963269778
 20
299.6537395311774
 30
0.0
 10
344.9102692731501
 20
299.5759466808657
 30
0.0
 10
342.0261856625452
 20
299.388206752531
 30
0.0
 10
340.3714891199091
 20
299.2763410289651
 30
0.0
 10
338.7167053459878
 20
299.1609180799968
 30
0.0
  0
SPLINE
  5
1C0
330
1F
100
AcDbEntity
  8
1
100
AcDbSpline
210
0.0
220
0.0
230
1.0
 70
    28
 71
     4
 72
    13
 73
     8
 74
     0
 42
0.000000001
 43
0.0000000001
 40
0.0
 40
0.0
 40
0.0
 40
0.0
 40
0.0
 40
0.0158263399831404
 40
0.0158263399831404
 40
0.0158263399831404
 40
1.0
 40
1.0
 40
1.0
 40
1.0
 40
1.0
 10
297.9048419452957
 20
282.9142702700216
 30
0.0
 41
1.001549304030199
 10
297.9048419452957
 20
282.8911634543679
 30
0.0
 41
1.001556171844216
 10
297.9048419452957
 20
282.8680422719235
 30
0.0
 41
1.00156084970366
 10
297.9048419452957
 20
282.8449081844265
 30
0.0
 41
1.00156323924462
 10
297.9048419452957
 20
281.3824400644564
 30
0.0
 41
1.00156323924462
 10
297.9048419452957
 20
279.6434027138084
 30
0.0
 41
0.9923227073066257
 10
297.9048419452957
 20
277.9578132314216
 30
0.0
 41
0.9981833317941754
 10
297.9048419452957
 20
276.6187622700235
 30
0.0
 41
1.000739060546522
  0
SPLINE
  5
1C1
330
1F
100
AcDbEntity
  8
1
100
AcDbSpline
210
0.0
220
0.0
230
1.0
 70
     8
 71
     3
 72
    69
 73
    65
 74
     0
 42
0.000000001
 43
0.0000000001
 40
0.0
 40
0.0
 40
0.0
 40
0.0
 40
0.0312499999999997
 40
0.0312499999999997
 40
0.0624999999999995
 40
0.0624999999999995
 40
0.0937499999999992
 40
0.0937499999999992
 40
0.1249999999999989
 40
0.1249999999999989
 40
0.1562499999999986
 40
0.1562499999999986
 40
0.1874999999999984
 40
0.1874999999999984
 40
0.2187499999999981
 40
0.2187499999999981
 40
0.2499999999999978
 40
0.2499999999999978
 40
0.2812499999999976
 40
0.2812499999999976
 40
0.3124999999999973
 40
0.3124999999999973
 40
0.343749999999997
 40
0.343749999999997
 40
0.3749999999999968
 40
0.3749999999999968
 40
0.4062499999999969
 40
0.4062499999999969
 40
0.4218749999999969
 40
0.4218749999999969
 40
0.437499999999997
 40
0.437499999999997
 40
0.4687499999999972
 40
0.4687499999999972
 40
0.4999999999999973
 40
0.4999999999999973
 40
0.5312499999999974
 40
0.5312499999999974
 40
0.5624999999999974
 40
0.5624999999999974
 40
0.5937499999999975
 40
0.5937499999999975
 40
0.6249999999999975
 40
0.6249999999999975
 40
0.6562499999999976
 40
0.6562499999999976
 40
0.6874999999999976
 40
0.6874999999999976
 40
0.7187499999999977
 40
0.7187499999999977
 40
0.7499999999999977
 40
0.7499999999999977
 40
0.8124999999999984
 40
0.8124999999999984
 40
0.8437499999999985
 40
0.8437499999999985
 40
0.8749999999999989
 40
0.8749999999999989
 40
0.9062499999999992
 40
0.9062499999999992
 40
0.9374999999999994
 40
0.9374999999999994
 40
0.9687499999999996
 40
1.0
 40
1.0
 40
1.0
 40
1.0
 10
299.4934971425577
 20
282.487971489
 30
0.0
 10
300.6207928882068
 20
282.3767954646165
 30
0.0
 10
301.7483904164539
 20
282.269166448425
 30
0.0
 10
304.0041057302529
 20
282.0600646263151
 30
0.0
 10
305.1322234182081
 20
281.9585907035517
 30
0.0
 10
307.3888712689085
 20
281.7607439687091
 30
0.0
 10
308.5174013142697
 20
281.6643699614285
 30
0.0
 10
310.7747450118837
 20
281.4755874492774
 30
0.0
 10
311.9035585302935
 20
281.3831776724911
 30
0.0
 10
314.1613229996169
 20
281.2011444946502
 30
0.0
 10
315.2902659968224
 20
281.1115203701265
 30
0.0
 10
317.5480302832238
 20
280.9338831001058
 30
0.0
 10
318.6768613056656
 20
280.8458676496014
 30
0.0
 10
320.9342339395833
 20
280.6703034718965
 30
0.0
 10
322.0627753524224
 20
280.5827530737636
 30
0.0
 10
324.3193733745998
 20
280.4070634695421
 30
0.0
 10
325.4474297525399
 20
280.3189223941406
 30
0.0
 10
327.7028608541953
 20
280.1411360253338
 30
0.0
 10
328.8302353036982
 20
280.0514886558607
 30
0.0
 10
331.0841117824687
 20
279.869973587936
 30
0.0
 10
332.2106134833475
 20
279.7781036368168
 30
0.0
 10
334.4625687776714
 20
279.5916916930357
 30
0.0
 10
335.5880219778766
 20
279.4971473628187
 30
0.0
 10
337.8377304474393
 20
279.3052686366065
 30
0.0
 10
338.96198525234
 20
279.2079320015757
 30
0.0
 10
341.2091858193952
 20
279.0107538087502
 30
0.0
 10
342.3321310498358
 20
278.9109104212187
 30
0.0
 10
344.0155240428504
 20
278.7598296784483
 30
0.0
 10
344.5765159798884
 20
278.7092499225731
 30
0.0
 10
345.6979819857777
 20
278.6078220307173
 30
0.0
 10
346.2584534413366
 20
278.5569956403235
 30
0.0
 10
347.9392794718228
 20
278.4051479614886
 30
0.0
 10
349.0590503895096
 20
278.3048047840039
 30
0.0
 10
351.297982007224
 20
278.1099597825286
 30
0.0
 10
352.4171436009063
 20
278.0154540285785
 30
0.0
 10
354.6556472024563
 20
277.8349041451355
 30
0.0
 10
355.7749888058112
 20
277.7488504020498
 30
0.0
 10
358.0144714169029
 20
277.5865837949279
 30
0.0
 10
359.1346102187762
 20
277.510357901219
 30
0.0
 10
361.3761720345193
 20
277.3682347714695
 30
0.0
 10
362.4975862119133
 20
277.3022892826043
 30
0.0
 10
364.741569588051
 20
277.1794862003114
 30
0.0
 10
365.8641402402501
 20
277.1226371940958
 30
0.0
 10
368.1104419878574
 20
277.0172766399837
 30
0.0
 10
369.2341743937761
 20
276.968770870852
 30
0.0
 10
371.4828769992072
 20
276.8795022838709
 30
0.0
 10
372.6078482436673
 20
276.838742801355
 30
0.0
 10
374.8591420969053
 20
276.7643931801383
 30
0.0
 10
375.9855364272802
 20
276.7308030776491
 30
0.0
 10
378.2389957928016
 20
276.6701896937092
 30
0.0
 10
379.3661453903122
 20
276.6431632834549
 30
0.0
 10
382.7490016903733
 20
276.5708732911161
 30
0.0
 10
385.0061233192084
 20
276.5344113090947
 30
0.0
 10
388.3951148372844
 20
276.4926829589394
 30
0.0
 10
389.5253283381581
 20
276.4809299225371
 30
0.0
 10
391.7869170450678
 20
276.4609568882846
 30
0.0
 10
392.9183003866643
 20
276.4527310037282
 30
0.0
 10
395.1819258896368
 20
276.4388293146043
 30
0.0
 10
396.314167684397
 20
276.4331553783123
 30
0.0
 10
398.5791895721621
 20
276.4237187031757
 30
0.0
 10
399.7119584184679
 20
276.4199573741056
 30
0.0
 10
401.9776186533004
 20
276.4139825849185
 30
0.0
 10
404.243438290238
 20
276.4095564223
 30
0.0
 10
406.5090537100106
 20
276.4079935137005
 30
0.0
 10
407.6416782734138
 20
276.4079935137005
 30
0.0
  0
SPLINE
  5
1C2
330
1F
100
AcDbEntity
  8
1
100
AcDbSpline
210
0.0
220
0.0
230
1.0
 70
     8
 71
     3
 72
    60
 73
    56
 74
     0
 42
0.000000001
 43
0.0000000001
 40
0.0
 40
0.0
 40
0.0
 40
0.0
 40
0.0624999999999996
 40
0.0624999999999996
 40
0.0937499999999995
 40
0.0937499999999995
 40
0.1249999999999994
 40
0.1249999999999994
 40
0.1874999999999992
 40
0.1874999999999992
 40
0.249999999999999
 40
0.249999999999999
 40
0.3124999999999988
 40
0.3124999999999988
 40
0.3437499999999987
 40
0.3437499999999987
 40
0.3749999999999987
 40
0.3749999999999987
 40
0.4062499999999986
 40
0.4062499999999986
 40
0.4374999999999985
 40
0.4374999999999985
 40
0.4687499999999984
 40
0.4687499999999984
 40
0.4999999999999984
 40
0.4999999999999984
 40
0.5312499999999983
 40
0.5312499999999983
 40
0.5624999999999982
 40
0.5624999999999982
 40
0.5937499999999982
 40
0.5937499999999982
 40
0.6249999999999979
 40
0.6249999999999979
 40
0.6562499999999979
 40
0.6562499999999979
 40
0.6874999999999978
 40
0.6874999999999978
 40
0.7499999999999979
 40
0.7499999999999979
 40
0.7812499999999983
 40
0.7812499999999983
 40
0.8124999999999984
 40
0.8124999999999984
 40
0.8437499999999987
 40
0.8437499999999987
 40
0.8749999999999989
 40
0.8749999999999989
 40
0.9062499999999992
 40
0.9062499999999992
 40
0.9374999999999994
 40
0.9374999999999994
 40
0.9687499999999998
 40
0.9687499999999998
 40
1.0
 40
1.0
 40
1.0
 40
1.0
 10
297.9048419452959
 20
301.0362018909245
 30
0.0
 10
300.3745617020972
 20
300.9810938719753
 30
0.0
 10
302.8429278574441
 20
300.9167567548469
 30
0.0
 10
306.5437907275635
 20
300.8043208341649
 30
0.0
 10
307.7771322322573
 20
300.7641947529558
 30
0.0
 10
310.2433316744173
 20
300.6784160192294
 30
0.0
 10
311.4762116701284
 20
300.6327619627745
 30
0.0
 10
315.1739904437238
 20
300.4873204302432
 30
0.0
 10
317.6380806225227
 20
300.3789938232457
 30
0.0
 10
322.5649028921559
 20
300.1399030086272
 30
0.0
 10
325.0276396554192
 20
300.0091487004892
 30
0.0
 10
329.9526535384011
 20
299.7272415976636
 30
0.0
 10
332.4149357575546
 20
299.5761168494293
 30
0.0
 10
336.1086180248123
 20
299.3365470829935
 30
0.0
 10
337.3399054638723
 20
299.2545484571656
 30
0.0
 10
339.8025352836189
 20
299.0867023612107
 30
0.0
 10
341.0338776699961
 20
299.0008561506495
 30
0.0
 10
343.4966828549796
 20
298.8257175366293
 30
0.0
 10
344.7281528535624
 20
298.7364642173572
 30
0.0
 10
347.1912263416193
 20
298.5546758080203
 30
0.0
 10
348.4228031056944
 20
298.4620057332298
 30
0.0
 10
350.8858624550844
 20
298.2721497139382
 30
0.0
 10
352.1173315826916
 20
298.1749620343787
 30
0.0
 10
354.579980323678
 20
297.9756916143974
 30
0.0
 10
355.8111774297848
 20
297.8736089673938
 30
0.0
 10
358.2733720506614
 20
297.6647639057834
 30
0.0
 10
359.5043705688207
 20
297.5580049647659
 30
0.0
 10
361.9662999994856
 20
297.3405354207913
 30
0.0
 10
363.1972399381482
 20
297.22987910058
 30
0.0
 10
365.6592304825013
 20
297.0057423498304
 30
0.0
 10
366.8902801927068
 20
296.8922589141177
 30
0.0
 10
369.3525686875446
 20
296.663055622412
 30
0.0
 10
370.5838067368771
 20
296.5473327843802
 30
0.0
 10
373.0464950294694
 20
296.3139030736481
 30
0.0
 10
374.2779446988857
 20
296.1961934913219
 30
0.0
 10
376.74104375237
 20
295.9587940671753
 30
0.0
 10
377.9726931466437
 20
295.839102239702
 30
0.0
 10
381.6676702658453
 20
295.4768181348373
 30
0.0
 10
384.1311083434895
 20
295.2310829248656
 30
0.0
 10
387.8261274404102
 20
294.8538538816284
 30
0.0
 10
389.0577830203732
 20
294.7266566449432
 30
0.0
 10
391.520930226749
 20
294.4686695988403
 30
0.0
 10
392.7523969072614
 20
294.337878993364
 30
0.0
 10
395.2149699918309
 20
294.0715243776128
 30
0.0
 10
396.4460736193228
 20
293.9359370074167
 30
0.0
 10
398.9079048781473
 20
293.6597354919018
 30
0.0
 10
400.1386302074235
 20
293.5190997812248
 30
0.0
 10
402.599892917416
 20
293.2341259911772
 30
0.0
 10
403.8304411960803
 20
293.0897628109723
 30
0.0
 10
406.2916746503845
 20
292.8009368977278
 30
0.0
 10
407.5223666437319
 20
292.6564590617086
 30
0.0
 10
409.9845782553506
 20
292.3738808996814
 30
0.0
 10
411.2160992655383
 20
292.235790760472
 30
0.0
 10
413.6809311549192
 20
291.9754675993591
 30
0.0
 10
414.9142459052527
 20
291.8532725491223
 30
0.0
 10
416.1490393724533
 20
291.7448767042107
 30
0.0
  0
SPLINE
  5
1C3
330
1F
100
AcDbEntity
  8
1
100
AcDbSpline
210
0.0
220
0.0
230
1.0
 70
     8
 71
     3
 72
    44
 73
    40
 74
     0
 42
0.000000001
 43
0.0000000001
 40
0.0
 40
0.0
 40
0.0
 40
0.0
 40
0.0624999999999942
 40
0.0624999999999942
 40
0.1249999999999884
 40
0.1249999999999884
 40
0.2499999999999767
 40
0.2499999999999767
 40
0.3749999999999651
 40
0.3749999999999651
 40
0.4374999999999679
 40
0.4374999999999679
 40
0.4687499999999772
 40
0.4687499999999772
 40
0.4999999999999867
 40
0.4999999999999867
 40
0.5624999999999896
 40
0.5624999999999896
 40
0.6249999999999924
 40
0.6249999999999924
 40
0.6406249999999965
 40
0.6406249999999965
 40
0.6562500000000006
 40
0.6874999999999956
 40
0.6874999999999956
 40
0.7499999999999865
 40
0.7499999999999865
 40
0.8124999999999774
 40
0.8124999999999774
 40
0.8281249999999792
 40
0.8281249999999792
 40
0.8437499999999808
 40
0.8749999999999847
 40
0.9062499999999884
 40
0.9062499999999884
 40
0.9218749999999904
 40
0.9218749999999904
 40
0.9374999999999925
 40
1.0
 40
1.0
 40
1.0
 40
1.0
 10
415.5176474892396
 20
295.2955734513106
 30
0.0
 10
415.5992639941168
 20
295.3288884167031
 30
0.0
 10
415.6805991268649
 20
295.3630444100633
 30
0.0
 10
415.8422773346183
 20
295.4330462589778
 30
0.0
 10
415.9226597625313
 20
295.4689074168683
 30
0.0
 10
416.1622955246046
 20
295.5793381204692
 30
0.0
 10
416.3200515868848
 20
295.6567280540084
 30
0.0
 10
416.6305360552568
 20
295.8209784391081
 30
0.0
 10
416.7832785301802
 20
295.9078123894285
 30
0.0
 10
417.0074041468007
 20
296.0474593135731
 30
0.0
 10
417.0812755175921
 20
296.0955852488256
 30
0.0
 10
417.1905905642706
 20
296.1705846268868
 30
0.0
 10
417.2267655515017
 20
296.1960461240423
 30
0.0
 10
417.2983147007208
 20
296.2478130755402
 30
0.0
 10
417.3337186177146
 20
296.2741385851128
 30
0.0
 10
417.4387184655503
 20
296.3545603888189
 30
0.0
 10
417.5071103567217
 20
296.4100925802248
 30
0.0
 10
417.6399900468839
 20
296.5258128522472
 30
0.0
 10
417.7044836522953
 20
296.585994008322
 30
0.0
 10
417.7820363622443
 20
296.6648748308793
 30
0.0
 10
417.7974051384778
 20
296.6808488581312
 30
0.0
 10
417.8276930302513
 20
296.7130590907965
 30
0.0
 10
417.8724853624608
 20
296.7618025678679
 30
0.0
 10
417.9152697333559
 20
296.8118903096488
 30
0.0
 10
417.9978744089429
 20
296.914050139007
 30
0.0
 10
418.0490215028749
 20
296.9847828049839
 30
0.0
 10
418.1413797024994
 20
297.1328999574923
 30
0.0
 10
418.1826196209406
 20
297.210265154827
 30
0.0
 10
418.2258834256198
 20
297.3125189211665
 30
0.0
 10
418.2341390161465
 20
297.3333105533861
 30
0.0
 10
418.2496236479568
 20
297.3751878783625
 30
0.0
 10
418.2712809892849
 20
297.4383387259603
 30
0.0
 10
418.2992706803057
 20
297.5453194481879
 30
0.0
 10
418.3123699538808
 20
297.6328864853054
 30
0.0
 10
418.3184221577405
 20
297.6993665359769
 30
0.0
 10
418.3198115892968
 20
297.7217092271753
 30
0.0
 10
418.321270781432
 20
297.7664537953115
 30
0.0
 10
418.3216148217501
 20
297.8779569844875
 30
0.0
 10
418.3056768578921
 20
297.9876947901271
 30
0.0
 10
418.2829212581436
 20
298.074400213276
 30
0.0
  0
SPLINE
  5
1C4
330
1F
100
AcDbEntity
  8
1
100
AcDbSpline
210
0.0
220
0.0
230
1.0
 70
     8
 71
     3
 72
    12
 73
     8
 74
     0
 42
0.000000001
 43
0.0000000001
 40
0.0
 40
0.0
 40
0.0
 40
0.0
 40
0.2499999999999996
 40
0.2499999999999996
 40
0.4999999999999992
 40
0.4999999999999992
 40
1.0
 40
1.0
 40
1.0
 40
1.0
 10
286.8693559459795
 20
274.9025629484944
 30
0.0
 10
286.5913319080348
 20
274.7840884075584
 30
0.0
 10
286.3186339840567
 20
274.6598209944596
 30
0.0
 10
285.7842990267138
 20
274.3997362104308
 30
0.0
 10
285.5226631514542
 20
274.2639186612676
 30
0.0
 10
284.7551798832764
 20
273.8390498847314
 30
0.0
 10
284.2666951452849
 20
273.5326448975729
 30
0.0
 10
283.8043368819074
 20
273.2021942229824
 30
0.0
  0
SPLINE
  5
1C5
330
1F
100
AcDbEntity
  8
1
100
AcDbSpline
210
0.0
220
0.0
230
1.0
 70
     8
 71
     3
 72
    46
 73
    42
 74
     0
 42
0.000000001
 43
0.0000000001
 40
0.0
 40
0.0
 40
0.0
 40
0.0
 40
0.0625000000000002
 40
0.0625000000000002
 40
0.1250000000000004
 40
0.1250000000000004
 40
0.1875000000000006
 40
0.1875000000000006
 40
0.2187500000000007
 40
0.2187500000000007
 40
0.2343750000000007
 40
0.2343750000000007
 40
0.2500000000000006
 40
0.2500000000000006
 40
0.3125000000000017
 40
0.3750000000000032
 40
0.3750000000000032
 40
0.4375000000000047
 40
0.4375000000000047
 40
0.4531250000000049
 40
0.4531250000000049
 40
0.4687500000000053
 40
0.5000000000000055
 40
0.5000000000000055
 40
0.5625000000000063
 40
0.625000000000007
 40
0.625000000000007
 40
0.656250000000007
 40
0.656250000000007
 40
0.6718750000000066
 40
0.6718750000000066
 40
0.6875000000000063
 40
0.6875000000000063
 40
0.7500000000000052
 40
0.7500000000000052
 40
0.8125000000000037
 40
0.8750000000000024
 40
0.8750000000000024
 40
0.9375000000000012
 40
0.9375000000000012
 40
1.0
 40
1.0
 40
1.0
 40
1.0
 10
279.4048419452957
 20
277.0575724076176
 30
0.0
 10
279.2576082115275
 20
276.9240673989811
 30
0.0
 10
279.118581817419
 20
276.7872515129278
 30
0.0
 10
278.8565457730886
 20
276.5076626937697
 30
0.0
 10
278.7335367897822
 20
276.3648886638839
 30
0.0
 10
278.5035674902957
 20
276.0738432457944
 30
0.0
 10
278.3966059358021
 20
275.9255715910268
 30
0.0
 10
278.2485489002199
 20
275.6992501586979
 30
0.0
 10
278.2012642737143
 20
275.6231559637263
 30
0.0
 10
278.1335171878898
 20
275.5080473469377
 30
0.0
 10
278.1114552862198
 20
275.4694956095729
 30
0.0
 10
278.0686372258271
 20
275.3924956307105
 30
0.0
 10
278.0478503955796
 20
275.3539967242331
 30
0.0
 10
277.9470033616597
 20
275.1615231906921
 30
0.0
 10
277.8053645362168
 20
274.8537075678317
 30
0.0
 10
277.7026070724983
 20
274.5468509399576
 30
0.0
 10
277.6195344948095
 20
274.2407312811235
 30
0.0
 10
277.5878383094574
 20
274.0880397605449
 30
0.0
 10
277.5610175106182
 20
273.8977526631072
 30
0.0
 10
277.5562908997041
 20
273.85968657402
 30
0.0
 10
277.5481568593831
 20
273.7837828876664
 30
0.0
 10
277.5379589319995
 20
273.6705305545923
 30
0.0
 10
277.5337015207743
 20
273.5590726626489
 30
0.0
 10
277.5329776776251
 20
273.3385143608275
 30
0.0
 10
277.5527545147855
 20
273.050720200241
 30
0.0
 10
277.6134934945849
 20
272.7751997994586
 30
0.0
 10
277.674622413833
 20
272.5730871524711
 30
0.0
 10
277.6975987196737
 20
272.5064711892741
 30
0.0
 10
277.7360297349161
 20
272.4076731316374
 30
0.0
 10
277.7495218512872
 20
272.3748832659086
 30
0.0
 10
277.7777097473517
 20
272.3099775376489
 30
0.0
 10
277.792408263556
 20
272.2778484489892
 30
0.0
 10
277.8688859200982
 20
272.1187871755875
 30
0.0
 10
277.9395992762315
 20
271.9965994898179
 30
0.0
 10
278.0994721484632
 20
271.7615951661165
 30
0.0
 10
278.277795093525
 20
271.5359640984987
 30
0.0
 10
278.4927843660843
 20
271.3279338197618
 30
0.0
 10
278.7264700952989
 20
271.1282720395374
 30
0.0
 10
278.8512848163461
 20
271.0337998333104
 30
0.0
 10
279.116412565578
 20
270.8546823187419
 30
0.0
 10
279.2567374579541
 20
270.7700292472338
 30
0.0
 10
279.4048419452954
 20
270.6899260548065
 30
0.0
  0
SPLINE
  5
1C6
330
1F
100
AcDbEntity
  8
1
100
AcDbSpline
210
0.0
220
0.0
230
1.0
 70
     9
 71
     3
 72
   122
 73
   118
 74
     0
 42
0.000000001
 43
0.0000000001
 40
0.0
 40
0.0
 40
0.0
 40
0.0
 40
0.0312500000000398
 40
0.0312500000000398
 40
0.0468750000000535
 40
0.0468750000000535
 40
0.0546875000000604
 40
0.0546875000000604
 40
0.0625000000000672
 40
0.0625000000000672
 40
0.0937500000001181
 40
0.0937500000001181
 40
0.1015625000001333
 40
0.1015625000001333
 40
0.1093750000001486
 40
0.1093750000001486
 40
0.1250000000001791
 40
0.1250000000001791
 40
0.1562500000002314
 40
0.1562500000002314
 40
0.1718750000002576
 40
0.1718750000002576
 40
0.1875000000002837
 40
0.2031250000003099
 40
0.2031250000003099
 40
0.2109375000003215
 40
0.2109375000003215
 40
0.218750000000333
 40
0.218750000000333
 40
0.2500000000003771
 40
0.2500000000003771
 40
0.2578125000003882
 40
0.2578125000003882
 40
0.2656250000003993
 40
0.2656250000003993
 40
0.2812500000004203
 40
0.2812500000004203
 40
0.3125000000004653
 40
0.3125000000004653
 40
0.3281250000004854
 40
0.3281250000004854
 40
0.3437500000005055
 40
0.3437500000005055
 40
0.375000000000546
 40
0.375000000000546
 40
0.3828125000005581
 40
0.3828125000005581
 40
0.3906250000005702
 40
0.4062500000005946
 40
0.4218750000006188
 40
0.4218750000006188
 40
0.4296875000006311
 40
0.4296875000006311
 40
0.4375000000006433
 40
0.4375000000006433
 40
0.4687500000006806
 40
0.4687500000006806
 40
0.4843750000006993
 40
0.4843750000006993
 40
0.4921875000007024
 40
0.4921875000007024
 40
0.5000000000007054
 40
0.5000000000007054
 40
0.5312500000007049
 40
0.5312500000007049
 40
0.5390625000007049
 40
0.5390625000007049
 40
0.5468750000007049
 40
0.5625000000006928
 40
0.5781250000006807
 40
0.5781250000006807
 40
0.5937500000006687
 40
0.5937500000006687
 40
0.6250000000006443
 40
0.6250000000006443
 40
0.6328125000006319
 40
0.6328125000006319
 40
0.6406250000006195
 40
0.6406250000006195
 40
0.6562500000005872
 40
0.6562500000005872
 40
0.6875000000005294
 40
0.6875000000005294
 40
0.6953125000005147
 40
0.6953125000005147
 40
0.7031250000005002
 40
0.7187500000004744
 40
0.7343750000004487
 40
0.7343750000004487
 40
0.7421875000004353
 40
0.7421875000004353
 40
0.7500000000004219
 40
0.7500000000004219
 40
0.7812500000003693
 40
0.7812500000003693
 40
0.7968750000003442
 40
0.7968750000003442
 40
0.812500000000319
 40
0.812500000000319
 40
0.8437500000002643
 40
0.8437500000002643
 40
0.8593750000002332
 40
0.8593750000002332
 40
0.8750000000002023
 40
0.8750000000002023
 40
0.9062500000001316
 40
0.9062500000001316
 40
0.9218750000001016
 40
0.9218750000001016
 40
0.9375000000000714
 40
0.9531250000000412
 40
0.9531250000000412
 40
0.9609375000000323
 40
0.9609375000000323
 40
0.9687500000000236
 40
0.9687500000000236
 40
1.0
 40
1.0
 40
1.0
 40
1.0
 10
425.2962249652843
 20
286.7969886193042
 30
0.0
 10
425.3651069407323
 20
286.7957862799504
 30
0.0
 10
425.4326755126172
 20
286.7877307867857
 30
0.0
 10
425.5321401739524
 20
286.7658052514653
 30
0.0
 10
425.5649779105445
 20
286.7568437364264
 30
0.0
 10
425.6137471405083
 20
286.7408640805324
 30
0.0
 10
425.6299682470116
 20
286.7350953033922
 30
0.0
 10
425.6619721288523
 20
286.722798389567
 30
0.0
 10
425.6777533315488
 20
286.7162743604837
 30
0.0
 10
425.7555778848893
 20
286.6818158872218
 30
0.0
 10
425.814408291306
 20
286.6484193462063
 30
0.0
 10
425.8836879016612
 20
286.5994670485926
 30
0.0
 10
425.8973289512297
 20
286.5893129764296
 30
0.0
 10
425.9241740349909
 20
286.5682662423847
 30
0.0
 10
425.9373799616062
 20
286.5573679060191
 30
0.0
 10
425.9758983616261
 20
286.523934791737
 30
0.0
 10
426.0002687564511
 20
286.5005470275287
 30
0.0
 10
426.0695728136378
 20
286.4271985457613
 30
0.0
 10
426.1107348118164
 20
286.3740822316716
 30
0.0
 10
426.1647294049924
 20
286.2879741152632
 30
0.0
 10
426.1811595423053
 20
286.2586130125517
 30
0.0
 10
426.2109232509805
 20
286.1987859819267
 30
0.0
 10
426.2376211200018
 20
286.1378036509955
 30
0.0
 10
426.2582775312477
 20
286.0745581654222
 30
0.0
 10
426.2714749660956
 20
286.0262685962776
 30
0.0
 10
426.2754974766191
 20
286.009999227959
 30
0.0
 10
426.2827333285883
 20
285.9773075493906
 30
0.0
 10
426.2859345272388
 20
285.9609477897768
 30
0.0
 10
426.2999053966528
 20
285.879082313598
 30
0.0
 10
426.3046257512023
 20
285.8133795520214
 30
0.0
 10
426.3026428323833
 20
285.7310033483394
 30
0.0
 10
426.3018486208413
 20
285.7145155360259
 30
0.0
 10
426.2994556564207
 20
285.6815144095541
 30
0.0
 10
426.2978524424989
 20
285.6649661336222
 30
0.0
 10
426.2918449821174
 20
285.6155333252673
 30
0.0
 10
426.2862755968627
 20
285.5830403056893
 30
0.0
 10
426.2650314255451
 20
285.486896625335
 30
0.0
 10
426.2448629344405
 20
285.4245699139462
 30
0.0
 10
426.2054391151068
 20
285.3337447464366
 30
0.0
 10
426.1906865981531
 20
285.3038150394402
 30
0.0
 10
426.1586436694198
 20
285.2460509132435
 30
0.0
 10
426.1413068381023
 20
285.2180805379163
 30
0.0
 10
426.0854001156265
 20
285.1368539392147
 30
0.0
 10
426.0429749627526
 20
285.0862548864117
 30
0.0
 10
425.9830818087796
 20
285.0276721260159
 30
0.0
 10
425.970781234688
 20
285.0162184667571
 30
0.0
 10
425.9457573586315
 20
284.9940347449636
 30
0.0
 10
425.9074940863272
 20
284.9617574310201
 30
0.0
 10
425.8401306757071
 20
284.9128771738932
 30
0.0
 10
425.7823932250942
 20
284.8790118974015
 30
0.0
 10
425.737597614643
 20
284.8556363185167
 30
0.0
 10
425.7224165273347
 20
284.8481823225321
 30
0.0
 10
425.6915414862028
 20
284.8339681709573
 30
0.0
 10
425.6758348915988
 20
284.8272062686336
 30
0.0
 10
425.5969669580546
 20
284.7955581279663
 30
0.0
 10
425.5320709935144
 20
284.776732776859
 30
0.0
 10
425.4320302745816
 20
284.7581657050718
 30
0.0
 10
425.3982307641529
 20
284.7536001187982
 30
0.0
 10
425.3468227690491
 20
284.7492907331986
 30
0.0
 10
425.3296283814465
 20
284.748285768043
 30
0.0
 10
425.2954094067223
 20
284.7471439670083
 30
0.0
 10
425.2783420639201
 20
284.7470032976488
 30
0.0
 10
425.1932127453774
 20
284.7484170585445
 30
0.0
 10
425.1257670034548
 20
284.7562601337977
 30
0.0
 10
425.0422894340913
 20
284.7745481101297
 30
0.0
 10
425.0255869483924
 20
284.7786481188336
 30
0.0
 10
424.9925697322705
 20
284.7876363140566
 30
0.0
 10
424.9436115269417
 20
284.802298899626
 30
0.0
 10
424.8647695348591
 20
284.8324726143556
 30
0.0
 10
424.8045565003848
 20
284.8625867380522
 30
0.0
 10
424.7457769085445
 20
284.8957067459068
 30
0.0
 10
424.7169901517583
 20
284.9138647552745
 30
0.0
 10
424.6344839519953
 20
284.9717729091789
 30
0.0
 10
424.5840946337555
 20
285.0151325350986
 30
0.0
 10
424.5266480309183
 20
285.0751040649983
 30
0.0
 10
424.5154383439436
 20
285.0873896925948
 30
0.0
 10
424.4935829769861
 20
285.1125501750212
 30
0.0
 10
424.4829118666049
 20
285.1254588614287
 30
0.0
 10
424.4520170270542
 20
285.1647471733365
 30
0.0
 10
424.4328691601023
 20
285.1917186971693
 30
0.0
 10
424.3796097486546
 20
285.2749007310831
 30
0.0
 10
424.3496431302131
 20
285.3333578783622
 30
0.0
 10
424.3191960537412
 20
285.4102762133399
 30
0.0
 10
424.3134496883197
 20
285.4258893883539
 30
0.0
 10
424.3027745884078
 20
285.457216669632
 30
0.0
 10
424.287958209362
 20
285.5044314250313
 30
0.0
 10
424.2691159643777
 20
285.5842235622018
 30
0.0
 10
424.2602008586588
 20
285.6492244250749
 30
0.0
 10
424.2558584537056
 20
285.6984210766225
 30
0.0
 10
424.2548023172274
 20
285.7148944084054
 30
0.0
 10
424.2534869951442
 20
285.747992798372
 30
0.0
 10
424.2532286192459
 20
285.7646608206877
 30
0.0
 10
424.253970907099
 20
285.8478231351709
 30
0.0
 10
424.2609745473376
 20
285.9134389141754
 30
0.0
 10
424.2808896843486
 20
286.0105064749858
 30
0.0
 10
424.2891071480976
 20
286.0426345568305
 30
0.0
 10
424.3087993578058
 20
286.1064158434956
 30
0.0
 10
424.3203422445709
 20
286.1381955216149
 30
0.0
 10
424.3592323350489
 20
286.2307903101924
 30
0.0
 10
424.3909221119007
 20
286.2894575011034
 30
0.0
 10
424.4471075462053
 20
286.3728165906428
 30
0.0
 10
424.4672874292327
 20
286.3998241121101
 30
0.0
 10
424.5106771975749
 20
286.4522044153918
 30
0.0
 10
424.533580319716
 20
286.4771984293876
 30
0.0
 10
424.6055065006414
 20
286.5483364421043
 30
0.0
 10
424.6578451823033
 20
286.590829769559
 30
0.0
 10
424.7430869764438
 20
286.6469535995822
 30
0.0
 10
424.7727723143325
 20
286.6644403251338
 30
0.0
 10
424.8331554346616
 20
286.6960496499808
 30
0.0
 10
424.8947906532158
 20
286.7244875365257
 30
0.0
 10
424.9588842817401
 20
286.7466873431634
 30
0.0
 10
425.0078868084821
 20
286.760968055445
 30
0.0
 10
425.0243766527269
 20
286.7653327218059
 30
0.0
 10
425.0576730036473
 20
286.7732569094106
 30
0.0
 10
425.0745174788989
 20
286.7768231078068
 30
0.0
 10
425.1590598578927
 20
286.7925024267604
 30
0.0
 10
425.2273429898366
 20
286.7981909586582
 30
0.0
 10
425.2962249652843
 20
286.7969886193043
 30
0.0
  0
SPLINE
  5
1C7
330
1F
100
AcDbEntity
  8
1
100
AcDbSpline
210
0.0
220
0.0
230
1.0
 70
     8
 71
     3
 72
    10
 73
     6
 74
     0
 42
0.000000001
 43
0.0000000001
 40
0.0
 40
0.0
 40
0.0
 40
0.0
 40
0.5
 40
0.5
 40
1.0
 40
1.0
 40
1.0
 40
1.0
 10
296.1201811672153
 20
301.0987997261572
 30
0.0
 10
295.7131065732702
 20
301.1265138674153
 30
0.0
 10
295.3085876629212
 20
301.1541429917252
 30
0.0
 10
294.5035016004468
 20
301.2071523836383
 30
0.0
 10
294.1029294331075
 20
301.2325296194147
 30
0.0
 10
293.7038318185307
 20
301.2559470903219
 30
0.0
  0
LINE
  5
1E5
330
1F
100
AcDbEntity
  8
4
100
AcDbLine
 10
270.703832
 20
288.907994
 30
0.0
 11
433.727717
 21
288.907994
 31
0.0
  0
LINE
  5
1E6
330
1F
100
AcDbEntity
  8
SK4
100
AcDbLine
 10
210.904842
 20
288.907994
 30
0.0
 11
277.404842
 21
288.907994
 31
0.0
  0
MTEXT
  5
1EC
330
1F
100
AcDbEntity
  8
SK6
100
AcDbMText
 10
299.563793
 20
249.353545
 30
0.0
 40
3.5
 41
0.0
 71
     7
 72
     5
  1
\W0.7147;805D-26-130-S32
  7
cesky
 73
     2
 44
0.8433729999999998
  0
MTEXT
  5
2FD
330
1F
100
AcDbEntity
  8
2
100
AcDbMText
 10
348.827842
 20
329.044517
 30
0.0
 40
3.5
 41
0.0
 71
     7
 72
     5
  1
\W0.7809;155
  7
cesky
 73
     2
 44
0.8433729999999998
  0
LINE
  5
2FE
330
1F
100
AcDbEntity
  8
2
100
AcDbLine
 10
429.404842
 20
301.907994
 30
0.0
 11
429.404842
 21
330.17035
 31
0.0
  0
LINE
  5
2FF
330
1F
100
AcDbEntity
  8
2
100
AcDbLine
 10
274.404842
 20
289.907567
 30
0.0
 11
274.404842
 21
330.17035
 31
0.0
  0
LINE
  5
300
330
1F
100
AcDbEntity
  8
2
100
AcDbLine
 10
429.404842
 20
329.17035
 30
0.0
 11
274.404842
 21
329.17035
 31
0.0
  0
SOLID
  5
301
330
1F
100
AcDbEntity
  8
2
100
AcDbTrace
 10
429.404842
 20
329.17035
 30
0.0
 11
425.9048439999999
 21
328.553206
 31
0.0
 12
425.90484
 22
329.7874950000001
 32
0.0
 13
425.90484
 23
329.7874950000001
 33
0.0
  0
SOLID
  5
302
330
1F
100
AcDbEntity
  8
2
100
AcDbTrace
 10
274.404842
 20
329.17035
 30
0.0
 11
277.90484
 21
329.7874950000001
 31
0.0
 12
277.904844
 22
328.553206
 32
0.0
 13
277.904844
 23
328.553206
 33
0.0
  0
MTEXT
  5
303
330
1F
100
AcDbEntity
  8
2
100
AcDbMText
 10
318.827842
 20
343.029854
 30
0.0
 40
3.5
 41
0.0
 71
     7
 72
     5
  1
\W0.7809;215
  7
cesky
 73
     2
 44
0.8433729999999998
  0
LINE
  5
304
330
1F
100
AcDbEntity
  8
2
100
AcDbLine
 10
429.404842
 20
303.907994
 30
0.0
 11
429.404842
 21
344.155687
 31
0.0
  0
LINE
  5
305
330
1F
100
AcDbEntity
  8
2
100
AcDbLine
 10
214.404842
 20
302.907994
 30
0.0
 11
214.404842
 21
344.155687
 31
0.0
  0
LINE
  5
306
330
1F
100
AcDbEntity
  8
2
100
AcDbLine
 10
429.404842
 20
343.155687
 30
0.0
 11
214.404842
 21
343.155687
 31
0.0
  0
SOLID
  5
307
330
1F
100
AcDbEntity
  8
2
100
AcDbTrace
 10
429.404842
 20
343.155687
 30
0.0
 11
425.9048439999999
 21
342.538543
 31
0.0
 12
425.90484
 22
343.772832
 32
0.0
 13
425.90484
 23
343.772832
 33
0.0
  0
SOLID
  5
308
330
1F
100
AcDbEntity
  8
2
100
AcDbTrace
 10
214.404842
 20
343.155687
 30
0.0
 11
217.90484
 21
343.772832
 31
0.0
 12
217.904844
 22
342.538543
 32
0.0
 13
217.904844
 23
342.538543
 33
0.0
  0
MTEXT
  5
309
330
1F
100
AcDbEntity
  8
2
100
AcDbMText
 10
447.2773339999999
 20
284.830722
 30
0.0
 40
3.5
 41
0.0
 71
     7
 72
     5
  1
\W0.7259;26
  7
cesky
 11
0.0000000000000001
 21
1.0
 31
0.0
 73
     2
 44
0.8433729999999998
  0
MTEXT
  5
30A
330
1F
100
AcDbEntity
  8
2
100
AcDbMText
 10
447.2773339999999
 20
278.093222
 30
0.0
 40
3.5
 41
0.0
 71
     7
 72
     5
  1
\W3.0115;\H2.63;%%c\H3.50;
  7
cesky
 11
0.0000000000000001
 21
1.0
 31
0.0
 73
     2
 44
0.8433729999999998
  0
LINE
  5
30B
330
1F
100
AcDbEntity
  8
2
100
AcDbLine
 10
431.4048419999999
 20
301.907994
 30
0.0
 11
448.464751
 21
301.907994
 31
0.0
  0
LINE
  5
30C
330
1F
100
AcDbEntity
  8
2
100
AcDbLine
 10
447.4647509999999
 20
301.907994
 30
0.0
 11
447.4647509999999
 21
277.935722
 31
0.0
  0
SOLID
  5
30D
330
1F
100
AcDbEntity
  8
2
100
AcDbTrace
 10
447.4647509999999
 20
301.907994
 30
0.0
 11
448.081895
 21
298.407996
 31
0.0
 12
446.8476059999999
 22
298.4079910000001
 32
0.0
 13
446.8476059999999
 23
298.4079910000001
 33
0.0
  0
MTEXT
  5
30E
330
1F
100
AcDbEntity
  8
2
100
AcDbMText
 10
242.590342
 20
329.044517
 30
0.0
 40
3.5
 41
0.0
 71
     7
 72
     5
  1
\W0.7045;60
  7
cesky
 73
     2
 44
0.8433729999999998
  0
LINE
  5
30F
330
1F
100
AcDbEntity
  8
2
100
AcDbLine
 10
274.404842
 20
288.907994
 30
0.0
 11
274.404842
 21
330.17035
 31
0.0
  0
LINE
  5
310
330
1F
100
AcDbEntity
  8
2
100
AcDbLine
 10
214.404842
 20
302.907994
 30
0.0
 11
214.404842
 21
330.17035
 31
0.0
  0
LINE
  5
311
330
1F
100
AcDbEntity
  8
2
100
AcDbLine
 10
274.404842
 20
329.17035
 30
0.0
 11
214.404842
 21
329.17035
 31
0.0
  0
SOLID
  5
312
330
1F
100
AcDbEntity
  8
2
100
AcDbTrace
 10
274.404842
 20
329.17035
 30
0.0
 11
270.904844
 21
328.553206
 31
0.0
 12
270.90484
 22
329.7874950000001
 32
0.0
 13
270.90484
 23
329.7874950000001
 33
0.0
  0
SOLID
  5
313
330
1F
100
AcDbEntity
  8
2
100
AcDbTrace
 10
214.404842
 20
329.17035
 30
0.0
 11
217.90484
 21
329.7874950000001
 31
0.0
 12
217.904844
 22
328.553206
 32
0.0
 13
217.904844
 23
328.553206
 33
0.0
  0
MTEXT
  5
314
330
1F
100
AcDbEntity
  8
2
100
AcDbMText
 10
356.074258
 20
314.470071
 30
0.0
 40
3.5
 41
0.0
 71
     7
 72
     5
  1
\W0.8654;135,5
  7
cesky
 73
     2
 44
0.8433729999999998
  0
LINE
  5
315
330
1F
100
AcDbEntity
  8
2
100
AcDbLine
 10
429.404842
 20
303.907994
 30
0.0
 11
429.404842
 21
315.595905
 31
0.0
  0
LINE
  5
316
330
1F
100
AcDbEntity
  8
2
100
AcDbLine
 10
293.947675
 20
301.733998
 30
0.0
 11
293.947675
 21
315.595905
 31
0.0
  0
LINE
  5
317
330
1F
100
AcDbEntity
  8
2
100
AcDbLine
 10
429.404842
 20
314.595905
 30
0.0
 11
293.947675
 21
314.595905
 31
0.0
  0
SOLID
  5
318
330
1F
100
AcDbEntity
  8
2
100
AcDbTrace
 10
429.404842
 20
314.595905
 30
0.0
 11
425.9048439999999
 21
313.97876
 31
0.0
 12
425.90484
 22
315.213049
 32
0.0
 13
425.90484
 23
315.213049
 33
0.0
  0
SOLID
  5
319
330
1F
100
AcDbEntity
  8
2
100
AcDbTrace
 10
293.947675
 20
314.595905
 30
0.0
 11
297.447673
 21
315.213049
 31
0.0
 12
297.447677
 22
313.97876
 32
0.0
 13
297.447677
 23
313.97876
 33
0.0
  0
MTEXT
  5
31A
330
1F
100
AcDbEntity
  8
SK2
100
AcDbMText
 10
205.348435
 20
290.434244
 30
0.0
 40
3.5
 41
0.0
 71
     7
 72
     5
  1
\W0.7045;32
  7
cesky
 11
0.0000000000000001
 21
1.0
 31
0.0
 73
     2
 44
0.8433729999999998
  0
MTEXT
  5
31B
330
1F
100
AcDbEntity
  8
SK2
100
AcDbMText
 10
205.348435
 20
283.696744
 30
0.0
 40
3.5
 41
0.0
 71
     7
 72
     5
  1
\W3.0115;\H2.63;%%c\H3.50;
  7
cesky
 11
0.0000000000000001
 21
1.0
 31
0.0
 73
     2
 44
0.8433729999999998
  0
LINE
  5
31C
330
1F
100
AcDbEntity
  8
SK2
100
AcDbLine
 10
216.404842
 20
304.907994
 30
0.0
 11
204.535852
 21
304.907994
 31
0.0
  0
LINE
  5
31D
330
1F
100
AcDbEntity
  8
SK2
100
AcDbLine
 10
216.404842
 20
272.907994
 30
0.0
 11
204.535852
 21
272.907994
 31
0.0
  0
LINE
  5
31E
330
1F
100
AcDbEntity
  8
SK2
100
AcDbLine
 10
205.535852
 20
304.907994
 30
0.0
 11
205.535852
 21
272.907994
 31
0.0
  0
SOLID
  5
31F
330
1F
100
AcDbEntity
  8
SK2
100
AcDbTrace
 10
205.535852
 20
304.907994
 30
0.0
 11
206.152996
 21
301.407996
 31
0.0
 12
204.918707
 22
301.407991
 32
0.0
 13
204.918707
 23
301.407991
 33
0.0
  0
SOLID
  5
320
330
1F
100
AcDbEntity
  8
SK2
100
AcDbTrace
 10
205.535852
 20
272.907994
 30
0.0
 11
204.918707
 21
276.407991
 31
0.0
 12
206.152996
 22
276.407996
 32
0.0
 13
206.152996
 23
276.407996
 33
0.0
  0
MTEXT
  5
321
330
1F
100
AcDbEntity
  8
SK2
100
AcDbMText
 10
189.956072
 20
290.434244
 30
0.0
 40
3.5
 41
0.0
 71
     7
 72
     5
  1
\W0.7045;42
  7
cesky
 11
0.0000000000000001
 21
1.0
 31
0.0
 73
     2
 44
0.8433729999999998
  0
MTEXT
  5
322
330
1F
100
AcDbEntity
  8
SK2
100
AcDbMText
 10
189.956072
 20
283.696744
 30
0.0
 40
3.5
 41
0.0
 71
     7
 72
     5
  1
\W3.0115;\H2.63;%%c\H3.50;
  7
cesky
 11
0.0000000000000001
 21
1.0
 31
0.0
 73
     2
 44
0.8433729999999998
  0
LINE
  5
323
330
1F
100
AcDbEntity
  8
SK2
100
AcDbLine
 10
274.904842
 20
309.907994
 30
0.0
 11
189.143489
 21
309.907994
 31
0.0
  0
LINE
  5
324
330
1F
100
AcDbEntity
  8
SK2
100
AcDbLine
 10
274.904842
 20
267.907994
 30
0.0
 11
189.143489
 21
267.907994
 31
0.0
  0
LINE
  5
325
330
1F
100
AcDbEntity
  8
SK2
100
AcDbLine
 10
190.143489
 20
309.907994
 30
0.0
 11
190.143489
 21
267.907994
 31
0.0
  0
SOLID
  5
326
330
1F
100
AcDbEntity
  8
SK2
100
AcDbTrace
 10
190.143489
 20
309.907994
 30
0.0
 11
190.760634
 21
306.407996
 31
0.0
 12
189.526345
 22
306.407991
 32
0.0
 13
189.526345
 23
306.407991
 33
0.0
  0
SOLID
  5
327
330
1F
100
AcDbEntity
  8
SK2
100
AcDbTrace
 10
190.143489
 20
267.907994
 30
0.0
 11
189.526345
 21
271.4079910000001
 31
0.0
 12
190.760634
 22
271.407996
 32
0.0
 13
190.760634
 23
271.407996
 33
0.0
  0
LINE
  5
328
330
1F
100
AcDbEntity
  8
CUT
100
AcDbLine
 10
429.323222053761
 20
294.5790593854285
 30
0.0
 11
429.4048419452957
 21
289.907193789091
 31
0.0
  0
LINE
  5
329
330
1F
100
AcDbEntity
  8
CUT
100
AcDbLine
 10
429.0050560570812
 20
295.1085012266844
 30
0.0
 11
429.323222053761
 21
294.5790593854285
 31
0.0
  0
LINE
  5
32A
330
1F
100
AcDbEntity
  8
CUT
100
AcDbLine
 10
421.5386191380928
 20
301.612676626795
 30
0.0
 11
427.9314875621088
 21
301.9046256081025
 31
0.0
  0
LINE
  5
32B
330
1F
100
AcDbEntity
  8
CUT
100
AcDbLine
 10
428.7331994338452
 20
301.1744633361232
 30
0.0
 11
429.0050560570812
 21
295.1085012266844
 31
0.0
  0
LINE
  5
32E
330
1F
100
AcDbEntity
  8
CUT
100
AcDbLine
 10
429.404842
 20
289.907194
 30
0.0
 11
429.404842
 21
288.907994
 31
0.0
  0
LINE
  5
32F
330
1F
100
AcDbEntity
  8
CUT
100
AcDbLine
 10
429.404842
 20
288.907994
 30
0.0
 11
420.805262
 21
288.907994
 31
0.0
  0
LINE
  5
330
330
1F
100
AcDbEntity
  8
CUT
100
AcDbLine
 10
420.805262
 20
288.907994
 30
0.0
 11
420.805262
 21
300.811899
 31
0.0
  0
ARC
  5
331
330
1F
100
AcDbEntity
  8
CUT
100
AcDbCircle
 10
427.9572414738677
 20
301.1267114386259
 30
0.0
 40
0.7783403619518793
100
AcDbArc
 50
9.036820987798314
 51
91.89616253821052
  0
ARC
  5
332
330
1F
100
AcDbEntity
  8
CUT
100
AcDbCircle
 10
428.0203816075403
 20
301.1424284076424
 30
0.0
 40
0.7135373081631579
100
AcDbArc
 50
2.573212845485364
 51
8.586783711318945
  0
ARC
  5
333
330
1F
100
AcDbEntity
  8
CUT
100
AcDbCircle
 10
421.5846935592548
 20
300.8348535733159
 30
0.0
 40
0.7797696327023615
100
AcDbArc
 50
97.52261676467279
 51
181.686882343287
  0
ARC
  5
334
330
1F
100
AcDbEntity
  8
CUT
100
AcDbCircle
 10
421.5713723774994
 20
300.8960477214794
 30
0.0
 40
0.7173770017399728
100
AcDbArc
 50
92.61685972461455
 51
97.1076852407234
  0
ENDSEC
  0
SECTION
  2
OBJECTS
  0
DICTIONARY
  5
C
330
0
100
AcDbDictionary
281
     1
  3
ACAD_CIP_PREVIOUS_PRODUCT_INFO
350
2FA
  3
ACAD_COLOR
350
2F5
  3
ACAD_DETAILVIEWSTYLE
350
2F1
  3
ACAD_GROUP
350
D
  3
ACAD_LAYOUT
350
1A
  3
ACAD_MATERIAL
350
43
  3
ACAD_MLEADERSTYLE
350
6B
  3
ACAD_MLINESTYLE
350
17
  3
ACAD_PLOTSETTINGS
350
19
  3
ACAD_PLOTSTYLENAME
350
E
  3
ACAD_SCALELIST
350
47
  3
ACAD_SECTIONVIEWSTYLE
350
2F2
  3
ACAD_TABLESTYLE
350
69
  3
ACAD_VISUALSTYLE
350
2A
  3
ACDB_RECOMPOSE_DATA
350
360
  3
AcDbVariableDictionary
350
2AE
  0
DICTIONARY
  5
343
330
10
100
AcDbDictionary
280
     1
281
     1
  3
ADSK_XREC_LAYER_RECONCILED
360
344
  0
DICTIONARY
  5
345
330
335
100
AcDbDictionary
280
     1
281
     1
  3
ADSK_XREC_LAYER_RECONCILED
360
346
  0
DICTIONARY
  5
347
330
336
100
AcDbDictionary
280
     1
281
     1
  3
ADSK_XREC_LAYER_RECONCILED
360
348
  0
DICTIONARY
  5
349
330
337
100
AcDbDictionary
280
     1
281
     1
  3
ADSK_XREC_LAYER_RECONCILED
360
34A
  0
DICTIONARY
  5
34B
330
339
100
AcDbDictionary
280
     1
281
     1
  3
ADSK_XREC_LAYER_RECONCILED
360
34C
  0
DICTIONARY
  5
34D
330
33A
100
AcDbDictionary
280
     1
281
     1
  3
ADSK_XREC_LAYER_RECONCILED
360
34E
  0
DICTIONARY
  5
34F
330
33C
100
AcDbDictionary
280
     1
281
     1
  3
ADSK_XREC_LAYER_RECONCILED
360
350
  0
DICTIONARY
  5
351
330
33D
100
AcDbDictionary
280
     1
281
     1
  3
ADSK_XREC_LAYER_RECONCILED
360
352
  0
DICTIONARY
  5
353
330
33E
100
AcDbDictionary
280
     1
281
     1
  3
ADSK_XREC_LAYER_RECONCILED
360
354
  0
DICTIONARY
  5
355
330
33F
100
AcDbDictionary
280
     1
281
     1
  3
ADSK_XREC_LAYER_RECONCILED
360
356
  0
DICTIONARY
  5
357
330
340
100
AcDbDictionary
280
     1
281
     1
  3
ADSK_XREC_LAYER_RECONCILED
360
358
  0
DICTIONARY
  5
359
330
341
100
AcDbDictionary
280
     1
281
     1
  3
ADSK_XREC_LAYER_RECONCILED
360
35A
  0
DICTIONARY
  5
2FB
330
1F
100
AcDbDictionary
280
     1
281
     1
  3
ACAD_SORTENTS
360
2FC
  0
XRECORD
  5
2FA
102
{ACAD_REACTORS
330
C
102
}
330
C
100
AcDbXrecord
280
     1
300
ACD
300
2019
300
87084ACD_2019_0F
  0
DICTIONARY
  5
2F5
102
{ACAD_REACTORS
330
C
102
}
330
C
100
AcDbDictionary
281
     1
  0
DICTIONARY
  5
2F1
102
{ACAD_REACTORS
330
C
102
}
330
C
100
AcDbDictionary
281
     1
  3
Metric50
350
2F7
  0
DICTIONARY
  5
D
102
{ACAD_REACTORS
330
C
102
}
330
C
100
AcDbDictionary
281
     1
  3
NULOVY_BOD
350
342
  0
DICTIONARY
  5
1A
102
{ACAD_REACTORS
330
C
102
}
330
C
100
AcDbDictionary
281
     1
  3
Layout1
350
1E
  3
Layout2
350
26
  3
Model
350
22
  0
DICTIONARY
  5
43
102
{ACAD_REACTORS
330
C
102
}
330
C
100
AcDbDictionary
281
     1
  3
ByBlock
350
45
  3
ByLayer
350
44
  3
Global
350
46
  0
DICTIONARY
  5
6B
102
{ACAD_REACTORS
330
C
102
}
330
C
100
AcDbDictionary
281
     1
  3
Standard
350
6C
  0
DICTIONARY
  5
17
102
{ACAD_REACTORS
330
C
102
}
330
C
100
AcDbDictionary
281
     1
  3
Standard
350
18
  0
DICTIONARY
  5
19
102
{ACAD_REACTORS
330
C
102
}
330
C
100
AcDbDictionary
281
     1
  0
ACDBDICTIONARYWDFLT
  5
E
102
{ACAD_REACTORS
330
C
102
}
330
C
100
AcDbDictionary
281
     1
  3
Normal
350
F
100
AcDbDictionaryWithDefault
340
F
  0
DICTIONARY
  5
47
102
{ACAD_REACTORS
330
C
102
}
330
C
100
AcDbDictionary
281
     1
  3
A0
350
48
  3
A1
350
49
  3
A2
350
4A
  3
A3
350
4B
  3
A4
350
4C
  3
A5
350
4D
  3
A6
350
4E
  3
A7
350
4F
  3
A8
350
50
  3
A9
350
51
  3
B0
350
52
  3
B1
350
53
  3
B2
350
54
  3
B3
350
55
  3
B4
350
56
  3
B5
350
57
  3
B6
350
58
  3
B7
350
59
  3
B8
350
5A
  3
B9
350
5B
  3
C0
350
5C
  3
C1
350
5D
  3
C2
350
5E
  3
C3
350
5F
  3
C4
350
60
  3
C5
350
61
  3
C6
350
62
  3
C7
350
63
  3
C8
350
64
  3
C9
350
65
  3
D0
350
66
  3
D1
350
67
  3
D2
350
68
  0
DICTIONARY
  5
2F2
102
{ACAD_REACTORS
330
C
102
}
330
C
100
AcDbDictionary
281
     1
  3
Metric50
350
2F6
  0
DICTIONARY
  5
69
102
{ACAD_REACTORS
330
C
102
}
330
C
100
AcDbDictionary
281
     1
  3
Standard
350
6A
  0
DICTIONARY
  5
2A
102
{ACAD_REACTORS
330
C
102
}
330
C
100
AcDbDictionary
281
     1
  3
2dWireframe
350
2F
  3
Basic
350
32
  3
Brighten
350
36
  3
ColorChange
350
3A
  3
Conceptual
350
34
  3
Dim
350
35
  3
EdgeColorOff
350
3D
  3
Facepattern
350
39
  3
Flat
350
2B
  3
FlatWithEdges
350
2C
  3
Gouraud
350
2D
  3
GouraudWithEdges
350
2E
  3
Hidden
350
31
  3
JitterOff
350
3B
  3
Linepattern
350
38
  3
OverhangOff
350
3C
  3
Realistic
350
33
  3
Shaded
350
42
  3
Shaded with edges
350
41
  3
Shades of Gray
350
3E
  3
Sketchy
350
3F
  3
Thicken
350
37
  3
Wireframe
350
30
  3
X-Ray
350
40
  0
XRECORD
  5
360
102
{ACAD_REACTORS
330
C
102
}
330
C
100
AcDbXrecord
280
     1
 90
        1
330
6A
  0
DICTIONARY
  5
2AE
102
{ACAD_REACTORS
330
C
102
}
330
C
100
AcDbDictionary
281
     1
  3
CANNOSCALE
350
2AF
  3
CMLEADERSTYLE
350
2F0
  3
CTABLESTYLE
350
2EF
  3
CVIEWDETAILSTYLE
350
35B
  3
CVIEWSECTIONSTYLE
350
35C
  3
MSLTSCALE
350
2B0
  3
XCLIPFRAME
350
35D
  0
XRECORD
  5
344
102
{ACAD_REACTORS
330
343
102
}
330
343
100
AcDbXrecord
280
     1
290
     1
  0
XRECORD
  5
346
102
{ACAD_REACTORS
330
345
102
}
330
345
100
AcDbXrecord
280
     1
290
     1
  0
XRECORD
  5
348
102
{ACAD_REACTORS
330
347
102
}
330
347
100
AcDbXrecord
280
     1
290
     1
  0
XRECORD
  5
34A
102
{ACAD_REACTORS
330
349
102
}
330
349
100
AcDbXrecord
280
     1
290
     1
  0
XRECORD
  5
34C
102
{ACAD_REACTORS
330
34B
102
}
330
34B
100
AcDbXrecord
280
     1
290
     1
  0
XRECORD
  5
34E
102
{ACAD_REACTORS
330
34D
102
}
330
34D
100
AcDbXrecord
280
     1
290
     1
  0
XRECORD
  5
350
102
{ACAD_REACTORS
330
34F
102
}
330
34F
100
AcDbXrecord
280
     1
290
     1
  0
XRECORD
  5
352
102
{ACAD_REACTORS
330
351
102
}
330
351
100
AcDbXrecord
280
     1
290
     1
  0
XRECORD
  5
354
102
{ACAD_REACTORS
330
353
102
}
330
353
100
AcDbXrecord
280
     1
290
     1
  0
XRECORD
  5
356
102
{ACAD_REACTORS
330
355
102
}
330
355
100
AcDbXrecord
280
     1
290
     1
  0
XRECORD
  5
358
102
{ACAD_REACTORS
330
357
102
}
330
357
100
AcDbXrecord
280
     1
290
     1
  0
XRECORD
  5
35A
102
{ACAD_REACTORS
330
359
102
}
330
359
100
AcDbXrecord
280
     1
290
     1
  0
SORTENTSTABLE
  5
2FC
102
{ACAD_REACTORS
330
2FB
102
}
330
2FB
100
AcDbSortentsTable
330
1F
331
2FD
  5
238
331
2FE
  5
251
331
2FF
  5
2FD
331
300
  5
2FE
331
301
  5
2FF
331
302
  5
300
331
303
  5
301
331
304
  5
302
331
305
  5
303
331
306
  5
304
331
307
  5
305
331
308
  5
306
331
309
  5
307
331
30A
  5
308
331
30B
  5
309
331
30C
  5
30A
331
30D
  5
30B
331
30E
  5
31C
331
30F
  5
31D
331
310
  5
31E
331
311
  5
31F
331
312
  5
320
331
313
  5
321
331
314
  5
322
331
315
  5
323
331
316
  5
324
331
317
  5
325
331
318
  5
326
331
319
  5
327
331
31A
  5
30E
331
31B
  5
30F
331
31C
  5
310
331
31D
  5
311
331
31E
  5
312
331
31F
  5
313
331
320
  5
314
331
321
  5
315
331
322
  5
316
331
323
  5
317
331
324
  5
318
331
325
  5
319
331
326
  5
31A
331
327
  5
31B
331
32E
  5
332
331
32F
  5
333
331
330
  5
334
331
331
  5
32E
331
332
  5
32F
331
333
  5
330
331
334
  5
331
  0
ACDBDETAILVIEWSTYLE
  5
2F7
102
{ACAD_XDICTIONARY
360
394
102
}
102
{ACAD_REACTORS
330
2F1
102
}
330
2F1
100
AcDbModelDocViewStyle
 70
     0
  3
Metric50
290
     0
100
AcDbDetailViewStyle
 70
     0
 71
     0
 90
        3
 71
     1
340
11
 62
   256
 40
5.0
340
0
 62
   256
 40
5.0
300

 40
0.0
280
     1
 71
     2
340
16
 90
       25
 62
   256
 71
     3
340
11
 62
   256
 40
5.0
 90
        0
 40
15.0
 90
        1
300
%<\AcVar ViewDetailId>% (%<\AcVar ViewScale \f "%sn">%)
 71
     4
340
16
 90
       25
 62
   256
340
16
 90
       25
 62
   256
280
     0
  0
GROUP
  5
342
102
{ACAD_REACTORS
330
D
102
}
330
D
100
AcDbGroup
300

 70
     0
 71
     1
340
73
  0
LAYOUT
  5
1E
102
{ACAD_REACTORS
330
1A
102
}
330
1A
100
AcDbPlotSettings
  1

  2
none_device
  4

  6

 40
0.0
 41
0.0
 42
0.0
 43
0.0
 44
0.0
 45
0.0
 46
0.0
 47
0.0
 48
0.0
 49
0.0
140
0.0
141
0.0
142
1.0
143
1.0
 70
   688
 72
     0
 73
     0
 74
     5
  7

 75
    16
147
1.0
 76
     0
 77
     2
 78
   300
148
0.0
149
0.0
100
AcDbLayout
  1
Layout1
 70
     1
 71
     1
 10
-0.5
 20
-0.5
 11
5.0
 21
5.0
 12
0.0
 22
0.0
 32
0.0
 14
-0.5
 24
-0.5
 34
-0.5
 15
5.0
 25
5.0
 35
5.0
146
0.0
 13
0.0
 23
0.0
 33
0.0
 16
1.0
 26
0.0
 36
0.0
 17
0.0
 27
1.0
 37
0.0
 76
     0
330
1B
  0
LAYOUT
  5
26
102
{ACAD_REACTORS
330
1A
102
}
330
1A
100
AcDbPlotSettings
  1

  2
none_device
  4

  6

 40
0.0
 41
0.0
 42
0.0
 43
0.0
 44
0.0
 45
0.0
 46
0.0
 47
0.0
 48
0.0
 49
0.0
140
0.0
141
0.0
142
1.0
143
1.0
 70
   688
 72
     0
 73
     0
 74
     5
  7

 75
    16
147
1.0
 76
     0
 77
     2
 78
   300
148
0.0
149
0.0
100
AcDbLayout
  1
Layout2
 70
     1
 71
     2
 10
0.0
 20
0.0
 11
0.0
 21
0.0
 12
0.0
 22
0.0
 32
0.0
 14
0.0
 24
0.0
 34
0.0
 15
0.0
 25
0.0
 35
0.0
146
0.0
 13
0.0
 23
0.0
 33
0.0
 16
1.0
 26
0.0
 36
0.0
 17
0.0
 27
1.0
 37
0.0
 76
     0
330
23
  0
LAYOUT
  5
22
102
{ACAD_REACTORS
330
1A
102
}
330
1A
100
AcDbPlotSettings
  1

  2
none_device
  4
Letter_(8.50_x_11.00_Inches)
  6

 40
6.349999999999999
 41
6.349999999999999
 42
6.350005
 43
6.350005
 44
215.9
 45
279.4
 46
0.0
 47
0.0
 48
0.0
 49
0.0
140
0.0
141
0.0
142
1.0
143
1.0
 70
  1712
 72
     0
 73
     0
 74
     0
  7

 75
     0
147
1.0
 76
     0
 77
     2
 78
   300
148
0.0
149
0.0
100
AcDbLayout
  1
Model
 70
     1
 71
     0
 10
-0.5
 20
-0.5
 11
5.0
 21
5.0
 12
0.0
 22
0.0
 32
0.0
 14
-0.5
 24
-0.5
 34
-0.5
 15
5.0
 25
5.0
 35
5.0
146
0.0
 13
0.0
 23
0.0
 33
0.0
 16
1.0
 26
0.0
 36
0.0
 17
0.0
 27
1.0
 37
0.0
 76
     0
330
1F
331
29
  0
MATERIAL
  5
45
102
{ACAD_XDICTIONARY
360
2E4
102
}
102
{ACAD_REACTORS
330
43
102
}
330
43
100
AcDbMaterial
  1
ByBlock
  0
MATERIAL
  5
44
102
{ACAD_XDICTIONARY
360
2E2
102
}
102
{ACAD_REACTORS
330
43
102
}
330
43
100
AcDbMaterial
  1
ByLayer
  0
MATERIAL
  5
46
102
{ACAD_XDICTIONARY
360
2E6
102
}
102
{ACAD_REACTORS
330
43
102
}
330
43
100
AcDbMaterial
  1
Global
  0
MLEADERSTYLE
  5
6C
102
{ACAD_REACTORS
330
6B
102
}
330
6B
100
AcDbMLeaderStyle
170
     2
171
     1
172
     0
 90
        2
 40
0.0
 41
0.0
173
     1
 91
-1056964608
340
14
 92
       -2
290
     1
 42
0.09
291
     1
 43
0.36
  3
Standard
 44
0.18
300

342
11
174
     1
178
     6
175
     1
176
     0
 93
-1056964608
 45
0.18
292
     0
297
     0
 46
0.18
 94
-1056964608
 47
1.0
 49
1.0
140
1.0
293
     1
141
0.0
294
     1
177
     0
142
1.0
295
     0
296
     0
143
0.125
1001
ACAD_MLEADERVER
1070
     2
  0
MLINESTYLE
  5
18
102
{ACAD_REACTORS
330
17
102
}
330
17
100
AcDbMlineStyle
  2
STANDARD
 70
     0
  3

 62
   256
 51
90.0
 52
90.0
 71
     2
 49
0.5
 62
   256
  6
BYLAYER
 49
-0.5
 62
   256
  6
BYLAYER
  0
ACDBPLACEHOLDER
  5
F
102
{ACAD_REACTORS
330
E
102
}
330
E
  0
SCALE
  5
48
102
{ACAD_REACTORS
330
47
102
}
330
47
100
AcDbScale
 70
     0
300
1:1
140
1.0
141
1.0
290
     1
  0
SCALE
  5
49
102
{ACAD_REACTORS
330
47
102
}
330
47
100
AcDbScale
 70
     0
300
1:2
140
1.0
141
2.0
290
     0
  0
SCALE
  5
4A
102
{ACAD_REACTORS
330
47
102
}
330
47
100
AcDbScale
 70
     0
300
1:4
140
1.0
141
4.0
290
     0
  0
SCALE
  5
4B
102
{ACAD_REACTORS
330
47
102
}
330
47
100
AcDbScale
 70
     0
300
1:5
140
1.0
141
5.0
290
     0
  0
SCALE
  5
4C
102
{ACAD_REACTORS
330
47
102
}
330
47
100
AcDbScale
 70
     0
300
1:8
140
1.0
141
8.0
290
     0
  0
SCALE
  5
4D
102
{ACAD_REACTORS
330
47
102
}
330
47
100
AcDbScale
 70
     0
300
1:10
140
1.0
141
10.0
290
     0
  0
SCALE
  5
4E
102
{ACAD_REACTORS
330
47
102
}
330
47
100
AcDbScale
 70
     0
300
1:16
140
1.0
141
16.0
290
     0
  0
SCALE
  5
4F
102
{ACAD_REACTORS
330
47
102
}
330
47
100
AcDbScale
 70
     0
300
1:20
140
1.0
141
20.0
290
     0
  0
SCALE
  5
50
102
{ACAD_REACTORS
330
47
102
}
330
47
100
AcDbScale
 70
     0
300
1:30
140
1.0
141
30.0
290
     0
  0
SCALE
  5
51
102
{ACAD_REACTORS
330
47
102
}
330
47
100
AcDbScale
 70
     0
300
1:40
140
1.0
141
40.0
290
     0
  0
SCALE
  5
52
102
{ACAD_REACTORS
330
47
102
}
330
47
100
AcDbScale
 70
     0
300
1:50
140
1.0
141
50.0
290
     0
  0
SCALE
  5
53
102
{ACAD_REACTORS
330
47
102
}
330
47
100
AcDbScale
 70
     0
300
1:100
140
1.0
141
100.0
290
     0
  0
SCALE
  5
54
102
{ACAD_REACTORS
330
47
102
}
330
47
100
AcDbScale
 70
     0
300
2:1
140
2.0
141
1.0
290
     0
  0
SCALE
  5
55
102
{ACAD_REACTORS
330
47
102
}
330
47
100
AcDbScale
 70
     0
300
4:1
140
4.0
141
1.0
290
     0
  0
SCALE
  5
56
102
{ACAD_REACTORS
330
47
102
}
330
47
100
AcDbScale
 70
     0
300
8:1
140
8.0
141
1.0
290
     0
  0
SCALE
  5
57
102
{ACAD_REACTORS
330
47
102
}
330
47
100
AcDbScale
 70
     0
300
10:1
140
10.0
141
1.0
290
     0
  0
SCALE
  5
58
102
{ACAD_REACTORS
330
47
102
}
330
47
100
AcDbScale
 70
     0
300
100:1
140
100.0
141
1.0
290
     0
  0
SCALE
  5
59
102
{ACAD_REACTORS
330
47
102
}
330
47
100
AcDbScale
 70
     0
300
1/128" = 1'-0"
140
0.007812
141
12.0
290
     0
  0
SCALE
  5
5A
102
{ACAD_REACTORS
330
47
102
}
330
47
100
AcDbScale
 70
     0
300
1/64" = 1'-0"
140
0.015625
141
12.0
290
     0
  0
SCALE
  5
5B
102
{ACAD_REACTORS
330
47
102
}
330
47
100
AcDbScale
 70
     0
300
1/32" = 1'-0"
140
0.03125
141
12.0
290
     0
  0
SCALE
  5
5C
102
{ACAD_REACTORS
330
47
102
}
330
47
100
AcDbScale
 70
     0
300
1/16" = 1'-0"
140
0.0625
141
12.0
290
     0
  0
SCALE
  5
5D
102
{ACAD_REACTORS
330
47
102
}
330
47
100
AcDbScale
 70
     0
300
3/32" = 1'-0"
140
0.09375
141
12.0
290
     0
  0
SCALE
  5
5E
102
{ACAD_REACTORS
330
47
102
}
330
47
100
AcDbScale
 70
     0
300
1/8" = 1'-0"
140
0.125
141
12.0
290
     0
  0
SCALE
  5
5F
102
{ACAD_REACTORS
330
47
102
}
330
47
100
AcDbScale
 70
     0
300
3/16" = 1'-0"
140
0.1875
141
12.0
290
     0
  0
SCALE
  5
60
102
{ACAD_REACTORS
330
47
102
}
330
47
100
AcDbScale
 70
     0
300
1/4" = 1'-0"
140
0.25
141
12.0
290
     0
  0
SCALE
  5
61
102
{ACAD_REACTORS
330
47
102
}
330
47
100
AcDbScale
 70
     0
300
3/8" = 1'-0"
140
0.375
141
12.0
290
     0
  0
SCALE
  5
62
102
{ACAD_REACTORS
330
47
102
}
330
47
100
AcDbScale
 70
     0
300
1/2" = 1'-0"
140
0.5
141
12.0
290
     0
  0
SCALE
  5
63
102
{ACAD_REACTORS
330
47
102
}
330
47
100
AcDbScale
 70
     0
300
3/4" = 1'-0"
140
0.75
141
12.0
290
     0
  0
SCALE
  5
64
102
{ACAD_REACTORS
330
47
102
}
330
47
100
AcDbScale
 70
     0
300
1" = 1'-0"
140
1.0
141
12.0
290
     0
  0
SCALE
  5
65
102
{ACAD_REACTORS
330
47
102
}
330
47
100
AcDbScale
 70
     0
300
1-1/2" = 1'-0"
140
1.5
141
12.0
290
     0
  0
SCALE
  5
66
102
{ACAD_REACTORS
330
47
102
}
330
47
100
AcDbScale
 70
     0
300
3" = 1'-0"
140
3.0
141
12.0
290
     0
  0
SCALE
  5
67
102
{ACAD_REACTORS
330
47
102
}
330
47
100
AcDbScale
 70
     0
300
6" = 1'-0"
140
6.0
141
12.0
290
     0
  0
SCALE
  5
68
102
{ACAD_REACTORS
330
47
102
}
330
47
100
AcDbScale
 70
     0
300
1'-0" = 1'-0"
140
12.0
141
12.0
290
     0
  0
ACDBSECTIONVIEWSTYLE
  5
2F6
102
{ACAD_XDICTIONARY
360
392
102
}
102
{ACAD_REACTORS
330
2F2
102
}
330
2F2
100
AcDbModelDocViewStyle
 70
     0
  3
Metric50
290
     0
100
AcDbSectionViewStyle
 70
     0
 71
     0
 90
      102
 71
     1
340
11
 62
   256
 40
5.0
340
0
340
0
 62
   256
 40
5.0
300
I, O, Q, S, X, Z
 40
10.0
 90
        0
 40
2.5
 90
        0
 71
     2
340
16
 90
       25
 62
   256
340
16
 90
       50
 62
   256
 40
5.0
 40
2.5
 40
5.0
 71
     3
340
11
 62
   256
 40
5.0
 90
        0
 40
15.0
 90
        1
300
%<\AcVar ViewSectionStartId>%-%<\AcVar ViewSectionEndId>% (%<\AcVar ViewScale \f "%sn">%)
 71
     4
 62
   256
 62
   257
300
ANSI31
 40
1.0
 90
        0
290
     0
290
     0
 90
        6
 40
0.0
 40
1.570796326794896
 40
0.2617993877991494
 40
1.308996938995747
 40
-0.2617993877991494
 40
1.832595714594046
  0
TABLESTYLE
  5
6A
102
{ACAD_XDICTIONARY
360
2E8
102
}
102
{ACAD_REACTORS
330
69
102
}
330
69
100
AcDbTableStyle
  3
Standard
 70
     0
 71
     0
 40
0.06
 41
0.06
280
     0
281
     0
  7
Standard
140
0.18
170
     2
 62
     0
 63
     7
283
     0
274
    -2
284
     1
 64
     0
275
    -2
285
     1
 65
     0
276
    -2
286
     1
 66
     0
277
    -2
287
     1
 67
     0
278
    -2
288
     1
 68
     0
279
    -2
289
     1
 69
     0
  7
Standard
140
0.25
170
     5
 62
     0
 63
     7
283
     0
274
    -2
284
     1
 64
     0
275
    -2
285
     1
 65
     0
276
    -2
286
     1
 66
     0
277
    -2
287
     1
 67
     0
278
    -2
288
     1
 68
     0
279
    -2
289
     1
 69
     0
  7
Standard
140
0.18
170
     5
 62
     0
 63
     7
283
     0
274
    -2
284
     1
 64
     0
275
    -2
285
     1
 65
     0
276
    -2
286
     1
 66
     0
277
    -2
287
     1
 67
     0
278
    -2
288
     1
 68
     0
279
    -2
289
     1
 69
     0
  0
VISUALSTYLE
  5
2F
102
{ACAD_XDICTIONARY
360
369
102
}
102
{ACAD_REACTORS
330
2A
102
}
330
2A
100
AcDbVisualStyle
  2

 70
     4
 71
     0
 72
     2
 73
     0
 90
        0
 40
-0.6
 41
-30.0
 62
     5
 63
     7
421
 16777215
 74
     1
 91
        4
 64
     7
 65
   257
 75
     1
175
     1
 42
1.0
 92
        0
 66
   257
 43
1.0
 76
     1
 77
     6
 78
     2
 67
     7
 79
     5
170
     0
171
     0
290
     0
174
     0
 93
        1
 44
0.0
173
     0
291
     0
 45
0.0
1001
ACAD
1000
AcDbSavedByObjectVersion
1070
     0
  0
VISUALSTYLE
  5
32
102
{ACAD_XDICTIONARY
360
36F
102
}
102
{ACAD_REACTORS
330
2A
102
}
330
2A
100
AcDbVisualStyle
  2

 70
     7
 71
     1
 72
     0
 73
     1
 90
        0
 40
-0.6
 41
-30.0
 62
     5
 63
     7
421
 16777215
 74
     0
 91
        4
 64
     7
 65
   257
 75
     1
175
     1
 42
1.0
 92
        8
 66
     7
 43
1.0
 76
     1
 77
     6
 78
     2
 67
     7
 79
     5
170
     0
171
     0
290
     0
174
     0
 93
        1
 44
0.0
173
     0
291
     1
 45
0.0
1001
ACAD
1000
AcDbSavedByObjectVersion
1070
     0
  0
VISUALSTYLE
  5
36
102
{ACAD_XDICTIONARY
360
377
102
}
102
{ACAD_REACTORS
330
2A
102
}
330
2A
100
AcDbVisualStyle
  2

 70
    12
 71
     2
 72
     2
 73
     0
 90
        0
 40
-0.6
 41
-30.0
 62
     5
 63
     7
421
 16777215
 74
     1
 91
        4
 64
     7
 65
   257
 75
     1
175
     1
 42
1.0
 92
        8
 66
     7
 43
1.0
 76
     1
 77
     6
 78
     2
 67
     7
 79
     5
170
     0
171
     0
290
     0
174
     0
 93
        1
 44
50.0
173
     0
291
     1
 45
0.0
1001
ACAD
1000
AcDbSavedByObjectVersion
1070
     0
  0
VISUALSTYLE
  5
3A
102
{ACAD_XDICTIONARY
360
37F
102
}
102
{ACAD_REACTORS
330
2A
102
}
330
2A
100
AcDbVisualStyle
  2

 70
    16
 71
     2
 72
     2
 73
     3
 90
        0
 40
-0.6
 41
-30.0
 62
     5
 63
     8
421
  8421504
 74
     1
 91
        4
 64
     7
 65
   257
 75
     1
175
     1
 42
1.0
 92
        8
 66
     8
424
  8421504
 43
1.0
 76
     1
 77
     6
 78
     2
 67
     7
 79
     5
170
     0
171
     0
290
     0
174
     0
 93
        1
 44
0.0
173
     0
291
     1
 45
0.0
1001
ACAD
1000
AcDbSavedByObjectVersion
1070
     0
  0
VISUALSTYLE
  5
34
102
{ACAD_XDICTIONARY
360
373
102
}
102
{ACAD_REACTORS
330
2A
102
}
330
2A
100
AcDbVisualStyle
  2

 70
     9
 71
     3
 72
     2
 73
     0
 90
        0
 40
-0.6
 41
-30.0
 62
     5
 63
     7
421
 16777215
 74
     2
 91
        2
 64
     7
 65
   257
 75
     1
175
     1
 42
179.0
 92
        8
 66
     7
 43
1.0
 76
     1
 77
     6
 78
     2
 67
     7
 79
     3
170
     0
171
     0
290
     0
174
     0
 93
        1
 44
0.0
173
     0
291
     0
 45
0.0
1001
ACAD
1000
AcDbSavedByObjectVersion
1070
     0
  0
VISUALSTYLE
  5
35
102
{ACAD_XDICTIONARY
360
375
102
}
102
{ACAD_REACTORS
330
2A
102
}
330
2A
100
AcDbVisualStyle
  2

 70
    11
 71
     2
 72
     2
 73
     0
 90
        0
 40
-0.6
 41
-30.0
 62
     5
 63
     7
421
 16777215
 74
     1
 91
        4
 64
     7
 65
   257
 75
     1
175
     1
 42
1.0
 92
        8
 66
     7
 43
1.0
 76
     1
 77
     6
 78
     2
 67
     7
 79
     5
170
     0
171
     0
290
     0
174
     0
 93
        1
 44
-50.0
173
     0
291
     1
 45
0.0
1001
ACAD
1000
AcDbSavedByObjectVersion
1070
     0
  0
VISUALSTYLE
  5
3D
102
{ACAD_XDICTIONARY
360
385
102
}
102
{ACAD_REACTORS
330
2A
102
}
330
2A
100
AcDbVisualStyle
  2

 70
    22
 71
     2
 72
     2
 73
     0
 90
        0
 40
-0.6
 41
-30.0
 62
     5
 63
     7
421
 16777215
 74
     1
 91
        4
 64
     7
 65
   257
 75
     1
175
     1
 42
1.0
 92
        8
 66
     7
 43
1.0
 76
     1
 77
     6
 78
     2
 67
     7
 79
     5
170
     0
171
     0
290
     0
174
     0
 93
        1
 44
0.0
173
     0
291
     1
 45
0.0
1001
ACAD
1000
AcDbSavedByObjectVersion
1070
     0
  0
VISUALSTYLE
  5
39
102
{ACAD_XDICTIONARY
360
37D
102
}
102
{ACAD_REACTORS
330
2A
102
}
330
2A
100
AcDbVisualStyle
  2

 70
    15
 71
     2
 72
     2
 73
     0
 90
        0
 40
-0.6
 41
-30.0
 62
     5
 63
     7
421
 16777215
 74
     1
 91
        4
 64
     7
 65
   257
 75
     1
175
     1
 42
1.0
 92
        8
 66
     7
 43
1.0
 76
     1
 77
     6
 78
     2
 67
     7
 79
     5
170
     0
171
     0
290
     0
174
     0
 93
        1
 44
0.0
173
     0
291
     1
 45
0.0
1001
ACAD
1000
AcDbSavedByObjectVersion
1070
     0
  0
VISUALSTYLE
  5
2B
102
{ACAD_XDICTIONARY
360
361
102
}
102
{ACAD_REACTORS
330
2A
102
}
330
2A
100
AcDbVisualStyle
  2

 70
     0
 71
     2
 72
     1
 73
     1
 90
        2
 40
-0.6
 41
30.0
 62
     5
 63
     7
421
 16777215
 74
     0
 91
        0
 64
     7
 65
   257
 75
     1
175
     1
 42
1.0
 92
        8
 66
     7
 43
1.0
 76
     1
 77
     6
 78
     2
 67
     7
 79
     5
170
     0
171
     0
290
     0
174
     0
 93
       13
 44
0.0
173
     0
291
     1
 45
0.0
1001
ACAD
1000
AcDbSavedByObjectVersion
1070
     0
  0
VISUALSTYLE
  5
2C
102
{ACAD_XDICTIONARY
360
363
102
}
102
{ACAD_REACTORS
330
2A
102
}
330
2A
100
AcDbVisualStyle
  2

 70
     1
 71
     2
 72
     1
 73
     1
 90
        2
 40
-0.6
 41
30.0
 62
     5
 63
     7
421
 16777215
 74
     1
 91
        0
 64
     7
 65
   257
 75
     1
175
     1
 42
1.0
 92
        0
 66
   257
 43
1.0
 76
     1
 77
     6
 78
     2
 67
     7
 79
     5
170
     0
171
     0
290
     0
174
     0
 93
       13
 44
0.0
173
     0
291
     1
 45
0.0
1001
ACAD
1000
AcDbSavedByObjectVersion
1070
     0
  0
VISUALSTYLE
  5
2D
102
{ACAD_XDICTIONARY
360
365
102
}
102
{ACAD_REACTORS
330
2A
102
}
330
2A
100
AcDbVisualStyle
  2

 70
     2
 71
     2
 72
     2
 73
     1
 90
        2
 40
-0.6
 41
30.0
 62
     5
 63
     7
421
 16777215
 74
     0
 91
        0
 64
     7
 65
   257
 75
     1
175
     1
 42
1.0
 92
        0
 66
     7
 43
1.0
 76
     1
 77
     6
 78
     2
 67
     7
 79
     5
170
     0
171
     0
290
     0
174
     0
 93
       13
 44
0.0
173
     0
291
     1
 45
0.0
1001
ACAD
1000
AcDbSavedByObjectVersion
1070
     0
  0
VISUALSTYLE
  5
2E
102
{ACAD_XDICTIONARY
360
367
102
}
102
{ACAD_REACTORS
330
2A
102
}
330
2A
100
AcDbVisualStyle
  2

 70
     3
 71
     2
 72
     2
 73
     1
 90
        2
 40
-0.6
 41
30.0
 62
     5
 63
     7
421
 16777215
 74
     1
 91
        0
 64
     7
 65
   257
 75
     1
175
     1
 42
1.0
 92
        0
 66
   257
 43
1.0
 76
     1
 77
     6
 78
     2
 67
     7
 79
     5
170
     0
171
     0
290
     0
174
     0
 93
       13
 44
0.0
173
     0
291
     1
 45
0.0
1001
ACAD
1000
AcDbSavedByObjectVersion
1070
     0
  0
VISUALSTYLE
  5
31
102
{ACAD_XDICTIONARY
360
36D
102
}
102
{ACAD_REACTORS
330
2A
102
}
330
2A
100
AcDbVisualStyle
  2

 70
     6
 71
     1
 72
     2
 73
     2
 90
        0
 40
-0.6
 41
-30.0
 62
     5
 63
     7
421
 16777215
 74
     2
 91
        2
 64
     7
 65
   257
 75
     2
175
     1
 42
40.0
 92
        0
 66
   257
 43
1.0
 76
     1
 77
     6
 78
     2
 67
     7
 79
     3
170
     0
171
     0
290
     0
174
     0
 93
        1
 44
0.0
173
     0
291
     0
 45
0.0
1001
ACAD
1000
AcDbSavedByObjectVersion
1070
     0
  0
VISUALSTYLE
  5
3B
102
{ACAD_XDICTIONARY
360
381
102
}
102
{ACAD_REACTORS
330
2A
102
}
330
2A
100
AcDbVisualStyle
  2

 70
    20
 71
     2
 72
     2
 73
     0
 90
        0
 40
-0.6
 41
-30.0
 62
     5
 63
     7
421
 16777215
 74
     1
 91
        4
 64
     7
 65
   257
 75
     1
175
     1
 42
1.0
 92
       10
 66
     7
 43
1.0
 76
     1
 77
     6
 78
     2
 67
     7
 79
     5
170
     0
171
     0
290
     0
174
     0
 93
        1
 44
0.0
173
     0
291
     1
 45
0.0
1001
ACAD
1000
AcDbSavedByObjectVersion
1070
     0
  0
VISUALSTYLE
  5
38
102
{ACAD_XDICTIONARY
360
37B
102
}
102
{ACAD_REACTORS
330
2A
102
}
330
2A
100
AcDbVisualStyle
  2

 70
    14
 71
     2
 72
     2
 73
     0
 90
        0
 40
-0.6
 41
-30.0
 62
     5
 63
     7
421
 16777215
 74
     1
 91
        4
 64
     7
 65
   257
 75
     7
175
     7
 42
1.0
 92
        8
 66
     7
 43
1.0
 76
     1
 77
     6
 78
     2
 67
     7
 79
     5
170
     0
171
     0
290
     0
174
     0
 93
        1
 44
0.0
173
     0
291
     1
 45
0.0
1001
ACAD
1000
AcDbSavedByObjectVersion
1070
     0
  0
VISUALSTYLE
  5
3C
102
{ACAD_XDICTIONARY
360
383
102
}
102
{ACAD_REACTORS
330
2A
102
}
330
2A
100
AcDbVisualStyle
  2

 70
    21
 71
     2
 72
     2
 73
     0
 90
        0
 40
-0.6
 41
-30.0
 62
     5
 63
     7
421
 16777215
 74
     1
 91
        4
 64
     7
 65
   257
 75
     1
175
     1
 42
1.0
 92
        9
 66
     7
 43
1.0
 76
     1
 77
     6
 78
     2
 67
     7
 79
     5
170
     0
171
     0
290
     0
174
     0
 93
        1
 44
0.0
173
     0
291
     1
 45
0.0
1001
ACAD
1000
AcDbSavedByObjectVersion
1070
     0
  0
VISUALSTYLE
  5
33
102
{ACAD_XDICTIONARY
360
371
102
}
102
{ACAD_REACTORS
330
2A
102
}
330
2A
100
AcDbVisualStyle
  2

 70
     8
 71
     2
 72
     3
 73
     0
 90
        2
 40
-0.6
 41
30.0
 62
     5
 63
     7
421
 16777215
 74
     0
 91
        0
 64
     7
 65
   257
 75
     1
175
     1
 42
1.0
 92
        8
 66
   257
 43
1.0
 76
     1
 77
     6
 78
     2
 67
     7
 79
     3
170
     0
171
     0
290
     0
174
     0
 93
       13
 44
0.0
173
     0
291
     0
 45
0.0
1001
ACAD
1000
AcDbSavedByObjectVersion
1070
     0
  0
VISUALSTYLE
  5
42
102
{ACAD_XDICTIONARY
360
38F
102
}
102
{ACAD_REACTORS
330
2A
102
}
330
2A
100
AcDbVisualStyle
  2

 70
    27
 71
     2
 72
     2
 73
     1
 90
        2
 40
-0.6
 41
30.0
 62
     5
 63
     7
421
 16777215
 74
     0
 91
        4
 64
     7
 65
   257
 75
     1
175
     1
 42
1.0
 92
        8
 66
   257
 43
1.0
 76
     1
 77
     6
 78
     2
 67
     8
425
  7895160
 79
     3
170
     0
171
     0
290
     0
174
     0
 93
        5
 44
0.0
173
     0
291
     0
 45
0.0
1001
ACAD
1000
AcDbSavedByObjectVersion
1070
     0
  0
VISUALSTYLE
  5
41
102
{ACAD_XDICTIONARY
360
38D
102
}
102
{ACAD_REACTORS
330
2A
102
}
330
2A
100
AcDbVisualStyle
  2

 70
    26
 71
     2
 72
     2
 73
     1
 90
        2
 40
-0.6
 41
30.0
 62
     5
 63
     7
421
 16777215
 74
     1
 91
       10
 64
     7
 65
   257
 75
     2
175
     1
 42
1.0
 92
        8
 66
   257
 43
1.0
 76
     1
 77
     6
 78
     2
 67
     7
 79
     3
170
     0
171
     0
290
     0
174
     0
 93
        5
 44
0.0
173
     0
291
     0
 45
0.0
1001
ACAD
1000
AcDbSavedByObjectVersion
1070
     0
  0
VISUALSTYLE
  5
3E
102
{ACAD_XDICTIONARY
360
387
102
}
102
{ACAD_REACTORS
330
2A
102
}
330
2A
100
AcDbVisualStyle
  2

 70
    23
 71
     2
 72
     2
 73
     3
 90
        0
 40
-0.6
 41
-30.0
 62
     5
 63
     7
421
 16777215
 74
     2
 91
        2
 64
     7
 65
     7
 75
     1
175
     1
 42
40.0
 92
        8
 66
     7
 43
1.0
 76
     1
 77
     6
 78
     2
 67
     7
 79
     3
170
     0
171
     0
290
     0
174
     0
 93
        1
 44
0.0
173
     0
291
     0
 45
0.0
1001
ACAD
1000
AcDbSavedByObjectVersion
1070
     0
  0
VISUALSTYLE
  5
3F
102
{ACAD_XDICTIONARY
360
389
102
}
102
{ACAD_REACTORS
330
2A
102
}
330
2A
100
AcDbVisualStyle
  2

 70
    24
 71
     1
 72
     2
 73
     2
 90
        0
 40
-0.6
 41
-30.0
 62
     5
 63
     7
421
 16777215
 74
     2
 91
        2
 64
     7
 65
     7
 75
     1
175
     1
 42
40.0
 92
       11
 66
     7
 43
1.0
 76
     1
 77
     6
 78
     2
 67
     7
 79
     6
170
     0
171
     0
290
     0
174
     0
 93
        1
 44
0.0
173
     0
291
     0
 45
0.0
1001
ACAD
1000
AcDbSavedByObjectVersion
1070
     0
  0
VISUALSTYLE
  5
37
102
{ACAD_XDICTIONARY
360
379
102
}
102
{ACAD_REACTORS
330
2A
102
}
330
2A
100
AcDbVisualStyle
  2

 70
    13
 71
     2
 72
     2
 73
     0
 90
        0
 40
-0.6
 41
-30.0
 62
     5
 63
     7
421
 16777215
 74
     1
 91
        4
 64
     7
 65
   257
 75
     1
175
     1
 42
1.0
 92
       12
 66
     7
 43
1.0
 76
     1
 77
     6
 78
     2
 67
     7
 79
     5
170
     0
171
     0
290
     0
174
     0
 93
        1
 44
0.0
173
     0
291
     1
 45
0.0
1001
ACAD
1000
AcDbSavedByObjectVersion
1070
     0
  0
VISUALSTYLE
  5
30
102
{ACAD_XDICTIONARY
360
36B
102
}
102
{ACAD_REACTORS
330
2A
102
}
330
2A
100
AcDbVisualStyle
  2

 70
     5
 71
     0
 72
     2
 73
     0
 90
        0
 40
-0.6
 41
-30.0
 62
     5
 63
     7
421
 16777215
 74
     1
 91
        4
 64
     7
 65
   257
 75
     1
175
     1
 42
1.0
 92
        0
 66
   257
 43
1.0
 76
     1
 77
     6
 78
     2
 67
     7
 79
     3
170
     0
171
     0
290
     0
174
     0
 93
        1
 44
0.0
173
     0
291
     0
 45
0.0
1001
ACAD
1000
AcDbSavedByObjectVersion
1070
     0
  0
VISUALSTYLE
  5
40
102
{ACAD_XDICTIONARY
360
38B
102
}
102
{ACAD_REACTORS
330
2A
102
}
330
2A
100
AcDbVisualStyle
  2

 70
    25
 71
     2
 72
     2
 73
     1
 90
        1
 40
0.5
 41
-30.0
 62
     5
 63
     7
421
 16777215
 74
     1
 91
        0
 64
     7
 65
   257
 75
     1
175
     1
 42
1.0
 92
        8
 66
     7
 43
1.0
 76
     1
 77
     6
 78
     2
 67
     7
 79
     3
170
     0
171
     0
290
     0
174
     0
 93
       13
 44
0.0
173
     0
291
     0
 45
0.0
1001
ACAD
1000
AcDbSavedByObjectVersion
1070
     0
  0
DICTIONARYVAR
  5
2AF
102
{ACAD_REACTORS
330
2AE
102
}
330
2AE
100
DictionaryVariables
280
     0
  1
1:1
  0
DICTIONARYVAR
  5
2F0
102
{ACAD_REACTORS
330
2AE
102
}
330
2AE
100
DictionaryVariables
280
     0
  1
STANDARD
  0
DICTIONARYVAR
  5
2EF
102
{ACAD_REACTORS
330
2AE
102
}
330
2AE
100
DictionaryVariables
280
     0
  1
STANDARD
  0
DICTIONARYVAR
  5
35B
102
{ACAD_REACTORS
330
2AE
102
}
330
2AE
100
DictionaryVariables
280
     0
  1
Metric50
  0
DICTIONARYVAR
  5
35C
102
{ACAD_REACTORS
330
2AE
102
}
330
2AE
100
DictionaryVariables
280
     0
  1
Metric50
  0
DICTIONARYVAR
  5
2B0
102
{ACAD_REACTORS
330
2AE
102
}
330
2AE
100
DictionaryVariables
280
     0
  1
1
  0
DICTIONARYVAR
  5
35D
102
{ACAD_REACTORS
330
2AE
102
}
330
2AE
100
DictionaryVariables
280
     0
  1
2
  0
DICTIONARY
  5
394
330
2F7
100
AcDbDictionary
280
     1
281
     1
  3
ACAD_XREC_ROUNDTRIP
360
395
  0
DICTIONARY
  5
2E4
330
45
100
AcDbDictionary
280
     1
281
     1
  3
ACAD_XREC_ROUNDTRIP
360
2E5
  0
DICTIONARY
  5
2E2
330
44
100
AcDbDictionary
280
     1
281
     1
  3
ACAD_XREC_ROUNDTRIP
360
2E3
  0
DICTIONARY
  5
2E6
330
46
100
AcDbDictionary
280
     1
281
     1
  3
ACAD_XREC_ROUNDTRIP
360
2E7
  0
DICTIONARY
  5
392
330
2F6
100
AcDbDictionary
280
     1
281
     1
  3
ACAD_XREC_ROUNDTRIP
360
393
  0
DICTIONARY
  5
2E8
330
6A
100
AcDbDictionary
280
     1
281
     1
  3
ACAD_ROUNDTRIP_2008_TABLESTYLE_CELLSTYLEMAP
360
35F
  3
ACAD_XREC_ROUNDTRIP
360
391
  0
DICTIONARY
  5
369
330
2F
100
AcDbDictionary
280
     1
281
     1
  3
ACAD_XREC_ROUNDTRIP
360
36A
  0
DICTIONARY
  5
36F
330
32
100
AcDbDictionary
280
     1
281
     1
  3
ACAD_XREC_ROUNDTRIP
360
370
  0
DICTIONARY
  5
377
330
36
100
AcDbDictionary
280
     1
281
     1
  3
ACAD_XREC_ROUNDTRIP
360
378
  0
DICTIONARY
  5
37F
330
3A
100
AcDbDictionary
280
     1
281
     1
  3
ACAD_XREC_ROUNDTRIP
360
380
  0
DICTIONARY
  5
373
330
34
100
AcDbDictionary
280
     1
281
     1
  3
ACAD_XREC_ROUNDTRIP
360
374
  0
DICTIONARY
  5
375
330
35
100
AcDbDictionary
280
     1
281
     1
  3
ACAD_XREC_ROUNDTRIP
360
376
  0
DICTIONARY
  5
385
330
3D
100
AcDbDictionary
280
     1
281
     1
  3
ACAD_XREC_ROUNDTRIP
360
386
  0
DICTIONARY
  5
37D
330
39
100
AcDbDictionary
280
     1
281
     1
  3
ACAD_XREC_ROUNDTRIP
360
37E
  0
DICTIONARY
  5
361
330
2B
100
AcDbDictionary
280
     1
281
     1
  3
ACAD_XREC_ROUNDTRIP
360
362
  0
DICTIONARY
  5
363
330
2C
100
AcDbDictionary
280
     1
281
     1
  3
ACAD_XREC_ROUNDTRIP
360
364
  0
DICTIONARY
  5
365
330
2D
100
AcDbDictionary
280
     1
281
     1
  3
ACAD_XREC_ROUNDTRIP
360
366
  0
DICTIONARY
  5
367
330
2E
100
AcDbDictionary
280
     1
281
     1
  3
ACAD_XREC_ROUNDTRIP
360
368
  0
DICTIONARY
  5
36D
330
31
100
AcDbDictionary
280
     1
281
     1
  3
ACAD_XREC_ROUNDTRIP
360
36E
  0
DICTIONARY
  5
381
330
3B
100
AcDbDictionary
280
     1
281
     1
  3
ACAD_XREC_ROUNDTRIP
360
382
  0
DICTIONARY
  5
37B
330
38
100
AcDbDictionary
280
     1
281
     1
  3
ACAD_XREC_ROUNDTRIP
360
37C
  0
DICTIONARY
  5
383
330
3C
100
AcDbDictionary
280
     1
281
     1
  3
ACAD_XREC_ROUNDTRIP
360
384
  0
DICTIONARY
  5
371
330
33
100
AcDbDictionary
280
     1
281
     1
  3
ACAD_XREC_ROUNDTRIP
360
372
  0
DICTIONARY
  5
38F
330
42
100
AcDbDictionary
280
     1
281
     1
  3
ACAD_XREC_ROUNDTRIP
360
390
  0
DICTIONARY
  5
38D
330
41
100
AcDbDictionary
280
     1
281
     1
  3
ACAD_XREC_ROUNDTRIP
360
38E
  0
DICTIONARY
  5
387
330
3E
100
AcDbDictionary
280
     1
281
     1
  3
ACAD_XREC_ROUNDTRIP
360
388
  0
DICTIONARY
  5
389
330
3F
100
AcDbDictionary
280
     1
281
     1
  3
ACAD_XREC_ROUNDTRIP
360
38A
  0
DICTIONARY
  5
379
330
37
100
AcDbDictionary
280
     1
281
     1
  3
ACAD_XREC_ROUNDTRIP
360
37A
  0
DICTIONARY
  5
36B
330
30
100
AcDbDictionary
280
     1
281
     1
  3
ACAD_XREC_ROUNDTRIP
360
36C
  0
DICTIONARY
  5
38B
330
40
100
AcDbDictionary
280
     1
281
     1
  3
ACAD_XREC_ROUNDTRIP
360
38C
  0
XRECORD
  5
395
102
{ACAD_REACTORS
330
394
102
}
330
394
100
AcDbXrecord
280
     1
102
DISPLAYNAME
  1
Metric50
102
FLAGS
 90
        0
  0
XRECORD
  5
2E5
102
{ACAD_REACTORS
330
2E4
102
}
330
2E4
100
AcDbXrecord
280
     1
102
MATERIAL
148
0.0
149
0.0
149
0.0
 93
        0
 94
      127
282
     0
 72
     1
 77
     1
171
     1
175
     1
179
     1
273
     0
  0
XRECORD
  5
2E3
102
{ACAD_REACTORS
330
2E2
102
}
330
2E2
100
AcDbXrecord
280
     1
102
MATERIAL
148
0.0
149
0.0
149
0.0
 93
        0
 94
      127
282
     0
 72
     1
 77
     1
171
     1
175
     1
179
     1
273
     0
  0
XRECORD
  5
2E7
102
{ACAD_REACTORS
330
2E6
102
}
330
2E6
100
AcDbXrecord
280
     1
102
MATERIAL
148
0.0
149
0.0
149
0.0
 93
        0
 94
      127
282
     0
 72
     1
 77
     1
171
     1
175
     1
179
     1
273
     0
  0
XRECORD
  5
393
102
{ACAD_REACTORS
330
392
102
}
330
392
100
AcDbXrecord
280
     1
102
DISPLAYNAME
  1
Metric50
102
FLAGS
 90
        0
  0
CELLSTYLEMAP
  5
35F
102
{ACAD_REACTORS
330
2E8
102
}
330
2E8
100
AcDbCellStyleMap
 90
        3
300
CELLSTYLE
  1
TABLEFORMAT_BEGIN
 90
        5
170
     1
 91
        0
 92
    32768
 62
   257
 93
        1
300
CONTENTFORMAT
  1
CONTENTFORMAT_BEGIN
 90
        0
 91
        0
 92
        4
 93
        0
300

 40
0.0
140
1.0
 94
        5
 62
     0
340
11
144
0.25
309
CONTENTFORMAT_END
171
     1
301
MARGIN
  1
CELLMARGIN_BEGIN
 40
0.06
 40
0.06
 40
0.06
 40
0.06
 40
0.18
 40
0.18
309
CELLMARGIN_END
 94
        6
 95
        1
302
GRIDFORMAT
  1
GRIDFORMAT_BEGIN
 90
        0
 91
        1
 62
     0
 92
       -2
340
14
 93
        0
 40
0.045
309
GRIDFORMAT_END
 95
        2
302
GRIDFORMAT
  1
GRIDFORMAT_BEGIN
 90
        0
 91
        1
 62
     0
 92
       -2
340
14
 93
        0
 40
0.045
309
GRIDFORMAT_END
 95
        4
302
GRIDFORMAT
  1
GRIDFORMAT_BEGIN
 90
        0
 91
        1
 62
     0
 92
       -2
340
14
 93
        0
 40
0.045
309
GRIDFORMAT_END
 95
        8
302
GRIDFORMAT
  1
GRIDFORMAT_BEGIN
 90
        0
 91
        1
 62
     0
 92
       -2
340
14
 93
        0
 40
0.045
309
GRIDFORMAT_END
 95
       16
302
GRIDFORMAT
  1
GRIDFORMAT_BEGIN
 90
        0
 91
        1
 62
     0
 92
       -2
340
14
 93
        0
 40
0.045
309
GRIDFORMAT_END
 95
       32
302
GRIDFORMAT
  1
GRIDFORMAT_BEGIN
 90
        0
 91
        1
 62
     0
 92
       -2
340
14
 93
        0
 40
0.045
309
GRIDFORMAT_END
309
TABLEFORMAT_END
  1
CELLSTYLE_BEGIN
 90
        1
 91
        1
300
_TITLE
309
CELLSTYLE_END
300
CELLSTYLE
  1
TABLEFORMAT_BEGIN
 90
        5
170
     1
 91
        0
 92
        0
 62
   257
 93
        1
300
CONTENTFORMAT
  1
CONTENTFORMAT_BEGIN
 90
        0
 91
        0
 92
        4
 93
        0
300

 40
0.0
140
1.0
 94
        5
 62
     0
340
11
144
0.18
309
CONTENTFORMAT_END
171
     1
301
MARGIN
  1
CELLMARGIN_BEGIN
 40
0.06
 40
0.06
 40
0.06
 40
0.06
 40
0.18
 40
0.18
309
CELLMARGIN_END
 94
        6
 95
        1
302
GRIDFORMAT
  1
GRIDFORMAT_BEGIN
 90
        0
 91
        1
 62
     0
 92
       -2
340
14
 93
        0
 40
0.045
309
GRIDFORMAT_END
 95
        2
302
GRIDFORMAT
  1
GRIDFORMAT_BEGIN
 90
        0
 91
        1
 62
     0
 92
       -2
340
14
 93
        0
 40
0.045
309
GRIDFORMAT_END
 95
        4
302
GRIDFORMAT
  1
GRIDFORMAT_BEGIN
 90
        0
 91
        1
 62
     0
 92
       -2
340
14
 93
        0
 40
0.045
309
GRIDFORMAT_END
 95
        8
302
GRIDFORMAT
  1
GRIDFORMAT_BEGIN
 90
        0
 91
        1
 62
     0
 92
       -2
340
14
 93
        0
 40
0.045
309
GRIDFORMAT_END
 95
       16
302
GRIDFORMAT
  1
GRIDFORMAT_BEGIN
 90
        0
 91
        1
 62
     0
 92
       -2
340
14
 93
        0
 40
0.045
309
GRIDFORMAT_END
 95
       32
302
GRIDFORMAT
  1
GRIDFORMAT_BEGIN
 90
        0
 91
        1
 62
     0
 92
       -2
340
14
 93
        0
 40
0.045
309
GRIDFORMAT_END
309
TABLEFORMAT_END
  1
CELLSTYLE_BEGIN
 90
        2
 91
        1
300
_HEADER
309
CELLSTYLE_END
300
CELLSTYLE
  1
TABLEFORMAT_BEGIN
 90
        5
170
     1
 91
        0
 92
        0
 62
   257
 93
        1
300
CONTENTFORMAT
  1
CONTENTFORMAT_BEGIN
 90
        0
 91
        0
 92
        4
 93
        0
300

 40
0.0
140
1.0
 94
        2
 62
     0
340
11
144
0.18
309
CONTENTFORMAT_END
171
     1
301
MARGIN
  1
CELLMARGIN_BEGIN
 40
0.06
 40
0.06
 40
0.06
 40
0.06
 40
0.18
 40
0.18
309
CELLMARGIN_END
 94
        6
 95
        1
302
GRIDFORMAT
  1
GRIDFORMAT_BEGIN
 90
        0
 91
        1
 62
     0
 92
       -2
340
14
 93
        0
 40
0.045
309
GRIDFORMAT_END
 95
        2
302
GRIDFORMAT
  1
GRIDFORMAT_BEGIN
 90
        0
 91
        1
 62
     0
 92
       -2
340
14
 93
        0
 40
0.045
309
GRIDFORMAT_END
 95
        4
302
GRIDFORMAT
  1
GRIDFORMAT_BEGIN
 90
        0
 91
        1
 62
     0
 92
       -2
340
14
 93
        0
 40
0.045
309
GRIDFORMAT_END
 95
        8
302
GRIDFORMAT
  1
GRIDFORMAT_BEGIN
 90
        0
 91
        1
 62
     0
 92
       -2
340
14
 93
        0
 40
0.045
309
GRIDFORMAT_END
 95
       16
302
GRIDFORMAT
  1
GRIDFORMAT_BEGIN
 90
        0
 91
        1
 62
     0
 92
       -2
340
14
 93
        0
 40
0.045
309
GRIDFORMAT_END
 95
       32
302
GRIDFORMAT
  1
GRIDFORMAT_BEGIN
 90
        0
 91
        1
 62
     0
 92
       -2
340
14
 93
        0
 40
0.045
309
GRIDFORMAT_END
309
TABLEFORMAT_END
  1
CELLSTYLE_BEGIN
 90
        3
 91
        2
300
_DATA
309
CELLSTYLE_END
  0
XRECORD
  5
391
102
{ACAD_REACTORS
330
2E8
102
}
330
2E8
100
AcDbXrecord
280
     1
102
ACAD_ROUNDTRIP_PRE2007_TABLESTYLE
 90
        4
 91
        0
  1

 92
        4
 93
        0
  2

 94
        4
 95
        0
  3

  0
XRECORD
  5
36A
102
{ACAD_REACTORS
330
369
102
}
330
369
100
AcDbXrecord
280
     1
102
RTVSPost2010Prop28
280
     1
102
RTVSPost2010PropOp28
 70
     1
102
RTVSPost2010Prop29
280
     1
102
RTVSPost2010PropOp29
 70
     1
102
RTVSPost2010Prop30
280
     0
102
RTVSPost2010PropOp30
 70
     1
102
RTVSPost2010Prop31
280
     0
102
RTVSPost2010PropOp31
 70
     1
102
RTVSPost2010Prop32
280
     0
102
RTVSPost2010PropOp32
 70
     1
102
RTVSPost2010Prop33
280
     0
102
RTVSPost2010PropOp33
 70
     1
102
RTVSPost2010Prop34
280
     0
102
RTVSPost2010PropOp34
 70
     1
102
RTVSPost2010Prop35
280
     0
102
RTVSPost2010PropOp35
 70
     1
102
RTVSPost2010Prop36
280
     0
102
RTVSPost2010PropOp36
 70
     1
102
RTVSPost2010Prop37
 90
       50
102
RTVSPost2010PropOp37
 70
     1
102
RTVSPost2010Prop38
140
0.0
102
RTVSPost2010PropOp38
 70
     1
102
RTVSPost2010Prop39
140
1.0
102
RTVSPost2010PropOp39
 70
     1
102
RTVSPost2010Prop40
 90
        0
102
RTVSPost2010PropOp40
 70
     1
102
RTVSPost2010Prop41ColorIndex
 90
       18
102
RTVSPost2010Prop41ColorRGB
 90
        0
102
RTVSPost2010PropOp41
 70
     1
102
RTVSPost2010Prop42
 90
       50
102
RTVSPost2010PropOp42
 70
     1
102
RTVSPost2010Prop43
 90
        3
102
RTVSPost2010PropOp43
 70
     1
102
RTVSPost2010Prop44ColorIndex
 90
        5
102
RTVSPost2010Prop44ColorRGB
 90
      255
102
RTVSPost2010PropOp44
 70
     1
102
RTVSPost2010Prop45
280
     0
102
RTVSPost2010PropOp45
 70
     1
102
RTVSPost2010Prop46
 90
       50
102
RTVSPost2010PropOp46
 70
     1
102
RTVSPost2010Prop47
 90
       50
102
RTVSPost2010PropOp47
 70
     1
102
RTVSPost2010Prop48
 90
       50
102
RTVSPost2010PropOp48
 70
     1
102
RTVSPost2010Prop49
280
     0
102
RTVSPost2010PropOp49
 70
     1
102
RTVSPost2010Prop50
 90
       50
102
RTVSPost2010PropOp50
 70
     1
102
RTVSPost2010Prop51ColorIndex
 90
      256
102
RTVSPost2010Prop51ColorRGB
 90
-16777216
102
RTVSPost2010PropOp51
 70
     0
102
RTVSPost2010Prop52
140
1.0
102
RTVSPost2010PropOp52
 70
     0
102
RTVSPost2010Prop53
 90
        2
102
RTVSPost2010PropOp53
 70
     1
102
RTVSPost2010Prop54
  1
strokes_ogs.tif
102
RTVSPost2010PropOp54
 70
     1
102
RTVSPost2010Prop55
280
     0
102
RTVSPost2010PropOp55
 70
     1
102
RTVSPost2010Prop56
140
1.0
102
RTVSPost2010PropOp56
 70
     1
102
RTVSPost2010Prop57
140
1.0
102
RTVSPost2010PropOp57
 70
     1
102
RTVSPropertyOp0
 70
     1
102
RTVSPropertyOp1
 70
     1
102
RTVSPropertyOp2
 70
     1
102
RTVSPropertyOp3
 70
     1
102
RTVSPropertyOp4
 70
     1
102
RTVSPropertyOp5
 70
     1
102
RTVSPropertyOp6
 70
     1
102
RTVSPropertyOp7
 70
     1
102
RTVSPropertyOp8
 70
     1
102
RTVSPropertyOp9
 70
     1
102
RTVSPropertyOp10
 70
     1
102
RTVSPropertyOp11
 70
     1
102
RTVSPropertyOp12
 70
     1
102
RTVSPropertyOp13
 70
     1
102
RTVSPropertyOp14
 70
     1
102
RTVSPropertyOp15
 70
     1
102
RTVSPropertyOp16
 70
     1
102
RTVSPropertyOp17
 70
     1
102
RTVSPropertyOp18
 70
     1
102
RTVSPropertyOp19
 70
     1
102
RTVSPropertyOp20
 70
     1
102
RTVSPropertyOp21
 70
     1
102
RTVSPropertyOp22
 70
     1
102
RTVSPropertyOp23
 70
     1
102
RTVSPropertyOp24
 70
     1
102
RTVSPropertyOp25
 70
     1
102
RTVSPropertyOp26
 70
     1
102
RTVSPropertyOp27
 70
     1
102
RTVSPropertyOp28
 70
     1
102
RTVSPropertyOp29
 70
     1
102
RTVSPropertyOp30
 70
     1
102
RTVSPropertyOp31
 70
     1
102
RTVSPropertyOp32
 70
     1
102
RTVSPropertyOp33
 70
     1
102
RTVSPropertyOp34
 70
     1
102
RTVSPropertyOp35
 70
     1
102
RTVSPropertyOp36
 70
     1
102
RTVSPropertyOp37
 70
     1
102
RTVSPropertyOp38
 70
     1
102
RTVSPropertyOp39
 70
     1
102
RTVSPropertyOp40
 70
     1
102
RTVSPropertyOp41
 70
     1
102
RTVSPropertyOp42
 70
     1
102
RTVSPropertyOp43
 70
     1
102
RTVSPropertyOp44
 70
     1
102
RTVSPropertyOp45
 70
     1
102
RTVSPropertyOp46
 70
     1
102
RTVSPropertyOp47
 70
     1
102
RTVSPropertyOp48
 70
     1
102
RTVSPropertyOp49
 70
     1
102
RTVSPropertyOp50
 70
     1
102
RTVSPropertyOp51
 70
     0
102
RTVSPropertyOp52
 70
     0
102
RTVSPropertyOp53
 70
     1
102
RTVSPropertyOp54
 70
     1
102
RTVSPropertyOp55
 70
     1
102
RTVSPropertyOp56
 70
     1
102
RTVSPropertyOp57
 70
     1
102
RTVSPropertyOp58
 70
     1
102
RTVSPropertyOp59
 70
     1
102
RTVSPropertyOp60
 70
     1
102
RTVSPropertyOp61
 70
     1
102
RTVSPropertyOp62
 70
     1
  0
XRECORD
  5
370
102
{ACAD_REACTORS
330
36F
102
}
330
36F
100
AcDbXrecord
280
     1
102
RTVSPost2010Prop28
280
     0
102
RTVSPost2010PropOp28
 70
     1
102
RTVSPost2010Prop29
280
     1
102
RTVSPost2010PropOp29
 70
     1
102
RTVSPost2010Prop30
280
     1
102
RTVSPost2010PropOp30
 70
     1
102
RTVSPost2010Prop31
280
     0
102
RTVSPost2010PropOp31
 70
     1
102
RTVSPost2010Prop32
280
     0
102
RTVSPost2010PropOp32
 70
     1
102
RTVSPost2010Prop33
280
     0
102
RTVSPost2010PropOp33
 70
     1
102
RTVSPost2010Prop34
280
     0
102
RTVSPost2010PropOp34
 70
     1
102
RTVSPost2010Prop35
280
     0
102
RTVSPost2010PropOp35
 70
     1
102
RTVSPost2010Prop36
280
     0
102
RTVSPost2010PropOp36
 70
     1
102
RTVSPost2010Prop37
 90
       50
102
RTVSPost2010PropOp37
 70
     1
102
RTVSPost2010Prop38
140
0.0
102
RTVSPost2010PropOp38
 70
     1
102
RTVSPost2010Prop39
140
1.0
102
RTVSPost2010PropOp39
 70
     1
102
RTVSPost2010Prop40
 90
        0
102
RTVSPost2010PropOp40
 70
     1
102
RTVSPost2010Prop41ColorIndex
 90
       18
102
RTVSPost2010Prop41ColorRGB
 90
        0
102
RTVSPost2010PropOp41
 70
     1
102
RTVSPost2010Prop42
 90
       50
102
RTVSPost2010PropOp42
 70
     1
102
RTVSPost2010Prop43
 90
        3
102
RTVSPost2010PropOp43
 70
     1
102
RTVSPost2010Prop44ColorIndex
 90
        5
102
RTVSPost2010Prop44ColorRGB
 90
      255
102
RTVSPost2010PropOp44
 70
     1
102
RTVSPost2010Prop45
280
     0
102
RTVSPost2010PropOp45
 70
     1
102
RTVSPost2010Prop46
 90
       50
102
RTVSPost2010PropOp46
 70
     1
102
RTVSPost2010Prop47
 90
       50
102
RTVSPost2010PropOp47
 70
     1
102
RTVSPost2010Prop48
 90
       50
102
RTVSPost2010PropOp48
 70
     1
102
RTVSPost2010Prop49
280
     0
102
RTVSPost2010PropOp49
 70
     1
102
RTVSPost2010Prop50
 90
       50
102
RTVSPost2010PropOp50
 70
     1
102
RTVSPost2010Prop51ColorIndex
 90
      256
102
RTVSPost2010Prop51ColorRGB
 90
-16777216
102
RTVSPost2010PropOp51
 70
     0
102
RTVSPost2010Prop52
140
1.0
102
RTVSPost2010PropOp52
 70
     0
102
RTVSPost2010Prop53
 90
        2
102
RTVSPost2010PropOp53
 70
     1
102
RTVSPost2010Prop54
  1
strokes_ogs.tif
102
RTVSPost2010PropOp54
 70
     1
102
RTVSPost2010Prop55
280
     0
102
RTVSPost2010PropOp55
 70
     1
102
RTVSPost2010Prop56
140
1.0
102
RTVSPost2010PropOp56
 70
     1
102
RTVSPost2010Prop57
140
1.0
102
RTVSPost2010PropOp57
 70
     1
102
RTVSPropertyOp0
 70
     1
102
RTVSPropertyOp1
 70
     1
102
RTVSPropertyOp2
 70
     1
102
RTVSPropertyOp3
 70
     1
102
RTVSPropertyOp4
 70
     1
102
RTVSPropertyOp5
 70
     1
102
RTVSPropertyOp6
 70
     1
102
RTVSPropertyOp7
 70
     1
102
RTVSPropertyOp8
 70
     1
102
RTVSPropertyOp9
 70
     1
102
RTVSPropertyOp10
 70
     1
102
RTVSPropertyOp11
 70
     1
102
RTVSPropertyOp12
 70
     1
102
RTVSPropertyOp13
 70
     1
102
RTVSPropertyOp14
 70
     1
102
RTVSPropertyOp15
 70
     1
102
RTVSPropertyOp16
 70
     1
102
RTVSPropertyOp17
 70
     1
102
RTVSPropertyOp18
 70
     1
102
RTVSPropertyOp19
 70
     1
102
RTVSPropertyOp20
 70
     1
102
RTVSPropertyOp21
 70
     1
102
RTVSPropertyOp22
 70
     1
102
RTVSPropertyOp23
 70
     1
102
RTVSPropertyOp24
 70
     1
102
RTVSPropertyOp25
 70
     1
102
RTVSPropertyOp26
 70
     1
102
RTVSPropertyOp27
 70
     1
102
RTVSPropertyOp28
 70
     1
102
RTVSPropertyOp29
 70
     1
102
RTVSPropertyOp30
 70
     1
102
RTVSPropertyOp31
 70
     1
102
RTVSPropertyOp32
 70
     1
102
RTVSPropertyOp33
 70
     1
102
RTVSPropertyOp34
 70
     1
102
RTVSPropertyOp35
 70
     1
102
RTVSPropertyOp36
 70
     1
102
RTVSPropertyOp37
 70
     1
102
RTVSPropertyOp38
 70
     1
102
RTVSPropertyOp39
 70
     1
102
RTVSPropertyOp40
 70
     1
102
RTVSPropertyOp41
 70
     1
102
RTVSPropertyOp42
 70
     1
102
RTVSPropertyOp43
 70
     1
102
RTVSPropertyOp44
 70
     1
102
RTVSPropertyOp45
 70
     1
102
RTVSPropertyOp46
 70
     1
102
RTVSPropertyOp47
 70
     1
102
RTVSPropertyOp48
 70
     1
102
RTVSPropertyOp49
 70
     1
102
RTVSPropertyOp50
 70
     1
102
RTVSPropertyOp51
 70
     0
102
RTVSPropertyOp52
 70
     0
102
RTVSPropertyOp53
 70
     1
102
RTVSPropertyOp54
 70
     1
102
RTVSPropertyOp55
 70
     1
102
RTVSPropertyOp56
 70
     1
102
RTVSPropertyOp57
 70
     1
102
RTVSPropertyOp58
 70
     1
102
RTVSPropertyOp59
 70
     1
102
RTVSPropertyOp60
 70
     1
102
RTVSPropertyOp61
 70
     1
102
RTVSPropertyOp62
 70
     1
  0
XRECORD
  5
378
102
{ACAD_REACTORS
330
377
102
}
330
377
100
AcDbXrecord
280
     1
102
RTVSPost2010Prop28
280
     0
102
RTVSPost2010PropOp28
 70
     1
102
RTVSPost2010Prop29
280
     1
102
RTVSPost2010PropOp29
 70
     1
102
RTVSPost2010Prop30
280
     1
102
RTVSPost2010PropOp30
 70
     1
102
RTVSPost2010Prop31
280
     0
102
RTVSPost2010PropOp31
 70
     1
102
RTVSPost2010Prop32
280
     0
102
RTVSPost2010PropOp32
 70
     1
102
RTVSPost2010Prop33
280
     0
102
RTVSPost2010PropOp33
 70
     1
102
RTVSPost2010Prop34
280
     0
102
RTVSPost2010PropOp34
 70
     1
102
RTVSPost2010Prop35
280
     0
102
RTVSPost2010PropOp35
 70
     1
102
RTVSPost2010Prop36
280
     0
102
RTVSPost2010PropOp36
 70
     1
102
RTVSPost2010Prop37
 90
       50
102
RTVSPost2010PropOp37
 70
     1
102
RTVSPost2010Prop38
140
0.0
102
RTVSPost2010PropOp38
 70
     1
102
RTVSPost2010Prop39
140
1.0
102
RTVSPost2010PropOp39
 70
     1
102
RTVSPost2010Prop40
 90
        0
102
RTVSPost2010PropOp40
 70
     1
102
RTVSPost2010Prop41ColorIndex
 90
       18
102
RTVSPost2010Prop41ColorRGB
 90
        0
102
RTVSPost2010PropOp41
 70
     1
102
RTVSPost2010Prop42
 90
       50
102
RTVSPost2010PropOp42
 70
     1
102
RTVSPost2010Prop43
 90
        3
102
RTVSPost2010PropOp43
 70
     1
102
RTVSPost2010Prop44ColorIndex
 90
        5
102
RTVSPost2010Prop44ColorRGB
 90
      255
102
RTVSPost2010PropOp44
 70
     1
102
RTVSPost2010Prop45
280
     0
102
RTVSPost2010PropOp45
 70
     1
102
RTVSPost2010Prop46
 90
       50
102
RTVSPost2010PropOp46
 70
     1
102
RTVSPost2010Prop47
 90
       50
102
RTVSPost2010PropOp47
 70
     1
102
RTVSPost2010Prop48
 90
       50
102
RTVSPost2010PropOp48
 70
     1
102
RTVSPost2010Prop49
280
     0
102
RTVSPost2010PropOp49
 70
     1
102
RTVSPost2010Prop50
 90
       50
102
RTVSPost2010PropOp50
 70
     1
102
RTVSPost2010Prop51ColorIndex
 90
      256
102
RTVSPost2010Prop51ColorRGB
 90
-16777216
102
RTVSPost2010PropOp51
 70
     0
102
RTVSPost2010Prop52
140
1.0
102
RTVSPost2010PropOp52
 70
     0
102
RTVSPost2010Prop53
 90
        2
102
RTVSPost2010PropOp53
 70
     1
102
RTVSPost2010Prop54
  1
strokes_ogs.tif
102
RTVSPost2010PropOp54
 70
     1
102
RTVSPost2010Prop55
280
     0
102
RTVSPost2010PropOp55
 70
     1
102
RTVSPost2010Prop56
140
1.0
102
RTVSPost2010PropOp56
 70
     1
102
RTVSPost2010Prop57
140
1.0
102
RTVSPost2010PropOp57
 70
     1
102
RTVSPropertyOp0
 70
     1
102
RTVSPropertyOp1
 70
     1
102
RTVSPropertyOp2
 70
     1
102
RTVSPropertyOp3
 70
     1
102
RTVSPropertyOp4
 70
     1
102
RTVSPropertyOp5
 70
     1
102
RTVSPropertyOp6
 70
     1
102
RTVSPropertyOp7
 70
     1
102
RTVSPropertyOp8
 70
     1
102
RTVSPropertyOp9
 70
     1
102
RTVSPropertyOp10
 70
     1
102
RTVSPropertyOp11
 70
     1
102
RTVSPropertyOp12
 70
     1
102
RTVSPropertyOp13
 70
     1
102
RTVSPropertyOp14
 70
     1
102
RTVSPropertyOp15
 70
     1
102
RTVSPropertyOp16
 70
     1
102
RTVSPropertyOp17
 70
     1
102
RTVSPropertyOp18
 70
     1
102
RTVSPropertyOp19
 70
     1
102
RTVSPropertyOp20
 70
     1
102
RTVSPropertyOp21
 70
     1
102
RTVSPropertyOp22
 70
     1
102
RTVSPropertyOp23
 70
     1
102
RTVSPropertyOp24
 70
     1
102
RTVSPropertyOp25
 70
     1
102
RTVSPropertyOp26
 70
     1
102
RTVSPropertyOp27
 70
     1
102
RTVSPropertyOp28
 70
     1
102
RTVSPropertyOp29
 70
     1
102
RTVSPropertyOp30
 70
     1
102
RTVSPropertyOp31
 70
     1
102
RTVSPropertyOp32
 70
     1
102
RTVSPropertyOp33
 70
     1
102
RTVSPropertyOp34
 70
     1
102
RTVSPropertyOp35
 70
     1
102
RTVSPropertyOp36
 70
     1
102
RTVSPropertyOp37
 70
     1
102
RTVSPropertyOp38
 70
     1
102
RTVSPropertyOp39
 70
     1
102
RTVSPropertyOp40
 70
     1
102
RTVSPropertyOp41
 70
     1
102
RTVSPropertyOp42
 70
     1
102
RTVSPropertyOp43
 70
     1
102
RTVSPropertyOp44
 70
     1
102
RTVSPropertyOp45
 70
     1
102
RTVSPropertyOp46
 70
     1
102
RTVSPropertyOp47
 70
     1
102
RTVSPropertyOp48
 70
     1
102
RTVSPropertyOp49
 70
     1
102
RTVSPropertyOp50
 70
     1
102
RTVSPropertyOp51
 70
     0
102
RTVSPropertyOp52
 70
     0
102
RTVSPropertyOp53
 70
     1
102
RTVSPropertyOp54
 70
     1
102
RTVSPropertyOp55
 70
     1
102
RTVSPropertyOp56
 70
     1
102
RTVSPropertyOp57
 70
     1
102
RTVSPropertyOp58
 70
     1
102
RTVSPropertyOp59
 70
     1
102
RTVSPropertyOp60
 70
     1
102
RTVSPropertyOp61
 70
     1
102
RTVSPropertyOp62
 70
     1
  0
XRECORD
  5
380
102
{ACAD_REACTORS
330
37F
102
}
330
37F
100
AcDbXrecord
280
     1
102
RTVSPost2010Prop28
280
     0
102
RTVSPost2010PropOp28
 70
     1
102
RTVSPost2010Prop29
280
     1
102
RTVSPost2010PropOp29
 70
     1
102
RTVSPost2010Prop30
280
     1
102
RTVSPost2010PropOp30
 70
     1
102
RTVSPost2010Prop31
280
     0
102
RTVSPost2010PropOp31
 70
     1
102
RTVSPost2010Prop32
280
     0
102
RTVSPost2010PropOp32
 70
     1
102
RTVSPost2010Prop33
280
     0
102
RTVSPost2010PropOp33
 70
     1
102
RTVSPost2010Prop34
280
     0
102
RTVSPost2010PropOp34
 70
     1
102
RTVSPost2010Prop35
280
     0
102
RTVSPost2010PropOp35
 70
     1
102
RTVSPost2010Prop36
280
     0
102
RTVSPost2010PropOp36
 70
     1
102
RTVSPost2010Prop37
 90
       50
102
RTVSPost2010PropOp37
 70
     1
102
RTVSPost2010Prop38
140
0.0
102
RTVSPost2010PropOp38
 70
     1
102
RTVSPost2010Prop39
140
1.0
102
RTVSPost2010PropOp39
 70
     1
102
RTVSPost2010Prop40
 90
        0
102
RTVSPost2010PropOp40
 70
     1
102
RTVSPost2010Prop41ColorIndex
 90
       18
102
RTVSPost2010Prop41ColorRGB
 90
        0
102
RTVSPost2010PropOp41
 70
     1
102
RTVSPost2010Prop42
 90
       50
102
RTVSPost2010PropOp42
 70
     1
102
RTVSPost2010Prop43
 90
        3
102
RTVSPost2010PropOp43
 70
     1
102
RTVSPost2010Prop44ColorIndex
 90
        5
102
RTVSPost2010Prop44ColorRGB
 90
      255
102
RTVSPost2010PropOp44
 70
     1
102
RTVSPost2010Prop45
280
     0
102
RTVSPost2010PropOp45
 70
     1
102
RTVSPost2010Prop46
 90
       50
102
RTVSPost2010PropOp46
 70
     1
102
RTVSPost2010Prop47
 90
       50
102
RTVSPost2010PropOp47
 70
     1
102
RTVSPost2010Prop48
 90
       50
102
RTVSPost2010PropOp48
 70
     1
102
RTVSPost2010Prop49
280
     0
102
RTVSPost2010PropOp49
 70
     1
102
RTVSPost2010Prop50
 90
       50
102
RTVSPost2010PropOp50
 70
     1
102
RTVSPost2010Prop51ColorIndex
 90
      256
102
RTVSPost2010Prop51ColorRGB
 90
-16777216
102
RTVSPost2010PropOp51
 70
     0
102
RTVSPost2010Prop52
140
1.0
102
RTVSPost2010PropOp52
 70
     0
102
RTVSPost2010Prop53
 90
        2
102
RTVSPost2010PropOp53
 70
     1
102
RTVSPost2010Prop54
  1
strokes_ogs.tif
102
RTVSPost2010PropOp54
 70
     1
102
RTVSPost2010Prop55
280
     0
102
RTVSPost2010PropOp55
 70
     1
102
RTVSPost2010Prop56
140
1.0
102
RTVSPost2010PropOp56
 70
     1
102
RTVSPost2010Prop57
140
1.0
102
RTVSPost2010PropOp57
 70
     1
102
RTVSPropertyOp0
 70
     1
102
RTVSPropertyOp1
 70
     1
102
RTVSPropertyOp2
 70
     1
102
RTVSPropertyOp3
 70
     1
102
RTVSPropertyOp4
 70
     1
102
RTVSPropertyOp5
 70
     1
102
RTVSPropertyOp6
 70
     1
102
RTVSPropertyOp7
 70
     1
102
RTVSPropertyOp8
 70
     1
102
RTVSPropertyOp9
 70
     1
102
RTVSPropertyOp10
 70
     1
102
RTVSPropertyOp11
 70
     1
102
RTVSPropertyOp12
 70
     1
102
RTVSPropertyOp13
 70
     1
102
RTVSPropertyOp14
 70
     1
102
RTVSPropertyOp15
 70
     1
102
RTVSPropertyOp16
 70
     1
102
RTVSPropertyOp17
 70
     1
102
RTVSPropertyOp18
 70
     1
102
RTVSPropertyOp19
 70
     1
102
RTVSPropertyOp20
 70
     1
102
RTVSPropertyOp21
 70
     1
102
RTVSPropertyOp22
 70
     1
102
RTVSPropertyOp23
 70
     1
102
RTVSPropertyOp24
 70
     1
102
RTVSPropertyOp25
 70
     1
102
RTVSPropertyOp26
 70
     1
102
RTVSPropertyOp27
 70
     1
102
RTVSPropertyOp28
 70
     1
102
RTVSPropertyOp29
 70
     1
102
RTVSPropertyOp30
 70
     1
102
RTVSPropertyOp31
 70
     1
102
RTVSPropertyOp32
 70
     1
102
RTVSPropertyOp33
 70
     1
102
RTVSPropertyOp34
 70
     1
102
RTVSPropertyOp35
 70
     1
102
RTVSPropertyOp36
 70
     1
102
RTVSPropertyOp37
 70
     1
102
RTVSPropertyOp38
 70
     1
102
RTVSPropertyOp39
 70
     1
102
RTVSPropertyOp40
 70
     1
102
RTVSPropertyOp41
 70
     1
102
RTVSPropertyOp42
 70
     1
102
RTVSPropertyOp43
 70
     1
102
RTVSPropertyOp44
 70
     1
102
RTVSPropertyOp45
 70
     1
102
RTVSPropertyOp46
 70
     1
102
RTVSPropertyOp47
 70
     1
102
RTVSPropertyOp48
 70
     1
102
RTVSPropertyOp49
 70
     1
102
RTVSPropertyOp50
 70
     1
102
RTVSPropertyOp51
 70
     0
102
RTVSPropertyOp52
 70
     0
102
RTVSPropertyOp53
 70
     1
102
RTVSPropertyOp54
 70
     1
102
RTVSPropertyOp55
 70
     1
102
RTVSPropertyOp56
 70
     1
102
RTVSPropertyOp57
 70
     1
102
RTVSPropertyOp58
 70
     1
102
RTVSPropertyOp59
 70
     1
102
RTVSPropertyOp60
 70
     1
102
RTVSPropertyOp61
 70
     1
102
RTVSPropertyOp62
 70
     1
  0
XRECORD
  5
374
102
{ACAD_REACTORS
330
373
102
}
330
373
100
AcDbXrecord
280
     1
102
RTVSPost2010Prop28
280
     0
102
RTVSPost2010PropOp28
 70
     1
102
RTVSPost2010Prop29
280
     1
102
RTVSPost2010PropOp29
 70
     1
102
RTVSPost2010Prop30
280
     1
102
RTVSPost2010PropOp30
 70
     1
102
RTVSPost2010Prop31
280
     0
102
RTVSPost2010PropOp31
 70
     1
102
RTVSPost2010Prop32
280
     0
102
RTVSPost2010PropOp32
 70
     1
102
RTVSPost2010Prop33
280
     0
102
RTVSPost2010PropOp33
 70
     1
102
RTVSPost2010Prop34
280
     0
102
RTVSPost2010PropOp34
 70
     1
102
RTVSPost2010Prop35
280
     0
102
RTVSPost2010PropOp35
 70
     1
102
RTVSPost2010Prop36
280
     0
102
RTVSPost2010PropOp36
 70
     1
102
RTVSPost2010Prop37
 90
       50
102
RTVSPost2010PropOp37
 70
     1
102
RTVSPost2010Prop38
140
0.0
102
RTVSPost2010PropOp38
 70
     1
102
RTVSPost2010Prop39
140
1.0
102
RTVSPost2010PropOp39
 70
     1
102
RTVSPost2010Prop40
 90
        0
102
RTVSPost2010PropOp40
 70
     1
102
RTVSPost2010Prop41ColorIndex
 90
       18
102
RTVSPost2010Prop41ColorRGB
 90
        0
102
RTVSPost2010PropOp41
 70
     1
102
RTVSPost2010Prop42
 90
       50
102
RTVSPost2010PropOp42
 70
     1
102
RTVSPost2010Prop43
 90
        3
102
RTVSPost2010PropOp43
 70
     1
102
RTVSPost2010Prop44ColorIndex
 90
        5
102
RTVSPost2010Prop44ColorRGB
 90
      255
102
RTVSPost2010PropOp44
 70
     1
102
RTVSPost2010Prop45
280
     0
102
RTVSPost2010PropOp45
 70
     1
102
RTVSPost2010Prop46
 90
       50
102
RTVSPost2010PropOp46
 70
     1
102
RTVSPost2010Prop47
 90
       50
102
RTVSPost2010PropOp47
 70
     1
102
RTVSPost2010Prop48
 90
       50
102
RTVSPost2010PropOp48
 70
     1
102
RTVSPost2010Prop49
280
     0
102
RTVSPost2010PropOp49
 70
     1
102
RTVSPost2010Prop50
 90
       50
102
RTVSPost2010PropOp50
 70
     1
102
RTVSPost2010Prop51ColorIndex
 90
      256
102
RTVSPost2010Prop51ColorRGB
 90
-16777216
102
RTVSPost2010PropOp51
 70
     0
102
RTVSPost2010Prop52
140
1.0
102
RTVSPost2010PropOp52
 70
     0
102
RTVSPost2010Prop53
 90
        2
102
RTVSPost2010PropOp53
 70
     1
102
RTVSPost2010Prop54
  1
strokes_ogs.tif
102
RTVSPost2010PropOp54
 70
     1
102
RTVSPost2010Prop55
280
     0
102
RTVSPost2010PropOp55
 70
     1
102
RTVSPost2010Prop56
140
1.0
102
RTVSPost2010PropOp56
 70
     1
102
RTVSPost2010Prop57
140
1.0
102
RTVSPost2010PropOp57
 70
     1
102
RTVSPropertyOp0
 70
     1
102
RTVSPropertyOp1
 70
     1
102
RTVSPropertyOp2
 70
     1
102
RTVSPropertyOp3
 70
     1
102
RTVSPropertyOp4
 70
     1
102
RTVSPropertyOp5
 70
     1
102
RTVSPropertyOp6
 70
     1
102
RTVSPropertyOp7
 70
     1
102
RTVSPropertyOp8
 70
     1
102
RTVSPropertyOp9
 70
     1
102
RTVSPropertyOp10
 70
     1
102
RTVSPropertyOp11
 70
     1
102
RTVSPropertyOp12
 70
     1
102
RTVSPropertyOp13
 70
     1
102
RTVSPropertyOp14
 70
     1
102
RTVSPropertyOp15
 70
     1
102
RTVSPropertyOp16
 70
     1
102
RTVSPropertyOp17
 70
     1
102
RTVSPropertyOp18
 70
     1
102
RTVSPropertyOp19
 70
     1
102
RTVSPropertyOp20
 70
     1
102
RTVSPropertyOp21
 70
     1
102
RTVSPropertyOp22
 70
     1
102
RTVSPropertyOp23
 70
     1
102
RTVSPropertyOp24
 70
     1
102
RTVSPropertyOp25
 70
     1
102
RTVSPropertyOp26
 70
     1
102
RTVSPropertyOp27
 70
     1
102
RTVSPropertyOp28
 70
     1
102
RTVSPropertyOp29
 70
     1
102
RTVSPropertyOp30
 70
     1
102
RTVSPropertyOp31
 70
     1
102
RTVSPropertyOp32
 70
     1
102
RTVSPropertyOp33
 70
     1
102
RTVSPropertyOp34
 70
     1
102
RTVSPropertyOp35
 70
     1
102
RTVSPropertyOp36
 70
     1
102
RTVSPropertyOp37
 70
     1
102
RTVSPropertyOp38
 70
     1
102
RTVSPropertyOp39
 70
     1
102
RTVSPropertyOp40
 70
     1
102
RTVSPropertyOp41
 70
     1
102
RTVSPropertyOp42
 70
     1
102
RTVSPropertyOp43
 70
     1
102
RTVSPropertyOp44
 70
     1
102
RTVSPropertyOp45
 70
     1
102
RTVSPropertyOp46
 70
     1
102
RTVSPropertyOp47
 70
     1
102
RTVSPropertyOp48
 70
     1
102
RTVSPropertyOp49
 70
     1
102
RTVSPropertyOp50
 70
     1
102
RTVSPropertyOp51
 70
     0
102
RTVSPropertyOp52
 70
     0
102
RTVSPropertyOp53
 70
     1
102
RTVSPropertyOp54
 70
     1
102
RTVSPropertyOp55
 70
     1
102
RTVSPropertyOp56
 70
     1
102
RTVSPropertyOp57
 70
     1
102
RTVSPropertyOp58
 70
     1
102
RTVSPropertyOp59
 70
     1
102
RTVSPropertyOp60
 70
     1
102
RTVSPropertyOp61
 70
     1
102
RTVSPropertyOp62
 70
     1
  0
XRECORD
  5
376
102
{ACAD_REACTORS
330
375
102
}
330
375
100
AcDbXrecord
280
     1
102
RTVSPost2010Prop28
280
     0
102
RTVSPost2010PropOp28
 70
     1
102
RTVSPost2010Prop29
280
     1
102
RTVSPost2010PropOp29
 70
     1
102
RTVSPost2010Prop30
280
     1
102
RTVSPost2010PropOp30
 70
     1
102
RTVSPost2010Prop31
280
     0
102
RTVSPost2010PropOp31
 70
     1
102
RTVSPost2010Prop32
280
     0
102
RTVSPost2010PropOp32
 70
     1
102
RTVSPost2010Prop33
280
     0
102
RTVSPost2010PropOp33
 70
     1
102
RTVSPost2010Prop34
280
     0
102
RTVSPost2010PropOp34
 70
     1
102
RTVSPost2010Prop35
280
     0
102
RTVSPost2010PropOp35
 70
     1
102
RTVSPost2010Prop36
280
     0
102
RTVSPost2010PropOp36
 70
     1
102
RTVSPost2010Prop37
 90
       50
102
RTVSPost2010PropOp37
 70
     1
102
RTVSPost2010Prop38
140
0.0
102
RTVSPost2010PropOp38
 70
     1
102
RTVSPost2010Prop39
140
1.0
102
RTVSPost2010PropOp39
 70
     1
102
RTVSPost2010Prop40
 90
        0
102
RTVSPost2010PropOp40
 70
     1
102
RTVSPost2010Prop41ColorIndex
 90
       18
102
RTVSPost2010Prop41ColorRGB
 90
        0
102
RTVSPost2010PropOp41
 70
     1
102
RTVSPost2010Prop42
 90
       50
102
RTVSPost2010PropOp42
 70
     1
102
RTVSPost2010Prop43
 90
        3
102
RTVSPost2010PropOp43
 70
     1
102
RTVSPost2010Prop44ColorIndex
 90
        5
102
RTVSPost2010Prop44ColorRGB
 90
      255
102
RTVSPost2010PropOp44
 70
     1
102
RTVSPost2010Prop45
280
     0
102
RTVSPost2010PropOp45
 70
     1
102
RTVSPost2010Prop46
 90
       50
102
RTVSPost2010PropOp46
 70
     1
102
RTVSPost2010Prop47
 90
       50
102
RTVSPost2010PropOp47
 70
     1
102
RTVSPost2010Prop48
 90
       50
102
RTVSPost2010PropOp48
 70
     1
102
RTVSPost2010Prop49
280
     0
102
RTVSPost2010PropOp49
 70
     1
102
RTVSPost2010Prop50
 90
       50
102
RTVSPost2010PropOp50
 70
     1
102
RTVSPost2010Prop51ColorIndex
 90
      256
102
RTVSPost2010Prop51ColorRGB
 90
-16777216
102
RTVSPost2010PropOp51
 70
     0
102
RTVSPost2010Prop52
140
1.0
102
RTVSPost2010PropOp52
 70
     0
102
RTVSPost2010Prop53
 90
        2
102
RTVSPost2010PropOp53
 70
     1
102
RTVSPost2010Prop54
  1
strokes_ogs.tif
102
RTVSPost2010PropOp54
 70
     1
102
RTVSPost2010Prop55
280
     0
102
RTVSPost2010PropOp55
 70
     1
102
RTVSPost2010Prop56
140
1.0
102
RTVSPost2010PropOp56
 70
     1
102
RTVSPost2010Prop57
140
1.0
102
RTVSPost2010PropOp57
 70
     1
102
RTVSPropertyOp0
 70
     1
102
RTVSPropertyOp1
 70
     1
102
RTVSPropertyOp2
 70
     1
102
RTVSPropertyOp3
 70
     1
102
RTVSPropertyOp4
 70
     1
102
RTVSPropertyOp5
 70
     1
102
RTVSPropertyOp6
 70
     1
102
RTVSPropertyOp7
 70
     1
102
RTVSPropertyOp8
 70
     1
102
RTVSPropertyOp9
 70
     1
102
RTVSPropertyOp10
 70
     1
102
RTVSPropertyOp11
 70
     1
102
RTVSPropertyOp12
 70
     1
102
RTVSPropertyOp13
 70
     1
102
RTVSPropertyOp14
 70
     1
102
RTVSPropertyOp15
 70
     1
102
RTVSPropertyOp16
 70
     1
102
RTVSPropertyOp17
 70
     1
102
RTVSPropertyOp18
 70
     1
102
RTVSPropertyOp19
 70
     1
102
RTVSPropertyOp20
 70
     1
102
RTVSPropertyOp21
 70
     1
102
RTVSPropertyOp22
 70
     1
102
RTVSPropertyOp23
 70
     1
102
RTVSPropertyOp24
 70
     1
102
RTVSPropertyOp25
 70
     1
102
RTVSPropertyOp26
 70
     1
102
RTVSPropertyOp27
 70
     1
102
RTVSPropertyOp28
 70
     1
102
RTVSPropertyOp29
 70
     1
102
RTVSPropertyOp30
 70
     1
102
RTVSPropertyOp31
 70
     1
102
RTVSPropertyOp32
 70
     1
102
RTVSPropertyOp33
 70
     1
102
RTVSPropertyOp34
 70
     1
102
RTVSPropertyOp35
 70
     1
102
RTVSPropertyOp36
 70
     1
102
RTVSPropertyOp37
 70
     1
102
RTVSPropertyOp38
 70
     1
102
RTVSPropertyOp39
 70
     1
102
RTVSPropertyOp40
 70
     1
102
RTVSPropertyOp41
 70
     1
102
RTVSPropertyOp42
 70
     1
102
RTVSPropertyOp43
 70
     1
102
RTVSPropertyOp44
 70
     1
102
RTVSPropertyOp45
 70
     1
102
RTVSPropertyOp46
 70
     1
102
RTVSPropertyOp47
 70
     1
102
RTVSPropertyOp48
 70
     1
102
RTVSPropertyOp49
 70
     1
102
RTVSPropertyOp50
 70
     1
102
RTVSPropertyOp51
 70
     0
102
RTVSPropertyOp52
 70
     0
102
RTVSPropertyOp53
 70
     1
102
RTVSPropertyOp54
 70
     1
102
RTVSPropertyOp55
 70
     1
102
RTVSPropertyOp56
 70
     1
102
RTVSPropertyOp57
 70
     1
102
RTVSPropertyOp58
 70
     1
102
RTVSPropertyOp59
 70
     1
102
RTVSPropertyOp60
 70
     1
102
RTVSPropertyOp61
 70
     1
102
RTVSPropertyOp62
 70
     1
  0
XRECORD
  5
386
102
{ACAD_REACTORS
330
385
102
}
330
385
100
AcDbXrecord
280
     1
102
RTVSPost2010Prop28
280
     0
102
RTVSPost2010PropOp28
 70
     0
102
RTVSPost2010Prop29
280
     1
102
RTVSPost2010PropOp29
 70
     0
102
RTVSPost2010Prop30
280
     1
102
RTVSPost2010PropOp30
 70
     0
102
RTVSPost2010Prop31
280
     0
102
RTVSPost2010PropOp31
 70
     0
102
RTVSPost2010Prop32
280
     0
102
RTVSPost2010PropOp32
 70
     0
102
RTVSPost2010Prop33
280
     0
102
RTVSPost2010PropOp33
 70
     0
102
RTVSPost2010Prop34
280
     0
102
RTVSPost2010PropOp34
 70
     0
102
RTVSPost2010Prop35
280
     0
102
RTVSPost2010PropOp35
 70
     0
102
RTVSPost2010Prop36
280
     0
102
RTVSPost2010PropOp36
 70
     0
102
RTVSPost2010Prop37
 90
       50
102
RTVSPost2010PropOp37
 70
     0
102
RTVSPost2010Prop38
140
0.0
102
RTVSPost2010PropOp38
 70
     0
102
RTVSPost2010Prop39
140
1.0
102
RTVSPost2010PropOp39
 70
     0
102
RTVSPost2010Prop40
 90
        0
102
RTVSPost2010PropOp40
 70
     0
102
RTVSPost2010Prop41ColorIndex
 90
       18
102
RTVSPost2010Prop41ColorRGB
 90
        0
102
RTVSPost2010PropOp41
 70
     0
102
RTVSPost2010Prop42
 90
       50
102
RTVSPost2010PropOp42
 70
     0
102
RTVSPost2010Prop43
 90
        3
102
RTVSPost2010PropOp43
 70
     0
102
RTVSPost2010Prop44ColorIndex
 90
        5
102
RTVSPost2010Prop44ColorRGB
 90
      255
102
RTVSPost2010PropOp44
 70
     0
102
RTVSPost2010Prop45
280
     0
102
RTVSPost2010PropOp45
 70
     0
102
RTVSPost2010Prop46
 90
       50
102
RTVSPost2010PropOp46
 70
     0
102
RTVSPost2010Prop47
 90
       50
102
RTVSPost2010PropOp47
 70
     0
102
RTVSPost2010Prop48
 90
       50
102
RTVSPost2010PropOp48
 70
     0
102
RTVSPost2010Prop49
280
     0
102
RTVSPost2010PropOp49
 70
     0
102
RTVSPost2010Prop50
 90
       50
102
RTVSPost2010PropOp50
 70
     0
102
RTVSPost2010Prop51ColorIndex
 90
      256
102
RTVSPost2010Prop51ColorRGB
 90
-16777216
102
RTVSPost2010PropOp51
 70
     0
102
RTVSPost2010Prop52
140
1.0
102
RTVSPost2010PropOp52
 70
     0
102
RTVSPost2010Prop53
 90
        2
102
RTVSPost2010PropOp53
 70
     0
102
RTVSPost2010Prop54
  1
strokes_ogs.tif
102
RTVSPost2010PropOp54
 70
     0
102
RTVSPost2010Prop55
280
     0
102
RTVSPost2010PropOp55
 70
     0
102
RTVSPost2010Prop56
140
1.0
102
RTVSPost2010PropOp56
 70
     0
102
RTVSPost2010Prop57
140
1.0
102
RTVSPost2010PropOp57
 70
     0
102
RTVSPropertyOp0
 70
     0
102
RTVSPropertyOp1
 70
     0
102
RTVSPropertyOp2
 70
     0
102
RTVSPropertyOp3
 70
     0
102
RTVSPropertyOp4
 70
     0
102
RTVSPropertyOp5
 70
     0
102
RTVSPropertyOp6
 70
     0
102
RTVSPropertyOp7
 70
     0
102
RTVSPropertyOp8
 70
     0
102
RTVSPropertyOp9
 70
     0
102
RTVSPropertyOp10
 70
     0
102
RTVSPropertyOp11
 70
     0
102
RTVSPropertyOp12
 70
     0
102
RTVSPropertyOp13
 70
     0
102
RTVSPropertyOp14
 70
     2
102
RTVSPropertyOp15
 70
     0
102
RTVSPropertyOp16
 70
     0
102
RTVSPropertyOp17
 70
     0
102
RTVSPropertyOp18
 70
     0
102
RTVSPropertyOp19
 70
     0
102
RTVSPropertyOp20
 70
     0
102
RTVSPropertyOp21
 70
     0
102
RTVSPropertyOp22
 70
     0
102
RTVSPropertyOp23
 70
     0
102
RTVSPropertyOp24
 70
     0
102
RTVSPropertyOp25
 70
     0
102
RTVSPropertyOp26
 70
     0
102
RTVSPropertyOp27
 70
     0
102
RTVSPropertyOp28
 70
     0
102
RTVSPropertyOp29
 70
     0
102
RTVSPropertyOp30
 70
     0
102
RTVSPropertyOp31
 70
     0
102
RTVSPropertyOp32
 70
     0
102
RTVSPropertyOp33
 70
     0
102
RTVSPropertyOp34
 70
     0
102
RTVSPropertyOp35
 70
     0
102
RTVSPropertyOp36
 70
     0
102
RTVSPropertyOp37
 70
     0
102
RTVSPropertyOp38
 70
     0
102
RTVSPropertyOp39
 70
     0
102
RTVSPropertyOp40
 70
     0
102
RTVSPropertyOp41
 70
     0
102
RTVSPropertyOp42
 70
     0
102
RTVSPropertyOp43
 70
     0
102
RTVSPropertyOp44
 70
     0
102
RTVSPropertyOp45
 70
     0
102
RTVSPropertyOp46
 70
     0
102
RTVSPropertyOp47
 70
     0
102
RTVSPropertyOp48
 70
     0
102
RTVSPropertyOp49
 70
     0
102
RTVSPropertyOp50
 70
     0
102
RTVSPropertyOp51
 70
     0
102
RTVSPropertyOp52
 70
     0
102
RTVSPropertyOp53
 70
     0
102
RTVSPropertyOp54
 70
     0
102
RTVSPropertyOp55
 70
     0
102
RTVSPropertyOp56
 70
     0
102
RTVSPropertyOp57
 70
     0
102
RTVSPropertyOp58
 70
     1
102
RTVSPropertyOp59
 70
     1
102
RTVSPropertyOp60
 70
     1
102
RTVSPropertyOp61
 70
     1
102
RTVSPropertyOp62
 70
     1
  0
XRECORD
  5
37E
102
{ACAD_REACTORS
330
37D
102
}
330
37D
100
AcDbXrecord
280
     1
102
RTVSPost2010Prop28
280
     0
102
RTVSPost2010PropOp28
 70
     1
102
RTVSPost2010Prop29
280
     1
102
RTVSPost2010PropOp29
 70
     1
102
RTVSPost2010Prop30
280
     1
102
RTVSPost2010PropOp30
 70
     1
102
RTVSPost2010Prop31
280
     0
102
RTVSPost2010PropOp31
 70
     1
102
RTVSPost2010Prop32
280
     0
102
RTVSPost2010PropOp32
 70
     1
102
RTVSPost2010Prop33
280
     0
102
RTVSPost2010PropOp33
 70
     1
102
RTVSPost2010Prop34
280
     0
102
RTVSPost2010PropOp34
 70
     1
102
RTVSPost2010Prop35
280
     0
102
RTVSPost2010PropOp35
 70
     1
102
RTVSPost2010Prop36
280
     0
102
RTVSPost2010PropOp36
 70
     1
102
RTVSPost2010Prop37
 90
       50
102
RTVSPost2010PropOp37
 70
     1
102
RTVSPost2010Prop38
140
0.0
102
RTVSPost2010PropOp38
 70
     1
102
RTVSPost2010Prop39
140
1.0
102
RTVSPost2010PropOp39
 70
     1
102
RTVSPost2010Prop40
 90
        0
102
RTVSPost2010PropOp40
 70
     1
102
RTVSPost2010Prop41ColorIndex
 90
       18
102
RTVSPost2010Prop41ColorRGB
 90
        0
102
RTVSPost2010PropOp41
 70
     1
102
RTVSPost2010Prop42
 90
       50
102
RTVSPost2010PropOp42
 70
     1
102
RTVSPost2010Prop43
 90
        3
102
RTVSPost2010PropOp43
 70
     1
102
RTVSPost2010Prop44ColorIndex
 90
        5
102
RTVSPost2010Prop44ColorRGB
 90
      255
102
RTVSPost2010PropOp44
 70
     1
102
RTVSPost2010Prop45
280
     0
102
RTVSPost2010PropOp45
 70
     1
102
RTVSPost2010Prop46
 90
       50
102
RTVSPost2010PropOp46
 70
     1
102
RTVSPost2010Prop47
 90
       50
102
RTVSPost2010PropOp47
 70
     1
102
RTVSPost2010Prop48
 90
       50
102
RTVSPost2010PropOp48
 70
     1
102
RTVSPost2010Prop49
280
     0
102
RTVSPost2010PropOp49
 70
     1
102
RTVSPost2010Prop50
 90
       50
102
RTVSPost2010PropOp50
 70
     1
102
RTVSPost2010Prop51ColorIndex
 90
      256
102
RTVSPost2010Prop51ColorRGB
 90
-16777216
102
RTVSPost2010PropOp51
 70
     0
102
RTVSPost2010Prop52
140
1.0
102
RTVSPost2010PropOp52
 70
     0
102
RTVSPost2010Prop53
 90
        2
102
RTVSPost2010PropOp53
 70
     1
102
RTVSPost2010Prop54
  1
strokes_ogs.tif
102
RTVSPost2010PropOp54
 70
     1
102
RTVSPost2010Prop55
280
     0
102
RTVSPost2010PropOp55
 70
     1
102
RTVSPost2010Prop56
140
1.0
102
RTVSPost2010PropOp56
 70
     1
102
RTVSPost2010Prop57
140
1.0
102
RTVSPost2010PropOp57
 70
     1
102
RTVSPropertyOp0
 70
     1
102
RTVSPropertyOp1
 70
     1
102
RTVSPropertyOp2
 70
     1
102
RTVSPropertyOp3
 70
     1
102
RTVSPropertyOp4
 70
     1
102
RTVSPropertyOp5
 70
     1
102
RTVSPropertyOp6
 70
     1
102
RTVSPropertyOp7
 70
     1
102
RTVSPropertyOp8
 70
     1
102
RTVSPropertyOp9
 70
     1
102
RTVSPropertyOp10
 70
     1
102
RTVSPropertyOp11
 70
     1
102
RTVSPropertyOp12
 70
     1
102
RTVSPropertyOp13
 70
     1
102
RTVSPropertyOp14
 70
     1
102
RTVSPropertyOp15
 70
     1
102
RTVSPropertyOp16
 70
     1
102
RTVSPropertyOp17
 70
     1
102
RTVSPropertyOp18
 70
     1
102
RTVSPropertyOp19
 70
     1
102
RTVSPropertyOp20
 70
     1
102
RTVSPropertyOp21
 70
     1
102
RTVSPropertyOp22
 70
     1
102
RTVSPropertyOp23
 70
     1
102
RTVSPropertyOp24
 70
     1
102
RTVSPropertyOp25
 70
     1
102
RTVSPropertyOp26
 70
     1
102
RTVSPropertyOp27
 70
     1
102
RTVSPropertyOp28
 70
     1
102
RTVSPropertyOp29
 70
     1
102
RTVSPropertyOp30
 70
     1
102
RTVSPropertyOp31
 70
     1
102
RTVSPropertyOp32
 70
     1
102
RTVSPropertyOp33
 70
     1
102
RTVSPropertyOp34
 70
     1
102
RTVSPropertyOp35
 70
     1
102
RTVSPropertyOp36
 70
     1
102
RTVSPropertyOp37
 70
     1
102
RTVSPropertyOp38
 70
     1
102
RTVSPropertyOp39
 70
     1
102
RTVSPropertyOp40
 70
     1
102
RTVSPropertyOp41
 70
     1
102
RTVSPropertyOp42
 70
     1
102
RTVSPropertyOp43
 70
     1
102
RTVSPropertyOp44
 70
     1
102
RTVSPropertyOp45
 70
     1
102
RTVSPropertyOp46
 70
     1
102
RTVSPropertyOp47
 70
     1
102
RTVSPropertyOp48
 70
     1
102
RTVSPropertyOp49
 70
     1
102
RTVSPropertyOp50
 70
     1
102
RTVSPropertyOp51
 70
     0
102
RTVSPropertyOp52
 70
     0
102
RTVSPropertyOp53
 70
     1
102
RTVSPropertyOp54
 70
     1
102
RTVSPropertyOp55
 70
     1
102
RTVSPropertyOp56
 70
     1
102
RTVSPropertyOp57
 70
     1
102
RTVSPropertyOp58
 70
     1
102
RTVSPropertyOp59
 70
     1
102
RTVSPropertyOp60
 70
     1
102
RTVSPropertyOp61
 70
     1
102
RTVSPropertyOp62
 70
     1
  0
XRECORD
  5
362
102
{ACAD_REACTORS
330
361
102
}
330
361
100
AcDbXrecord
280
     1
102
RTVSPost2010Prop28
280
     0
102
RTVSPost2010PropOp28
 70
     1
102
RTVSPost2010Prop29
280
     1
102
RTVSPost2010PropOp29
 70
     1
102
RTVSPost2010Prop30
280
     1
102
RTVSPost2010PropOp30
 70
     1
102
RTVSPost2010Prop31
280
     0
102
RTVSPost2010PropOp31
 70
     1
102
RTVSPost2010Prop32
280
     0
102
RTVSPost2010PropOp32
 70
     1
102
RTVSPost2010Prop33
280
     0
102
RTVSPost2010PropOp33
 70
     1
102
RTVSPost2010Prop34
280
     0
102
RTVSPost2010PropOp34
 70
     1
102
RTVSPost2010Prop35
280
     0
102
RTVSPost2010PropOp35
 70
     1
102
RTVSPost2010Prop36
280
     0
102
RTVSPost2010PropOp36
 70
     1
102
RTVSPost2010Prop37
 90
       50
102
RTVSPost2010PropOp37
 70
     1
102
RTVSPost2010Prop38
140
0.0
102
RTVSPost2010PropOp38
 70
     1
102
RTVSPost2010Prop39
140
1.0
102
RTVSPost2010PropOp39
 70
     1
102
RTVSPost2010Prop40
 90
        0
102
RTVSPost2010PropOp40
 70
     1
102
RTVSPost2010Prop41ColorIndex
 90
       18
102
RTVSPost2010Prop41ColorRGB
 90
        0
102
RTVSPost2010PropOp41
 70
     1
102
RTVSPost2010Prop42
 90
       50
102
RTVSPost2010PropOp42
 70
     1
102
RTVSPost2010Prop43
 90
        3
102
RTVSPost2010PropOp43
 70
     1
102
RTVSPost2010Prop44ColorIndex
 90
        5
102
RTVSPost2010Prop44ColorRGB
 90
      255
102
RTVSPost2010PropOp44
 70
     1
102
RTVSPost2010Prop45
280
     0
102
RTVSPost2010PropOp45
 70
     1
102
RTVSPost2010Prop46
 90
       50
102
RTVSPost2010PropOp46
 70
     1
102
RTVSPost2010Prop47
 90
       50
102
RTVSPost2010PropOp47
 70
     1
102
RTVSPost2010Prop48
 90
       50
102
RTVSPost2010PropOp48
 70
     1
102
RTVSPost2010Prop49
280
     0
102
RTVSPost2010PropOp49
 70
     1
102
RTVSPost2010Prop50
 90
       50
102
RTVSPost2010PropOp50
 70
     1
102
RTVSPost2010Prop51ColorIndex
 90
      256
102
RTVSPost2010Prop51ColorRGB
 90
-16777216
102
RTVSPost2010PropOp51
 70
     0
102
RTVSPost2010Prop52
140
1.0
102
RTVSPost2010PropOp52
 70
     0
102
RTVSPost2010Prop53
 90
        2
102
RTVSPost2010PropOp53
 70
     1
102
RTVSPost2010Prop54
  1
strokes_ogs.tif
102
RTVSPost2010PropOp54
 70
     1
102
RTVSPost2010Prop55
280
     0
102
RTVSPost2010PropOp55
 70
     1
102
RTVSPost2010Prop56
140
1.0
102
RTVSPost2010PropOp56
 70
     1
102
RTVSPost2010Prop57
140
1.0
102
RTVSPost2010PropOp57
 70
     1
102
RTVSPropertyOp0
 70
     1
102
RTVSPropertyOp1
 70
     1
102
RTVSPropertyOp2
 70
     1
102
RTVSPropertyOp3
 70
     1
102
RTVSPropertyOp4
 70
     1
102
RTVSPropertyOp5
 70
     1
102
RTVSPropertyOp6
 70
     1
102
RTVSPropertyOp7
 70
     1
102
RTVSPropertyOp8
 70
     1
102
RTVSPropertyOp9
 70
     1
102
RTVSPropertyOp10
 70
     1
102
RTVSPropertyOp11
 70
     1
102
RTVSPropertyOp12
 70
     1
102
RTVSPropertyOp13
 70
     1
102
RTVSPropertyOp14
 70
     1
102
RTVSPropertyOp15
 70
     1
102
RTVSPropertyOp16
 70
     1
102
RTVSPropertyOp17
 70
     1
102
RTVSPropertyOp18
 70
     1
102
RTVSPropertyOp19
 70
     1
102
RTVSPropertyOp20
 70
     1
102
RTVSPropertyOp21
 70
     1
102
RTVSPropertyOp22
 70
     1
102
RTVSPropertyOp23
 70
     1
102
RTVSPropertyOp24
 70
     1
102
RTVSPropertyOp25
 70
     1
102
RTVSPropertyOp26
 70
     1
102
RTVSPropertyOp27
 70
     1
102
RTVSPropertyOp28
 70
     1
102
RTVSPropertyOp29
 70
     1
102
RTVSPropertyOp30
 70
     1
102
RTVSPropertyOp31
 70
     1
102
RTVSPropertyOp32
 70
     1
102
RTVSPropertyOp33
 70
     1
102
RTVSPropertyOp34
 70
     1
102
RTVSPropertyOp35
 70
     1
102
RTVSPropertyOp36
 70
     1
102
RTVSPropertyOp37
 70
     1
102
RTVSPropertyOp38
 70
     1
102
RTVSPropertyOp39
 70
     1
102
RTVSPropertyOp40
 70
     1
102
RTVSPropertyOp41
 70
     1
102
RTVSPropertyOp42
 70
     1
102
RTVSPropertyOp43
 70
     1
102
RTVSPropertyOp44
 70
     1
102
RTVSPropertyOp45
 70
     1
102
RTVSPropertyOp46
 70
     1
102
RTVSPropertyOp47
 70
     1
102
RTVSPropertyOp48
 70
     1
102
RTVSPropertyOp49
 70
     1
102
RTVSPropertyOp50
 70
     1
102
RTVSPropertyOp51
 70
     0
102
RTVSPropertyOp52
 70
     0
102
RTVSPropertyOp53
 70
     1
102
RTVSPropertyOp54
 70
     1
102
RTVSPropertyOp55
 70
     1
102
RTVSPropertyOp56
 70
     1
102
RTVSPropertyOp57
 70
     1
102
RTVSPropertyOp58
 70
     1
102
RTVSPropertyOp59
 70
     1
102
RTVSPropertyOp60
 70
     1
102
RTVSPropertyOp61
 70
     1
102
RTVSPropertyOp62
 70
     1
  0
XRECORD
  5
364
102
{ACAD_REACTORS
330
363
102
}
330
363
100
AcDbXrecord
280
     1
102
RTVSPost2010Prop28
280
     0
102
RTVSPost2010PropOp28
 70
     1
102
RTVSPost2010Prop29
280
     1
102
RTVSPost2010PropOp29
 70
     1
102
RTVSPost2010Prop30
280
     1
102
RTVSPost2010PropOp30
 70
     1
102
RTVSPost2010Prop31
280
     0
102
RTVSPost2010PropOp31
 70
     1
102
RTVSPost2010Prop32
280
     0
102
RTVSPost2010PropOp32
 70
     1
102
RTVSPost2010Prop33
280
     0
102
RTVSPost2010PropOp33
 70
     1
102
RTVSPost2010Prop34
280
     0
102
RTVSPost2010PropOp34
 70
     1
102
RTVSPost2010Prop35
280
     0
102
RTVSPost2010PropOp35
 70
     1
102
RTVSPost2010Prop36
280
     0
102
RTVSPost2010PropOp36
 70
     1
102
RTVSPost2010Prop37
 90
       50
102
RTVSPost2010PropOp37
 70
     1
102
RTVSPost2010Prop38
140
0.0
102
RTVSPost2010PropOp38
 70
     1
102
RTVSPost2010Prop39
140
1.0
102
RTVSPost2010PropOp39
 70
     1
102
RTVSPost2010Prop40
 90
        0
102
RTVSPost2010PropOp40
 70
     1
102
RTVSPost2010Prop41ColorIndex
 90
       18
102
RTVSPost2010Prop41ColorRGB
 90
        0
102
RTVSPost2010PropOp41
 70
     1
102
RTVSPost2010Prop42
 90
       50
102
RTVSPost2010PropOp42
 70
     1
102
RTVSPost2010Prop43
 90
        3
102
RTVSPost2010PropOp43
 70
     1
102
RTVSPost2010Prop44ColorIndex
 90
        5
102
RTVSPost2010Prop44ColorRGB
 90
      255
102
RTVSPost2010PropOp44
 70
     1
102
RTVSPost2010Prop45
280
     0
102
RTVSPost2010PropOp45
 70
     1
102
RTVSPost2010Prop46
 90
       50
102
RTVSPost2010PropOp46
 70
     1
102
RTVSPost2010Prop47
 90
       50
102
RTVSPost2010PropOp47
 70
     1
102
RTVSPost2010Prop48
 90
       50
102
RTVSPost2010PropOp48
 70
     1
102
RTVSPost2010Prop49
280
     0
102
RTVSPost2010PropOp49
 70
     1
102
RTVSPost2010Prop50
 90
       50
102
RTVSPost2010PropOp50
 70
     1
102
RTVSPost2010Prop51ColorIndex
 90
      256
102
RTVSPost2010Prop51ColorRGB
 90
-16777216
102
RTVSPost2010PropOp51
 70
     0
102
RTVSPost2010Prop52
140
1.0
102
RTVSPost2010PropOp52
 70
     0
102
RTVSPost2010Prop53
 90
        2
102
RTVSPost2010PropOp53
 70
     1
102
RTVSPost2010Prop54
  1
strokes_ogs.tif
102
RTVSPost2010PropOp54
 70
     1
102
RTVSPost2010Prop55
280
     0
102
RTVSPost2010PropOp55
 70
     1
102
RTVSPost2010Prop56
140
1.0
102
RTVSPost2010PropOp56
 70
     1
102
RTVSPost2010Prop57
140
1.0
102
RTVSPost2010PropOp57
 70
     1
102
RTVSPropertyOp0
 70
     1
102
RTVSPropertyOp1
 70
     1
102
RTVSPropertyOp2
 70
     1
102
RTVSPropertyOp3
 70
     1
102
RTVSPropertyOp4
 70
     1
102
RTVSPropertyOp5
 70
     1
102
RTVSPropertyOp6
 70
     1
102
RTVSPropertyOp7
 70
     1
102
RTVSPropertyOp8
 70
     1
102
RTVSPropertyOp9
 70
     1
102
RTVSPropertyOp10
 70
     1
102
RTVSPropertyOp11
 70
     1
102
RTVSPropertyOp12
 70
     1
102
RTVSPropertyOp13
 70
     1
102
RTVSPropertyOp14
 70
     1
102
RTVSPropertyOp15
 70
     1
102
RTVSPropertyOp16
 70
     1
102
RTVSPropertyOp17
 70
     1
102
RTVSPropertyOp18
 70
     1
102
RTVSPropertyOp19
 70
     1
102
RTVSPropertyOp20
 70
     1
102
RTVSPropertyOp21
 70
     1
102
RTVSPropertyOp22
 70
     1
102
RTVSPropertyOp23
 70
     1
102
RTVSPropertyOp24
 70
     1
102
RTVSPropertyOp25
 70
     1
102
RTVSPropertyOp26
 70
     1
102
RTVSPropertyOp27
 70
     1
102
RTVSPropertyOp28
 70
     1
102
RTVSPropertyOp29
 70
     1
102
RTVSPropertyOp30
 70
     1
102
RTVSPropertyOp31
 70
     1
102
RTVSPropertyOp32
 70
     1
102
RTVSPropertyOp33
 70
     1
102
RTVSPropertyOp34
 70
     1
102
RTVSPropertyOp35
 70
     1
102
RTVSPropertyOp36
 70
     1
102
RTVSPropertyOp37
 70
     1
102
RTVSPropertyOp38
 70
     1
102
RTVSPropertyOp39
 70
     1
102
RTVSPropertyOp40
 70
     1
102
RTVSPropertyOp41
 70
     1
102
RTVSPropertyOp42
 70
     1
102
RTVSPropertyOp43
 70
     1
102
RTVSPropertyOp44
 70
     1
102
RTVSPropertyOp45
 70
     1
102
RTVSPropertyOp46
 70
     1
102
RTVSPropertyOp47
 70
     1
102
RTVSPropertyOp48
 70
     1
102
RTVSPropertyOp49
 70
     1
102
RTVSPropertyOp50
 70
     1
102
RTVSPropertyOp51
 70
     0
102
RTVSPropertyOp52
 70
     0
102
RTVSPropertyOp53
 70
     1
102
RTVSPropertyOp54
 70
     1
102
RTVSPropertyOp55
 70
     1
102
RTVSPropertyOp56
 70
     1
102
RTVSPropertyOp57
 70
     1
102
RTVSPropertyOp58
 70
     1
102
RTVSPropertyOp59
 70
     1
102
RTVSPropertyOp60
 70
     1
102
RTVSPropertyOp61
 70
     1
102
RTVSPropertyOp62
 70
     1
  0
XRECORD
  5
366
102
{ACAD_REACTORS
330
365
102
}
330
365
100
AcDbXrecord
280
     1
102
RTVSPost2010Prop28
280
     0
102
RTVSPost2010PropOp28
 70
     1
102
RTVSPost2010Prop29
280
     1
102
RTVSPost2010PropOp29
 70
     1
102
RTVSPost2010Prop30
280
     1
102
RTVSPost2010PropOp30
 70
     1
102
RTVSPost2010Prop31
280
     0
102
RTVSPost2010PropOp31
 70
     1
102
RTVSPost2010Prop32
280
     0
102
RTVSPost2010PropOp32
 70
     1
102
RTVSPost2010Prop33
280
     0
102
RTVSPost2010PropOp33
 70
     1
102
RTVSPost2010Prop34
280
     0
102
RTVSPost2010PropOp34
 70
     1
102
RTVSPost2010Prop35
280
     0
102
RTVSPost2010PropOp35
 70
     1
102
RTVSPost2010Prop36
280
     0
102
RTVSPost2010PropOp36
 70
     1
102
RTVSPost2010Prop37
 90
       50
102
RTVSPost2010PropOp37
 70
     1
102
RTVSPost2010Prop38
140
0.0
102
RTVSPost2010PropOp38
 70
     1
102
RTVSPost2010Prop39
140
1.0
102
RTVSPost2010PropOp39
 70
     1
102
RTVSPost2010Prop40
 90
        0
102
RTVSPost2010PropOp40
 70
     1
102
RTVSPost2010Prop41ColorIndex
 90
       18
102
RTVSPost2010Prop41ColorRGB
 90
        0
102
RTVSPost2010PropOp41
 70
     1
102
RTVSPost2010Prop42
 90
       50
102
RTVSPost2010PropOp42
 70
     1
102
RTVSPost2010Prop43
 90
        3
102
RTVSPost2010PropOp43
 70
     1
102
RTVSPost2010Prop44ColorIndex
 90
        5
102
RTVSPost2010Prop44ColorRGB
 90
      255
102
RTVSPost2010PropOp44
 70
     1
102
RTVSPost2010Prop45
280
     0
102
RTVSPost2010PropOp45
 70
     1
102
RTVSPost2010Prop46
 90
       50
102
RTVSPost2010PropOp46
 70
     1
102
RTVSPost2010Prop47
 90
       50
102
RTVSPost2010PropOp47
 70
     1
102
RTVSPost2010Prop48
 90
       50
102
RTVSPost2010PropOp48
 70
     1
102
RTVSPost2010Prop49
280
     0
102
RTVSPost2010PropOp49
 70
     1
102
RTVSPost2010Prop50
 90
       50
102
RTVSPost2010PropOp50
 70
     1
102
RTVSPost2010Prop51ColorIndex
 90
      256
102
RTVSPost2010Prop51ColorRGB
 90
-16777216
102
RTVSPost2010PropOp51
 70
     0
102
RTVSPost2010Prop52
140
1.0
102
RTVSPost2010PropOp52
 70
     0
102
RTVSPost2010Prop53
 90
        2
102
RTVSPost2010PropOp53
 70
     1
102
RTVSPost2010Prop54
  1
strokes_ogs.tif
102
RTVSPost2010PropOp54
 70
     1
102
RTVSPost2010Prop55
280
     0
102
RTVSPost2010PropOp55
 70
     1
102
RTVSPost2010Prop56
140
1.0
102
RTVSPost2010PropOp56
 70
     1
102
RTVSPost2010Prop57
140
1.0
102
RTVSPost2010PropOp57
 70
     1
102
RTVSPropertyOp0
 70
     1
102
RTVSPropertyOp1
 70
     1
102
RTVSPropertyOp2
 70
     1
102
RTVSPropertyOp3
 70
     1
102
RTVSPropertyOp4
 70
     1
102
RTVSPropertyOp5
 70
     1
102
RTVSPropertyOp6
 70
     1
102
RTVSPropertyOp7
 70
     1
102
RTVSPropertyOp8
 70
     1
102
RTVSPropertyOp9
 70
     1
102
RTVSPropertyOp10
 70
     1
102
RTVSPropertyOp11
 70
     1
102
RTVSPropertyOp12
 70
     1
102
RTVSPropertyOp13
 70
     1
102
RTVSPropertyOp14
 70
     1
102
RTVSPropertyOp15
 70
     1
102
RTVSPropertyOp16
 70
     1
102
RTVSPropertyOp17
 70
     1
102
RTVSPropertyOp18
 70
     1
102
RTVSPropertyOp19
 70
     1
102
RTVSPropertyOp20
 70
     1
102
RTVSPropertyOp21
 70
     1
102
RTVSPropertyOp22
 70
     1
102
RTVSPropertyOp23
 70
     1
102
RTVSPropertyOp24
 70
     1
102
RTVSPropertyOp25
 70
     1
102
RTVSPropertyOp26
 70
     1
102
RTVSPropertyOp27
 70
     1
102
RTVSPropertyOp28
 70
     1
102
RTVSPropertyOp29
 70
     1
102
RTVSPropertyOp30
 70
     1
102
RTVSPropertyOp31
 70
     1
102
RTVSPropertyOp32
 70
     1
102
RTVSPropertyOp33
 70
     1
102
RTVSPropertyOp34
 70
     1
102
RTVSPropertyOp35
 70
     1
102
RTVSPropertyOp36
 70
     1
102
RTVSPropertyOp37
 70
     1
102
RTVSPropertyOp38
 70
     1
102
RTVSPropertyOp39
 70
     1
102
RTVSPropertyOp40
 70
     1
102
RTVSPropertyOp41
 70
     1
102
RTVSPropertyOp42
 70
     1
102
RTVSPropertyOp43
 70
     1
102
RTVSPropertyOp44
 70
     1
102
RTVSPropertyOp45
 70
     1
102
RTVSPropertyOp46
 70
     1
102
RTVSPropertyOp47
 70
     1
102
RTVSPropertyOp48
 70
     1
102
RTVSPropertyOp49
 70
     1
102
RTVSPropertyOp50
 70
     1
102
RTVSPropertyOp51
 70
     0
102
RTVSPropertyOp52
 70
     0
102
RTVSPropertyOp53
 70
     1
102
RTVSPropertyOp54
 70
     1
102
RTVSPropertyOp55
 70
     1
102
RTVSPropertyOp56
 70
     1
102
RTVSPropertyOp57
 70
     1
102
RTVSPropertyOp58
 70
     1
102
RTVSPropertyOp59
 70
     1
102
RTVSPropertyOp60
 70
     1
102
RTVSPropertyOp61
 70
     1
102
RTVSPropertyOp62
 70
     1
  0
XRECORD
  5
368
102
{ACAD_REACTORS
330
367
102
}
330
367
100
AcDbXrecord
280
     1
102
RTVSPost2010Prop28
280
     0
102
RTVSPost2010PropOp28
 70
     1
102
RTVSPost2010Prop29
280
     1
102
RTVSPost2010PropOp29
 70
     1
102
RTVSPost2010Prop30
280
     1
102
RTVSPost2010PropOp30
 70
     1
102
RTVSPost2010Prop31
280
     0
102
RTVSPost2010PropOp31
 70
     1
102
RTVSPost2010Prop32
280
     0
102
RTVSPost2010PropOp32
 70
     1
102
RTVSPost2010Prop33
280
     0
102
RTVSPost2010PropOp33
 70
     1
102
RTVSPost2010Prop34
280
     0
102
RTVSPost2010PropOp34
 70
     1
102
RTVSPost2010Prop35
280
     0
102
RTVSPost2010PropOp35
 70
     1
102
RTVSPost2010Prop36
280
     0
102
RTVSPost2010PropOp36
 70
     1
102
RTVSPost2010Prop37
 90
       50
102
RTVSPost2010PropOp37
 70
     1
102
RTVSPost2010Prop38
140
0.0
102
RTVSPost2010PropOp38
 70
     1
102
RTVSPost2010Prop39
140
1.0
102
RTVSPost2010PropOp39
 70
     1
102
RTVSPost2010Prop40
 90
        0
102
RTVSPost2010PropOp40
 70
     1
102
RTVSPost2010Prop41ColorIndex
 90
       18
102
RTVSPost2010Prop41ColorRGB
 90
        0
102
RTVSPost2010PropOp41
 70
     1
102
RTVSPost2010Prop42
 90
       50
102
RTVSPost2010PropOp42
 70
     1
102
RTVSPost2010Prop43
 90
        3
102
RTVSPost2010PropOp43
 70
     1
102
RTVSPost2010Prop44ColorIndex
 90
        5
102
RTVSPost2010Prop44ColorRGB
 90
      255
102
RTVSPost2010PropOp44
 70
     1
102
RTVSPost2010Prop45
280
     0
102
RTVSPost2010PropOp45
 70
     1
102
RTVSPost2010Prop46
 90
       50
102
RTVSPost2010PropOp46
 70
     1
102
RTVSPost2010Prop47
 90
       50
102
RTVSPost2010PropOp47
 70
     1
102
RTVSPost2010Prop48
 90
       50
102
RTVSPost2010PropOp48
 70
     1
102
RTVSPost2010Prop49
280
     0
102
RTVSPost2010PropOp49
 70
     1
102
RTVSPost2010Prop50
 90
       50
102
RTVSPost2010PropOp50
 70
     1
102
RTVSPost2010Prop51ColorIndex
 90
      256
102
RTVSPost2010Prop51ColorRGB
 90
-16777216
102
RTVSPost2010PropOp51
 70
     0
102
RTVSPost2010Prop52
140
1.0
102
RTVSPost2010PropOp52
 70
     0
102
RTVSPost2010Prop53
 90
        2
102
RTVSPost2010PropOp53
 70
     1
102
RTVSPost2010Prop54
  1
strokes_ogs.tif
102
RTVSPost2010PropOp54
 70
     1
102
RTVSPost2010Prop55
280
     0
102
RTVSPost2010PropOp55
 70
     1
102
RTVSPost2010Prop56
140
1.0
102
RTVSPost2010PropOp56
 70
     1
102
RTVSPost2010Prop57
140
1.0
102
RTVSPost2010PropOp57
 70
     1
102
RTVSPropertyOp0
 70
     1
102
RTVSPropertyOp1
 70
     1
102
RTVSPropertyOp2
 70
     1
102
RTVSPropertyOp3
 70
     1
102
RTVSPropertyOp4
 70
     1
102
RTVSPropertyOp5
 70
     1
102
RTVSPropertyOp6
 70
     1
102
RTVSPropertyOp7
 70
     1
102
RTVSPropertyOp8
 70
     1
102
RTVSPropertyOp9
 70
     1
102
RTVSPropertyOp10
 70
     1
102
RTVSPropertyOp11
 70
     1
102
RTVSPropertyOp12
 70
     1
102
RTVSPropertyOp13
 70
     1
102
RTVSPropertyOp14
 70
     1
102
RTVSPropertyOp15
 70
     1
102
RTVSPropertyOp16
 70
     1
102
RTVSPropertyOp17
 70
     1
102
RTVSPropertyOp18
 70
     1
102
RTVSPropertyOp19
 70
     1
102
RTVSPropertyOp20
 70
     1
102
RTVSPropertyOp21
 70
     1
102
RTVSPropertyOp22
 70
     1
102
RTVSPropertyOp23
 70
     1
102
RTVSPropertyOp24
 70
     1
102
RTVSPropertyOp25
 70
     1
102
RTVSPropertyOp26
 70
     1
102
RTVSPropertyOp27
 70
     1
102
RTVSPropertyOp28
 70
     1
102
RTVSPropertyOp29
 70
     1
102
RTVSPropertyOp30
 70
     1
102
RTVSPropertyOp31
 70
     1
102
RTVSPropertyOp32
 70
     1
102
RTVSPropertyOp33
 70
     1
102
RTVSPropertyOp34
 70
     1
102
RTVSPropertyOp35
 70
     1
102
RTVSPropertyOp36
 70
     1
102
RTVSPropertyOp37
 70
     1
102
RTVSPropertyOp38
 70
     1
102
RTVSPropertyOp39
 70
     1
102
RTVSPropertyOp40
 70
     1
102
RTVSPropertyOp41
 70
     1
102
RTVSPropertyOp42
 70
     1
102
RTVSPropertyOp43
 70
     1
102
RTVSPropertyOp44
 70
     1
102
RTVSPropertyOp45
 70
     1
102
RTVSPropertyOp46
 70
     1
102
RTVSPropertyOp47
 70
     1
102
RTVSPropertyOp48
 70
     1
102
RTVSPropertyOp49
 70
     1
102
RTVSPropertyOp50
 70
     1
102
RTVSPropertyOp51
 70
     0
102
RTVSPropertyOp52
 70
     0
102
RTVSPropertyOp53
 70
     1
102
RTVSPropertyOp54
 70
     1
102
RTVSPropertyOp55
 70
     1
102
RTVSPropertyOp56
 70
     1
102
RTVSPropertyOp57
 70
     1
102
RTVSPropertyOp58
 70
     1
102
RTVSPropertyOp59
 70
     1
102
RTVSPropertyOp60
 70
     1
102
RTVSPropertyOp61
 70
     1
102
RTVSPropertyOp62
 70
     1
  0
XRECORD
  5
36E
102
{ACAD_REACTORS
330
36D
102
}
330
36D
100
AcDbXrecord
280
     1
102
RTVSPost2010Prop28
280
     0
102
RTVSPost2010PropOp28
 70
     1
102
RTVSPost2010Prop29
280
     1
102
RTVSPost2010PropOp29
 70
     1
102
RTVSPost2010Prop30
280
     1
102
RTVSPost2010PropOp30
 70
     1
102
RTVSPost2010Prop31
280
     0
102
RTVSPost2010PropOp31
 70
     1
102
RTVSPost2010Prop32
280
     0
102
RTVSPost2010PropOp32
 70
     1
102
RTVSPost2010Prop33
280
     0
102
RTVSPost2010PropOp33
 70
     1
102
RTVSPost2010Prop34
280
     0
102
RTVSPost2010PropOp34
 70
     1
102
RTVSPost2010Prop35
280
     0
102
RTVSPost2010PropOp35
 70
     1
102
RTVSPost2010Prop36
280
     0
102
RTVSPost2010PropOp36
 70
     1
102
RTVSPost2010Prop37
 90
       50
102
RTVSPost2010PropOp37
 70
     1
102
RTVSPost2010Prop38
140
0.0
102
RTVSPost2010PropOp38
 70
     1
102
RTVSPost2010Prop39
140
1.0
102
RTVSPost2010PropOp39
 70
     1
102
RTVSPost2010Prop40
 90
        0
102
RTVSPost2010PropOp40
 70
     1
102
RTVSPost2010Prop41ColorIndex
 90
       18
102
RTVSPost2010Prop41ColorRGB
 90
        0
102
RTVSPost2010PropOp41
 70
     1
102
RTVSPost2010Prop42
 90
       50
102
RTVSPost2010PropOp42
 70
     1
102
RTVSPost2010Prop43
 90
        3
102
RTVSPost2010PropOp43
 70
     1
102
RTVSPost2010Prop44ColorIndex
 90
        5
102
RTVSPost2010Prop44ColorRGB
 90
      255
102
RTVSPost2010PropOp44
 70
     1
102
RTVSPost2010Prop45
280
     0
102
RTVSPost2010PropOp45
 70
     1
102
RTVSPost2010Prop46
 90
       50
102
RTVSPost2010PropOp46
 70
     1
102
RTVSPost2010Prop47
 90
       50
102
RTVSPost2010PropOp47
 70
     1
102
RTVSPost2010Prop48
 90
       50
102
RTVSPost2010PropOp48
 70
     1
102
RTVSPost2010Prop49
280
     0
102
RTVSPost2010PropOp49
 70
     1
102
RTVSPost2010Prop50
 90
       50
102
RTVSPost2010PropOp50
 70
     1
102
RTVSPost2010Prop51ColorIndex
 90
      256
102
RTVSPost2010Prop51ColorRGB
 90
-16777216
102
RTVSPost2010PropOp51
 70
     0
102
RTVSPost2010Prop52
140
1.0
102
RTVSPost2010PropOp52
 70
     0
102
RTVSPost2010Prop53
 90
        2
102
RTVSPost2010PropOp53
 70
     1
102
RTVSPost2010Prop54
  1
strokes_ogs.tif
102
RTVSPost2010PropOp54
 70
     1
102
RTVSPost2010Prop55
280
     0
102
RTVSPost2010PropOp55
 70
     1
102
RTVSPost2010Prop56
140
1.0
102
RTVSPost2010PropOp56
 70
     1
102
RTVSPost2010Prop57
140
1.0
102
RTVSPost2010PropOp57
 70
     1
102
RTVSPropertyOp0
 70
     1
102
RTVSPropertyOp1
 70
     1
102
RTVSPropertyOp2
 70
     1
102
RTVSPropertyOp3
 70
     1
102
RTVSPropertyOp4
 70
     1
102
RTVSPropertyOp5
 70
     1
102
RTVSPropertyOp6
 70
     1
102
RTVSPropertyOp7
 70
     1
102
RTVSPropertyOp8
 70
     1
102
RTVSPropertyOp9
 70
     1
102
RTVSPropertyOp10
 70
     1
102
RTVSPropertyOp11
 70
     1
102
RTVSPropertyOp12
 70
     1
102
RTVSPropertyOp13
 70
     1
102
RTVSPropertyOp14
 70
     1
102
RTVSPropertyOp15
 70
     1
102
RTVSPropertyOp16
 70
     1
102
RTVSPropertyOp17
 70
     1
102
RTVSPropertyOp18
 70
     1
102
RTVSPropertyOp19
 70
     1
102
RTVSPropertyOp20
 70
     1
102
RTVSPropertyOp21
 70
     1
102
RTVSPropertyOp22
 70
     1
102
RTVSPropertyOp23
 70
     1
102
RTVSPropertyOp24
 70
     1
102
RTVSPropertyOp25
 70
     1
102
RTVSPropertyOp26
 70
     1
102
RTVSPropertyOp27
 70
     1
102
RTVSPropertyOp28
 70
     1
102
RTVSPropertyOp29
 70
     1
102
RTVSPropertyOp30
 70
     1
102
RTVSPropertyOp31
 70
     1
102
RTVSPropertyOp32
 70
     1
102
RTVSPropertyOp33
 70
     1
102
RTVSPropertyOp34
 70
     1
102
RTVSPropertyOp35
 70
     1
102
RTVSPropertyOp36
 70
     1
102
RTVSPropertyOp37
 70
     1
102
RTVSPropertyOp38
 70
     1
102
RTVSPropertyOp39
 70
     1
102
RTVSPropertyOp40
 70
     1
102
RTVSPropertyOp41
 70
     1
102
RTVSPropertyOp42
 70
     1
102
RTVSPropertyOp43
 70
     1
102
RTVSPropertyOp44
 70
     1
102
RTVSPropertyOp45
 70
     1
102
RTVSPropertyOp46
 70
     1
102
RTVSPropertyOp47
 70
     1
102
RTVSPropertyOp48
 70
     1
102
RTVSPropertyOp49
 70
     1
102
RTVSPropertyOp50
 70
     1
102
RTVSPropertyOp51
 70
     0
102
RTVSPropertyOp52
 70
     0
102
RTVSPropertyOp53
 70
     1
102
RTVSPropertyOp54
 70
     1
102
RTVSPropertyOp55
 70
     1
102
RTVSPropertyOp56
 70
     1
102
RTVSPropertyOp57
 70
     1
102
RTVSPropertyOp58
 70
     1
102
RTVSPropertyOp59
 70
     1
102
RTVSPropertyOp60
 70
     1
102
RTVSPropertyOp61
 70
     1
102
RTVSPropertyOp62
 70
     1
  0
XRECORD
  5
382
102
{ACAD_REACTORS
330
381
102
}
330
381
100
AcDbXrecord
280
     1
102
RTVSPost2010Prop28
280
     0
102
RTVSPost2010PropOp28
 70
     0
102
RTVSPost2010Prop29
280
     1
102
RTVSPost2010PropOp29
 70
     0
102
RTVSPost2010Prop30
280
     1
102
RTVSPost2010PropOp30
 70
     0
102
RTVSPost2010Prop31
280
     0
102
RTVSPost2010PropOp31
 70
     0
102
RTVSPost2010Prop32
280
     0
102
RTVSPost2010PropOp32
 70
     0
102
RTVSPost2010Prop33
280
     0
102
RTVSPost2010PropOp33
 70
     0
102
RTVSPost2010Prop34
280
     0
102
RTVSPost2010PropOp34
 70
     0
102
RTVSPost2010Prop35
280
     0
102
RTVSPost2010PropOp35
 70
     0
102
RTVSPost2010Prop36
280
     0
102
RTVSPost2010PropOp36
 70
     0
102
RTVSPost2010Prop37
 90
       50
102
RTVSPost2010PropOp37
 70
     0
102
RTVSPost2010Prop38
140
0.0
102
RTVSPost2010PropOp38
 70
     0
102
RTVSPost2010Prop39
140
1.0
102
RTVSPost2010PropOp39
 70
     0
102
RTVSPost2010Prop40
 90
        0
102
RTVSPost2010PropOp40
 70
     0
102
RTVSPost2010Prop41ColorIndex
 90
       18
102
RTVSPost2010Prop41ColorRGB
 90
        0
102
RTVSPost2010PropOp41
 70
     0
102
RTVSPost2010Prop42
 90
       50
102
RTVSPost2010PropOp42
 70
     0
102
RTVSPost2010Prop43
 90
        3
102
RTVSPost2010PropOp43
 70
     0
102
RTVSPost2010Prop44ColorIndex
 90
        5
102
RTVSPost2010Prop44ColorRGB
 90
      255
102
RTVSPost2010PropOp44
 70
     0
102
RTVSPost2010Prop45
280
     0
102
RTVSPost2010PropOp45
 70
     0
102
RTVSPost2010Prop46
 90
       50
102
RTVSPost2010PropOp46
 70
     0
102
RTVSPost2010Prop47
 90
       50
102
RTVSPost2010PropOp47
 70
     0
102
RTVSPost2010Prop48
 90
       50
102
RTVSPost2010PropOp48
 70
     0
102
RTVSPost2010Prop49
280
     0
102
RTVSPost2010PropOp49
 70
     0
102
RTVSPost2010Prop50
 90
       50
102
RTVSPost2010PropOp50
 70
     0
102
RTVSPost2010Prop51ColorIndex
 90
      256
102
RTVSPost2010Prop51ColorRGB
 90
-16777216
102
RTVSPost2010PropOp51
 70
     0
102
RTVSPost2010Prop52
140
1.0
102
RTVSPost2010PropOp52
 70
     0
102
RTVSPost2010Prop53
 90
        2
102
RTVSPost2010PropOp53
 70
     0
102
RTVSPost2010Prop54
  1
strokes_ogs.tif
102
RTVSPost2010PropOp54
 70
     0
102
RTVSPost2010Prop55
280
     0
102
RTVSPost2010PropOp55
 70
     0
102
RTVSPost2010Prop56
140
1.0
102
RTVSPost2010PropOp56
 70
     0
102
RTVSPost2010Prop57
140
1.0
102
RTVSPost2010PropOp57
 70
     0
102
RTVSPropertyOp0
 70
     0
102
RTVSPropertyOp1
 70
     0
102
RTVSPropertyOp2
 70
     0
102
RTVSPropertyOp3
 70
     0
102
RTVSPropertyOp4
 70
     0
102
RTVSPropertyOp5
 70
     0
102
RTVSPropertyOp6
 70
     0
102
RTVSPropertyOp7
 70
     0
102
RTVSPropertyOp8
 70
     0
102
RTVSPropertyOp9
 70
     0
102
RTVSPropertyOp10
 70
     0
102
RTVSPropertyOp11
 70
     0
102
RTVSPropertyOp12
 70
     0
102
RTVSPropertyOp13
 70
     0
102
RTVSPropertyOp14
 70
     2
102
RTVSPropertyOp15
 70
     0
102
RTVSPropertyOp16
 70
     0
102
RTVSPropertyOp17
 70
     0
102
RTVSPropertyOp18
 70
     0
102
RTVSPropertyOp19
 70
     0
102
RTVSPropertyOp20
 70
     0
102
RTVSPropertyOp21
 70
     0
102
RTVSPropertyOp22
 70
     0
102
RTVSPropertyOp23
 70
     0
102
RTVSPropertyOp24
 70
     0
102
RTVSPropertyOp25
 70
     0
102
RTVSPropertyOp26
 70
     0
102
RTVSPropertyOp27
 70
     0
102
RTVSPropertyOp28
 70
     0
102
RTVSPropertyOp29
 70
     0
102
RTVSPropertyOp30
 70
     0
102
RTVSPropertyOp31
 70
     0
102
RTVSPropertyOp32
 70
     0
102
RTVSPropertyOp33
 70
     0
102
RTVSPropertyOp34
 70
     0
102
RTVSPropertyOp35
 70
     0
102
RTVSPropertyOp36
 70
     0
102
RTVSPropertyOp37
 70
     0
102
RTVSPropertyOp38
 70
     0
102
RTVSPropertyOp39
 70
     0
102
RTVSPropertyOp40
 70
     0
102
RTVSPropertyOp41
 70
     0
102
RTVSPropertyOp42
 70
     0
102
RTVSPropertyOp43
 70
     0
102
RTVSPropertyOp44
 70
     0
102
RTVSPropertyOp45
 70
     0
102
RTVSPropertyOp46
 70
     0
102
RTVSPropertyOp47
 70
     0
102
RTVSPropertyOp48
 70
     0
102
RTVSPropertyOp49
 70
     0
102
RTVSPropertyOp50
 70
     0
102
RTVSPropertyOp51
 70
     0
102
RTVSPropertyOp52
 70
     0
102
RTVSPropertyOp53
 70
     0
102
RTVSPropertyOp54
 70
     0
102
RTVSPropertyOp55
 70
     0
102
RTVSPropertyOp56
 70
     0
102
RTVSPropertyOp57
 70
     0
102
RTVSPropertyOp58
 70
     1
102
RTVSPropertyOp59
 70
     1
102
RTVSPropertyOp60
 70
     1
102
RTVSPropertyOp61
 70
     1
102
RTVSPropertyOp62
 70
     1
  0
XRECORD
  5
37C
102
{ACAD_REACTORS
330
37B
102
}
330
37B
100
AcDbXrecord
280
     1
102
RTVSPost2010Prop28
280
     0
102
RTVSPost2010PropOp28
 70
     1
102
RTVSPost2010Prop29
280
     1
102
RTVSPost2010PropOp29
 70
     1
102
RTVSPost2010Prop30
280
     1
102
RTVSPost2010PropOp30
 70
     1
102
RTVSPost2010Prop31
280
     0
102
RTVSPost2010PropOp31
 70
     1
102
RTVSPost2010Prop32
280
     0
102
RTVSPost2010PropOp32
 70
     1
102
RTVSPost2010Prop33
280
     0
102
RTVSPost2010PropOp33
 70
     1
102
RTVSPost2010Prop34
280
     0
102
RTVSPost2010PropOp34
 70
     1
102
RTVSPost2010Prop35
280
     0
102
RTVSPost2010PropOp35
 70
     1
102
RTVSPost2010Prop36
280
     0
102
RTVSPost2010PropOp36
 70
     1
102
RTVSPost2010Prop37
 90
       50
102
RTVSPost2010PropOp37
 70
     1
102
RTVSPost2010Prop38
140
0.0
102
RTVSPost2010PropOp38
 70
     1
102
RTVSPost2010Prop39
140
1.0
102
RTVSPost2010PropOp39
 70
     1
102
RTVSPost2010Prop40
 90
        0
102
RTVSPost2010PropOp40
 70
     1
102
RTVSPost2010Prop41ColorIndex
 90
       18
102
RTVSPost2010Prop41ColorRGB
 90
        0
102
RTVSPost2010PropOp41
 70
     1
102
RTVSPost2010Prop42
 90
       50
102
RTVSPost2010PropOp42
 70
     1
102
RTVSPost2010Prop43
 90
        3
102
RTVSPost2010PropOp43
 70
     1
102
RTVSPost2010Prop44ColorIndex
 90
        5
102
RTVSPost2010Prop44ColorRGB
 90
      255
102
RTVSPost2010PropOp44
 70
     1
102
RTVSPost2010Prop45
280
     0
102
RTVSPost2010PropOp45
 70
     1
102
RTVSPost2010Prop46
 90
       50
102
RTVSPost2010PropOp46
 70
     1
102
RTVSPost2010Prop47
 90
       50
102
RTVSPost2010PropOp47
 70
     1
102
RTVSPost2010Prop48
 90
       50
102
RTVSPost2010PropOp48
 70
     1
102
RTVSPost2010Prop49
280
     0
102
RTVSPost2010PropOp49
 70
     1
102
RTVSPost2010Prop50
 90
       50
102
RTVSPost2010PropOp50
 70
     1
102
RTVSPost2010Prop51ColorIndex
 90
      256
102
RTVSPost2010Prop51ColorRGB
 90
-16777216
102
RTVSPost2010PropOp51
 70
     0
102
RTVSPost2010Prop52
140
1.0
102
RTVSPost2010PropOp52
 70
     0
102
RTVSPost2010Prop53
 90
        2
102
RTVSPost2010PropOp53
 70
     1
102
RTVSPost2010Prop54
  1
strokes_ogs.tif
102
RTVSPost2010PropOp54
 70
     1
102
RTVSPost2010Prop55
280
     0
102
RTVSPost2010PropOp55
 70
     1
102
RTVSPost2010Prop56
140
1.0
102
RTVSPost2010PropOp56
 70
     1
102
RTVSPost2010Prop57
140
1.0
102
RTVSPost2010PropOp57
 70
     1
102
RTVSPropertyOp0
 70
     1
102
RTVSPropertyOp1
 70
     1
102
RTVSPropertyOp2
 70
     1
102
RTVSPropertyOp3
 70
     1
102
RTVSPropertyOp4
 70
     1
102
RTVSPropertyOp5
 70
     1
102
RTVSPropertyOp6
 70
     1
102
RTVSPropertyOp7
 70
     1
102
RTVSPropertyOp8
 70
     1
102
RTVSPropertyOp9
 70
     1
102
RTVSPropertyOp10
 70
     1
102
RTVSPropertyOp11
 70
     1
102
RTVSPropertyOp12
 70
     1
102
RTVSPropertyOp13
 70
     1
102
RTVSPropertyOp14
 70
     1
102
RTVSPropertyOp15
 70
     1
102
RTVSPropertyOp16
 70
     1
102
RTVSPropertyOp17
 70
     1
102
RTVSPropertyOp18
 70
     1
102
RTVSPropertyOp19
 70
     1
102
RTVSPropertyOp20
 70
     1
102
RTVSPropertyOp21
 70
     1
102
RTVSPropertyOp22
 70
     1
102
RTVSPropertyOp23
 70
     1
102
RTVSPropertyOp24
 70
     1
102
RTVSPropertyOp25
 70
     1
102
RTVSPropertyOp26
 70
     1
102
RTVSPropertyOp27
 70
     1
102
RTVSPropertyOp28
 70
     1
102
RTVSPropertyOp29
 70
     1
102
RTVSPropertyOp30
 70
     1
102
RTVSPropertyOp31
 70
     1
102
RTVSPropertyOp32
 70
     1
102
RTVSPropertyOp33
 70
     1
102
RTVSPropertyOp34
 70
     1
102
RTVSPropertyOp35
 70
     1
102
RTVSPropertyOp36
 70
     1
102
RTVSPropertyOp37
 70
     1
102
RTVSPropertyOp38
 70
     1
102
RTVSPropertyOp39
 70
     1
102
RTVSPropertyOp40
 70
     1
102
RTVSPropertyOp41
 70
     1
102
RTVSPropertyOp42
 70
     1
102
RTVSPropertyOp43
 70
     1
102
RTVSPropertyOp44
 70
     1
102
RTVSPropertyOp45
 70
     1
102
RTVSPropertyOp46
 70
     1
102
RTVSPropertyOp47
 70
     1
102
RTVSPropertyOp48
 70
     1
102
RTVSPropertyOp49
 70
     1
102
RTVSPropertyOp50
 70
     1
102
RTVSPropertyOp51
 70
     0
102
RTVSPropertyOp52
 70
     0
102
RTVSPropertyOp53
 70
     1
102
RTVSPropertyOp54
 70
     1
102
RTVSPropertyOp55
 70
     1
102
RTVSPropertyOp56
 70
     1
102
RTVSPropertyOp57
 70
     1
102
RTVSPropertyOp58
 70
     1
102
RTVSPropertyOp59
 70
     1
102
RTVSPropertyOp60
 70
     1
102
RTVSPropertyOp61
 70
     1
102
RTVSPropertyOp62
 70
     1
  0
XRECORD
  5
384
102
{ACAD_REACTORS
330
383
102
}
330
383
100
AcDbXrecord
280
     1
102
RTVSPost2010Prop28
280
     0
102
RTVSPost2010PropOp28
 70
     0
102
RTVSPost2010Prop29
280
     1
102
RTVSPost2010PropOp29
 70
     0
102
RTVSPost2010Prop30
280
     1
102
RTVSPost2010PropOp30
 70
     0
102
RTVSPost2010Prop31
280
     0
102
RTVSPost2010PropOp31
 70
     0
102
RTVSPost2010Prop32
280
     0
102
RTVSPost2010PropOp32
 70
     0
102
RTVSPost2010Prop33
280
     0
102
RTVSPost2010PropOp33
 70
     0
102
RTVSPost2010Prop34
280
     0
102
RTVSPost2010PropOp34
 70
     0
102
RTVSPost2010Prop35
280
     0
102
RTVSPost2010PropOp35
 70
     0
102
RTVSPost2010Prop36
280
     0
102
RTVSPost2010PropOp36
 70
     0
102
RTVSPost2010Prop37
 90
       50
102
RTVSPost2010PropOp37
 70
     0
102
RTVSPost2010Prop38
140
0.0
102
RTVSPost2010PropOp38
 70
     0
102
RTVSPost2010Prop39
140
1.0
102
RTVSPost2010PropOp39
 70
     0
102
RTVSPost2010Prop40
 90
        0
102
RTVSPost2010PropOp40
 70
     0
102
RTVSPost2010Prop41ColorIndex
 90
       18
102
RTVSPost2010Prop41ColorRGB
 90
        0
102
RTVSPost2010PropOp41
 70
     0
102
RTVSPost2010Prop42
 90
       50
102
RTVSPost2010PropOp42
 70
     0
102
RTVSPost2010Prop43
 90
        3
102
RTVSPost2010PropOp43
 70
     0
102
RTVSPost2010Prop44ColorIndex
 90
        5
102
RTVSPost2010Prop44ColorRGB
 90
      255
102
RTVSPost2010PropOp44
 70
     0
102
RTVSPost2010Prop45
280
     0
102
RTVSPost2010PropOp45
 70
     0
102
RTVSPost2010Prop46
 90
       50
102
RTVSPost2010PropOp46
 70
     0
102
RTVSPost2010Prop47
 90
       50
102
RTVSPost2010PropOp47
 70
     0
102
RTVSPost2010Prop48
 90
       50
102
RTVSPost2010PropOp48
 70
     0
102
RTVSPost2010Prop49
280
     0
102
RTVSPost2010PropOp49
 70
     0
102
RTVSPost2010Prop50
 90
       50
102
RTVSPost2010PropOp50
 70
     0
102
RTVSPost2010Prop51ColorIndex
 90
      256
102
RTVSPost2010Prop51ColorRGB
 90
-16777216
102
RTVSPost2010PropOp51
 70
     0
102
RTVSPost2010Prop52
140
1.0
102
RTVSPost2010PropOp52
 70
     0
102
RTVSPost2010Prop53
 90
        2
102
RTVSPost2010PropOp53
 70
     0
102
RTVSPost2010Prop54
  1
strokes_ogs.tif
102
RTVSPost2010PropOp54
 70
     0
102
RTVSPost2010Prop55
280
     0
102
RTVSPost2010PropOp55
 70
     0
102
RTVSPost2010Prop56
140
1.0
102
RTVSPost2010PropOp56
 70
     0
102
RTVSPost2010Prop57
140
1.0
102
RTVSPost2010PropOp57
 70
     0
102
RTVSPropertyOp0
 70
     0
102
RTVSPropertyOp1
 70
     0
102
RTVSPropertyOp2
 70
     0
102
RTVSPropertyOp3
 70
     0
102
RTVSPropertyOp4
 70
     0
102
RTVSPropertyOp5
 70
     0
102
RTVSPropertyOp6
 70
     0
102
RTVSPropertyOp7
 70
     0
102
RTVSPropertyOp8
 70
     0
102
RTVSPropertyOp9
 70
     0
102
RTVSPropertyOp10
 70
     0
102
RTVSPropertyOp11
 70
     0
102
RTVSPropertyOp12
 70
     0
102
RTVSPropertyOp13
 70
     0
102
RTVSPropertyOp14
 70
     2
102
RTVSPropertyOp15
 70
     0
102
RTVSPropertyOp16
 70
     0
102
RTVSPropertyOp17
 70
     0
102
RTVSPropertyOp18
 70
     0
102
RTVSPropertyOp19
 70
     0
102
RTVSPropertyOp20
 70
     0
102
RTVSPropertyOp21
 70
     0
102
RTVSPropertyOp22
 70
     0
102
RTVSPropertyOp23
 70
     0
102
RTVSPropertyOp24
 70
     0
102
RTVSPropertyOp25
 70
     0
102
RTVSPropertyOp26
 70
     0
102
RTVSPropertyOp27
 70
     0
102
RTVSPropertyOp28
 70
     0
102
RTVSPropertyOp29
 70
     0
102
RTVSPropertyOp30
 70
     0
102
RTVSPropertyOp31
 70
     0
102
RTVSPropertyOp32
 70
     0
102
RTVSPropertyOp33
 70
     0
102
RTVSPropertyOp34
 70
     0
102
RTVSPropertyOp35
 70
     0
102
RTVSPropertyOp36
 70
     0
102
RTVSPropertyOp37
 70
     0
102
RTVSPropertyOp38
 70
     0
102
RTVSPropertyOp39
 70
     0
102
RTVSPropertyOp40
 70
     0
102
RTVSPropertyOp41
 70
     0
102
RTVSPropertyOp42
 70
     0
102
RTVSPropertyOp43
 70
     0
102
RTVSPropertyOp44
 70
     0
102
RTVSPropertyOp45
 70
     0
102
RTVSPropertyOp46
 70
     0
102
RTVSPropertyOp47
 70
     0
102
RTVSPropertyOp48
 70
     0
102
RTVSPropertyOp49
 70
     0
102
RTVSPropertyOp50
 70
     0
102
RTVSPropertyOp51
 70
     0
102
RTVSPropertyOp52
 70
     0
102
RTVSPropertyOp53
 70
     0
102
RTVSPropertyOp54
 70
     0
102
RTVSPropertyOp55
 70
     0
102
RTVSPropertyOp56
 70
     0
102
RTVSPropertyOp57
 70
     0
102
RTVSPropertyOp58
 70
     1
102
RTVSPropertyOp59
 70
     1
102
RTVSPropertyOp60
 70
     1
102
RTVSPropertyOp61
 70
     1
102
RTVSPropertyOp62
 70
     1
  0
XRECORD
  5
372
102
{ACAD_REACTORS
330
371
102
}
330
371
100
AcDbXrecord
280
     1
102
RTVSPost2010Prop28
280
     0
102
RTVSPost2010PropOp28
 70
     1
102
RTVSPost2010Prop29
280
     1
102
RTVSPost2010PropOp29
 70
     1
102
RTVSPost2010Prop30
280
     1
102
RTVSPost2010PropOp30
 70
     1
102
RTVSPost2010Prop31
280
     0
102
RTVSPost2010PropOp31
 70
     1
102
RTVSPost2010Prop32
280
     0
102
RTVSPost2010PropOp32
 70
     1
102
RTVSPost2010Prop33
280
     0
102
RTVSPost2010PropOp33
 70
     1
102
RTVSPost2010Prop34
280
     0
102
RTVSPost2010PropOp34
 70
     1
102
RTVSPost2010Prop35
280
     0
102
RTVSPost2010PropOp35
 70
     1
102
RTVSPost2010Prop36
280
     0
102
RTVSPost2010PropOp36
 70
     1
102
RTVSPost2010Prop37
 90
       50
102
RTVSPost2010PropOp37
 70
     1
102
RTVSPost2010Prop38
140
0.0
102
RTVSPost2010PropOp38
 70
     1
102
RTVSPost2010Prop39
140
1.0
102
RTVSPost2010PropOp39
 70
     1
102
RTVSPost2010Prop40
 90
        0
102
RTVSPost2010PropOp40
 70
     1
102
RTVSPost2010Prop41ColorIndex
 90
       18
102
RTVSPost2010Prop41ColorRGB
 90
        0
102
RTVSPost2010PropOp41
 70
     1
102
RTVSPost2010Prop42
 90
       50
102
RTVSPost2010PropOp42
 70
     1
102
RTVSPost2010Prop43
 90
        3
102
RTVSPost2010PropOp43
 70
     1
102
RTVSPost2010Prop44ColorIndex
 90
        5
102
RTVSPost2010Prop44ColorRGB
 90
      255
102
RTVSPost2010PropOp44
 70
     1
102
RTVSPost2010Prop45
280
     0
102
RTVSPost2010PropOp45
 70
     1
102
RTVSPost2010Prop46
 90
       50
102
RTVSPost2010PropOp46
 70
     1
102
RTVSPost2010Prop47
 90
       50
102
RTVSPost2010PropOp47
 70
     1
102
RTVSPost2010Prop48
 90
       50
102
RTVSPost2010PropOp48
 70
     1
102
RTVSPost2010Prop49
280
     0
102
RTVSPost2010PropOp49
 70
     1
102
RTVSPost2010Prop50
 90
       50
102
RTVSPost2010PropOp50
 70
     1
102
RTVSPost2010Prop51ColorIndex
 90
      256
102
RTVSPost2010Prop51ColorRGB
 90
-16777216
102
RTVSPost2010PropOp51
 70
     0
102
RTVSPost2010Prop52
140
1.0
102
RTVSPost2010PropOp52
 70
     0
102
RTVSPost2010Prop53
 90
        2
102
RTVSPost2010PropOp53
 70
     1
102
RTVSPost2010Prop54
  1
strokes_ogs.tif
102
RTVSPost2010PropOp54
 70
     1
102
RTVSPost2010Prop55
280
     0
102
RTVSPost2010PropOp55
 70
     1
102
RTVSPost2010Prop56
140
1.0
102
RTVSPost2010PropOp56
 70
     1
102
RTVSPost2010Prop57
140
1.0
102
RTVSPost2010PropOp57
 70
     1
102
RTVSPropertyOp0
 70
     1
102
RTVSPropertyOp1
 70
     1
102
RTVSPropertyOp2
 70
     1
102
RTVSPropertyOp3
 70
     1
102
RTVSPropertyOp4
 70
     1
102
RTVSPropertyOp5
 70
     1
102
RTVSPropertyOp6
 70
     1
102
RTVSPropertyOp7
 70
     1
102
RTVSPropertyOp8
 70
     1
102
RTVSPropertyOp9
 70
     1
102
RTVSPropertyOp10
 70
     1
102
RTVSPropertyOp11
 70
     1
102
RTVSPropertyOp12
 70
     1
102
RTVSPropertyOp13
 70
     1
102
RTVSPropertyOp14
 70
     1
102
RTVSPropertyOp15
 70
     1
102
RTVSPropertyOp16
 70
     1
102
RTVSPropertyOp17
 70
     1
102
RTVSPropertyOp18
 70
     1
102
RTVSPropertyOp19
 70
     1
102
RTVSPropertyOp20
 70
     1
102
RTVSPropertyOp21
 70
     1
102
RTVSPropertyOp22
 70
     1
102
RTVSPropertyOp23
 70
     1
102
RTVSPropertyOp24
 70
     1
102
RTVSPropertyOp25
 70
     1
102
RTVSPropertyOp26
 70
     1
102
RTVSPropertyOp27
 70
     1
102
RTVSPropertyOp28
 70
     1
102
RTVSPropertyOp29
 70
     1
102
RTVSPropertyOp30
 70
     1
102
RTVSPropertyOp31
 70
     1
102
RTVSPropertyOp32
 70
     1
102
RTVSPropertyOp33
 70
     1
102
RTVSPropertyOp34
 70
     1
102
RTVSPropertyOp35
 70
     1
102
RTVSPropertyOp36
 70
     1
102
RTVSPropertyOp37
 70
     1
102
RTVSPropertyOp38
 70
     1
102
RTVSPropertyOp39
 70
     1
102
RTVSPropertyOp40
 70
     1
102
RTVSPropertyOp41
 70
     1
102
RTVSPropertyOp42
 70
     1
102
RTVSPropertyOp43
 70
     1
102
RTVSPropertyOp44
 70
     1
102
RTVSPropertyOp45
 70
     1
102
RTVSPropertyOp46
 70
     1
102
RTVSPropertyOp47
 70
     1
102
RTVSPropertyOp48
 70
     1
102
RTVSPropertyOp49
 70
     1
102
RTVSPropertyOp50
 70
     1
102
RTVSPropertyOp51
 70
     0
102
RTVSPropertyOp52
 70
     0
102
RTVSPropertyOp53
 70
     1
102
RTVSPropertyOp54
 70
     1
102
RTVSPropertyOp55
 70
     1
102
RTVSPropertyOp56
 70
     1
102
RTVSPropertyOp57
 70
     1
102
RTVSPropertyOp58
 70
     1
102
RTVSPropertyOp59
 70
     1
102
RTVSPropertyOp60
 70
     1
102
RTVSPropertyOp61
 70
     1
102
RTVSPropertyOp62
 70
     1
  0
XRECORD
  5
390
102
{ACAD_REACTORS
330
38F
102
}
330
38F
100
AcDbXrecord
280
     1
102
RTVSPost2010Prop28
280
     0
102
RTVSPost2010PropOp28
 70
     1
102
RTVSPost2010Prop29
280
     1
102
RTVSPost2010PropOp29
 70
     1
102
RTVSPost2010Prop30
280
     1
102
RTVSPost2010PropOp30
 70
     1
102
RTVSPost2010Prop31
280
     0
102
RTVSPost2010PropOp31
 70
     1
102
RTVSPost2010Prop32
280
     0
102
RTVSPost2010PropOp32
 70
     1
102
RTVSPost2010Prop33
280
     0
102
RTVSPost2010PropOp33
 70
     1
102
RTVSPost2010Prop34
280
     0
102
RTVSPost2010PropOp34
 70
     1
102
RTVSPost2010Prop35
280
     0
102
RTVSPost2010PropOp35
 70
     1
102
RTVSPost2010Prop36
280
     0
102
RTVSPost2010PropOp36
 70
     1
102
RTVSPost2010Prop37
 90
       50
102
RTVSPost2010PropOp37
 70
     1
102
RTVSPost2010Prop38
140
0.0
102
RTVSPost2010PropOp38
 70
     1
102
RTVSPost2010Prop39
140
1.0
102
RTVSPost2010PropOp39
 70
     1
102
RTVSPost2010Prop40
 90
        0
102
RTVSPost2010PropOp40
 70
     1
102
RTVSPost2010Prop41ColorIndex
 90
       18
102
RTVSPost2010Prop41ColorRGB
 90
        0
102
RTVSPost2010PropOp41
 70
     1
102
RTVSPost2010Prop42
 90
       50
102
RTVSPost2010PropOp42
 70
     1
102
RTVSPost2010Prop43
 90
        3
102
RTVSPost2010PropOp43
 70
     1
102
RTVSPost2010Prop44ColorIndex
 90
        5
102
RTVSPost2010Prop44ColorRGB
 90
      255
102
RTVSPost2010PropOp44
 70
     1
102
RTVSPost2010Prop45
280
     0
102
RTVSPost2010PropOp45
 70
     1
102
RTVSPost2010Prop46
 90
       50
102
RTVSPost2010PropOp46
 70
     1
102
RTVSPost2010Prop47
 90
       50
102
RTVSPost2010PropOp47
 70
     1
102
RTVSPost2010Prop48
 90
       50
102
RTVSPost2010PropOp48
 70
     1
102
RTVSPost2010Prop49
280
     0
102
RTVSPost2010PropOp49
 70
     1
102
RTVSPost2010Prop50
 90
       50
102
RTVSPost2010PropOp50
 70
     1
102
RTVSPost2010Prop51ColorIndex
 90
      256
102
RTVSPost2010Prop51ColorRGB
 90
-16777216
102
RTVSPost2010PropOp51
 70
     0
102
RTVSPost2010Prop52
140
1.0
102
RTVSPost2010PropOp52
 70
     0
102
RTVSPost2010Prop53
 90
        2
102
RTVSPost2010PropOp53
 70
     1
102
RTVSPost2010Prop54
  1
strokes_ogs.tif
102
RTVSPost2010PropOp54
 70
     1
102
RTVSPost2010Prop55
280
     0
102
RTVSPost2010PropOp55
 70
     1
102
RTVSPost2010Prop56
140
1.0
102
RTVSPost2010PropOp56
 70
     1
102
RTVSPost2010Prop57
140
1.0
102
RTVSPost2010PropOp57
 70
     1
102
RTVSPropertyOp0
 70
     1
102
RTVSPropertyOp1
 70
     1
102
RTVSPropertyOp2
 70
     1
102
RTVSPropertyOp3
 70
     1
102
RTVSPropertyOp4
 70
     1
102
RTVSPropertyOp5
 70
     1
102
RTVSPropertyOp6
 70
     1
102
RTVSPropertyOp7
 70
     1
102
RTVSPropertyOp8
 70
     1
102
RTVSPropertyOp9
 70
     1
102
RTVSPropertyOp10
 70
     1
102
RTVSPropertyOp11
 70
     1
102
RTVSPropertyOp12
 70
     1
102
RTVSPropertyOp13
 70
     1
102
RTVSPropertyOp14
 70
     1
102
RTVSPropertyOp15
 70
     1
102
RTVSPropertyOp16
 70
     1
102
RTVSPropertyOp17
 70
     1
102
RTVSPropertyOp18
 70
     1
102
RTVSPropertyOp19
 70
     1
102
RTVSPropertyOp20
 70
     1
102
RTVSPropertyOp21
 70
     1
102
RTVSPropertyOp22
 70
     1
102
RTVSPropertyOp23
 70
     1
102
RTVSPropertyOp24
 70
     1
102
RTVSPropertyOp25
 70
     1
102
RTVSPropertyOp26
 70
     1
102
RTVSPropertyOp27
 70
     1
102
RTVSPropertyOp28
 70
     1
102
RTVSPropertyOp29
 70
     1
102
RTVSPropertyOp30
 70
     1
102
RTVSPropertyOp31
 70
     1
102
RTVSPropertyOp32
 70
     1
102
RTVSPropertyOp33
 70
     1
102
RTVSPropertyOp34
 70
     1
102
RTVSPropertyOp35
 70
     1
102
RTVSPropertyOp36
 70
     1
102
RTVSPropertyOp37
 70
     1
102
RTVSPropertyOp38
 70
     1
102
RTVSPropertyOp39
 70
     1
102
RTVSPropertyOp40
 70
     1
102
RTVSPropertyOp41
 70
     1
102
RTVSPropertyOp42
 70
     1
102
RTVSPropertyOp43
 70
     1
102
RTVSPropertyOp44
 70
     1
102
RTVSPropertyOp45
 70
     1
102
RTVSPropertyOp46
 70
     1
102
RTVSPropertyOp47
 70
     1
102
RTVSPropertyOp48
 70
     1
102
RTVSPropertyOp49
 70
     1
102
RTVSPropertyOp50
 70
     1
102
RTVSPropertyOp51
 70
     0
102
RTVSPropertyOp52
 70
     0
102
RTVSPropertyOp53
 70
     1
102
RTVSPropertyOp54
 70
     1
102
RTVSPropertyOp55
 70
     1
102
RTVSPropertyOp56
 70
     1
102
RTVSPropertyOp57
 70
     1
102
RTVSPropertyOp58
 70
     1
102
RTVSPropertyOp59
 70
     1
102
RTVSPropertyOp60
 70
     1
102
RTVSPropertyOp61
 70
     1
102
RTVSPropertyOp62
 70
     1
  0
XRECORD
  5
38E
102
{ACAD_REACTORS
330
38D
102
}
330
38D
100
AcDbXrecord
280
     1
102
RTVSPost2010Prop28
280
     0
102
RTVSPost2010PropOp28
 70
     1
102
RTVSPost2010Prop29
280
     1
102
RTVSPost2010PropOp29
 70
     1
102
RTVSPost2010Prop30
280
     1
102
RTVSPost2010PropOp30
 70
     1
102
RTVSPost2010Prop31
280
     0
102
RTVSPost2010PropOp31
 70
     1
102
RTVSPost2010Prop32
280
     0
102
RTVSPost2010PropOp32
 70
     1
102
RTVSPost2010Prop33
280
     0
102
RTVSPost2010PropOp33
 70
     1
102
RTVSPost2010Prop34
280
     0
102
RTVSPost2010PropOp34
 70
     1
102
RTVSPost2010Prop35
280
     0
102
RTVSPost2010PropOp35
 70
     1
102
RTVSPost2010Prop36
280
     0
102
RTVSPost2010PropOp36
 70
     1
102
RTVSPost2010Prop37
 90
       50
102
RTVSPost2010PropOp37
 70
     1
102
RTVSPost2010Prop38
140
0.0
102
RTVSPost2010PropOp38
 70
     1
102
RTVSPost2010Prop39
140
1.0
102
RTVSPost2010PropOp39
 70
     1
102
RTVSPost2010Prop40
 90
        0
102
RTVSPost2010PropOp40
 70
     1
102
RTVSPost2010Prop41ColorIndex
 90
       18
102
RTVSPost2010Prop41ColorRGB
 90
        0
102
RTVSPost2010PropOp41
 70
     1
102
RTVSPost2010Prop42
 90
       50
102
RTVSPost2010PropOp42
 70
     1
102
RTVSPost2010Prop43
 90
        3
102
RTVSPost2010PropOp43
 70
     1
102
RTVSPost2010Prop44ColorIndex
 90
        5
102
RTVSPost2010Prop44ColorRGB
 90
      255
102
RTVSPost2010PropOp44
 70
     1
102
RTVSPost2010Prop45
280
     0
102
RTVSPost2010PropOp45
 70
     1
102
RTVSPost2010Prop46
 90
       50
102
RTVSPost2010PropOp46
 70
     1
102
RTVSPost2010Prop47
 90
       50
102
RTVSPost2010PropOp47
 70
     1
102
RTVSPost2010Prop48
 90
       50
102
RTVSPost2010PropOp48
 70
     1
102
RTVSPost2010Prop49
280
     0
102
RTVSPost2010PropOp49
 70
     1
102
RTVSPost2010Prop50
 90
       50
102
RTVSPost2010PropOp50
 70
     1
102
RTVSPost2010Prop51ColorIndex
 90
      256
102
RTVSPost2010Prop51ColorRGB
 90
-16777216
102
RTVSPost2010PropOp51
 70
     0
102
RTVSPost2010Prop52
140
1.0
102
RTVSPost2010PropOp52
 70
     0
102
RTVSPost2010Prop53
 90
        2
102
RTVSPost2010PropOp53
 70
     1
102
RTVSPost2010Prop54
  1
strokes_ogs.tif
102
RTVSPost2010PropOp54
 70
     1
102
RTVSPost2010Prop55
280
     0
102
RTVSPost2010PropOp55
 70
     1
102
RTVSPost2010Prop56
140
1.0
102
RTVSPost2010PropOp56
 70
     1
102
RTVSPost2010Prop57
140
1.0
102
RTVSPost2010PropOp57
 70
     1
102
RTVSPropertyOp0
 70
     1
102
RTVSPropertyOp1
 70
     1
102
RTVSPropertyOp2
 70
     1
102
RTVSPropertyOp3
 70
     1
102
RTVSPropertyOp4
 70
     1
102
RTVSPropertyOp5
 70
     1
102
RTVSPropertyOp6
 70
     1
102
RTVSPropertyOp7
 70
     1
102
RTVSPropertyOp8
 70
     1
102
RTVSPropertyOp9
 70
     1
102
RTVSPropertyOp10
 70
     1
102
RTVSPropertyOp11
 70
     1
102
RTVSPropertyOp12
 70
     1
102
RTVSPropertyOp13
 70
     1
102
RTVSPropertyOp14
 70
     1
102
RTVSPropertyOp15
 70
     1
102
RTVSPropertyOp16
 70
     1
102
RTVSPropertyOp17
 70
     1
102
RTVSPropertyOp18
 70
     1
102
RTVSPropertyOp19
 70
     1
102
RTVSPropertyOp20
 70
     1
102
RTVSPropertyOp21
 70
     1
102
RTVSPropertyOp22
 70
     1
102
RTVSPropertyOp23
 70
     1
102
RTVSPropertyOp24
 70
     1
102
RTVSPropertyOp25
 70
     1
102
RTVSPropertyOp26
 70
     1
102
RTVSPropertyOp27
 70
     1
102
RTVSPropertyOp28
 70
     1
102
RTVSPropertyOp29
 70
     1
102
RTVSPropertyOp30
 70
     1
102
RTVSPropertyOp31
 70
     1
102
RTVSPropertyOp32
 70
     1
102
RTVSPropertyOp33
 70
     1
102
RTVSPropertyOp34
 70
     1
102
RTVSPropertyOp35
 70
     1
102
RTVSPropertyOp36
 70
     1
102
RTVSPropertyOp37
 70
     1
102
RTVSPropertyOp38
 70
     1
102
RTVSPropertyOp39
 70
     1
102
RTVSPropertyOp40
 70
     1
102
RTVSPropertyOp41
 70
     1
102
RTVSPropertyOp42
 70
     1
102
RTVSPropertyOp43
 70
     1
102
RTVSPropertyOp44
 70
     1
102
RTVSPropertyOp45
 70
     1
102
RTVSPropertyOp46
 70
     1
102
RTVSPropertyOp47
 70
     1
102
RTVSPropertyOp48
 70
     1
102
RTVSPropertyOp49
 70
     1
102
RTVSPropertyOp50
 70
     1
102
RTVSPropertyOp51
 70
     0
102
RTVSPropertyOp52
 70
     0
102
RTVSPropertyOp53
 70
     1
102
RTVSPropertyOp54
 70
     1
102
RTVSPropertyOp55
 70
     1
102
RTVSPropertyOp56
 70
     1
102
RTVSPropertyOp57
 70
     1
102
RTVSPropertyOp58
 70
     1
102
RTVSPropertyOp59
 70
     1
102
RTVSPropertyOp60
 70
     1
102
RTVSPropertyOp61
 70
     1
102
RTVSPropertyOp62
 70
     1
  0
XRECORD
  5
388
102
{ACAD_REACTORS
330
387
102
}
330
387
100
AcDbXrecord
280
     1
102
RTVSPost2010Prop28
280
     0
102
RTVSPost2010PropOp28
 70
     1
102
RTVSPost2010Prop29
280
     1
102
RTVSPost2010PropOp29
 70
     1
102
RTVSPost2010Prop30
280
     1
102
RTVSPost2010PropOp30
 70
     1
102
RTVSPost2010Prop31
280
     0
102
RTVSPost2010PropOp31
 70
     1
102
RTVSPost2010Prop32
280
     0
102
RTVSPost2010PropOp32
 70
     1
102
RTVSPost2010Prop33
280
     0
102
RTVSPost2010PropOp33
 70
     1
102
RTVSPost2010Prop34
280
     0
102
RTVSPost2010PropOp34
 70
     1
102
RTVSPost2010Prop35
280
     0
102
RTVSPost2010PropOp35
 70
     1
102
RTVSPost2010Prop36
280
     0
102
RTVSPost2010PropOp36
 70
     1
102
RTVSPost2010Prop37
 90
       50
102
RTVSPost2010PropOp37
 70
     1
102
RTVSPost2010Prop38
140
0.0
102
RTVSPost2010PropOp38
 70
     1
102
RTVSPost2010Prop39
140
1.0
102
RTVSPost2010PropOp39
 70
     1
102
RTVSPost2010Prop40
 90
        0
102
RTVSPost2010PropOp40
 70
     1
102
RTVSPost2010Prop41ColorIndex
 90
       18
102
RTVSPost2010Prop41ColorRGB
 90
        0
102
RTVSPost2010PropOp41
 70
     1
102
RTVSPost2010Prop42
 90
       50
102
RTVSPost2010PropOp42
 70
     1
102
RTVSPost2010Prop43
 90
        3
102
RTVSPost2010PropOp43
 70
     1
102
RTVSPost2010Prop44ColorIndex
 90
        5
102
RTVSPost2010Prop44ColorRGB
 90
      255
102
RTVSPost2010PropOp44
 70
     1
102
RTVSPost2010Prop45
280
     0
102
RTVSPost2010PropOp45
 70
     1
102
RTVSPost2010Prop46
 90
       50
102
RTVSPost2010PropOp46
 70
     1
102
RTVSPost2010Prop47
 90
       50
102
RTVSPost2010PropOp47
 70
     1
102
RTVSPost2010Prop48
 90
       50
102
RTVSPost2010PropOp48
 70
     1
102
RTVSPost2010Prop49
280
     0
102
RTVSPost2010PropOp49
 70
     1
102
RTVSPost2010Prop50
 90
       50
102
RTVSPost2010PropOp50
 70
     1
102
RTVSPost2010Prop51ColorIndex
 90
      256
102
RTVSPost2010Prop51ColorRGB
 90
-16777216
102
RTVSPost2010PropOp51
 70
     0
102
RTVSPost2010Prop52
140
1.0
102
RTVSPost2010PropOp52
 70
     0
102
RTVSPost2010Prop53
 90
        2
102
RTVSPost2010PropOp53
 70
     1
102
RTVSPost2010Prop54
  1
strokes_ogs.tif
102
RTVSPost2010PropOp54
 70
     1
102
RTVSPost2010Prop55
280
     0
102
RTVSPost2010PropOp55
 70
     1
102
RTVSPost2010Prop56
140
1.0
102
RTVSPost2010PropOp56
 70
     1
102
RTVSPost2010Prop57
140
1.0
102
RTVSPost2010PropOp57
 70
     1
102
RTVSPropertyOp0
 70
     1
102
RTVSPropertyOp1
 70
     1
102
RTVSPropertyOp2
 70
     1
102
RTVSPropertyOp3
 70
     1
102
RTVSPropertyOp4
 70
     1
102
RTVSPropertyOp5
 70
     1
102
RTVSPropertyOp6
 70
     1
102
RTVSPropertyOp7
 70
     1
102
RTVSPropertyOp8
 70
     1
102
RTVSPropertyOp9
 70
     1
102
RTVSPropertyOp10
 70
     1
102
RTVSPropertyOp11
 70
     1
102
RTVSPropertyOp12
 70
     1
102
RTVSPropertyOp13
 70
     1
102
RTVSPropertyOp14
 70
     1
102
RTVSPropertyOp15
 70
     1
102
RTVSPropertyOp16
 70
     1
102
RTVSPropertyOp17
 70
     1
102
RTVSPropertyOp18
 70
     1
102
RTVSPropertyOp19
 70
     1
102
RTVSPropertyOp20
 70
     1
102
RTVSPropertyOp21
 70
     1
102
RTVSPropertyOp22
 70
     1
102
RTVSPropertyOp23
 70
     1
102
RTVSPropertyOp24
 70
     1
102
RTVSPropertyOp25
 70
     1
102
RTVSPropertyOp26
 70
     1
102
RTVSPropertyOp27
 70
     1
102
RTVSPropertyOp28
 70
     1
102
RTVSPropertyOp29
 70
     1
102
RTVSPropertyOp30
 70
     1
102
RTVSPropertyOp31
 70
     1
102
RTVSPropertyOp32
 70
     1
102
RTVSPropertyOp33
 70
     1
102
RTVSPropertyOp34
 70
     1
102
RTVSPropertyOp35
 70
     1
102
RTVSPropertyOp36
 70
     1
102
RTVSPropertyOp37
 70
     1
102
RTVSPropertyOp38
 70
     1
102
RTVSPropertyOp39
 70
     1
102
RTVSPropertyOp40
 70
     1
102
RTVSPropertyOp41
 70
     1
102
RTVSPropertyOp42
 70
     1
102
RTVSPropertyOp43
 70
     1
102
RTVSPropertyOp44
 70
     1
102
RTVSPropertyOp45
 70
     1
102
RTVSPropertyOp46
 70
     1
102
RTVSPropertyOp47
 70
     1
102
RTVSPropertyOp48
 70
     1
102
RTVSPropertyOp49
 70
     1
102
RTVSPropertyOp50
 70
     1
102
RTVSPropertyOp51
 70
     0
102
RTVSPropertyOp52
 70
     0
102
RTVSPropertyOp53
 70
     1
102
RTVSPropertyOp54
 70
     1
102
RTVSPropertyOp55
 70
     1
102
RTVSPropertyOp56
 70
     1
102
RTVSPropertyOp57
 70
     1
102
RTVSPropertyOp58
 70
     1
102
RTVSPropertyOp59
 70
     1
102
RTVSPropertyOp60
 70
     1
102
RTVSPropertyOp61
 70
     1
102
RTVSPropertyOp62
 70
     1
  0
XRECORD
  5
38A
102
{ACAD_REACTORS
330
389
102
}
330
389
100
AcDbXrecord
280
     1
102
RTVSPost2010Prop28
280
     0
102
RTVSPost2010PropOp28
 70
     1
102
RTVSPost2010Prop29
280
     1
102
RTVSPost2010PropOp29
 70
     1
102
RTVSPost2010Prop30
280
     1
102
RTVSPost2010PropOp30
 70
     1
102
RTVSPost2010Prop31
280
     0
102
RTVSPost2010PropOp31
 70
     1
102
RTVSPost2010Prop32
280
     0
102
RTVSPost2010PropOp32
 70
     1
102
RTVSPost2010Prop33
280
     0
102
RTVSPost2010PropOp33
 70
     1
102
RTVSPost2010Prop34
280
     0
102
RTVSPost2010PropOp34
 70
     1
102
RTVSPost2010Prop35
280
     0
102
RTVSPost2010PropOp35
 70
     1
102
RTVSPost2010Prop36
280
     0
102
RTVSPost2010PropOp36
 70
     1
102
RTVSPost2010Prop37
 90
       50
102
RTVSPost2010PropOp37
 70
     1
102
RTVSPost2010Prop38
140
0.0
102
RTVSPost2010PropOp38
 70
     1
102
RTVSPost2010Prop39
140
1.0
102
RTVSPost2010PropOp39
 70
     1
102
RTVSPost2010Prop40
 90
        0
102
RTVSPost2010PropOp40
 70
     1
102
RTVSPost2010Prop41ColorIndex
 90
       18
102
RTVSPost2010Prop41ColorRGB
 90
        0
102
RTVSPost2010PropOp41
 70
     1
102
RTVSPost2010Prop42
 90
       50
102
RTVSPost2010PropOp42
 70
     1
102
RTVSPost2010Prop43
 90
        3
102
RTVSPost2010PropOp43
 70
     1
102
RTVSPost2010Prop44ColorIndex
 90
        5
102
RTVSPost2010Prop44ColorRGB
 90
      255
102
RTVSPost2010PropOp44
 70
     1
102
RTVSPost2010Prop45
280
     0
102
RTVSPost2010PropOp45
 70
     1
102
RTVSPost2010Prop46
 90
       50
102
RTVSPost2010PropOp46
 70
     1
102
RTVSPost2010Prop47
 90
       50
102
RTVSPost2010PropOp47
 70
     1
102
RTVSPost2010Prop48
 90
       50
102
RTVSPost2010PropOp48
 70
     1
102
RTVSPost2010Prop49
280
     0
102
RTVSPost2010PropOp49
 70
     1
102
RTVSPost2010Prop50
 90
       50
102
RTVSPost2010PropOp50
 70
     1
102
RTVSPost2010Prop51ColorIndex
 90
      256
102
RTVSPost2010Prop51ColorRGB
 90
-16777216
102
RTVSPost2010PropOp51
 70
     0
102
RTVSPost2010Prop52
140
1.0
102
RTVSPost2010PropOp52
 70
     0
102
RTVSPost2010Prop53
 90
        2
102
RTVSPost2010PropOp53
 70
     1
102
RTVSPost2010Prop54
  1
strokes_ogs.tif
102
RTVSPost2010PropOp54
 70
     1
102
RTVSPost2010Prop55
280
     0
102
RTVSPost2010PropOp55
 70
     1
102
RTVSPost2010Prop56
140
1.0
102
RTVSPost2010PropOp56
 70
     1
102
RTVSPost2010Prop57
140
1.0
102
RTVSPost2010PropOp57
 70
     1
102
RTVSPropertyOp0
 70
     1
102
RTVSPropertyOp1
 70
     1
102
RTVSPropertyOp2
 70
     1
102
RTVSPropertyOp3
 70
     1
102
RTVSPropertyOp4
 70
     1
102
RTVSPropertyOp5
 70
     1
102
RTVSPropertyOp6
 70
     1
102
RTVSPropertyOp7
 70
     1
102
RTVSPropertyOp8
 70
     1
102
RTVSPropertyOp9
 70
     1
102
RTVSPropertyOp10
 70
     1
102
RTVSPropertyOp11
 70
     1
102
RTVSPropertyOp12
 70
     1
102
RTVSPropertyOp13
 70
     1
102
RTVSPropertyOp14
 70
     1
102
RTVSPropertyOp15
 70
     1
102
RTVSPropertyOp16
 70
     1
102
RTVSPropertyOp17
 70
     1
102
RTVSPropertyOp18
 70
     1
102
RTVSPropertyOp19
 70
     1
102
RTVSPropertyOp20
 70
     1
102
RTVSPropertyOp21
 70
     1
102
RTVSPropertyOp22
 70
     1
102
RTVSPropertyOp23
 70
     1
102
RTVSPropertyOp24
 70
     1
102
RTVSPropertyOp25
 70
     1
102
RTVSPropertyOp26
 70
     1
102
RTVSPropertyOp27
 70
     1
102
RTVSPropertyOp28
 70
     1
102
RTVSPropertyOp29
 70
     1
102
RTVSPropertyOp30
 70
     1
102
RTVSPropertyOp31
 70
     1
102
RTVSPropertyOp32
 70
     1
102
RTVSPropertyOp33
 70
     1
102
RTVSPropertyOp34
 70
     1
102
RTVSPropertyOp35
 70
     1
102
RTVSPropertyOp36
 70
     1
102
RTVSPropertyOp37
 70
     1
102
RTVSPropertyOp38
 70
     1
102
RTVSPropertyOp39
 70
     1
102
RTVSPropertyOp40
 70
     1
102
RTVSPropertyOp41
 70
     1
102
RTVSPropertyOp42
 70
     1
102
RTVSPropertyOp43
 70
     1
102
RTVSPropertyOp44
 70
     1
102
RTVSPropertyOp45
 70
     1
102
RTVSPropertyOp46
 70
     1
102
RTVSPropertyOp47
 70
     1
102
RTVSPropertyOp48
 70
     1
102
RTVSPropertyOp49
 70
     1
102
RTVSPropertyOp50
 70
     1
102
RTVSPropertyOp51
 70
     0
102
RTVSPropertyOp52
 70
     0
102
RTVSPropertyOp53
 70
     1
102
RTVSPropertyOp54
 70
     1
102
RTVSPropertyOp55
 70
     1
102
RTVSPropertyOp56
 70
     1
102
RTVSPropertyOp57
 70
     1
102
RTVSPropertyOp58
 70
     1
102
RTVSPropertyOp59
 70
     1
102
RTVSPropertyOp60
 70
     1
102
RTVSPropertyOp61
 70
     1
102
RTVSPropertyOp62
 70
     1
  0
XRECORD
  5
37A
102
{ACAD_REACTORS
330
379
102
}
330
379
100
AcDbXrecord
280
     1
102
RTVSPost2010Prop28
280
     0
102
RTVSPost2010PropOp28
 70
     1
102
RTVSPost2010Prop29
280
     1
102
RTVSPost2010PropOp29
 70
     1
102
RTVSPost2010Prop30
280
     1
102
RTVSPost2010PropOp30
 70
     1
102
RTVSPost2010Prop31
280
     0
102
RTVSPost2010PropOp31
 70
     1
102
RTVSPost2010Prop32
280
     0
102
RTVSPost2010PropOp32
 70
     1
102
RTVSPost2010Prop33
280
     0
102
RTVSPost2010PropOp33
 70
     1
102
RTVSPost2010Prop34
280
     0
102
RTVSPost2010PropOp34
 70
     1
102
RTVSPost2010Prop35
280
     0
102
RTVSPost2010PropOp35
 70
     1
102
RTVSPost2010Prop36
280
     0
102
RTVSPost2010PropOp36
 70
     1
102
RTVSPost2010Prop37
 90
       50
102
RTVSPost2010PropOp37
 70
     1
102
RTVSPost2010Prop38
140
0.0
102
RTVSPost2010PropOp38
 70
     1
102
RTVSPost2010Prop39
140
1.0
102
RTVSPost2010PropOp39
 70
     1
102
RTVSPost2010Prop40
 90
        0
102
RTVSPost2010PropOp40
 70
     1
102
RTVSPost2010Prop41ColorIndex
 90
       18
102
RTVSPost2010Prop41ColorRGB
 90
        0
102
RTVSPost2010PropOp41
 70
     1
102
RTVSPost2010Prop42
 90
       50
102
RTVSPost2010PropOp42
 70
     1
102
RTVSPost2010Prop43
 90
        3
102
RTVSPost2010PropOp43
 70
     1
102
RTVSPost2010Prop44ColorIndex
 90
        5
102
RTVSPost2010Prop44ColorRGB
 90
      255
102
RTVSPost2010PropOp44
 70
     1
102
RTVSPost2010Prop45
280
     0
102
RTVSPost2010PropOp45
 70
     1
102
RTVSPost2010Prop46
 90
       50
102
RTVSPost2010PropOp46
 70
     1
102
RTVSPost2010Prop47
 90
       50
102
RTVSPost2010PropOp47
 70
     1
102
RTVSPost2010Prop48
 90
       50
102
RTVSPost2010PropOp48
 70
     1
102
RTVSPost2010Prop49
280
     0
102
RTVSPost2010PropOp49
 70
     1
102
RTVSPost2010Prop50
 90
       50
102
RTVSPost2010PropOp50
 70
     1
102
RTVSPost2010Prop51ColorIndex
 90
      256
102
RTVSPost2010Prop51ColorRGB
 90
-16777216
102
RTVSPost2010PropOp51
 70
     0
102
RTVSPost2010Prop52
140
1.0
102
RTVSPost2010PropOp52
 70
     0
102
RTVSPost2010Prop53
 90
        2
102
RTVSPost2010PropOp53
 70
     1
102
RTVSPost2010Prop54
  1
strokes_ogs.tif
102
RTVSPost2010PropOp54
 70
     1
102
RTVSPost2010Prop55
280
     0
102
RTVSPost2010PropOp55
 70
     1
102
RTVSPost2010Prop56
140
1.0
102
RTVSPost2010PropOp56
 70
     1
102
RTVSPost2010Prop57
140
1.0
102
RTVSPost2010PropOp57
 70
     1
102
RTVSPropertyOp0
 70
     1
102
RTVSPropertyOp1
 70
     1
102
RTVSPropertyOp2
 70
     1
102
RTVSPropertyOp3
 70
     1
102
RTVSPropertyOp4
 70
     1
102
RTVSPropertyOp5
 70
     1
102
RTVSPropertyOp6
 70
     1
102
RTVSPropertyOp7
 70
     1
102
RTVSPropertyOp8
 70
     1
102
RTVSPropertyOp9
 70
     1
102
RTVSPropertyOp10
 70
     1
102
RTVSPropertyOp11
 70
     1
102
RTVSPropertyOp12
 70
     1
102
RTVSPropertyOp13
 70
     1
102
RTVSPropertyOp14
 70
     1
102
RTVSPropertyOp15
 70
     1
102
RTVSPropertyOp16
 70
     1
102
RTVSPropertyOp17
 70
     1
102
RTVSPropertyOp18
 70
     1
102
RTVSPropertyOp19
 70
     1
102
RTVSPropertyOp20
 70
     1
102
RTVSPropertyOp21
 70
     1
102
RTVSPropertyOp22
 70
     1
102
RTVSPropertyOp23
 70
     1
102
RTVSPropertyOp24
 70
     1
102
RTVSPropertyOp25
 70
     1
102
RTVSPropertyOp26
 70
     1
102
RTVSPropertyOp27
 70
     1
102
RTVSPropertyOp28
 70
     1
102
RTVSPropertyOp29
 70
     1
102
RTVSPropertyOp30
 70
     1
102
RTVSPropertyOp31
 70
     1
102
RTVSPropertyOp32
 70
     1
102
RTVSPropertyOp33
 70
     1
102
RTVSPropertyOp34
 70
     1
102
RTVSPropertyOp35
 70
     1
102
RTVSPropertyOp36
 70
     1
102
RTVSPropertyOp37
 70
     1
102
RTVSPropertyOp38
 70
     1
102
RTVSPropertyOp39
 70
     1
102
RTVSPropertyOp40
 70
     1
102
RTVSPropertyOp41
 70
     1
102
RTVSPropertyOp42
 70
     1
102
RTVSPropertyOp43
 70
     1
102
RTVSPropertyOp44
 70
     1
102
RTVSPropertyOp45
 70
     1
102
RTVSPropertyOp46
 70
     1
102
RTVSPropertyOp47
 70
     1
102
RTVSPropertyOp48
 70
     1
102
RTVSPropertyOp49
 70
     1
102
RTVSPropertyOp50
 70
     1
102
RTVSPropertyOp51
 70
     0
102
RTVSPropertyOp52
 70
     0
102
RTVSPropertyOp53
 70
     1
102
RTVSPropertyOp54
 70
     1
102
RTVSPropertyOp55
 70
     1
102
RTVSPropertyOp56
 70
     1
102
RTVSPropertyOp57
 70
     1
102
RTVSPropertyOp58
 70
     1
102
RTVSPropertyOp59
 70
     1
102
RTVSPropertyOp60
 70
     1
102
RTVSPropertyOp61
 70
     1
102
RTVSPropertyOp62
 70
     1
  0
XRECORD
  5
36C
102
{ACAD_REACTORS
330
36B
102
}
330
36B
100
AcDbXrecord
280
     1
102
RTVSPost2010Prop28
280
     0
102
RTVSPost2010PropOp28
 70
     1
102
RTVSPost2010Prop29
280
     1
102
RTVSPost2010PropOp29
 70
     1
102
RTVSPost2010Prop30
280
     1
102
RTVSPost2010PropOp30
 70
     1
102
RTVSPost2010Prop31
280
     0
102
RTVSPost2010PropOp31
 70
     1
102
RTVSPost2010Prop32
280
     0
102
RTVSPost2010PropOp32
 70
     1
102
RTVSPost2010Prop33
280
     0
102
RTVSPost2010PropOp33
 70
     1
102
RTVSPost2010Prop34
280
     0
102
RTVSPost2010PropOp34
 70
     1
102
RTVSPost2010Prop35
280
     0
102
RTVSPost2010PropOp35
 70
     1
102
RTVSPost2010Prop36
280
     0
102
RTVSPost2010PropOp36
 70
     1
102
RTVSPost2010Prop37
 90
       50
102
RTVSPost2010PropOp37
 70
     1
102
RTVSPost2010Prop38
140
0.0
102
RTVSPost2010PropOp38
 70
     1
102
RTVSPost2010Prop39
140
1.0
102
RTVSPost2010PropOp39
 70
     1
102
RTVSPost2010Prop40
 90
        0
102
RTVSPost2010PropOp40
 70
     1
102
RTVSPost2010Prop41ColorIndex
 90
       18
102
RTVSPost2010Prop41ColorRGB
 90
        0
102
RTVSPost2010PropOp41
 70
     1
102
RTVSPost2010Prop42
 90
       50
102
RTVSPost2010PropOp42
 70
     1
102
RTVSPost2010Prop43
 90
        3
102
RTVSPost2010PropOp43
 70
     1
102
RTVSPost2010Prop44ColorIndex
 90
        5
102
RTVSPost2010Prop44ColorRGB
 90
      255
102
RTVSPost2010PropOp44
 70
     1
102
RTVSPost2010Prop45
280
     0
102
RTVSPost2010PropOp45
 70
     1
102
RTVSPost2010Prop46
 90
       50
102
RTVSPost2010PropOp46
 70
     1
102
RTVSPost2010Prop47
 90
       50
102
RTVSPost2010PropOp47
 70
     1
102
RTVSPost2010Prop48
 90
       50
102
RTVSPost2010PropOp48
 70
     1
102
RTVSPost2010Prop49
280
     0
102
RTVSPost2010PropOp49
 70
     1
102
RTVSPost2010Prop50
 90
       50
102
RTVSPost2010PropOp50
 70
     1
102
RTVSPost2010Prop51ColorIndex
 90
      256
102
RTVSPost2010Prop51ColorRGB
 90
-16777216
102
RTVSPost2010PropOp51
 70
     0
102
RTVSPost2010Prop52
140
1.0
102
RTVSPost2010PropOp52
 70
     0
102
RTVSPost2010Prop53
 90
        2
102
RTVSPost2010PropOp53
 70
     1
102
RTVSPost2010Prop54
  1
strokes_ogs.tif
102
RTVSPost2010PropOp54
 70
     1
102
RTVSPost2010Prop55
280
     0
102
RTVSPost2010PropOp55
 70
     1
102
RTVSPost2010Prop56
140
1.0
102
RTVSPost2010PropOp56
 70
     1
102
RTVSPost2010Prop57
140
1.0
102
RTVSPost2010PropOp57
 70
     1
102
RTVSPropertyOp0
 70
     1
102
RTVSPropertyOp1
 70
     1
102
RTVSPropertyOp2
 70
     1
102
RTVSPropertyOp3
 70
     1
102
RTVSPropertyOp4
 70
     1
102
RTVSPropertyOp5
 70
     1
102
RTVSPropertyOp6
 70
     1
102
RTVSPropertyOp7
 70
     1
102
RTVSPropertyOp8
 70
     1
102
RTVSPropertyOp9
 70
     1
102
RTVSPropertyOp10
 70
     1
102
RTVSPropertyOp11
 70
     1
102
RTVSPropertyOp12
 70
     1
102
RTVSPropertyOp13
 70
     1
102
RTVSPropertyOp14
 70
     1
102
RTVSPropertyOp15
 70
     1
102
RTVSPropertyOp16
 70
     1
102
RTVSPropertyOp17
 70
     1
102
RTVSPropertyOp18
 70
     1
102
RTVSPropertyOp19
 70
     1
102
RTVSPropertyOp20
 70
     1
102
RTVSPropertyOp21
 70
     1
102
RTVSPropertyOp22
 70
     1
102
RTVSPropertyOp23
 70
     1
102
RTVSPropertyOp24
 70
     1
102
RTVSPropertyOp25
 70
     1
102
RTVSPropertyOp26
 70
     1
102
RTVSPropertyOp27
 70
     1
102
RTVSPropertyOp28
 70
     1
102
RTVSPropertyOp29
 70
     1
102
RTVSPropertyOp30
 70
     1
102
RTVSPropertyOp31
 70
     1
102
RTVSPropertyOp32
 70
     1
102
RTVSPropertyOp33
 70
     1
102
RTVSPropertyOp34
 70
     1
102
RTVSPropertyOp35
 70
     1
102
RTVSPropertyOp36
 70
     1
102
RTVSPropertyOp37
 70
     1
102
RTVSPropertyOp38
 70
     1
102
RTVSPropertyOp39
 70
     1
102
RTVSPropertyOp40
 70
     1
102
RTVSPropertyOp41
 70
     1
102
RTVSPropertyOp42
 70
     1
102
RTVSPropertyOp43
 70
     1
102
RTVSPropertyOp44
 70
     1
102
RTVSPropertyOp45
 70
     1
102
RTVSPropertyOp46
 70
     1
102
RTVSPropertyOp47
 70
     1
102
RTVSPropertyOp48
 70
     1
102
RTVSPropertyOp49
 70
     1
102
RTVSPropertyOp50
 70
     1
102
RTVSPropertyOp51
 70
     0
102
RTVSPropertyOp52
 70
     0
102
RTVSPropertyOp53
 70
     1
102
RTVSPropertyOp54
 70
     1
102
RTVSPropertyOp55
 70
     1
102
RTVSPropertyOp56
 70
     1
102
RTVSPropertyOp57
 70
     1
102
RTVSPropertyOp58
 70
     1
102
RTVSPropertyOp59
 70
     1
102
RTVSPropertyOp60
 70
     1
102
RTVSPropertyOp61
 70
     1
102
RTVSPropertyOp62
 70
     1
  0
XRECORD
  5
38C
102
{ACAD_REACTORS
330
38B
102
}
330
38B
100
AcDbXrecord
280
     1
102
RTVSPost2010Prop28
280
     0
102
RTVSPost2010PropOp28
 70
     1
102
RTVSPost2010Prop29
280
     1
102
RTVSPost2010PropOp29
 70
     1
102
RTVSPost2010Prop30
280
     1
102
RTVSPost2010PropOp30
 70
     1
102
RTVSPost2010Prop31
280
     0
102
RTVSPost2010PropOp31
 70
     1
102
RTVSPost2010Prop32
280
     0
102
RTVSPost2010PropOp32
 70
     1
102
RTVSPost2010Prop33
280
     0
102
RTVSPost2010PropOp33
 70
     1
102
RTVSPost2010Prop34
280
     0
102
RTVSPost2010PropOp34
 70
     1
102
RTVSPost2010Prop35
280
     0
102
RTVSPost2010PropOp35
 70
     1
102
RTVSPost2010Prop36
280
     0
102
RTVSPost2010PropOp36
 70
     1
102
RTVSPost2010Prop37
 90
       50
102
RTVSPost2010PropOp37
 70
     1
102
RTVSPost2010Prop38
140
0.0
102
RTVSPost2010PropOp38
 70
     1
102
RTVSPost2010Prop39
140
1.0
102
RTVSPost2010PropOp39
 70
     1
102
RTVSPost2010Prop40
 90
        0
102
RTVSPost2010PropOp40
 70
     1
102
RTVSPost2010Prop41ColorIndex
 90
       18
102
RTVSPost2010Prop41ColorRGB
 90
        0
102
RTVSPost2010PropOp41
 70
     1
102
RTVSPost2010Prop42
 90
       50
102
RTVSPost2010PropOp42
 70
     1
102
RTVSPost2010Prop43
 90
        3
102
RTVSPost2010PropOp43
 70
     1
102
RTVSPost2010Prop44ColorIndex
 90
        5
102
RTVSPost2010Prop44ColorRGB
 90
      255
102
RTVSPost2010PropOp44
 70
     1
102
RTVSPost2010Prop45
280
     0
102
RTVSPost2010PropOp45
 70
     1
102
RTVSPost2010Prop46
 90
       50
102
RTVSPost2010PropOp46
 70
     1
102
RTVSPost2010Prop47
 90
       50
102
RTVSPost2010PropOp47
 70
     1
102
RTVSPost2010Prop48
 90
       50
102
RTVSPost2010PropOp48
 70
     1
102
RTVSPost2010Prop49
280
     0
102
RTVSPost2010PropOp49
 70
     1
102
RTVSPost2010Prop50
 90
       50
102
RTVSPost2010PropOp50
 70
     1
102
RTVSPost2010Prop51ColorIndex
 90
      256
102
RTVSPost2010Prop51ColorRGB
 90
-16777216
102
RTVSPost2010PropOp51
 70
     0
102
RTVSPost2010Prop52
140
1.0
102
RTVSPost2010PropOp52
 70
     0
102
RTVSPost2010Prop53
 90
        2
102
RTVSPost2010PropOp53
 70
     1
102
RTVSPost2010Prop54
  1
strokes_ogs.tif
102
RTVSPost2010PropOp54
 70
     1
102
RTVSPost2010Prop55
280
     0
102
RTVSPost2010PropOp55
 70
     1
102
RTVSPost2010Prop56
140
1.0
102
RTVSPost2010PropOp56
 70
     1
102
RTVSPost2010Prop57
140
1.0
102
RTVSPost2010PropOp57
 70
     1
102
RTVSPropertyOp0
 70
     1
102
RTVSPropertyOp1
 70
     1
102
RTVSPropertyOp2
 70
     1
102
RTVSPropertyOp3
 70
     1
102
RTVSPropertyOp4
 70
     1
102
RTVSPropertyOp5
 70
     1
102
RTVSPropertyOp6
 70
     1
102
RTVSPropertyOp7
 70
     1
102
RTVSPropertyOp8
 70
     1
102
RTVSPropertyOp9
 70
     1
102
RTVSPropertyOp10
 70
     1
102
RTVSPropertyOp11
 70
     1
102
RTVSPropertyOp12
 70
     1
102
RTVSPropertyOp13
 70
     1
102
RTVSPropertyOp14
 70
     1
102
RTVSPropertyOp15
 70
     1
102
RTVSPropertyOp16
 70
     1
102
RTVSPropertyOp17
 70
     1
102
RTVSPropertyOp18
 70
     1
102
RTVSPropertyOp19
 70
     1
102
RTVSPropertyOp20
 70
     1
102
RTVSPropertyOp21
 70
     1
102
RTVSPropertyOp22
 70
     1
102
RTVSPropertyOp23
 70
     1
102
RTVSPropertyOp24
 70
     1
102
RTVSPropertyOp25
 70
     1
102
RTVSPropertyOp26
 70
     1
102
RTVSPropertyOp27
 70
     1
102
RTVSPropertyOp28
 70
     1
102
RTVSPropertyOp29
 70
     1
102
RTVSPropertyOp30
 70
     1
102
RTVSPropertyOp31
 70
     1
102
RTVSPropertyOp32
 70
     1
102
RTVSPropertyOp33
 70
     1
102
RTVSPropertyOp34
 70
     1
102
RTVSPropertyOp35
 70
     1
102
RTVSPropertyOp36
 70
     1
102
RTVSPropertyOp37
 70
     1
102
RTVSPropertyOp38
 70
     1
102
RTVSPropertyOp39
 70
     1
102
RTVSPropertyOp40
 70
     1
102
RTVSPropertyOp41
 70
     1
102
RTVSPropertyOp42
 70
     1
102
RTVSPropertyOp43
 70
     1
102
RTVSPropertyOp44
 70
     1
102
RTVSPropertyOp45
 70
     1
102
RTVSPropertyOp46
 70
     1
102
RTVSPropertyOp47
 70
     1
102
RTVSPropertyOp48
 70
     1
102
RTVSPropertyOp49
 70
     1
102
RTVSPropertyOp50
 70
     1
102
RTVSPropertyOp51
 70
     0
102
RTVSPropertyOp52
 70
     0
102
RTVSPropertyOp53
 70
     1
102
RTVSPropertyOp54
 70
     1
102
RTVSPropertyOp55
 70
     1
102
RTVSPropertyOp56
 70
     1
102
RTVSPropertyOp57
 70
     1
102
RTVSPropertyOp58
 70
     1
102
RTVSPropertyOp59
 70
     1
102
RTVSPropertyOp60
 70
     1
102
RTVSPropertyOp61
 70
     1
102
RTVSPropertyOp62
 70
     1
  0
ENDSEC
  0
EOF
