  0
SECTION
  2
HEADER
  9
$ACADVER
  1
AC1018
  9
$ACADMAINTVER
 70
   104
  9
$DWGCODEPAGE
  3
ANSI_1250
  9
$LASTSAVEDBY
  1
wq7085
  9
$INSBASE
 10
0.0
 20
0.0
 30
0.0
  9
$EXTMIN
 10
185.2894053333333
 20
122.034924
 30
0.0
  9
$EXTMAX
 10
427.704128
 20
347.6965206666667
 30
0.0
  9
$LIMMIN
 10
-0.5
 20
-0.5
  9
$LIMMAX
 10
5.0
 20
5.0
  9
$ORTHOMODE
 70
     0
  9
$REGENMODE
 70
     1
  9
$FILLMODE
 70
     1
  9
$QTEXTMODE
 70
     0
  9
$MIRRTEXT
 70
     1
  9
$LTSCALE
 40
1.0
  9
$ATTMODE
 70
     1
  9
$TEXTSIZE
 40
0.2
  9
$TRACEWID
 40
0.05
  9
$TEXTSTYLE
  7
Standard
  9
$CLAYER
  8
0
  9
$CELTYPE
  6
ByLayer
  9
$CECOLOR
 62
   256
  9
$CELTSCALE
 40
1.0
  9
$DISPSILH
 70
     0
  9
$DIMSCALE
 40
1.0
  9
$DIMASZ
 40
0.18
  9
$DIMEXO
 40
0.0625
  9
$DIMDLI
 40
0.38
  9
$DIMRND
 40
0.0
  9
$DIMDLE
 40
0.0
  9
$DIMEXE
 40
0.18
  9
$DIMTP
 40
0.0
  9
$DIMTM
 40
0.0
  9
$DIMTXT
 40
0.18
  9
$DIMCEN
 40
0.09
  9
$DIMTSZ
 40
0.0
  9
$DIMTOL
 70
     0
  9
$DIMLIM
 70
     0
  9
$DIMTIH
 70
     1
  9
$DIMTOH
 70
     1
  9
$DIMSE1
 70
     0
  9
$DIMSE2
 70
     0
  9
$DIMTAD
 70
     0
  9
$DIMZIN
 70
     0
  9
$DIMBLK
  1

  9
$DIMASO
 70
     1
  9
$DIMSHO
 70
     1
  9
$DIMPOST
  1

  9
$DIMAPOST
  1

  9
$DIMALT
 70
     0
  9
$DIMALTD
 70
     2
  9
$DIMALTF
 40
25.4
  9
$DIMLFAC
 40
1.0
  9
$DIMTOFL
 70
     0
  9
$DIMTVP
 40
0.0
  9
$DIMTIX
 70
     0
  9
$DIMSOXD
 70
     0
  9
$DIMSAH
 70
     0
  9
$DIMBLK1
  1

  9
$DIMBLK2
  1

  9
$DIMSTYLE
  2
Standard
  9
$DIMCLRD
 70
     0
  9
$DIMCLRE
 70
     0
  9
$DIMCLRT
 70
     0
  9
$DIMTFAC
 40
1.0
  9
$DIMGAP
 40
0.09
  9
$DIMJUST
 70
     0
  9
$DIMSD1
 70
     0
  9
$DIMSD2
 70
     0
  9
$DIMTOLJ
 70
     1
  9
$DIMTZIN
 70
     0
  9
$DIMALTZ
 70
     0
  9
$DIMALTTZ
 70
     0
  9
$DIMUPT
 70
     0
  9
$DIMDEC
 70
     4
  9
$DIMTDEC
 70
     4
  9
$DIMALTU
 70
     2
  9
$DIMALTTD
 70
     2
  9
$DIMTXSTY
  7
Standard
  9
$DIMAUNIT
 70
     0
  9
$DIMADEC
 70
     0
  9
$DIMALTRND
 40
0.0
  9
$DIMAZIN
 70
     0
  9
$DIMDSEP
 70
    46
  9
$DIMATFIT
 70
     3
  9
$DIMFRAC
 70
     0
  9
$DIMLDRBLK
  1

  9
$DIMLUNIT
 70
     2
  9
$DIMLWD
 70
    -2
  9
$DIMLWE
 70
    -2
  9
$DIMTMOVE
 70
     0
  9
$LUNITS
 70
     2
  9
$LUPREC
 70
     4
  9
$SKETCHINC
 40
0.1
  9
$FILLETRAD
 40
0.5
  9
$AUNITS
 70
     0
  9
$AUPREC
 70
     0
  9
$MENU
  1
.
  9
$ELEVATION
 40
0.0
  9
$PELEVATION
 40
0.0
  9
$THICKNESS
 40
0.0
  9
$LIMCHECK
 70
     0
  9
$CHAMFERA
 40
0.0
  9
$CHAMFERB
 40
0.0
  9
$CHAMFERC
 40
0.0
  9
$CHAMFERD
 40
0.0
  9
$SKPOLY
 70
     0
  9
$TDCREATE
 40
2459094.548923611
  9
$TDUCREATE
 40
2459094.465596250
  9
$TDUPDATE
 40
2459094.549282408
  9
$TDUUPDATE
 40
2459094.465949074
  9
$TDINDWG
 40
0.0001967708
  9
$TDUSRTIMER
 40
0.0001967708
  9
$USRTIMER
 70
     1
  9
$ANGBASE
 50
0.0
  9
$ANGDIR
 70
     0
  9
$PDMODE
 70
     0
  9
$PDSIZE
 40
0.0
  9
$PLINEWID
 40
0.0
  9
$SPLFRAME
 70
     0
  9
$SPLINETYPE
 70
     6
  9
$SPLINESEGS
 70
     8
  9
$HANDSEED
  5
3A2
  9
$SURFTAB1
 70
     6
  9
$SURFTAB2
 70
     6
  9
$SURFTYPE
 70
     6
  9
$SURFU
 70
     6
  9
$SURFV
 70
     6
  9
$UCSBASE
  2

  9
$UCSNAME
  2

  9
$UCSORG
 10
274.404842
 20
288.907994
 30
0.0
  9
$UCSXDIR
 10
1.0
 20
0.0
 30
0.0
  9
$UCSYDIR
 10
0.0
 20
1.0
 30
0.0
  9
$UCSORTHOREF
  2

  9
$UCSORTHOVIEW
 70
     0
  9
$UCSORGTOP
 10
0.0
 20
0.0
 30
0.0
  9
$UCSORGBOTTOM
 10
0.0
 20
0.0
 30
0.0
  9
$UCSORGLEFT
 10
0.0
 20
0.0
 30
0.0
  9
$UCSORGRIGHT
 10
0.0
 20
0.0
 30
0.0
  9
$UCSORGFRONT
 10
0.0
 20
0.0
 30
0.0
  9
$UCSORGBACK
 10
0.0
 20
0.0
 30
0.0
  9
$PUCSBASE
  2

  9
$PUCSNAME
  2

  9
$PUCSORG
 10
0.0
 20
0.0
 30
0.0
  9
$PUCSXDIR
 10
1.0
 20
0.0
 30
0.0
  9
$PUCSYDIR
 10
0.0
 20
1.0
 30
0.0
  9
$PUCSORTHOREF
  2

  9
$PUCSORTHOVIEW
 70
     0
  9
$PUCSORGTOP
 10
0.0
 20
0.0
 30
0.0
  9
$PUCSORGBOTTOM
 10
0.0
 20
0.0
 30
0.0
  9
$PUCSORGLEFT
 10
0.0
 20
0.0
 30
0.0
  9
$PUCSORGRIGHT
 10
0.0
 20
0.0
 30
0.0
  9
$PUCSORGFRONT
 10
0.0
 20
0.0
 30
0.0
  9
$PUCSORGBACK
 10
0.0
 20
0.0
 30
0.0
  9
$USERI1
 70
     0
  9
$USERI2
 70
     0
  9
$USERI3
 70
     0
  9
$USERI4
 70
     0
  9
$USERI5
 70
     0
  9
$USERR1
 40
0.0
  9
$USERR2
 40
0.0
  9
$USERR3
 40
0.0
  9
$USERR4
 40
0.0
  9
$USERR5
 40
0.0
  9
$WORLDVIEW
 70
     1
  9
$SHADEDGE
 70
     3
  9
$SHADEDIF
 70
    70
  9
$TILEMODE
 70
     1
  9
$MAXACTVP
 70
    64
  9
$PINSBASE
 10
0.0
 20
0.0
 30
0.0
  9
$PLIMCHECK
 70
     0
  9
$PEXTMIN
 10
-0.5
 20
-0.5
 30
-0.5
  9
$PEXTMAX
 10
5.0
 20
5.0
 30
5.0
  9
$PLIMMIN
 10
-0.5
 20
-0.5
  9
$PLIMMAX
 10
5.0
 20
5.0
  9
$UNITMODE
 70
     0
  9
$VISRETAIN
 70
     1
  9
$PLINEGEN
 70
     0
  9
$PSLTSCALE
 70
     1
  9
$TREEDEPTH
 70
  3020
  9
$CMLSTYLE
  2
Standard
  9
$CMLJUST
 70
     0
  9
$CMLSCALE
 40
1.0
  9
$PROXYGRAPHICS
 70
     1
  9
$MEASUREMENT
 70
     1
  9
$CELWEIGHT
370
    13
  9
$ENDCAPS
280
     0
  9
$JOINSTYLE
280
     0
  9
$LWDISPLAY
290
     0
  9
$INSUNITS
 70
     4
  9
$HYPERLINKBASE
  1

  9
$STYLESHEET
  1

  9
$XEDIT
290
     1
  9
$CEPSNTYPE
380
     0
  9
$PSTYLEMODE
290
     1
  9
$FINGERPRINTGUID
  2
{92486E3B-8725-404B-810F-189155AC1F82}
  9
$VERSIONGUID
  2
{4A54038A-8E2C-F049-B05A-598C1E0DF13B}
  9
$EXTNAMES
290
     1
  9
$PSVPSCALE
 40
0.0
  9
$OLESTARTUP
290
     0
  9
$SORTENTS
280
   127
  9
$INDEXCTL
280
     0
  9
$HIDETEXT
280
     1
  9
$XCLIPFRAME
290
     0
  9
$HALOGAP
280
     0
  9
$OBSCOLOR
 70
   257
  9
$OBSLTYPE
280
     0
  9
$INTERSECTIONDISPLAY
280
     0
  9
$INTERSECTIONCOLOR
 70
   257
  9
$DIMASSOC
280
     2
  9
$PROJECTNAME
  1

  0
ENDSEC
  0
SECTION
  2
CLASSES
  0
CLASS
  1
ACDBDICTIONARYWDFLT
  2
AcDbDictionaryWithDefault
  3
ObjectDBX Classes
 90
        0
 91
        1
280
     0
281
     0
  0
CLASS
  1
VISUALSTYLE
  2
AcDbVisualStyle
  3
ObjectDBX Classes
 90
     4095
 91
       24
280
     0
281
     0
  0
CLASS
  1
MATERIAL
  2
AcDbMaterial
  3
ObjectDBX Classes
 90
     1153
 91
        3
280
     0
281
     0
  0
CLASS
  1
SCALE
  2
AcDbScale
  3
ObjectDBX Classes
 90
     1153
 91
       33
280
     0
281
     0
  0
CLASS
  1
TABLESTYLE
  2
AcDbTableStyle
  3
ObjectDBX Classes
 90
     4095
 91
        1
280
     0
281
     0
  0
CLASS
  1
MLEADERSTYLE
  2
AcDbMLeaderStyle
  3
ACDB_MLEADERSTYLE_CLASS
 90
     4095
 91
        1
280
     0
281
     0
  0
CLASS
  1
SUN
  2
AcDbSun
  3
SCENEOE
 90
     1153
 91
        0
280
     0
281
     0
  0
CLASS
  1
DIMASSOC
  2
AcDbDimAssoc
  3
"AcDbDimAssoc|Product Desc:     AcDim ARX App For Dimension|Company:          Autodesk, Inc.|WEB Address:      www.autodesk.com"
 90
        0
 91
        7
280
     0
281
     0
  0
CLASS
  1
DICTIONARYVAR
  2
AcDbDictionaryVar
  3
ObjectDBX Classes
 90
        0
 91
        8
280
     0
281
     0
  0
CLASS
  1
CELLSTYLEMAP
  2
AcDbCellStyleMap
  3
ObjectDBX Classes
 90
     1152
 91
        2
280
     0
281
     0
  0
CLASS
  1
ACDBSECTIONVIEWSTYLE
  2
AcDbSectionViewStyle
  3
ObjectDBX Classes
 90
     1025
 91
        1
280
     0
281
     0
  0
CLASS
  1
ACDBDETAILVIEWSTYLE
  2
AcDbDetailViewStyle
  3
ObjectDBX Classes
 90
     1025
 91
        1
280
     0
281
     0
  0
CLASS
  1
SORTENTSTABLE
  2
AcDbSortentsTable
  3
ObjectDBX Classes
 90
        0
 91
        1
280
     0
281
     0
  0
ENDSEC
  0
SECTION
  2
TABLES
  0
TABLE
  2
VPORT
  5
8
330
0
100
AcDbSymbolTable
 70
    16
  0
VPORT
  5
29
330
8
100
AcDbSymbolTableRecord
100
AcDbViewportTableRecord
  2
*Active
 70
     0
 10
0.0
 20
0.0
 11
1.0
 21
1.0
 12
333.2051863772998
 22
316.9709022773438
 13
0.0
 23
0.0
 14
0.5
 24
0.5
 15
0.5
 25
0.5
 16
0.0
 26
0.0
 36
1.0
 17
0.0
 27
0.0
 37
0.0
 40
204.6620103525896
 41
2.292712066905615
 42
50.0
 43
427.777161
 44
-427.777161
 50
0.0
 51
0.0
 71
     0
 72
   100
 73
     1
 74
     3
 75
     0
 76
     0
 77
     0
 78
     0
281
     0
 65
     1
110
274.404842
120
288.907994
130
0.0
111
1.0
121
0.0
131
0.0
112
0.0
122
1.0
132
0.0
 79
     0
146
0.0
1001
ACAD_NAV_VCDISPLAY
1070
     3
  0
VPORT
  5
2A3
330
8
100
AcDbSymbolTableRecord
100
AcDbViewportTableRecord
  2
L1
 70
     0
 10
0.0
 20
0.0
 11
1.0
 21
1.0
 12
305.992561
 22
234.757934
 13
0.0
 23
0.0
 14
0.5
 24
0.5
 15
0.5
 25
0.5
 16
0.0
 26
0.0
 36
1.0
 17
0.0
 27
0.0
 37
0.0
 40
207.433333
 41
0.085602
 42
50.0
 43
427.777161
 44
-427.777161
 50
0.0
 51
0.0
 71
     0
 72
   100
 73
     1
 74
     3
 75
     0
 76
     0
 77
     0
 78
     0
281
     0
 65
     1
110
0.0
120
0.0
130
0.0
111
1.0
121
0.0
131
0.0
112
0.0
122
1.0
132
0.0
 79
     0
146
0.0
  0
VPORT
  5
2A4
330
8
100
AcDbSymbolTableRecord
100
AcDbViewportTableRecord
  2
L2
 70
     0
 10
0.0
 20
0.0
 11
0.5
 21
1.0
 12
0.0
 22
0.0
 13
0.0
 23
0.0
 14
0.5
 24
0.5
 15
0.5
 25
0.5
 16
0.0
 26
-1.0
 36
0.0
 17
0.0
 27
0.0
 37
0.0
 40
1316.18997
 41
0.013491
 42
50.0
 43
678.00864
 44
-678.00864
 50
0.0
 51
0.0
 71
     0
 72
   100
 73
     1
 74
     3
 75
     0
 76
     0
 77
     0
 78
     0
281
     0
 65
     1
110
0.0
120
0.0
130
0.0
111
1.0
121
0.0
131
0.0
112
0.0
122
1.0
132
0.0
 79
     0
146
0.0
  0
VPORT
  5
2A5
330
8
100
AcDbSymbolTableRecord
100
AcDbViewportTableRecord
  2
L2
 70
     0
 10
0.5
 20
0.0
 11
1.0
 21
1.0
 12
0.0
 22
0.0
 13
0.0
 23
0.0
 14
0.5
 24
0.5
 15
0.5
 25
0.5
 16
1.0
 26
0.0
 36
0.0
 17
0.0
 27
0.0
 37
0.0
 40
1316.18997
 41
0.013491
 42
50.0
 43
666.2177989999999
 44
-666.2177989999999
 50
0.0
 51
0.0
 71
     0
 72
   100
 73
     1
 74
     3
 75
     0
 76
     0
 77
     0
 78
     0
281
     0
 65
     1
110
0.0
120
0.0
130
0.0
111
1.0
121
0.0
131
0.0
112
0.0
122
1.0
132
0.0
 79
     0
146
0.0
  0
VPORT
  5
2A6
330
8
100
AcDbSymbolTableRecord
100
AcDbViewportTableRecord
  2
L3
 70
     0
 10
0.0
 20
0.5
 11
1.0
 21
1.0
 12
305.992561
 22
234.757934
 13
0.0
 23
0.0
 14
0.5
 24
0.5
 15
0.5
 25
0.5
 16
0.0
 26
0.0
 36
1.0
 17
0.0
 27
0.0
 37
0.0
 40
207.433333
 41
0.085602
 42
50.0
 43
427.777161
 44
-427.777161
 50
0.0
 51
0.0
 71
     0
 72
   100
 73
     1
 74
     3
 75
     0
 76
     0
 77
     0
 78
     0
281
     0
 65
     1
110
0.0
120
0.0
130
0.0
111
1.0
121
0.0
131
0.0
112
0.0
122
1.0
132
0.0
 79
     0
146
0.0
  0
VPORT
  5
2A7
330
8
100
AcDbSymbolTableRecord
100
AcDbViewportTableRecord
  2
L3
 70
     0
 10
0.0
 20
0.0
 11
1.0
 21
0.5
 12
0.0
 22
0.0
 13
0.0
 23
0.0
 14
0.5
 24
0.5
 15
0.5
 25
0.5
 16
0.0
 26
-1.0
 36
0.0
 17
0.0
 27
0.0
 37
0.0
 40
1316.18997
 41
0.013491
 42
50.0
 43
678.00864
 44
-678.00864
 50
0.0
 51
0.0
 71
     0
 72
   100
 73
     1
 74
     3
 75
     0
 76
     0
 77
     0
 78
     0
281
     0
 65
     1
110
0.0
120
0.0
130
0.0
111
1.0
121
0.0
131
0.0
112
0.0
122
1.0
132
0.0
 79
     0
146
0.0
  0
VPORT
  5
2A8
330
8
100
AcDbSymbolTableRecord
100
AcDbViewportTableRecord
  2
L4
 70
     0
 10
0.0
 20
0.5
 11
0.5
 21
1.0
 12
305.992561
 22
234.757934
 13
0.0
 23
0.0
 14
0.5
 24
0.5
 15
0.5
 25
0.5
 16
0.0
 26
0.0
 36
1.0
 17
0.0
 27
0.0
 37
0.0
 40
207.433333
 41
0.085602
 42
50.0
 43
427.777161
 44
-427.777161
 50
0.0
 51
0.0
 71
     0
 72
   100
 73
     1
 74
     3
 75
     0
 76
     0
 77
     0
 78
     0
281
     0
 65
     1
110
0.0
120
0.0
130
0.0
111
1.0
121
0.0
131
0.0
112
0.0
122
1.0
132
0.0
 79
     0
146
0.0
  0
VPORT
  5
2A9
330
8
100
AcDbSymbolTableRecord
100
AcDbViewportTableRecord
  2
L4
 70
     0
 10
0.0
 20
0.0
 11
0.5
 21
0.5
 12
0.0
 22
0.0
 13
0.0
 23
0.0
 14
0.5
 24
0.5
 15
0.5
 25
0.5
 16
0.0
 26
-1.0
 36
0.0
 17
0.0
 27
0.0
 37
0.0
 40
1316.18997
 41
0.013491
 42
50.0
 43
678.00864
 44
-678.00864
 50
0.0
 51
0.0
 71
     0
 72
   100
 73
     1
 74
     3
 75
     0
 76
     0
 77
     0
 78
     0
281
     0
 65
     1
110
0.0
120
0.0
130
0.0
111
1.0
121
0.0
131
0.0
112
0.0
122
1.0
132
0.0
 79
     0
146
0.0
  0
VPORT
  5
2AA
330
8
100
AcDbSymbolTableRecord
100
AcDbViewportTableRecord
  2
L4
 70
     0
 10
0.5
 20
0.0
 11
1.0
 21
0.5
 12
0.0
 22
0.0
 13
0.0
 23
0.0
 14
0.5
 24
0.5
 15
0.5
 25
0.5
 16
1.0
 26
0.0
 36
0.0
 17
0.0
 27
0.0
 37
0.0
 40
1316.18997
 41
0.013491
 42
50.0
 43
666.2177989999999
 44
-666.2177989999999
 50
0.0
 51
0.0
 71
     0
 72
   100
 73
     1
 74
     3
 75
     0
 76
     0
 77
     0
 78
     0
281
     0
 65
     1
110
0.0
120
0.0
130
0.0
111
1.0
121
0.0
131
0.0
112
0.0
122
1.0
132
0.0
 79
     0
146
0.0
  0
VPORT
  5
2AB
330
8
100
AcDbSymbolTableRecord
100
AcDbViewportTableRecord
  2
L4
 70
     0
 10
0.5
 20
0.5
 11
1.0
 21
1.0
 12
0.0
 22
0.0
 13
0.0
 23
0.0
 14
0.5
 24
0.5
 15
0.5
 25
0.5
 16
0.5773502691896259
 26
-0.5773502691896259
 36
0.5773502691896259
 17
0.0
 27
0.0
 37
0.0
 40
1292.532264
 41
0.013738
 42
50.0
 43
673.245608
 44
-673.245608
 50
0.0
 51
0.0
 71
     0
 72
   100
 73
     1
 74
     3
 75
     0
 76
     0
 77
     0
 78
     0
281
     0
 65
     1
110
0.0
120
0.0
130
0.0
111
1.0
121
0.0
131
0.0
112
0.0
122
1.0
132
0.0
 79
     0
146
0.0
  0
VPORT
  5
2AC
330
8
100
AcDbSymbolTableRecord
100
AcDbViewportTableRecord
  2
L6
 70
     0
 10
0.0
 20
0.5
 11
0.333333
 21
1.0
 12
0.0
 22
0.0
 13
0.0
 23
0.0
 14
0.5
 24
0.5
 15
0.5
 25
0.5
 16
0.7188730927569434
 26
-0.5850486126764433
 36
0.3754192287502549
 17
0.0
 27
0.0
 37
0.0
 40
1364.064247
 41
0.013018
 42
50.0
 43
706.2613849999999
 44
-706.2613849999999
 50
0.0
 51
0.0
 71
     0
 72
   100
 73
     1
 74
     3
 75
     0
 76
     0
 77
     0
 78
     0
281
     0
 65
     1
110
0.0
120
0.0
130
0.0
111
1.0
121
0.0
131
0.0
112
0.0
122
1.0
132
0.0
 79
     0
146
0.0
  0
VPORT
  5
2AD
330
8
100
AcDbSymbolTableRecord
100
AcDbViewportTableRecord
  2
L6
 70
     0
 10
0.0
 20
0.0
 11
0.333333
 21
0.5
 12
0.0
 22
0.0
 13
0.0
 23
0.0
 14
0.5
 24
0.5
 15
0.5
 25
0.5
 16
-1.0
 26
0.0
 36
0.0
 17
0.0
 27
0.0
 37
0.0
 40
1316.18997
 41
0.013491
 42
50.0
 43
666.2177989999999
 44
-666.2177989999999
 50
0.0
 51
0.0
 71
     0
 72
   100
 73
     1
 74
     3
 75
     0
 76
     0
 77
     0
 78
     0
281
     0
 65
     1
110
0.0
120
0.0
130
0.0
111
1.0
121
0.0
131
0.0
112
0.0
122
1.0
132
0.0
 79
     0
146
0.0
  0
VPORT
  5
2AE
330
8
100
AcDbSymbolTableRecord
100
AcDbViewportTableRecord
  2
L6
 70
     0
 10
0.333333
 20
0.5
 11
0.666667
 21
1.0
 12
305.992561
 22
234.757934
 13
0.0
 23
0.0
 14
0.5
 24
0.5
 15
0.5
 25
0.5
 16
0.0
 26
0.0
 36
1.0
 17
0.0
 27
0.0
 37
0.0
 40
207.433333
 41
0.085602
 42
50.0
 43
427.777161
 44
-427.777161
 50
0.0
 51
0.0
 71
     0
 72
   100
 73
     1
 74
     3
 75
     0
 76
     0
 77
     0
 78
     0
281
     0
 65
     1
110
0.0
120
0.0
130
0.0
111
1.0
121
0.0
131
0.0
112
0.0
122
1.0
132
0.0
 79
     0
146
0.0
  0
VPORT
  5
2AF
330
8
100
AcDbSymbolTableRecord
100
AcDbViewportTableRecord
  2
L6
 70
     0
 10
0.333333
 20
0.0
 11
0.666667
 21
0.5
 12
0.0
 22
0.0
 13
0.0
 23
0.0
 14
0.5
 24
0.5
 15
0.5
 25
0.5
 16
0.0
 26
-1.0
 36
0.0
 17
0.0
 27
0.0
 37
0.0
 40
1316.18997
 41
0.013491
 42
50.0
 43
678.00864
 44
-678.00864
 50
0.0
 51
0.0
 71
     0
 72
   100
 73
     1
 74
     3
 75
     0
 76
     0
 77
     0
 78
     0
281
     0
 65
     1
110
0.0
120
0.0
130
0.0
111
1.0
121
0.0
131
0.0
112
0.0
122
1.0
132
0.0
 79
     0
146
0.0
  0
VPORT
  5
2B0
330
8
100
AcDbSymbolTableRecord
100
AcDbViewportTableRecord
  2
L6
 70
     0
 10
0.666667
 20
0.5
 11
1.0
 21
1.0
 12
0.0
 22
0.0
 13
0.0
 23
0.0
 14
0.5
 24
0.5
 15
0.5
 25
0.5
 16
0.5773502691896259
 26
-0.5773502691896259
 36
0.5773502691896259
 17
0.0
 27
0.0
 37
0.0
 40
1292.532264
 41
0.013738
 42
50.0
 43
673.245608
 44
-673.245608
 50
0.0
 51
0.0
 71
     0
 72
   100
 73
     1
 74
     3
 75
     0
 76
     0
 77
     0
 78
     0
281
     0
 65
     1
110
0.0
120
0.0
130
0.0
111
1.0
121
0.0
131
0.0
112
0.0
122
1.0
132
0.0
 79
     0
146
0.0
  0
VPORT
  5
2B1
330
8
100
AcDbSymbolTableRecord
100
AcDbViewportTableRecord
  2
L6
 70
     0
 10
0.666667
 20
0.0
 11
1.0
 21
0.5
 12
0.0
 22
0.0
 13
0.0
 23
0.0
 14
0.5
 24
0.5
 15
0.5
 25
0.5
 16
1.0
 26
0.0
 36
0.0
 17
0.0
 27
0.0
 37
0.0
 40
1316.18997
 41
0.013491
 42
50.0
 43
666.2177989999999
 44
-666.2177989999999
 50
0.0
 51
0.0
 71
     0
 72
   100
 73
     1
 74
     3
 75
     0
 76
     0
 77
     0
 78
     0
281
     0
 65
     1
110
0.0
120
0.0
130
0.0
111
1.0
121
0.0
131
0.0
112
0.0
122
1.0
132
0.0
 79
     0
146
0.0
  0
ENDTAB
  0
TABLE
  2
LTYPE
  5
5
330
0
100
AcDbSymbolTable
 70
     7
  0
LTYPE
  5
14
330
5
100
AcDbSymbolTableRecord
100
AcDbLinetypeTableRecord
  2
ByBlock
 70
     0
  3

 72
    65
 73
     0
 40
0.0
  0
LTYPE
  5
15
330
5
100
AcDbSymbolTableRecord
100
AcDbLinetypeTableRecord
  2
ByLayer
 70
     0
  3

 72
    65
 73
     0
 40
0.0
  0
LTYPE
  5
16
330
5
100
AcDbSymbolTableRecord
100
AcDbLinetypeTableRecord
  2
Continuous
 70
     0
  3
Solid line
 72
    65
 73
     0
 40
0.0
  0
LTYPE
  5
6E
330
5
100
AcDbSymbolTableRecord
100
AcDbLinetypeTableRecord
  2
CENTER
 70
     0
  3
____ _ ____ _ ____ _ ____
 72
    65
 73
     4
 40
47.4
 49
22.0
 74
     4
 75
     0
340
0
 46
0.0
 50
0.0
 44
0.0
 45
0.0
 49
-8.5
 74
     4
 75
     0
340
0
 46
0.0
 50
0.0
 44
0.0
 45
0.0
 49
8.5
 74
     4
 75
     0
340
0
 46
0.0
 50
0.0
 44
0.0
 45
0.0
 49
-8.5
 74
     4
 75
     0
340
0
 46
0.0
 50
0.0
 44
0.0
 45
0.0
  0
LTYPE
  5
6F
330
5
100
AcDbSymbolTableRecord
100
AcDbLinetypeTableRecord
  2
DASHDOT
 70
     0
  3
_._._._._._._._._._._._._._._._.
 72
    65
 73
     4
 40
70.0
 49
31.0
 74
     4
 75
     0
340
0
 46
0.0
 50
0.0
 44
0.0
 45
0.0
 49
-13.0
 74
     4
 75
     0
340
0
 46
0.0
 50
0.0
 44
0.0
 45
0.0
 49
13.0
 74
     4
 75
     0
340
0
 46
0.0
 50
0.0
 44
0.0
 45
0.0
 49
-13.0
 74
     4
 75
     0
340
0
 46
0.0
 50
0.0
 44
0.0
 45
0.0
  0
LTYPE
  5
70
330
5
100
AcDbSymbolTableRecord
100
AcDbLinetypeTableRecord
  2
DASHED
 70
     0
  3
__ __ __ __ __ __ __ __ __
 72
    65
 73
     2
 40
25.72
 49
12.86
 74
     4
 75
     0
340
0
 46
0.0
 50
0.0
 44
0.0
 45
0.0
 49
-12.86
 74
     4
 75
     0
340
0
 46
0.0
 50
0.0
 44
0.0
 45
0.0
  0
LTYPE
  5
71
330
5
100
AcDbSymbolTableRecord
100
AcDbLinetypeTableRecord
  2
DOT
 70
     0
  3
.........................
 72
    65
 73
     2
 40
10.0
 49
0.0
 74
     4
 75
     0
340
0
 46
0.0
 50
0.0
 44
0.0
 45
0.0
 49
-10.0
 74
     4
 75
     0
340
0
 46
0.0
 50
0.0
 44
0.0
 45
0.0
  0
LTYPE
  5
72
330
5
100
AcDbSymbolTableRecord
100
AcDbLinetypeTableRecord
  2
PHANTOM
 70
     0
  3
____ _ _ ____ _ _ _____ _ _ ____
 72
    65
 73
     6
 40
50.5
 49
18.0
 74
     4
 75
     0
340
0
 46
0.0
 50
0.0
 44
0.0
 45
0.0
 49
-6.5
 74
     4
 75
     0
340
0
 46
0.0
 50
0.0
 44
0.0
 45
0.0
 49
6.5
 74
     4
 75
     0
340
0
 46
0.0
 50
0.0
 44
0.0
 45
0.0
 49
-6.5
 74
     4
 75
     0
340
0
 46
0.0
 50
0.0
 44
0.0
 45
0.0
 49
6.5
 74
     4
 75
     0
340
0
 46
0.0
 50
0.0
 44
0.0
 45
0.0
 49
-6.5
 74
     4
 75
     0
340
0
 46
0.0
 50
0.0
 44
0.0
 45
0.0
  0
LTYPE
  5
344
330
5
100
AcDbSymbolTableRecord
100
AcDbLinetypeTableRecord
  2
CENTER2
 70
     0
  3
Center (.5x) ___ _ ___ _ ___ _ ___ _ ___ _ ___
 72
    65
 73
     4
 40
1.125
 49
0.75
 74
     0
 49
-0.125
 74
     0
 49
0.125
 74
     0
 49
-0.125
 74
     0
  0
ENDTAB
  0
TABLE
  2
LAYER
  5
2
330
0
100
AcDbSymbolTable
 70
    22
  0
LAYER
  5
10
102
{ACAD_XDICTIONARY
360
34F
102
}
330
2
100
AcDbSymbolTableRecord
100
AcDbLayerTableRecord
  2
0
 70
     0
 62
     7
  6
Continuous
370
    -3
390
F
  0
LAYER
  5
1FD
330
2
100
AcDbSymbolTableRecord
100
AcDbLayerTableRecord
  2
Defpoints
 70
     0
 62
     7
  6
Continuous
290
     0
370
    -3
390
F
  0
LAYER
  5
341
102
{ACAD_XDICTIONARY
360
351
102
}
330
2
100
AcDbSymbolTableRecord
100
AcDbLayerTableRecord
  2
1
 70
     0
 62
     4
  6
Continuous
370
    -3
390
F
  0
LAYER
  5
342
102
{ACAD_XDICTIONARY
360
353
102
}
330
2
100
AcDbSymbolTableRecord
100
AcDbLayerTableRecord
  2
2
 70
     0
 62
     7
  6
Continuous
370
    -3
390
F
  0
LAYER
  5
343
102
{ACAD_XDICTIONARY
360
355
102
}
330
2
100
AcDbSymbolTableRecord
100
AcDbLayerTableRecord
  2
4
 70
     0
 62
     2
  6
CENTER2
370
    -3
390
F
  0
LAYER
  5
345
102
{ACAD_XDICTIONARY
360
357
102
}
330
2
100
AcDbSymbolTableRecord
100
AcDbLayerTableRecord
  2
SK1
 70
     0
 62
     4
  6
Continuous
370
    -3
390
F
  0
LAYER
  5
346
102
{ACAD_XDICTIONARY
360
359
102
}
330
2
100
AcDbSymbolTableRecord
100
AcDbLayerTableRecord
  2
SK2
 70
     0
 62
     7
  6
Continuous
370
    -3
390
F
  0
LAYER
  5
348
102
{ACAD_XDICTIONARY
360
35B
102
}
330
2
100
AcDbSymbolTableRecord
100
AcDbLayerTableRecord
  2
SK4
 70
     0
 62
     2
  6
CENTER2
370
    -3
390
F
  0
LAYER
  5
349
102
{ACAD_XDICTIONARY
360
35D
102
}
330
2
100
AcDbSymbolTableRecord
100
AcDbLayerTableRecord
  2
SK6
 70
     0
 62
     5
  6
Continuous
370
    -3
390
F
  0
LAYER
  5
34A
102
{ACAD_XDICTIONARY
360
35F
102
}
330
2
100
AcDbSymbolTableRecord
100
AcDbLayerTableRecord
  2
CUT
 70
     0
 62
     1
  6
Continuous
370
    -3
390
F
  0
LAYER
  5
34B
102
{ACAD_XDICTIONARY
360
361
102
}
330
2
100
AcDbSymbolTableRecord
100
AcDbLayerTableRecord
  2
NOCUT
 70
     0
 62
     7
  6
Continuous
370
    -3
390
F
  0
LAYER
  5
34C
102
{ACAD_XDICTIONARY
360
363
102
}
330
2
100
AcDbSymbolTableRecord
100
AcDbLayerTableRecord
  2
80
 70
     0
 62
     6
  6
Continuous
370
    -3
390
F
  0
LAYER
  5
34D
102
{ACAD_XDICTIONARY
360
365
102
}
330
2
100
AcDbSymbolTableRecord
100
AcDbLayerTableRecord
  2
81
 70
     0
 62
     3
  6
Continuous
370
    -3
390
F
  0
ENDTAB
  0
TABLE
  2
STYLE
  5
3
330
0
100
AcDbSymbolTable
 70
     3
  0
STYLE
  5
11
330
3
100
AcDbSymbolTableRecord
100
AcDbTextStyleTableRecord
  2
Standard
 70
     0
 40
0.0
 41
1.0
 50
0.0
 71
     0
 42
0.2
  3
txt
  4

  0
STYLE
  5
1F1
330
3
100
AcDbSymbolTableRecord
100
AcDbTextStyleTableRecord
  2
cesky
 70
     0
 40
0.0
 41
1.0
 50
0.0
 71
     0
 42
0.2
  3
simplex.shx
  4

  0
STYLE
  5
1F2
330
3
100
AcDbSymbolTableRecord
100
AcDbTextStyleTableRecord
  2
DWGDirectTextStyle
 70
     0
 40
0.0
 41
1.0
 50
0.0
 71
     0
 42
0.2
  3
simplex
  4

  0
ENDTAB
  0
TABLE
  2
VIEW
  5
6
330
0
100
AcDbSymbolTable
 70
     0
  0
ENDTAB
  0
TABLE
  2
UCS
  5
7
330
0
100
AcDbSymbolTable
 70
     0
  0
ENDTAB
  0
TABLE
  2
APPID
  5
9
330
0
100
AcDbSymbolTable
 70
     7
  0
APPID
  5
12
330
9
100
AcDbSymbolTableRecord
100
AcDbRegAppTableRecord
  2
ACAD
 70
     0
  0
APPID
  5
1F9
330
9
100
AcDbSymbolTableRecord
100
AcDbRegAppTableRecord
  2
ACAD_DSTYLE_DIMBREAK
 70
     0
  0
APPID
  5
2B2
330
9
100
AcDbSymbolTableRecord
100
AcDbRegAppTableRecord
  2
ACAD_DSTYLE_DIM_LINETYPE
 70
     0
  0
APPID
  5
2B3
330
9
100
AcDbSymbolTableRecord
100
AcDbRegAppTableRecord
  2
ACAD_DSTYLE_DIM_EXT1_LINETYPE
 70
     0
  0
APPID
  5
2B4
330
9
100
AcDbSymbolTableRecord
100
AcDbRegAppTableRecord
  2
ACAD_DSTYLE_DIM_EXT2_LINETYPE
 70
     0
  0
APPID
  5
2F4
330
9
100
AcDbSymbolTableRecord
100
AcDbRegAppTableRecord
  2
ACAD_MLEADERVER
 70
     0
  0
APPID
  5
36A
330
9
100
AcDbSymbolTableRecord
100
AcDbRegAppTableRecord
  2
ACAD_NAV_VCDISPLAY
 70
     0
  0
ENDTAB
  0
TABLE
  2
DIMSTYLE
  5
A
330
0
100
AcDbSymbolTable
 70
     1
100
AcDbDimStyleTable
 71
     0
  0
DIMSTYLE
105
27
330
A
100
AcDbSymbolTableRecord
100
AcDbDimStyleTableRecord
  2
Standard
 70
     0
340
11
1001
ACAD_DSTYLE_DIMBREAK
1070
   391
1040
6.349999999999999
  0
ENDTAB
  0
TABLE
  2
BLOCK_RECORD
  5
1
330
0
100
AcDbSymbolTable
 70
    16
  0
BLOCK_RECORD
  5
1F
102
{ACAD_XDICTIONARY
360
304
102
}
330
1
100
AcDbSymbolTableRecord
100
AcDbBlockTableRecord
  2
*Model_Space
340
22
  0
BLOCK_RECORD
  5
1B
330
1
100
AcDbSymbolTableRecord
100
AcDbBlockTableRecord
  2
*Paper_Space
340
1E
  0
BLOCK_RECORD
  5
23
330
1
100
AcDbSymbolTableRecord
100
AcDbBlockTableRecord
  2
*Paper_Space0
340
26
  0
BLOCK_RECORD
  5
1F4
330
1
100
AcDbSymbolTableRecord
100
AcDbBlockTableRecord
  2
ASSORTED_DRAFT1
340
0
  0
BLOCK_RECORD
  5
1FE
330
1
100
AcDbSymbolTableRecord
100
AcDbBlockTableRecord
  2
*D2
340
0
  0
BLOCK_RECORD
  5
20A
330
1
100
AcDbSymbolTableRecord
100
AcDbBlockTableRecord
  2
_U0
340
0
  0
BLOCK_RECORD
  5
216
330
1
100
AcDbSymbolTableRecord
100
AcDbBlockTableRecord
  2
*D4
340
0
  0
BLOCK_RECORD
  5
222
330
1
100
AcDbSymbolTableRecord
100
AcDbBlockTableRecord
  2
_U1
340
0
  0
BLOCK_RECORD
  5
22E
330
1
100
AcDbSymbolTableRecord
100
AcDbBlockTableRecord
  2
*D6
340
0
  0
BLOCK_RECORD
  5
239
330
1
100
AcDbSymbolTableRecord
100
AcDbBlockTableRecord
  2
_U2
340
0
  0
BLOCK_RECORD
  5
244
330
1
100
AcDbSymbolTableRecord
100
AcDbBlockTableRecord
  2
*D8
340
0
  0
BLOCK_RECORD
  5
250
330
1
100
AcDbSymbolTableRecord
100
AcDbBlockTableRecord
  2
_U3
340
0
  0
BLOCK_RECORD
  5
25D
330
1
100
AcDbSymbolTableRecord
100
AcDbBlockTableRecord
  2
*D10
340
0
  0
BLOCK_RECORD
  5
269
330
1
100
AcDbSymbolTableRecord
100
AcDbBlockTableRecord
  2
_U4
340
0
  0
BLOCK_RECORD
  5
276
330
1
100
AcDbSymbolTableRecord
100
AcDbBlockTableRecord
  2
*D12
340
0
  0
BLOCK_RECORD
  5
282
330
1
100
AcDbSymbolTableRecord
100
AcDbBlockTableRecord
  2
_U5
340
0
  0
BLOCK_RECORD
  5
28E
330
1
100
AcDbSymbolTableRecord
100
AcDbBlockTableRecord
  2
*D14
340
0
  0
BLOCK_RECORD
  5
29A
330
1
100
AcDbSymbolTableRecord
100
AcDbBlockTableRecord
  2
_U6
340
0
  0
ENDTAB
  0
ENDSEC
  0
SECTION
  2
BLOCKS
  0
BLOCK
  5
20
330
1F
100
AcDbEntity
  8
0
100
AcDbBlockBegin
  2
*Model_Space
 70
     0
 10
0.0
 20
0.0
 30
0.0
  3
*Model_Space
  1

  0
ENDBLK
  5
21
330
1F
100
AcDbEntity
  8
0
100
AcDbBlockEnd
  0
BLOCK
  5
1C
330
1B
100
AcDbEntity
 67
     1
  8
0
100
AcDbBlockBegin
  2
*Paper_Space
 70
     0
 10
0.0
 20
0.0
 30
0.0
  3
*Paper_Space
  1

  0
ENDBLK
  5
1D
330
1B
100
AcDbEntity
 67
     1
  8
0
100
AcDbBlockEnd
  0
BLOCK
  5
24
330
23
100
AcDbEntity
 67
     1
  8
0
100
AcDbBlockBegin
  2
*Paper_Space0
 70
     0
 10
0.0
 20
0.0
 30
0.0
  3
*Paper_Space0
  1

  0
ENDBLK
  5
25
330
23
100
AcDbEntity
 67
     1
  8
0
100
AcDbBlockEnd
  0
BLOCK
  5
1F7
330
1F4
100
AcDbEntity
  8
0
100
AcDbBlockBegin
  2
ASSORTED_DRAFT1
 70
     0
 10
0.0
 20
0.0
 30
0.0
  3
ASSORTED_DRAFT1
  1

  0
SOLID
  5
1F5
330
1F4
100
AcDbEntity
  8
0
 62
   254
370
    13
100
AcDbTrace
 10
270.185042
 20
161.034924
 30
0.0
 11
265.185046
 21
159.92645
 31
0.0
 12
265.1850379999999
 22
162.143397
 32
0.0
 13
270.185042
 23
161.034924
 33
0.0
  0
ENDBLK
  5
1F8
330
1F4
100
AcDbEntity
  8
0
100
AcDbBlockEnd
  0
BLOCK
  5
1FF
330
1FE
100
AcDbEntity
  8
0
100
AcDbBlockBegin
  2
*D2
 70
     1
 10
0.0
 20
0.0
 30
0.0
  3
*D2
  1

  0
LINE
  5
201
330
1FE
100
AcDbEntity
  8
0
 62
   254
370
    -2
100
AcDbLine
 10
409.404842
 20
301.907994
 30
0.0
 11
409.404842
 21
344.155687
 31
0.0
  0
LINE
  5
202
330
1FE
100
AcDbEntity
  8
0
 62
   254
370
    -2
100
AcDbLine
 10
218.404842
 20
299.407994
 30
0.0
 11
218.404842
 21
344.155687
 31
0.0
  0
LINE
  5
203
330
1FE
100
AcDbEntity
  8
0
 62
   254
370
    -2
100
AcDbLine
 10
405.9048419999999
 20
343.155687
 30
0.0
 11
221.904842
 21
343.155687
 31
0.0
  0
SOLID
  5
204
330
1FE
100
AcDbEntity
  8
0
 62
   254
100
AcDbTrace
 10
405.9048419999999
 20
342.572354
 30
0.0
 11
405.9048419999999
 21
343.739021
 31
0.0
 12
409.404842
 22
343.155687
 32
0.0
 13
409.404842
 23
343.155687
 33
0.0
  0
SOLID
  5
205
330
1FE
100
AcDbEntity
  8
0
 62
   254
100
AcDbTrace
 10
221.904842
 20
343.739021
 30
0.0
 11
221.904842
 21
342.572354
 31
0.0
 12
218.404842
 22
343.155687
 32
0.0
 13
218.404842
 23
343.155687
 33
0.0
  0
MTEXT
  5
206
330
1FE
100
AcDbEntity
  8
0
 62
   254
370
    13
100
AcDbMText
 10
313.904842
 20
348.405687
 30
0.0
 40
3.5
 41
0.0
 71
     5
 72
     1
  1
\A1;191
  7
cesky
 73
     1
 44
1.0
  0
POINT
  5
207
330
1FE
100
AcDbEntity
  8
Defpoints
 62
     0
100
AcDbPoint
 10
409.404842
 20
301.907994
 30
0.0
  0
POINT
  5
208
330
1FE
100
AcDbEntity
  8
Defpoints
 62
     0
100
AcDbPoint
 10
218.404842
 20
299.407994
 30
0.0
  0
POINT
  5
209
330
1FE
100
AcDbEntity
  8
Defpoints
 62
     0
100
AcDbPoint
 10
218.404842
 20
343.155687
 30
0.0
  0
ENDBLK
  5
200
330
1FE
100
AcDbEntity
  8
0
100
AcDbBlockEnd
  0
BLOCK
  5
211
330
20A
100
AcDbEntity
  8
0
100
AcDbBlockBegin
  2
_U0
 70
     0
 10
0.0
 20
0.0
 30
0.0
  3
_U0
  1

  0
ENDBLK
  5
212
330
20A
100
AcDbEntity
  8
0
100
AcDbBlockEnd
  0
BLOCK
  5
217
330
216
100
AcDbEntity
  8
0
100
AcDbBlockBegin
  2
*D4
 70
     1
 10
0.0
 20
0.0
 30
0.0
  3
*D4
  1

  0
LINE
  5
219
330
216
100
AcDbEntity
  8
0
 62
   254
370
    -2
100
AcDbLine
 10
274.404842
 20
288.907994
 30
0.0
 11
274.404842
 21
330.17035
 31
0.0
  0
LINE
  5
21A
330
216
100
AcDbEntity
  8
0
 62
   254
370
    -2
100
AcDbLine
 10
218.404842
 20
294.157994
 30
0.0
 11
218.404842
 21
330.17035
 31
0.0
  0
LINE
  5
21B
330
216
100
AcDbEntity
  8
0
 62
   254
370
    -2
100
AcDbLine
 10
270.904842
 20
329.17035
 30
0.0
 11
221.904842
 21
329.17035
 31
0.0
  0
SOLID
  5
21C
330
216
100
AcDbEntity
  8
0
 62
   254
100
AcDbTrace
 10
270.904842
 20
328.587017
 30
0.0
 11
270.904842
 21
329.753684
 31
0.0
 12
274.404842
 22
329.17035
 32
0.0
 13
274.404842
 23
329.17035
 33
0.0
  0
SOLID
  5
21D
330
216
100
AcDbEntity
  8
0
 62
   254
100
AcDbTrace
 10
221.904842
 20
329.753684
 30
0.0
 11
221.904842
 21
328.587017
 31
0.0
 12
218.404842
 22
329.17035
 32
0.0
 13
218.404842
 23
329.17035
 33
0.0
  0
MTEXT
  5
21E
330
216
100
AcDbEntity
  8
0
 62
   254
370
    13
100
AcDbMText
 10
246.404842
 20
334.42035
 30
0.0
 40
3.5
 41
0.0
 71
     5
 72
     1
  1
\A1;56
  7
cesky
 73
     1
 44
1.0
  0
POINT
  5
21F
330
216
100
AcDbEntity
  8
Defpoints
 62
     0
100
AcDbPoint
 10
274.404842
 20
288.907994
 30
0.0
  0
POINT
  5
220
330
216
100
AcDbEntity
  8
Defpoints
 62
     0
100
AcDbPoint
 10
218.404842
 20
294.157994
 30
0.0
  0
POINT
  5
221
330
216
100
AcDbEntity
  8
Defpoints
 62
     0
100
AcDbPoint
 10
218.404842
 20
329.17035
 30
0.0
  0
ENDBLK
  5
218
330
216
100
AcDbEntity
  8
0
100
AcDbBlockEnd
  0
BLOCK
  5
229
330
222
100
AcDbEntity
  8
0
100
AcDbBlockBegin
  2
_U1
 70
     0
 10
0.0
 20
0.0
 30
0.0
  3
_U1
  1

  0
ENDBLK
  5
22A
330
222
100
AcDbEntity
  8
0
100
AcDbBlockEnd
  0
BLOCK
  5
22F
330
22E
100
AcDbEntity
  8
0
100
AcDbBlockBegin
  2
*D6
 70
     1
 10
0.0
 20
0.0
 30
0.0
  3
*D6
  1

  0
LINE
  5
231
330
22E
100
AcDbEntity
  8
0
 62
   254
370
    -2
100
AcDbLine
 10
293.032259
 20
288.907994
 30
0.0
 11
427.704128
 21
288.907994
 31
0.0
  0
LINE
  5
232
330
22E
100
AcDbEntity
  8
0
 62
   254
370
    -2
100
AcDbLine
 10
330.83929
 20
299.907994
 30
0.0
 11
427.704128
 21
299.907994
 31
0.0
  0
LINE
  5
233
330
22E
100
AcDbEntity
  8
0
 62
   254
370
    -2
100
AcDbLine
 10
426.7041279999999
 20
303.407994
 30
0.0
 11
426.7041279999999
 21
306.907994
 31
0.0
  0
SOLID
  5
234
330
22E
100
AcDbEntity
  8
0
 62
   254
100
AcDbTrace
 10
426.120794
 20
303.407994
 30
0.0
 11
427.287461
 21
303.407994
 31
0.0
 12
426.7041279999999
 22
299.907994
 32
0.0
 13
426.7041279999999
 23
299.907994
 33
0.0
  0
MTEXT
  5
235
330
22E
100
AcDbEntity
  8
0
 62
   254
370
    13
100
AcDbMText
 10
421.454128
 20
275.57466
 30
0.0
 40
3.5
 41
0.0
 71
     5
 72
     1
  1
\A1;22
  7
cesky
 11
0.0
 21
1.0
 31
0.0
 73
     1
 44
1.0
  0
POINT
  5
236
330
22E
100
AcDbEntity
  8
Defpoints
 62
     0
100
AcDbPoint
 10
293.032259
 20
288.907994
 30
0.0
  0
POINT
  5
237
330
22E
100
AcDbEntity
  8
Defpoints
 62
     0
100
AcDbPoint
 10
330.83929
 20
299.907994
 30
0.0
  0
POINT
  5
238
330
22E
100
AcDbEntity
  8
Defpoints
 62
     0
100
AcDbPoint
 10
426.7041279999999
 20
299.907994
 30
0.0
  0
ENDBLK
  5
230
330
22E
100
AcDbEntity
  8
0
100
AcDbBlockEnd
  0
BLOCK
  5
23F
330
239
100
AcDbEntity
  8
0
100
AcDbBlockBegin
  2
_U2
 70
     0
 10
0.0
 20
0.0
 30
0.0
  3
_U2
  1

  0
ENDBLK
  5
240
330
239
100
AcDbEntity
  8
0
100
AcDbBlockEnd
  0
BLOCK
  5
245
330
244
100
AcDbEntity
  8
0
100
AcDbBlockBegin
  2
*D8
 70
     1
 10
0.0
 20
0.0
 30
0.0
  3
*D8
  1

  0
LINE
  5
247
330
244
100
AcDbEntity
  8
0
 62
    95
370
    -2
100
AcDbLine
 10
220.404842
 20
301.407994
 30
0.0
 11
204.955296
 21
301.407994
 31
0.0
  0
LINE
  5
248
330
244
100
AcDbEntity
  8
0
 62
    95
370
    -2
100
AcDbLine
 10
220.404842
 20
276.407994
 30
0.0
 11
204.955296
 21
276.407994
 31
0.0
  0
LINE
  5
249
330
244
100
AcDbEntity
  8
0
 62
    95
370
    -2
100
AcDbLine
 10
205.955296
 20
297.907994
 30
0.0
 11
205.955296
 21
279.907994
 31
0.0
  0
SOLID
  5
24A
330
244
100
AcDbEntity
  8
0
 62
    95
100
AcDbTrace
 10
206.53863
 20
297.907994
 30
0.0
 11
205.371963
 21
297.907994
 31
0.0
 12
205.955296
 22
301.407994
 32
0.0
 13
205.955296
 23
301.407994
 33
0.0
  0
SOLID
  5
24B
330
244
100
AcDbEntity
  8
0
 62
    95
100
AcDbTrace
 10
205.371963
 20
279.907994
 30
0.0
 11
206.53863
 21
279.907994
 31
0.0
 12
205.955296
 22
276.407994
 32
0.0
 13
205.955296
 23
276.407994
 33
0.0
  0
MTEXT
  5
24C
330
244
100
AcDbEntity
  8
0
 62
    95
370
    13
100
AcDbMText
 10
200.705296
 20
288.907994
 30
0.0
 40
3.5
 41
0.0
 71
     5
 72
     1
  1
\A1;25
  7
cesky
 11
0.0
 21
1.0
 31
0.0
 73
     1
 44
1.0
  0
POINT
  5
24D
330
244
100
AcDbEntity
  8
Defpoints
 62
     0
100
AcDbPoint
 10
220.404842
 20
301.407994
 30
0.0
  0
POINT
  5
24E
330
244
100
AcDbEntity
  8
Defpoints
 62
     0
100
AcDbPoint
 10
220.404842
 20
276.407994
 30
0.0
  0
POINT
  5
24F
330
244
100
AcDbEntity
  8
Defpoints
 62
     0
100
AcDbPoint
 10
205.955296
 20
276.407994
 30
0.0
  0
ENDBLK
  5
246
330
244
100
AcDbEntity
  8
0
100
AcDbBlockEnd
  0
BLOCK
  5
258
330
250
100
AcDbEntity
  8
0
100
AcDbBlockBegin
  2
_U3
 70
     0
 10
0.0
 20
0.0
 30
0.0
  3
_U3
  1

  0
ENDBLK
  5
259
330
250
100
AcDbEntity
  8
0
100
AcDbBlockEnd
  0
BLOCK
  5
25E
330
25D
100
AcDbEntity
  8
0
100
AcDbBlockBegin
  2
*D10
 70
     1
 10
0.0
 20
0.0
 30
0.0
  3
*D10
  1

  0
LINE
  5
260
330
25D
100
AcDbEntity
  8
0
 62
    95
370
    -2
100
AcDbLine
 10
277.154842
 20
306.407994
 30
0.0
 11
189.143489
 21
306.407994
 31
0.0
  0
LINE
  5
261
330
25D
100
AcDbEntity
  8
0
 62
    95
370
    -2
100
AcDbLine
 10
277.154842
 20
271.407994
 30
0.0
 11
189.143489
 21
271.407994
 31
0.0
  0
LINE
  5
262
330
25D
100
AcDbEntity
  8
0
 62
    95
370
    -2
100
AcDbLine
 10
190.143489
 20
302.907994
 30
0.0
 11
190.143489
 21
274.907994
 31
0.0
  0
SOLID
  5
263
330
25D
100
AcDbEntity
  8
0
 62
    95
100
AcDbTrace
 10
190.726823
 20
302.907994
 30
0.0
 11
189.560156
 21
302.907994
 31
0.0
 12
190.143489
 22
306.407994
 32
0.0
 13
190.143489
 23
306.407994
 33
0.0
  0
SOLID
  5
264
330
25D
100
AcDbEntity
  8
0
 62
    95
100
AcDbTrace
 10
189.560156
 20
274.907994
 30
0.0
 11
190.726823
 21
274.907994
 31
0.0
 12
190.143489
 22
271.407994
 32
0.0
 13
190.143489
 23
271.407994
 33
0.0
  0
MTEXT
  5
265
330
25D
100
AcDbEntity
  8
0
 62
    95
370
    13
100
AcDbMText
 10
184.893489
 20
288.907994
 30
0.0
 40
3.5
 41
0.0
 71
     5
 72
     1
  1
\A1;35
  7
cesky
 11
0.0
 21
1.0
 31
0.0
 73
     1
 44
1.0
  0
POINT
  5
266
330
25D
100
AcDbEntity
  8
Defpoints
 62
     0
100
AcDbPoint
 10
277.154842
 20
306.407994
 30
0.0
  0
POINT
  5
267
330
25D
100
AcDbEntity
  8
Defpoints
 62
     0
100
AcDbPoint
 10
277.154842
 20
271.407994
 30
0.0
  0
POINT
  5
268
330
25D
100
AcDbEntity
  8
Defpoints
 62
     0
100
AcDbPoint
 10
190.143489
 20
271.407994
 30
0.0
  0
ENDBLK
  5
25F
330
25D
100
AcDbEntity
  8
0
100
AcDbBlockEnd
  0
BLOCK
  5
271
330
269
100
AcDbEntity
  8
0
100
AcDbBlockBegin
  2
_U4
 70
     0
 10
0.0
 20
0.0
 30
0.0
  3
_U4
  1

  0
ENDBLK
  5
272
330
269
100
AcDbEntity
  8
0
100
AcDbBlockEnd
  0
BLOCK
  5
277
330
276
100
AcDbEntity
  8
0
100
AcDbBlockBegin
  2
*D12
 70
     1
 10
0.0
 20
0.0
 30
0.0
  3
*D12
  1

  0
LINE
  5
279
330
276
100
AcDbEntity
  8
0
 62
   254
370
    -2
100
AcDbLine
 10
409.404842
 20
299.907994
 30
0.0
 11
409.404842
 21
330.17035
 31
0.0
  0
LINE
  5
27A
330
276
100
AcDbEntity
  8
0
 62
   254
370
    -2
100
AcDbLine
 10
274.404842
 20
288.907994
 30
0.0
 11
274.404842
 21
330.17035
 31
0.0
  0
LINE
  5
27B
330
276
100
AcDbEntity
  8
0
 62
   254
370
    -2
100
AcDbLine
 10
405.9048419999999
 20
329.17035
 30
0.0
 11
277.904842
 21
329.17035
 31
0.0
  0
SOLID
  5
27C
330
276
100
AcDbEntity
  8
0
 62
   254
100
AcDbTrace
 10
405.9048419999999
 20
328.587017
 30
0.0
 11
405.9048419999999
 21
329.753684
 31
0.0
 12
409.404842
 22
329.17035
 32
0.0
 13
409.404842
 23
329.17035
 33
0.0
  0
SOLID
  5
27D
330
276
100
AcDbEntity
  8
0
 62
   254
100
AcDbTrace
 10
277.904842
 20
329.753684
 30
0.0
 11
277.904842
 21
328.587017
 31
0.0
 12
274.404842
 22
329.17035
 32
0.0
 13
274.404842
 23
329.17035
 33
0.0
  0
MTEXT
  5
27E
330
276
100
AcDbEntity
  8
0
 62
   254
370
    13
100
AcDbMText
 10
341.904842
 20
334.42035
 30
0.0
 40
3.5
 41
0.0
 71
     5
 72
     1
  1
\A1;135
  7
cesky
 73
     1
 44
1.0
  0
POINT
  5
27F
330
276
100
AcDbEntity
  8
Defpoints
 62
     0
100
AcDbPoint
 10
409.404842
 20
299.907994
 30
0.0
  0
POINT
  5
280
330
276
100
AcDbEntity
  8
Defpoints
 62
     0
100
AcDbPoint
 10
274.404842
 20
288.907994
 30
0.0
  0
POINT
  5
281
330
276
100
AcDbEntity
  8
Defpoints
 62
     0
100
AcDbPoint
 10
274.404842
 20
329.17035
 30
0.0
  0
ENDBLK
  5
278
330
276
100
AcDbEntity
  8
0
100
AcDbBlockEnd
  0
BLOCK
  5
289
330
282
100
AcDbEntity
  8
0
100
AcDbBlockBegin
  2
_U5
 70
     0
 10
0.0
 20
0.0
 30
0.0
  3
_U5
  1

  0
ENDBLK
  5
28A
330
282
100
AcDbEntity
  8
0
100
AcDbBlockEnd
  0
BLOCK
  5
28F
330
28E
100
AcDbEntity
  8
0
100
AcDbBlockBegin
  2
*D14
 70
     1
 10
0.0
 20
0.0
 30
0.0
  3
*D14
  1

  0
LINE
  5
291
330
28E
100
AcDbEntity
  8
0
 62
   254
370
    -2
100
AcDbLine
 10
409.404842
 20
299.907994
 30
0.0
 11
409.404842
 21
315.595905
 31
0.0
  0
LINE
  5
292
330
28E
100
AcDbEntity
  8
0
 62
   254
370
    -2
100
AcDbLine
 10
293.409414
 20
299.583205
 30
0.0
 11
293.409414
 21
315.595905
 31
0.0
  0
LINE
  5
293
330
28E
100
AcDbEntity
  8
0
 62
   254
370
    -2
100
AcDbLine
 10
405.9048419999999
 20
314.595905
 30
0.0
 11
296.909414
 21
314.595905
 31
0.0
  0
SOLID
  5
294
330
28E
100
AcDbEntity
  8
0
 62
   254
100
AcDbTrace
 10
405.9048419999999
 20
314.012571
 30
0.0
 11
405.9048419999999
 21
315.179238
 31
0.0
 12
409.404842
 22
314.595905
 32
0.0
 13
409.404842
 23
314.595905
 33
0.0
  0
SOLID
  5
295
330
28E
100
AcDbEntity
  8
0
 62
   254
100
AcDbTrace
 10
296.909414
 20
315.179238
 30
0.0
 11
296.909414
 21
314.012571
 31
0.0
 12
293.409414
 22
314.595905
 32
0.0
 13
293.409414
 23
314.595905
 33
0.0
  0
MTEXT
  5
296
330
28E
100
AcDbEntity
  8
0
 62
   254
370
    13
100
AcDbMText
 10
351.407128
 20
319.845905
 30
0.0
 40
3.5
 41
0.0
 71
     5
 72
     1
  1
\A1;116
  7
cesky
 73
     1
 44
1.0
  0
POINT
  5
297
330
28E
100
AcDbEntity
  8
Defpoints
 62
     0
100
AcDbPoint
 10
409.404842
 20
299.907994
 30
0.0
  0
POINT
  5
298
330
28E
100
AcDbEntity
  8
Defpoints
 62
     0
100
AcDbPoint
 10
293.409414
 20
299.583205
 30
0.0
  0
POINT
  5
299
330
28E
100
AcDbEntity
  8
Defpoints
 62
     0
100
AcDbPoint
 10
293.409414
 20
314.595905
 30
0.0
  0
ENDBLK
  5
290
330
28E
100
AcDbEntity
  8
0
100
AcDbBlockEnd
  0
BLOCK
  5
2A1
330
29A
100
AcDbEntity
  8
0
100
AcDbBlockBegin
  2
_U6
 70
     0
 10
0.0
 20
0.0
 30
0.0
  3
_U6
  1

  0
ENDBLK
  5
2A2
330
29A
100
AcDbEntity
  8
0
100
AcDbBlockEnd
  0
ENDSEC
  0
SECTION
  2
ENTITIES
  0
POINT
  5
73
102
{ACAD_REACTORS
330
34E
102
}
330
1F
100
AcDbEntity
  8
80
100
AcDbPoint
 10
274.404842
 20
288.907994
 30
0.0
  0
POINT
  5
76
330
1F
100
AcDbEntity
  8
SK4
 60
     1
100
AcDbPoint
 10
220.404842
 20
288.907994
 30
0.0
  0
POINT
  5
78
330
1F
100
AcDbEntity
  8
SK4
 60
     1
100
AcDbPoint
 10
274.404842
 20
288.907994
 30
0.0
  0
POINT
  5
79
330
1F
100
AcDbEntity
  8
4
 60
     1
100
AcDbPoint
 10
293.032259
 20
288.907994
 30
0.0
  0
POINT
  5
7A
330
1F
100
AcDbEntity
  8
4
 60
     1
100
AcDbPoint
 10
409.1147389999999
 20
288.907994
 30
0.0
  0
POINT
  5
7B
330
1F
100
AcDbEntity
  8
SK6
 60
     1
100
AcDbPoint
 10
274.404842
 20
288.907994
 30
0.0
  0
POINT
  5
7C
330
1F
100
AcDbEntity
  8
SK6
 60
     1
100
AcDbPoint
 10
293.409414
 20
299.583205
 30
0.0
  0
LINE
  5
7D
330
1F
100
AcDbEntity
  8
1
100
AcDbLine
 10
405.27066
 20
297.108784
 30
0.0
 11
405.2890709999999
 21
297.161158
 31
0.0
  0
LINE
  5
7F
330
1F
100
AcDbEntity
  8
1
100
AcDbLine
 10
404.807769
 20
296.393512
 30
0.0
 11
404.789887
 21
296.342641
 31
0.0
  0
LINE
  5
80
330
1F
100
AcDbEntity
  8
1
100
AcDbLine
 10
404.8762749999999
 20
296.382565
 30
0.0
 11
404.857968
 21
296.330485
 31
0.0
  0
LINE
  5
81
330
1F
100
AcDbEntity
  8
1
100
AcDbLine
 10
406.623612
 20
295.939361
 30
0.0
 11
406.641447
 21
295.990099
 31
0.0
  0
LINE
  5
82
330
1F
100
AcDbEntity
  8
1
100
AcDbLine
 10
406.545657
 20
295.9566549999999
 30
0.0
 11
406.563983
 21
296.00879
 31
0.0
  0
LINE
  5
83
330
1F
100
AcDbEntity
  8
1
100
AcDbLine
 10
405.7932499999999
 20
295.466232
 30
0.0
 11
405.8114859999999
 21
295.518111
 31
0.0
  0
LINE
  5
84
330
1F
100
AcDbEntity
  8
1
100
AcDbLine
 10
405.795269
 20
295.448191
 30
0.0
 11
405.813387
 21
295.499736
 31
0.0
  0
LINE
  5
85
330
1F
100
AcDbEntity
  8
1
100
AcDbLine
 10
408.907467
 20
289.450837
 30
0.0
 11
408.510239
 21
289.067238
 31
0.0
  0
LINE
  5
87
330
1F
100
AcDbEntity
  8
1
100
AcDbLine
 10
408.333864
 20
288.896915
 30
0.0
 11
408.510239
 21
289.067238
 31
0.0
  0
LINE
  5
88
330
1F
100
AcDbEntity
  8
1
100
AcDbLine
 10
409.394283
 20
288.382579
 30
0.0
 11
408.874737
 21
288.276876
 31
0.0
  0
LINE
  5
89
330
1F
100
AcDbEntity
  8
1
100
AcDbLine
 10
408.329124
 20
288.16587
 30
0.0
 11
408.874737
 21
288.276876
 31
0.0
  0
LINE
  5
8A
330
1F
100
AcDbEntity
  8
1
100
AcDbLine
 10
408.237227
 20
283.857184
 30
0.0
 11
408.7952529999999
 21
283.723213
 31
0.0
  0
LINE
  5
8B
330
1F
100
AcDbEntity
  8
1
100
AcDbLine
 10
409.31538
 20
283.598342
 30
0.0
 11
408.7952529999999
 21
283.723213
 31
0.0
  0
LINE
  5
8C
330
1F
100
AcDbEntity
  8
1
100
AcDbLine
 10
408.150129
 20
283.208316
 30
0.0
 11
408.403393
 21
282.946054
 31
0.0
  0
LINE
  5
8D
330
1F
100
AcDbEntity
  8
1
100
AcDbLine
 10
408.786992
 20
282.548825
 30
0.0
 11
408.403393
 21
282.946054
 31
0.0
  0
LINE
  5
8E
330
1F
100
AcDbEntity
  8
1
100
AcDbLine
 10
409.374386
 20
288.443575
 30
0.0
 11
408.96397
 21
289.365383
 31
0.0
  0
LINE
  5
8F
330
1F
100
AcDbEntity
  8
1
100
AcDbLine
 10
409.4017789999999
 20
288.14836
 30
0.0
 11
409.401172
 21
288.318936
 31
0.0
  0
LINE
  5
90
330
1F
100
AcDbEntity
  8
1
100
AcDbLine
 10
408.8266479999999
 20
289.51281
 30
0.0
 11
408.7843369999999
 21
289.53516
 31
0.0
  0
LINE
  5
91
330
1F
100
AcDbEntity
  8
1
100
AcDbLine
 10
408.5457019999999
 20
289.651549
 30
0.0
 11
408.7843369999999
 21
289.53516
 31
0.0
  0
LINE
  5
92
330
1F
100
AcDbEntity
  8
1
100
AcDbLine
 10
408.19247
 20
282.26567
 30
0.0
 11
408.7015379999999
 21
282.492322
 31
0.0
  0
LINE
  5
93
330
1F
100
AcDbEntity
  8
1
100
AcDbLine
 10
408.8489649999999
 20
282.629644
 30
0.0
 11
408.871315
 21
282.671956
 31
0.0
  0
LINE
  5
94
330
1F
100
AcDbEntity
  8
1
100
AcDbLine
 10
409.29371
 20
283.537994
 30
0.0
 11
408.871315
 21
282.671956
 31
0.0
  0
LINE
  5
95
330
1F
100
AcDbEntity
  8
1
100
AcDbLine
 10
408.5683549999999
 20
288.983342
 30
0.0
 11
408.855662
 21
288.33804
 31
0.0
  0
LINE
  5
96
330
1F
100
AcDbEntity
  8
1
100
AcDbLine
 10
408.7740549999999
 20
283.6627529999999
 30
0.0
 11
408.4644019999999
 21
283.02787
 31
0.0
  0
LINE
  5
97
330
1F
100
AcDbEntity
  8
1
100
AcDbLine
 10
408.333864
 20
289.174366
 30
0.0
 11
408.4284219999999
 21
289.1282470000001
 31
0.0
  0
LINE
  5
9B
330
1F
100
AcDbEntity
  8
80
100
AcDbLine
 10
275.404416
 20
288.907994
 30
0.0
 11
273.405268
 21
288.907994
 31
0.0
  0
LINE
  5
9C
330
1F
100
AcDbEntity
  8
1
100
AcDbLine
 10
409.4017789999999
 20
288.14836
 30
0.0
 11
409.323469
 21
283.66195
 31
0.0
  0
LINE
  5
9D
330
1F
100
AcDbEntity
  8
1
100
AcDbLine
 10
407.428622
 20
284.939494
 30
0.0
 11
407.725556
 21
284.939494
 31
0.0
  0
LINE
  5
9F
330
1F
100
AcDbEntity
  8
1
100
AcDbLine
 10
408.319497
 20
282.887937
 30
0.0
 11
408.106033
 21
282.792897
 31
0.0
  0
LINE
  5
A0
330
1F
100
AcDbEntity
  8
1
100
AcDbLine
 10
408.881077
 20
288.213121
 30
0.0
 11
408.803814
 21
283.786708
 31
0.0
  0
LINE
  5
A1
330
1F
100
AcDbEntity
  8
1
100
AcDbLine
 10
402.655247
 20
299.407994
 30
0.0
 11
383.0458759999999
 21
299.407994
 31
0.0
  0
LINE
  5
A2
330
1F
100
AcDbEntity
  8
1
100
AcDbLine
 10
407.0652469999999
 20
292.644102
 30
0.0
 11
403.6927669999999
 21
292.49701
 31
0.0
  0
LINE
  5
A3
330
1F
100
AcDbEntity
  8
1
100
AcDbLine
 10
286.4048419999999
 20
299.344866
 30
0.0
 11
286.4048419999999
 21
285.768002
 31
0.0
  0
LINE
  5
A4
330
1F
100
AcDbEntity
  8
1
100
AcDbLine
 10
404.189571
 20
293.057648
 30
0.0
 11
408.611665
 21
293.25052
 31
0.0
  0
LINE
  5
A5
330
1F
100
AcDbEntity
  8
1
100
AcDbLine
 10
408.794842
 20
290.169881
 30
0.0
 11
408.794842
 21
290.269896
 31
0.0
  0
LINE
  5
A6
330
1F
100
AcDbEntity
  8
1
100
AcDbLine
 10
408.611937
 20
293.211441
 30
0.0
 11
408.611665
 21
293.25052
 31
0.0
  0
LINE
  5
A7
330
1F
100
AcDbEntity
  8
1
100
AcDbLine
 10
279.404842
 20
306.407994
 30
0.0
 11
279.404842
 21
278.862525
 31
0.0
  0
LINE
  5
A8
330
1F
100
AcDbEntity
  8
1
100
AcDbLine
 10
279.404842
 20
271.407994
 30
0.0
 11
279.404842
 21
273.155957
 31
0.0
  0
LINE
  5
A9
330
1F
100
AcDbEntity
  8
1
100
AcDbLine
 10
402.5877729999999
 20
299.282848
 30
0.0
 11
402.585344
 21
299.339178
 31
0.0
  0
LINE
  5
AA
330
1F
100
AcDbEntity
  8
1
100
AcDbLine
 10
408.5360339999999
 20
292.680559
 30
0.0
 11
403.6998829999999
 21
292.469628
 31
0.0
  0
LINE
  5
AB
330
1F
100
AcDbEntity
  8
1
100
AcDbLine
 10
408.5360339999999
 20
292.680559
 30
0.0
 11
407.340541
 21
290.688759
 31
0.0
  0
LINE
  5
AC
330
1F
100
AcDbEntity
  8
1
100
AcDbLine
 10
408.9079609999999
 20
299.428829
 30
0.0
 11
409.1558799999999
 21
293.867007
 31
0.0
  0
LINE
  5
AD
330
1F
100
AcDbEntity
  8
1
100
AcDbLine
 10
402.93552
 20
299.556254
 30
0.0
 11
408.503137
 21
299.799088
 31
0.0
  0
LINE
  5
AE
330
1F
100
AcDbEntity
  8
1
100
AcDbLine
 10
402.81313
 20
293.590365
 30
0.0
 11
402.565212
 21
299.152187
 31
0.0
  0
LINE
  5
AF
330
1F
100
AcDbEntity
  8
1
100
AcDbLine
 10
408.785572
 20
293.462941
 30
0.0
 11
403.217954
 21
293.220106
 31
0.0
  0
LINE
  5
B0
330
1F
100
AcDbEntity
  8
1
100
AcDbLine
 10
403.94917
 20
294.419389
 30
0.0
 11
403.7712579999999
 21
298.410662
 31
0.0
  0
LINE
  5
B1
330
1F
100
AcDbEntity
  8
1
100
AcDbLine
 10
407.9446029999999
 20
294.593651
 30
0.0
 11
403.94917
 21
294.419389
 31
0.0
  0
LINE
  5
B2
330
1F
100
AcDbEntity
  8
1
100
AcDbLine
 10
403.7712579999999
 20
298.410662
 30
0.0
 11
407.766691
 21
298.584925
 31
0.0
  0
LINE
  5
B3
330
1F
100
AcDbEntity
  8
1
100
AcDbLine
 10
407.766691
 20
298.584925
 30
0.0
 11
407.9446029999999
 21
294.593651
 31
0.0
  0
LINE
  5
B4
330
1F
100
AcDbEntity
  8
SK1
100
AcDbLine
 10
220.404842
 20
276.407994
 30
0.0
 11
274.404842
 21
276.407994
 31
0.0
  0
LINE
  5
B5
330
1F
100
AcDbEntity
  8
81
100
AcDbLine
 10
409.404842
 20
301.907994
 30
0.0
 11
409.404842
 21
297.907994
 31
0.0
  0
LINE
  5
B6
330
1F
100
AcDbEntity
  8
80
100
AcDbLine
 10
274.404842
 20
287.90842
 30
0.0
 11
274.404842
 21
289.907567
 31
0.0
  0
LINE
  5
B7
330
1F
100
AcDbEntity
  8
81
100
AcDbLine
 10
407.4048419999999
 20
299.907994
 30
0.0
 11
411.4048419999999
 21
299.907994
 31
0.0
  0
LINE
  5
B8
330
1F
100
AcDbEntity
  8
1
100
AcDbLine
 10
274.904842
 20
271.407994
 30
0.0
 11
279.404842
 21
271.407994
 31
0.0
  0
LINE
  5
B9
330
1F
100
AcDbEntity
  8
1
100
AcDbLine
 10
274.404842
 20
305.907994
 30
0.0
 11
274.404842
 21
288.907994
 31
0.0
  0
LINE
  5
BA
330
1F
100
AcDbEntity
  8
1
100
AcDbLine
 10
274.404842
 20
288.907994
 30
0.0
 11
274.404842
 21
271.907994
 31
0.0
  0
LINE
  5
BB
330
1F
100
AcDbEntity
  8
1
100
AcDbLine
 10
408.22782
 20
282.265104
 30
0.0
 11
408.092408
 21
282.26727
 31
0.0
  0
LINE
  5
BC
330
1F
100
AcDbEntity
  8
1
100
AcDbLine
 10
408.0821089999999
 20
282.567473
 30
0.0
 11
408.3338679999999
 21
284.939494
 31
0.0
  0
LINE
  5
BD
330
1F
100
AcDbEntity
  8
1
100
AcDbLine
 10
408.3338679999999
 20
284.939494
 30
0.0
 11
408.3338679999999
 21
289.308472
 31
0.0
  0
LINE
  5
BE
330
1F
100
AcDbEntity
  8
1
100
AcDbLine
 10
408.3760299999999
 20
289.607782
 30
0.0
 11
408.511672
 21
289.605414
 31
0.0
  0
LINE
  5
BF
330
1F
100
AcDbEntity
  8
1
100
AcDbLine
 10
408.5360339999999
 20
292.680559
 30
0.0
 11
408.545413
 21
292.68424
 31
0.0
  0
LINE
  5
C0
330
1F
100
AcDbEntity
  8
1
100
AcDbLine
 10
408.653668
 20
293.267004
 30
0.0
 11
404.1948009999999
 21
293.072529
 31
0.0
  0
LINE
  5
C1
330
1F
100
AcDbEntity
  8
1
100
AcDbLine
 10
404.189571
 20
293.057648
 30
0.0
 11
404.1948009999999
 21
293.072529
 31
0.0
  0
LINE
  5
C2
330
1F
100
AcDbEntity
  8
1
100
AcDbLine
 10
408.511672
 20
289.605414
 30
0.0
 11
408.75268
 21
289.932006
 31
0.0
  0
LINE
  5
C3
330
1F
100
AcDbEntity
  8
1
100
AcDbLine
 10
408.75268
 20
290.170617
 30
0.0
 11
408.75268
 21
289.932006
 31
0.0
  0
LINE
  5
C4
330
1F
100
AcDbEntity
  8
1
100
AcDbLine
 10
408.75268
 20
290.170617
 30
0.0
 11
408.794842
 21
290.169881
 31
0.0
  0
LINE
  5
C5
330
1F
100
AcDbEntity
  8
1
100
AcDbLine
 10
408.794842
 20
293.464921
 30
0.0
 11
408.794842
 21
290.269896
 31
0.0
  0
LINE
  5
C6
330
1F
100
AcDbEntity
  8
1
100
AcDbLine
 10
408.653668
 20
293.267004
 30
0.0
 11
408.6523439999999
 21
293.457127
 31
0.0
  0
LINE
  5
C7
330
1F
100
AcDbEntity
  8
1
100
AcDbLine
 10
408.653668
 20
293.267004
 30
0.0
 11
408.611665
 21
293.25052
 31
0.0
  0
LINE
  5
C8
330
1F
100
AcDbEntity
  8
1
100
AcDbLine
 10
408.101607
 20
278.407994
 30
0.0
 11
408.450178
 21
281.69215
 31
0.0
  0
LINE
  5
C9
330
1F
100
AcDbEntity
  8
1
100
AcDbLine
 10
408.450178
 20
281.69215
 30
0.0
 11
408.408087
 21
281.692824
 31
0.0
  0
LINE
  5
CA
330
1F
100
AcDbEntity
  8
1
100
AcDbLine
 10
408.4333689999999
 20
281.931024
 30
0.0
 11
408.408087
 21
281.692824
 31
0.0
  0
LINE
  5
CB
330
1F
100
AcDbEntity
  8
1
100
AcDbLine
 10
408.4333689999999
 20
281.931024
 30
0.0
 11
408.22782
 21
282.265104
 31
0.0
  0
LINE
  5
CC
330
1F
100
AcDbEntity
  8
1
100
AcDbLine
 10
408.0565169999999
 20
284.939494
 30
0.0
 11
408.3338679999999
 21
284.939494
 31
0.0
  0
LINE
  5
CD
330
1F
100
AcDbEntity
  8
SK1
100
AcDbLine
 10
220.404842
 20
301.407994
 30
0.0
 11
220.404842
 21
276.407994
 31
0.0
  0
LINE
  5
CE
330
1F
100
AcDbEntity
  8
SK1
100
AcDbLine
 10
218.404842
 20
299.407994
 30
0.0
 11
218.404842
 21
278.407994
 31
0.0
  0
LINE
  5
CF
330
1F
100
AcDbEntity
  8
1
100
AcDbLine
 10
402.56747
 20
294.5486509999999
 30
0.0
 11
402.562239
 21
294.533771
 31
0.0
  0
LINE
  5
D0
330
1F
100
AcDbEntity
  8
1
100
AcDbLine
 10
402.56747
 20
294.5486509999999
 30
0.0
 11
402.360897
 21
299.3396259999999
 31
0.0
  0
LINE
  5
D1
330
1F
100
AcDbEntity
  8
1
100
AcDbLine
 10
402.3566879999999
 20
299.301063
 30
0.0
 11
402.562239
 21
294.533771
 31
0.0
  0
LINE
  5
D2
330
1F
100
AcDbEntity
  8
1
100
AcDbLine
 10
408.101607
 20
278.407994
 30
0.0
 11
387.666154
 21
278.407994
 31
0.0
  0
LINE
  5
D3
330
1F
100
AcDbEntity
  8
1
100
AcDbLine
 10
274.904842
 20
271.407994
 30
0.0
 11
274.904842
 21
288.907994
 31
0.0
  0
LINE
  5
D4
330
1F
100
AcDbEntity
  8
1
100
AcDbLine
 10
274.904842
 20
288.907994
 30
0.0
 11
274.904842
 21
306.407994
 31
0.0
  0
LINE
  5
D5
330
1F
100
AcDbEntity
  8
1
100
AcDbLine
 10
407.384312
 20
295.810133
 30
0.0
 11
407.3987149999999
 21
295.851108
 31
0.0
  0
LINE
  5
D6
330
1F
100
AcDbEntity
  8
1
100
AcDbLine
 10
279.404842
 20
271.407994
 30
0.0
 11
281.71855
 21
273.721702
 31
0.0
  0
LINE
  5
D7
330
1F
100
AcDbEntity
  8
1
100
AcDbLine
 10
281.71855
 20
304.094285
 30
0.0
 11
279.404842
 21
306.407994
 31
0.0
  0
LINE
  5
D8
330
1F
100
AcDbEntity
  8
SK1
100
AcDbLine
 10
218.404842
 20
278.407994
 30
0.0
 11
220.404842
 21
276.407994
 31
0.0
  0
LINE
  5
D9
330
1F
100
AcDbEntity
  8
SK1
100
AcDbLine
 10
220.404842
 20
301.407994
 30
0.0
 11
218.404842
 21
299.407994
 31
0.0
  0
LINE
  5
DA
330
1F
100
AcDbEntity
  8
SK1
100
AcDbLine
 10
274.404842
 20
301.407994
 30
0.0
 11
220.404842
 21
301.407994
 31
0.0
  0
LINE
  5
DB
330
1F
100
AcDbEntity
  8
1
100
AcDbLine
 10
274.904842
 20
271.407994
 30
0.0
 11
274.404842
 21
271.907994
 31
0.0
  0
LINE
  5
DC
330
1F
100
AcDbEntity
  8
1
100
AcDbLine
 10
274.404842
 20
305.907994
 30
0.0
 11
274.904842
 21
306.407994
 31
0.0
  0
LINE
  5
DD
330
1F
100
AcDbEntity
  8
1
100
AcDbLine
 10
279.404842
 20
306.407994
 30
0.0
 11
274.904842
 21
306.407994
 31
0.0
  0
LINE
  5
DF
330
1F
100
AcDbEntity
  8
1
100
AcDbLine
 10
404.143945
 20
296.995213
 30
0.0
 11
404.1295419999999
 21
296.954238
 31
0.0
  0
LINE
  5
E0
330
1F
100
AcDbEntity
  8
1
100
AcDbLine
 10
405.010337
 20
295.921381
 30
0.0
 11
405.028812
 21
295.973939
 31
0.0
  0
LINE
  5
E1
330
1F
100
AcDbEntity
  8
1
100
AcDbLine
 10
406.267405
 20
295.744499
 30
0.0
 11
406.2487639999999
 21
295.691469
 31
0.0
  0
LINE
  5
E2
330
1F
100
AcDbEntity
  8
1
100
AcDbLine
 10
405.2590239999999
 20
297.055648
 30
0.0
 11
405.277665
 21
297.108678
 31
0.0
  0
LINE
  5
E3
330
1F
100
AcDbEntity
  8
1
100
AcDbLine
 10
406.5159269999999
 20
296.8782930000001
 30
0.0
 11
406.4974519999999
 21
296.825736
 31
0.0
  0
LINE
  5
110
330
1F
100
AcDbEntity
  8
NOCUT
100
AcDbLine
 10
279.404842
 20
306.407994
 30
0.0
 11
281.71855
 21
304.094285
 31
0.0
  0
LINE
  5
111
330
1F
100
AcDbEntity
  8
NOCUT
100
AcDbLine
 10
408.542709
 20
299.407994
 30
0.0
 11
408.794842
 21
293.682816
 31
0.0
  0
LINE
  5
112
330
1F
100
AcDbEntity
  8
NOCUT
100
AcDbLine
 10
408.794842
 20
293.682816
 30
0.0
 11
408.794842
 21
288.907994
 31
0.0
  0
LINE
  5
113
330
1F
100
AcDbEntity
  8
NOCUT
100
AcDbLine
 10
408.794842
 20
288.907994
 30
0.0
 11
218.404842
 21
288.907994
 31
0.0
  0
LINE
  5
114
330
1F
100
AcDbEntity
  8
NOCUT
100
AcDbLine
 10
218.404842
 20
299.407994
 30
0.0
 11
220.404842
 21
301.407994
 31
0.0
  0
LINE
  5
115
330
1F
100
AcDbEntity
  8
NOCUT
100
AcDbLine
 10
293.032259
 20
299.407994
 30
0.0
 11
408.542709
 21
299.407994
 31
0.0
  0
LINE
  5
116
330
1F
100
AcDbEntity
  8
NOCUT
100
AcDbLine
 10
274.404842
 20
301.407994
 30
0.0
 11
274.404842
 21
305.907994
 31
0.0
  0
LINE
  5
117
330
1F
100
AcDbEntity
  8
NOCUT
100
AcDbLine
 10
274.404842
 20
305.907994
 30
0.0
 11
274.904842
 21
306.407994
 31
0.0
  0
LINE
  5
118
330
1F
100
AcDbEntity
  8
NOCUT
100
AcDbLine
 10
274.404842
 20
301.407994
 30
0.0
 11
220.404842
 21
301.407994
 31
0.0
  0
LINE
  5
119
330
1F
100
AcDbEntity
  8
NOCUT
100
AcDbLine
 10
279.404842
 20
306.407994
 30
0.0
 11
274.904842
 21
306.407994
 31
0.0
  0
LINE
  5
11A
330
1F
100
AcDbEntity
  8
NOCUT
100
AcDbLine
 10
218.404842
 20
299.407994
 30
0.0
 11
218.404842
 21
288.907994
 31
0.0
  0
ARC
  5
123
330
1F
100
AcDbEntity
  8
1
100
AcDbCircle
 10
293.032259
 20
315.407994
 30
0.0
 40
16.0
100
AcDbArc
 50
225.0
 51
262.255946
  0
ARC
  5
124
330
1F
100
AcDbEntity
  8
1
100
AcDbCircle
 10
293.032259
 20
262.407994
 30
0.0
 40
16.0
100
AcDbArc
 50
101.296642
 51
135.0
  0
ARC
  5
125
330
1F
100
AcDbEntity
  8
1
100
AcDbCircle
 10
405.2783359999999
 20
286.182145
 30
0.0
 40
1.25
100
AcDbArc
 50
75.0
 51
345.0
  0
CIRCLE
  5
126
330
1F
100
AcDbEntity
  8
1
100
AcDbCircle
 10
405.2783359999999
 20
286.182145
 30
0.0
 40
0.8499999999999991
  0
ARC
  5
135
330
1F
100
AcDbEntity
  8
NOCUT
100
AcDbCircle
 10
293.032259
 20
315.407994
 30
0.0
 40
16.0
100
AcDbArc
 50
225.0
 51
270.0
  0
ELLIPSE
  5
136
330
1F
100
AcDbEntity
  8
1
100
AcDbEllipse
 10
409.1093749999999
 20
288.324614
 30
0.0
 11
0.1098196711649349
 21
-0.2794869351398224
 31
0.0
210
0.0
220
0.0
230
0.9999999999999996
 40
0.9672879999999999
 41
1.188588413186955
 42
1.616778067750165
  0
ELLIPSE
  5
137
330
1F
100
AcDbEntity
  8
1
100
AcDbEllipse
 10
409.017943
 20
283.66975
 30
0.0
 11
0.2974366018393763
 21
-0.0714082102746037
 31
0.0
210
0.0
220
-0.0000000000000001
230
1.0
 40
0.98075
 41
6.069090479923195
 42
6.497280134435964
  0
ELLIPSE
  5
138
330
1F
100
AcDbEntity
  8
1
100
AcDbEllipse
 10
408.584718
 20
282.758286
 30
0.0
 11
0.2656198798368053
 21
0.1411089059214248
 31
0.0
210
0.0
220
0.0
230
1.0
 40
0.9656210000000001
 41
4.640474638359365
 42
5.325248159879077
  0
ELLIPSE
  5
139
330
1F
100
AcDbEntity
  8
1
100
AcDbEllipse
 10
408.698006
 20
289.248563
 30
0.0
 11
0.1411089059810023
 21
-0.2656198797942897
 31
0.0
210
0.0
220
0.0
230
0.9999999999999998
 40
0.9656209999999999
 41
1.498881984517646
 42
2.183655506058458
  0
ELLIPSE
  5
13A
330
1F
100
AcDbEntity
  8
1
100
AcDbEllipse
 10
408.516935
 20
288.20408
 30
0.0
 11
0.3498372633751314
 21
0.1038847912298023
 31
0.0
210
0.0
220
0.0
230
1.0
 40
0.820528
 41
0.0310637389134216
 42
0.107047382503386
  0
ELLIPSE
  5
13B
330
1F
100
AcDbEntity
  8
1
100
AcDbEllipse
 10
408.24617
 20
288.81223
 30
0.0
 11
0.2966387109045939
 21
0.2154128556367949
 31
0.0
210
0.0
220
0.0
230
0.9999999999999998
 40
0.814315
 41
6.111991929331455
 42
6.235073441373933
  0
ELLIPSE
  5
13C
330
1F
100
AcDbEntity
  8
1
100
AcDbEllipse
 10
408.1483839999999
 20
283.210123
 30
0.0
 11
0.2889401977099164
 21
-0.2256341698139445
 31
0.0
210
0.0
220
0.0
230
1.0
 40
0.814315
 41
0.0481118715146254
 42
0.171193385109687
  0
ELLIPSE
  5
13D
330
1F
100
AcDbEntity
  8
1
100
AcDbEllipse
 10
408.440209
 20
283.808452
 30
0.0
 11
0.3459984703348611
 21
-0.1160305739015956
 31
0.0
210
0.0
220
0.0
230
1.0
 40
0.8205279999999998
 41
6.176137843952835
 42
6.252121505419941
  0
ELLIPSE
  5
13E
330
1F
100
AcDbEntity
  8
1
100
AcDbEllipse
 10
408.24617
 20
288.812229
 30
0.0
 11
0.2256341849780266
 21
0.2889402321274391
 31
0.0
210
0.0
220
0.0
230
1.0
 40
0.8143149999999998
 41
0.0481118486375314
 42
0.1711933560766559
  0
ELLIPSE
  5
13F
330
1F
100
AcDbEntity
  8
1
100
AcDbEllipse
 10
408.1483839999999
 20
283.210123
 30
0.0
 11
0.2154128417277968
 21
-0.2966386735610972
 31
0.0
210
0.0
220
0.0
230
1.0
 40
0.8143149999999998
 41
6.111991896613651
 42
6.235073415144733
  0
ELLIPSE
  5
140
330
1F
100
AcDbEntity
  8
1
100
AcDbEllipse
 10
408.440209
 20
283.808452
 30
0.0
 11
0.3609637710592367
 21
-0.0536960227167471
 31
0.0
210
0.0
220
0.0
230
1.0
 40
0.8205279999999998
 41
0.031063770847866
 42
0.1070474221338333
  0
ELLIPSE
  5
141
330
1F
100
AcDbEntity
  8
1
100
AcDbEllipse
 10
408.516935
 20
288.20408
 30
0.0
 11
0.3626178830599043
 21
0.0410658578357939
 31
0.0
210
0.0
220
0.0
230
0.9999999999999998
 40
0.820528
 41
6.176137901611478
 42
6.252121549051753
  0
ELLIPSE
  5
142
330
1F
100
AcDbEntity
  8
1
100
AcDbEllipse
 10
408.607263
 20
288.222458
 30
0.0
 11
0.0598103802706153
 21
-0.2939774113249131
 31
0.0
210
0.0
220
0.0
230
0.9999999999999998
 40
0.9098469999999998
 41
1.432685149565311
 42
1.708907504326073
  0
ELLIPSE
  5
143
330
1F
100
AcDbEntity
  8
1
100
AcDbEllipse
 10
408.52984
 20
283.786933
 30
0.0
 11
0.0700336089459508
 21
0.2917109750414899
 31
0.0
210
0.0
220
0.0
230
1.0
 40
0.9098469999999998
 41
4.574277802699467
 42
4.850500158411231
  0
ELLIPSE
  5
144
330
1F
100
AcDbEntity
  8
1
100
AcDbEllipse
 10
408.2149109999999
 20
283.141233
 30
0.0
 11
0.2158019401355277
 21
0.2083975111384959
 31
0.0
210
0.0
220
0.0
230
0.9999999999999998
 40
0.9044360000000001
 41
4.493083732178072
 42
4.931694228761056
  0
ELLIPSE
  5
145
330
1F
100
AcDbEntity
  8
1
100
AcDbEllipse
 10
408.31506
 20
288.878756
 30
0.0
 11
0.2083975111029092
 21
-0.2158019400681696
 31
0.0
210
0.0
220
0.0
230
0.9999999999999998
 40
0.9044360000000001
 41
1.351491078455739
 42
1.790101575147423
  0
ELLIPSE
  5
146
330
1F
100
AcDbEntity
  8
1
100
AcDbEllipse
 10
405.7713299999999
 20
296.42316
 30
0.0
 11
-1.627384754841423
 21
0.572052322528041
 31
0.0
210
0.0
220
0.0
230
1.0
 40
0.9986169999999999
 41
3.14168624220166
 42
6.283185307179585
  0
ELLIPSE
  5
147
330
1F
100
AcDbEntity
  8
1
100
AcDbEllipse
 10
403.340939
 20
293.757238
 30
0.0
 11
1.037752597290181
 21
-0.3647869882787498
 31
0.0
210
0.0
220
0.0
230
1.0
 40
0.9986169999999999
 41
5.882364203772202
 42
5.931335259946572
  0
ELLIPSE
  5
148
330
1F
100
AcDbEntity
  8
1
100
AcDbEllipse
 10
403.132466
 20
288.907994
 30
0.0
 11
0.3879523884288739
 21
-10.4998575938954
 31
0.0
210
0.0
220
0.0
230
1.0
 40
0.140936
 41
3.230696213687958
 42
3.250936803899583
  0
ELLIPSE
  5
149
330
1F
100
AcDbEntity
  8
1
100
AcDbEllipse
 10
401.631835
 20
291.442283
 30
0.0
 11
-3.564776943487439
 21
-0.1713890244280503
 31
0.0
210
0.0
220
0.0
230
1.0
 40
0.221493
 41
2.197579206231166
 42
4.079474475590303
  0
ELLIPSE
  5
14A
330
1F
100
AcDbEntity
  8
1
100
AcDbEllipse
 10
321.359477
 20
288.907995
 30
0.0
 11
223.9681113201827
 21
10.23971827949737
 31
0.0
210
0.0
220
0.0
230
1.0
 40
0.010374
 41
5.088710244152579
 42
5.105929477580438
  0
ELLIPSE
  5
14B
330
1F
100
AcDbEntity
  8
1
100
AcDbEllipse
 10
406.179312
 20
295.551063
 30
0.0
 11
-0.0794580284109329
 21
0.0279307948294025
 31
0.0
210
0.0
220
0.0
230
1.0
 40
0.9986169999999997
 41
2.684655983757286
 42
4.047282951533846
  0
ELLIPSE
  5
14C
330
1F
100
AcDbEntity
  8
1
100
AcDbEllipse
 10
405.935717
 20
295.799091
 30
0.0
 11
-0.4075175559138355
 21
0.1432490771699385
 31
0.0
210
0.0
220
0.0
230
0.9999999999999998
 40
0.9986169999999999
 41
1.744718490121285
 42
2.684655983757376
  0
ELLIPSE
  5
14D
330
1F
100
AcDbEntity
  8
1
100
AcDbEllipse
 10
405.8790649999999
 20
295.456472
 30
0.0
 11
-0.0794580284109327
 21
0.0279307948294024
 31
0.0
210
0.0
220
0.0
230
0.9999999999999998
 40
0.9986169999999997
 41
0.3820915223454364
 42
1.744718490121235
  0
ELLIPSE
  5
14E
330
1F
100
AcDbEntity
  8
1
100
AcDbEllipse
 10
405.7108089999999
 20
295.449133
 30
0.0
 11
-0.0794580284109327
 21
0.0279307948294024
 31
0.0
210
0.0
220
0.0
230
0.9999999999999998
 40
0.9986169999999997
 41
3.523684175934993
 42
4.362712368112839
  0
ELLIPSE
  5
14F
330
1F
100
AcDbEntity
  8
1
100
AcDbEllipse
 10
405.490228
 20
295.180861
 30
0.0
 11
-0.4075175559138354
 21
0.1432490771699384
 31
0.0
210
0.0
220
0.0
230
0.9999999999999998
 40
0.9986169999999999
 41
4.362712368112777
 42
5.302649861748817
  0
ELLIPSE
  5
150
330
1F
100
AcDbEntity
  8
1
100
AcDbEllipse
 10
405.7538939999999
 20
296.373558
 30
0.0
 11
1.226434887706578
 21
-0.4311118952385228
 31
0.0
210
0.0
220
0.0
230
1.0
 40
0.9986169999999997
 41
0.0
 42
6.283185307179585
  0
ELLIPSE
  5
151
330
1F
100
AcDbEntity
  8
1
100
AcDbEllipse
 10
405.8701359999999
 20
296.536878
 30
0.0
 11
1.652572938396774
 21
-0.5809063804637768
 31
0.0
210
0.0
220
0.0
230
1.0
 40
0.9986169999999999
 41
1.952887838473244
 42
2.985293615969061
  0
ELLIPSE
  5
152
330
1F
100
AcDbEntity
  8
1
100
AcDbEllipse
 10
405.8701359999999
 20
296.536878
 30
0.0
 11
1.652572938396774
 21
-0.5809063804637768
 31
0.0
210
0.0
220
0.0
230
1.0
 40
0.9986169999999999
 41
5.795742701623865
 42
6.283185307179585
  0
ELLIPSE
  5
153
330
1F
100
AcDbEntity
  8
1
100
AcDbEllipse
 10
405.8701359999999
 20
296.536878
 30
0.0
 11
1.652572938396774
 21
-0.5809063804637768
 31
0.0
210
0.0
220
0.0
230
1.0
 40
0.9986169999999999
 41
0.0
 42
1.952887564593818
  0
ELLIPSE
  5
154
330
1F
100
AcDbEntity
  8
1
100
AcDbEllipse
 10
403.431598
 20
293.828644
 30
0.0
 11
0.9544181494354296
 21
1.042471546820644
 31
0.0
210
0.0
220
0.0
230
1.0
 40
0.014608
 41
0.9817638395073123
 42
1.53657487359107
  0
ELLIPSE
  5
155
330
1F
100
AcDbEntity
  8
1
100
AcDbEllipse
 10
405.8579309999999
 20
296.502157
 30
0.0
 11
-1.768896472653717
 21
0.6217960027478698
 31
0.0
210
0.0
220
0.0
230
1.0
 40
0.9986169999999999
 41
1.496964098433075
 42
5.094480416848164
  0
ELLIPSE
  5
156
330
1F
100
AcDbEntity
  8
1
100
AcDbEllipse
 10
405.8579309999999
 20
296.502157
 30
0.0
 11
-1.768896472653717
 21
0.6217960027478698
 31
0.0
210
0.0
220
0.0
230
1.0
 40
0.9986169999999999
 41
5.09448041684817
 42
6.283185307179585
  0
ELLIPSE
  5
157
330
1F
100
AcDbEntity
  8
1
100
AcDbEllipse
 10
405.8579309999999
 20
296.502157
 30
0.0
 11
-1.768896472653717
 21
0.6217960027478698
 31
0.0
210
0.0
220
0.0
230
1.0
 40
0.9986169999999999
 41
0.0
 42
0.9221507969589502
  0
ELLIPSE
  5
158
330
1F
100
AcDbEntity
  8
1
100
AcDbEllipse
 10
403.2068269999999
 20
298.8711850000001
 30
0.0
 11
1.042970519341211
 21
-0.9548749756823388
 31
0.0
210
0.0
220
0.0
230
1.0
 40
0.034202
 41
1.030578139273444
 42
1.585389171759059
  0
ELLIPSE
  5
159
330
1F
100
AcDbEntity
  8
1
100
AcDbEllipse
 10
408.254622
 20
299.091347
 30
0.0
 11
0.9544181503401217
 21
1.042471547860644
 31
0.0
210
0.0
220
0.0
230
1.0
 40
0.014608
 41
1.53657487188078
 42
2.091385905495915
  0
ELLIPSE
  5
15A
330
1F
100
AcDbEntity
  8
1
100
AcDbEllipse
 10
408.4793939999999
 20
294.048806
 30
0.0
 11
1.042970519416103
 21
-0.9548749758156478
 31
0.0
210
0.0
220
0.0
230
1.0
 40
0.034202
 41
1.585389172765256
 42
2.140200205208135
  0
ELLIPSE
  5
15B
330
1F
100
AcDbEntity
  8
1
100
AcDbEllipse
 10
405.756927
 20
296.382185
 30
0.0
 11
1.627384754841421
 21
-0.5720523225280397
 31
0.0
210
0.0
220
0.0
230
1.0
 40
0.9986169999999999
 41
0.0
 42
6.283185307179585
  0
ELLIPSE
  5
15C
330
1F
100
AcDbEntity
  8
1
100
AcDbEllipse
 10
405.4033109999999
 20
295.517218
 30
0.0
 11
-0.0794580284109328
 21
0.0279307948294024
 31
0.0
210
0.0
220
0.0
230
1.0
 40
0.9986169999999997
 41
5.302649861748623
 42
6.14167805392655
  0
ELLIPSE
  5
15D
330
1F
100
AcDbEntity
  8
1
100
AcDbEllipse
 10
405.2538509999999
 20
295.594903
 30
0.0
 11
-0.0794580284109329
 21
0.0279307948294025
 31
0.0
210
0.0
220
0.0
230
1.0
 40
0.9986169999999997
 41
1.637458432560621
 42
3.000085400336471
  0
ELLIPSE
  5
15E
330
1F
100
AcDbEntity
  8
1
100
AcDbEllipse
 10
405.3469009999999
 20
295.929462
 30
0.0
 11
-0.4075175559138355
 21
0.1432490771699385
 31
0.0
210
0.0
220
0.0
230
0.9999999999999998
 40
0.9986169999999999
 41
0.6975209389245832
 42
1.637458432560704
  0
ELLIPSE
  5
15F
330
1F
100
AcDbEntity
  8
1
100
AcDbEllipse
 10
405.0214949999999
 20
295.807419
 30
0.0
 11
-0.0794580284109327
 21
0.0279307948294024
 31
0.0
210
0.0
220
0.0
230
0.9999999999999998
 40
0.9986169999999997
 41
5.618079278328759
 42
6.980706246104106
  0
ELLIPSE
  5
160
330
1F
100
AcDbEntity
  8
1
100
AcDbEllipse
 10
404.930879
 20
295.949312
 30
0.0
 11
-0.0794580284109327
 21
0.0279307948294024
 31
0.0
210
0.0
220
0.0
230
0.9999999999999998
 40
0.9986169999999997
 41
2.476486624738758
 42
3.31551481691637
  0
ELLIPSE
  5
161
330
1F
100
AcDbEntity
  8
1
100
AcDbEllipse
 10
404.587841
 20
296.006199
 30
0.0
 11
-0.4075175559138354
 21
0.1432490771699384
 31
0.0
210
0.0
220
0.0
230
0.9999999999999998
 40
0.9986169999999999
 41
3.315514816916173
 42
4.255452310552218
  0
ELLIPSE
  5
162
330
1F
100
AcDbEntity
  8
1
100
AcDbEllipse
 10
404.8359249999999
 20
296.249317
 30
0.0
 11
-0.0794580284109328
 21
0.0279307948294024
 31
0.0
210
0.0
220
0.0
230
1.0
 40
0.9986169999999997
 41
4.255452310552279
 42
5.094480502729683
  0
ELLIPSE
  5
163
330
1F
100
AcDbEntity
  8
1
100
AcDbEllipse
 10
404.828433
 20
296.417398
 30
0.0
 11
-0.0794580284109329
 21
0.0279307948294025
 31
0.0
210
0.0
220
0.0
230
1.0
 40
0.9986169999999997
 41
0.5902608813644182
 42
1.952887849139982
  0
ELLIPSE
  5
164
330
1F
100
AcDbEntity
  8
1
100
AcDbEllipse
 10
405.165078
 20
296.50393
 30
0.0
 11
-0.4075175559138355
 21
0.1432490771699385
 31
0.0
210
0.0
220
0.0
230
0.9999999999999998
 40
0.9986169999999999
 41
5.933508694907602
 42
6.873446188543764
  0
ELLIPSE
  5
165
330
1F
100
AcDbEntity
  8
1
100
AcDbEllipse
 10
404.8963249999999
 20
296.724505
 30
0.0
 11
-0.0794580284109327
 21
0.0279307948294024
 31
0.0
210
0.0
220
0.0
230
0.9999999999999998
 40
0.9986169999999997
 41
4.570881727131753
 42
5.933508694907422
  0
ELLIPSE
  5
166
330
1F
100
AcDbEntity
  8
1
100
AcDbEllipse
 10
404.973964
 20
296.873737
 30
0.0
 11
-0.0794580284109327
 21
0.0279307948294024
 31
0.0
210
0.0
220
0.0
230
0.9999999999999998
 40
0.9986169999999997
 41
1.429289073541949
 42
2.268317265719417
  0
ELLIPSE
  5
167
330
1F
100
AcDbEntity
  8
1
100
AcDbEllipse
 10
404.8515069999999
 20
297.198897
 30
0.0
 11
-0.4075175559138354
 21
0.1432490771699384
 31
0.0
210
0.0
220
0.0
230
0.9999999999999998
 40
0.9986169999999999
 41
2.268317265719508
 42
3.20825475935567
  0
ELLIPSE
  5
168
330
1F
100
AcDbEntity
  8
1
100
AcDbEllipse
 10
405.1865089999999
 20
297.105658
 30
0.0
 11
-0.0794580284109328
 21
0.0279307948294024
 31
0.0
210
0.0
220
0.0
230
1.0
 40
0.9986169999999997
 41
3.208254759355761
 42
4.047282951533342
  0
ELLIPSE
  5
169
330
1F
100
AcDbEntity
  8
1
100
AcDbEllipse
 10
405.328477
 20
297.196054
 30
0.0
 11
-0.0794580284109329
 21
0.0279307948294025
 31
0.0
210
0.0
220
0.0
230
1.0
 40
0.9986169999999997
 41
5.826248637347152
 42
7.188875605123159
  0
ELLIPSE
  5
16A
330
1F
100
AcDbEntity
  8
1
100
AcDbEllipse
 10
405.572072
 20
296.948026
 30
0.0
 11
-0.4075175559138355
 21
0.1432490771699385
 31
0.0
210
0.0
220
0.0
230
0.9999999999999998
 40
0.9986169999999999
 41
4.886311143710976
 42
5.826248637347169
  0
ELLIPSE
  5
16B
330
1F
100
AcDbEntity
  8
1
100
AcDbEllipse
 10
405.628724
 20
297.290645
 30
0.0
 11
-0.0794580284109327
 21
0.0279307948294024
 31
0.0
210
0.0
220
0.0
230
0.9999999999999998
 40
0.9986169999999997
 41
3.523684175935087
 42
4.886311143711028
  0
ELLIPSE
  5
16C
330
1F
100
AcDbEntity
  8
1
100
AcDbEllipse
 10
405.7969799999999
 20
297.297983
 30
0.0
 11
-0.0794580284109327
 21
0.0279307948294024
 31
0.0
210
0.0
220
0.0
230
0.9999999999999998
 40
0.9986169999999997
 41
0.3820915223452642
 42
1.221119714522945
  0
ELLIPSE
  5
16D
330
1F
100
AcDbEntity
  8
1
100
AcDbEllipse
 10
406.0175609999999
 20
297.566256
 30
0.0
 11
-0.4075175559138354
 21
0.1432490771699384
 31
0.0
210
0.0
220
0.0
230
0.9999999999999998
 40
0.9986169999999999
 41
1.221119714522979
 42
2.161057208159133
  0
ELLIPSE
  5
16E
330
1F
100
AcDbEntity
  8
1
100
AcDbEllipse
 10
406.1044779999999
 20
297.229899
 30
0.0
 11
-0.0794580284109328
 21
0.0279307948294024
 31
0.0
210
0.0
220
0.0
230
1.0
 40
0.9986169999999997
 41
2.161057208159065
 42
3.00008540033678
  0
ELLIPSE
  5
16F
330
1F
100
AcDbEntity
  8
1
100
AcDbEllipse
 10
406.253938
 20
297.152214
 30
0.0
 11
-0.0794580284109329
 21
0.0279307948294025
 31
0.0
210
0.0
220
0.0
230
1.0
 40
0.9986169999999997
 41
4.779051086150242
 42
6.141678053926263
  0
ELLIPSE
  5
170
330
1F
100
AcDbEntity
  8
1
100
AcDbEllipse
 10
406.1608879999999
 20
296.817654
 30
0.0
 11
-0.4075175559138355
 21
0.1432490771699385
 31
0.0
210
0.0
220
0.0
230
0.9999999999999998
 40
0.9986169999999999
 41
3.839113592514459
 42
4.779051086150528
  0
ELLIPSE
  5
171
330
1F
100
AcDbEntity
  8
1
100
AcDbEllipse
 10
406.486294
 20
296.939698
 30
0.0
 11
-0.0794580284109327
 21
0.0279307948294024
 31
0.0
210
0.0
220
0.0
230
0.9999999999999998
 40
0.9986169999999997
 41
2.476486624738625
 42
3.839113592514573
  0
ELLIPSE
  5
172
330
1F
100
AcDbEntity
  8
1
100
AcDbEllipse
 10
406.5769099999999
 20
296.797805
 30
0.0
 11
-0.0794580284109327
 21
0.0279307948294024
 31
0.0
210
0.0
220
0.0
230
0.9999999999999998
 40
0.9986169999999997
 41
5.618079278328077
 42
6.457107470505918
  0
ELLIPSE
  5
173
330
1F
100
AcDbEntity
  8
1
100
AcDbEllipse
 10
406.9199479999999
 20
296.740917
 30
0.0
 11
-0.4075175559138354
 21
0.1432490771699384
 31
0.0
210
0.0
220
0.0
230
0.9999999999999998
 40
0.9986169999999999
 41
0.1739221633263525
 42
1.113859656962432
  0
ELLIPSE
  5
174
330
1F
100
AcDbEntity
  8
1
100
AcDbEllipse
 10
406.6718629999999
 20
296.4978
 30
0.0
 11
-0.0794580284109328
 21
0.0279307948294024
 31
0.0
210
0.0
220
0.0
230
1.0
 40
0.9986169999999997
 41
1.113859656962334
 42
1.952887849139889
  0
ELLIPSE
  5
175
330
1F
100
AcDbEntity
  8
1
100
AcDbEllipse
 10
406.6793559999999
 20
296.329719
 30
0.0
 11
-0.0794580284109329
 21
0.0279307948294025
 31
0.0
210
0.0
220
0.0
230
1.0
 40
0.9986169999999997
 41
3.73185353495407
 42
5.094480502729683
  0
ELLIPSE
  5
176
330
1F
100
AcDbEntity
  8
1
100
AcDbEllipse
 10
406.34271
 20
296.2431870000001
 30
0.0
 11
-0.4075175559138355
 21
0.1432490771699385
 31
0.0
210
0.0
220
0.0
230
0.9999999999999998
 40
0.9986169999999999
 41
2.79191604131779
 42
3.731853534954002
  0
ELLIPSE
  5
177
330
1F
100
AcDbEntity
  8
1
100
AcDbEllipse
 10
406.611464
 20
296.022611
 30
0.0
 11
-0.0794580284109327
 21
0.0279307948294024
 31
0.0
210
0.0
220
0.0
230
0.9999999999999998
 40
0.9986169999999997
 41
1.429289073541639
 42
2.791916041317491
  0
ELLIPSE
  5
178
330
1F
100
AcDbEntity
  8
1
100
AcDbEllipse
 10
406.5338249999999
 20
295.87338
 30
0.0
 11
-0.0794580284109327
 21
0.0279307948294024
 31
0.0
210
0.0
220
0.0
230
0.9999999999999998
 40
0.9986169999999997
 41
4.570881727131586
 42
5.409909919309285
  0
ELLIPSE
  5
179
330
1F
100
AcDbEntity
  8
1
100
AcDbEllipse
 10
406.6562819999999
 20
295.54822
 30
0.0
 11
-0.4075175559138354
 21
0.1432490771699384
 31
0.0
210
0.0
220
0.0
230
0.9999999999999998
 40
0.9986169999999999
 41
5.409909919309336
 42
6.349847412945447
  0
ELLIPSE
  5
17A
330
1F
100
AcDbEntity
  8
1
100
AcDbEllipse
 10
406.32128
 20
295.641459
 30
0.0
 11
-0.0794580284109328
 21
0.0279307948294024
 31
0.0
210
0.0
220
0.0
230
1.0
 40
0.9986169999999997
 41
0.0666621057658616
 42
0.9056902979433651
  0
ELLIPSE
  5
17B
330
1F
100
AcDbEntity
  8
1
100
AcDbEllipse
 10
408.124199
 20
282.5668
 30
0.0
 11
0.0323262014603079
 21
0.2994966855014076
 31
0.0
210
0.0
220
0.0
230
1.0
 40
0.139171
 41
1.583568179234342
 42
3.154364506043999
  0
ELLIPSE
  5
17C
330
1F
100
AcDbEntity
  8
1
100
AcDbEllipse
 10
408.3760299999999
 20
289.307736
 30
0.0
 11
0.0001054973296593
 21
-0.3000466006022707
 31
0.0
210
0.0
220
0.0
230
0.9999999999999998
 40
0.140519
 41
3.139090475970335
 42
4.709886802754911
  0
ELLIPSE
  5
17D
330
1F
100
AcDbEntity
  8
1
100
AcDbEllipse
 10
316.272871
 20
288.907994
 30
0.0
 11
45.46548052104975
 21
-6.358849368657116
 31
0.0
210
0.0
220
0.0
230
0.9999999999999998
 40
0.183778
 41
4.201736909312834
 42
4.351985796828211
  0
ELLIPSE
  5
17E
330
1F
100
AcDbEntity
  8
1
100
AcDbEllipse
 10
403.346169
 20
293.772119
 30
0.0
 11
-1.037752597290181
 21
0.3647869882787506
 31
0.0
210
0.0
220
0.0
230
0.9999999999999998
 40
0.9986169999999999
 41
2.789742606356775
 42
3.003700138744393
  0
ELLIPSE
  5
17F
330
1F
100
AcDbEntity
  8
1
100
AcDbEllipse
 10
408.541933
 20
293.183967
 30
0.0
 11
0.0003755628764186
 21
0.5004820718088613
 31
0.0
210
0.0
220
0.0
230
1.0
 40
0.140044
 41
3.196620263476468
 42
4.767416590260905
  0
ELLIPSE
  5
180
330
1F
100
AcDbEntity
  8
1
100
AcDbEllipse
 10
409.216047
 20
288.907994
 30
0.0
 11
1.136507078915194
 21
10.49881250472725
 31
0.0
210
0.0
220
0.0
230
1.0
 40
0.138944
 41
1.973419694633434
 42
3.156632395651057
  0
ELLIPSE
  5
181
330
1F
100
AcDbEntity
  8
1
100
AcDbEllipse
 10
408.794842
 20
288.907994
 30
0.0
 11
0.0
 21
10.50000000021036
 31
0.0
210
0.0
220
0.0
230
1.0
 40
0.140541
 41
1.400375857091417
 42
1.958379952563366
  0
ELLIPSE
  5
182
330
1F
100
AcDbEntity
  8
1
100
AcDbEllipse
 10
403.385923
 20
293.885211
 30
0.0
 11
-1.037752597290181
 21
0.3647869882787504
 31
0.0
210
0.0
220
0.0
230
1.0
 40
0.9986169999999999
 41
0.0617470360453998
 42
1.952887366749443
  0
ELLIPSE
  5
183
330
1F
100
AcDbEntity
  8
1
100
AcDbEllipse
 10
403.385923
 20
293.885211
 30
0.0
 11
-1.037752597290181
 21
0.3647869882787504
 31
0.0
210
0.0
220
0.0
230
1.0
 40
0.9986169999999999
 41
1.952888276015093
 42
2.882603670849415
  0
ELLIPSE
  5
184
330
1F
100
AcDbEntity
  8
1
100
AcDbEllipse
 10
403.346169
 20
293.772119
 30
0.0
 11
-1.037752597290181
 21
0.3647869882787506
 31
0.0
210
0.0
220
0.0
230
0.9999999999999998
 40
0.9986169999999999
 41
5.608353607745569
 42
5.836666734888793
  0
ELLIPSE
  5
185
330
1F
100
AcDbEntity
  8
1
100
AcDbEllipse
 10
403.340939
 20
293.757238
 30
0.0
 11
1.037752597290181
 21
-0.3647869882787498
 31
0.0
210
0.0
220
0.0
230
1.0
 40
0.9986169999999999
 41
2.695074081298963
 42
4.240677861951722
  0
ELLIPSE
  5
186
330
1F
100
AcDbEntity
  8
1
100
AcDbEllipse
 10
402.82409
 20
288.908012
 30
0.0
 11
0.442852451208757
 21
-10.49997795952238
 31
0.0
210
0.0
220
0.0
230
0.9999999999999998
 40
0.019519
 41
3.254947416606227
 42
3.283606307877261
  0
ELLIPSE
  5
187
330
1F
100
AcDbEntity
  8
1
100
AcDbEllipse
 10
346.31604
 20
288.907926
 30
0.0
 11
602.1184434867915
 21
-0.5210516846400513
 31
0.0
210
0.0
220
0.0
230
1.0
 40
0.017417
 41
1.477604034091416
 42
1.488917048570021
  0
ELLIPSE
  5
188
330
1F
100
AcDbEntity
  8
1
100
AcDbEllipse
 10
403.13083
 20
305.045036
 30
0.0
 11
-11.886984296233
 21
4.178469138465693
 31
0.0
210
0.0
220
0.0
230
0.9999999999999996
 40
0.9986169999999999
 41
1.590507480284396
 42
1.95288784914019
  0
SPLINE
  5
194
330
1F
100
AcDbEntity
  8
1
100
AcDbSpline
210
0.0
220
0.0
230
1.0
 70
     8
 71
     3
 72
    55
 73
    51
 74
     0
 42
0.000000001
 43
0.0000000001
 40
0.0
 40
0.0
 40
0.0
 40
0.0
 40
0.0312499999999967
 40
0.0312499999999967
 40
0.0624999999999938
 40
0.0624999999999938
 40
0.1249999999999905
 40
0.1249999999999905
 40
0.1562499999999888
 40
0.1562499999999888
 40
0.1874999999999872
 40
0.1874999999999872
 40
0.2499999999999838
 40
0.2499999999999838
 40
0.3124999999999805
 40
0.3124999999999805
 40
0.3437499999999807
 40
0.3437499999999807
 40
0.374999999999981
 40
0.374999999999981
 40
0.4374999999999777
 40
0.4374999999999777
 40
0.468749999999976
 40
0.468749999999976
 40
0.4999999999999742
 40
0.4999999999999742
 40
0.5624999999999741
 40
0.5624999999999741
 40
0.5937499999999759
 40
0.5937499999999759
 40
0.6249999999999777
 40
0.6249999999999777
 40
0.6562499999999795
 40
0.6562499999999795
 40
0.6874999999999814
 40
0.7187499999999832
 40
0.7187499999999832
 40
0.7499999999999849
 40
0.7499999999999849
 40
0.7812499999999868
 40
0.7812499999999868
 40
0.8124999999999886
 40
0.8124999999999886
 40
0.8749999999999925
 40
0.8749999999999925
 40
0.9374999999999962
 40
0.9374999999999962
 40
0.9687499999999978
 40
0.9687499999999978
 40
1.0
 40
1.0
 40
1.0
 40
1.0
 10
408.0565170730596
 20
284.9394935136932
 30
0.0
 10
408.054410037138
 20
284.9652595983029
 30
0.0
 10
408.0521723112802
 20
284.9906838775689
 30
0.0
 10
408.0474881183851
 20
285.0402389150013
 30
0.0
 10
408.0450372625208
 20
285.0644300100107
 30
0.0
 10
408.0373603976325
 20
285.135254705099
 30
0.0
 10
408.031793898522
 20
285.1802426393427
 30
0.0
 10
408.0229065328182
 20
285.2433366032241
 30
0.0
 10
408.0198511319386
 20
285.2636703373267
 30
0.0
 10
408.0135542475136
 20
285.302941194812
 30
0.0
 10
408.0103080919993
 20
285.3219007413482
 30
0.0
 10
408.0003533017766
 20
285.3763091480845
 30
0.0
 10
407.9934138768709
 20
285.4094079070017
 30
0.0
 10
407.9789269289183
 20
285.4692342823561
 30
0.0
 10
407.9714511291687
 20
285.4956635131288
 30
0.0
 10
407.9598994655303
 20
285.5300854249627
 30
0.0
 10
407.9559858881911
 20
285.5407007825288
 30
0.0
 10
407.9480931696387
 20
285.5600471345373
 30
0.0
 10
407.9441101079595
 20
285.5687930124275
 30
0.0
 10
407.9320511009583
 20
285.5922559585746
 30
0.0
 10
407.9238408613111
 20
285.6042171306589
 30
0.0
 10
407.9114604364955
 20
285.6163350781681
 30
0.0
 10
407.9073182768243
 20
285.6194152029933
 30
0.0
 10
407.8990031098824
 20
285.6236480231093
 30
0.0
 10
407.8948231272083
 20
285.6247992350088
 30
0.0
 10
407.8823128926609
 20
285.6253177667294
 30
0.0
 10
407.8739992611138
 20
285.6217833618801
 30
0.0
 10
407.861569027497
 20
285.610599229877
 30
0.0
 10
407.8574463140098
 20
285.6058981648468
 30
0.0
 10
407.8492666632783
 20
285.5945860740838
 30
0.0
 10
407.8452058260308
 20
285.5879716482062
 30
0.0
 10
407.8371424521673
 20
285.5728153105798
 30
0.0
 10
407.8331328147813
 20
285.5642547853634
 30
0.0
 10
407.8252200133935
 20
285.5452891807214
 30
0.0
 10
407.8174096764064
 20
285.5244801591538
 30
0.0
 10
407.8098040491431
 20
285.4999882451155
 30
0.0
 10
407.8023020279606
 20
285.4736323744091
 30
0.0
 10
407.7986142498586
 20
285.4595598513355
 30
0.0
 10
407.7913918912483
 20
285.4297359646949
 30
0.0
 10
407.7878530012733
 20
285.413969655625
 30
0.0
 10
407.7809205729129
 20
285.3807191709777
 30
0.0
 10
407.7775211510082
 20
285.3632003099388
 30
0.0
 10
407.7676060854419
 20
285.3083693583558
 30
0.0
 10
407.7613626533319
 20
285.2687663699047
 30
0.0
 10
407.7496164285935
 20
285.1834006721158
 30
0.0
 10
407.7441715372588
 20
285.138050077411
 30
0.0
 10
407.7366637835102
 20
285.0661833020978
 30
0.0
 10
407.7342672737515
 20
285.0415379192707
 30
0.0
 10
407.7297273650364
 20
284.9912832573399
 30
0.0
 10
407.7275802801478
 20
284.9656437955939
 30
0.0
 10
407.725555750285
 20
284.9394935136933
 30
0.0
  0
SPLINE
  5
195
330
1F
100
AcDbEntity
  8
1
100
AcDbSpline
210
0.0
220
0.0
230
1.0
 70
     8
 71
     3
 72
     8
 73
     4
 74
     0
 42
0.000000001
 43
0.0000000001
 40
0.0
 40
0.0
 40
0.0
 40
0.0
 40
1.0
 40
1.0
 40
1.0
 40
1.0
 10
293.0213800558109
 20
284.7289446773805
 30
0.0
 10
293.0250064266792
 20
284.7280533430931
 30
0.0
 10
293.0286327224818
 20
284.7271609913316
 30
0.0
 10
293.0322589432653
 20
284.7262676227278
 30
0.0
  0
SPLINE
  5
196
330
1F
100
AcDbEntity
  8
1
100
AcDbSpline
210
0.0
220
0.0
230
1.0
 70
     8
 71
     3
 72
    14
 73
    10
 74
     0
 42
0.000000001
 43
0.0000000001
 40
0.0
 40
0.0
 40
0.0
 40
0.0
 40
0.25
 40
0.25
 40
0.5
 40
0.5
 40
0.75
 40
0.75
 40
1.0
 40
1.0
 40
1.0
 40
1.0
 10
296.784388384757
 20
299.2337766013349
 30
0.0
 10
296.4713716077912
 20
299.2512120477977
 30
0.0
 10
296.1588757324899
 20
299.2676464238913
 30
0.0
 10
295.5341461401197
 20
299.2979022216896
 30
0.0
 10
295.2219089437161
 20
299.3117248611966
 30
0.0
 10
294.5971184112807
 20
299.3364982650092
 30
0.0
 10
294.2845631942714
 20
299.347452772061
 30
0.0
 10
293.6588524265473
 20
299.3665092701577
 30
0.0
 10
293.3456972444968
 20
299.3746161658478
 30
0.0
 10
293.0322589432839
 20
299.3813778105733
 30
0.0
  0
SPLINE
  5
197
330
1F
100
AcDbEntity
  8
1
100
AcDbSpline
210
0.0
220
0.0
230
1.0
 70
     8
 71
     3
 72
    12
 73
     8
 74
     0
 42
0.000000001
 43
0.0000000001
 40
0.0
 40
0.0
 40
0.0
 40
0.0
 40
0.1596285972230054
 40
0.1596285972230054
 40
0.327702877778395
 40
0.327702877778395
 40
1.0
 40
1.0
 40
1.0
 40
1.0
 10
406.7676092868151
 20
296.1493845593649
 30
0.0
 10
406.7649301531953
 20
296.1417747332189
 30
0.0
 10
406.7620247738063
 20
296.1342108917601
 30
0.0
 10
406.7556759421042
 20
296.1189777741341
 30
0.0
 10
406.7522033005714
 20
296.1112965197958
 30
0.0
 10
406.7337794023206
 20
296.0735355672501
 30
0.0
 10
406.7156892696173
 20
296.0453651543931
 30
0.0
 10
406.6941694474538
 20
296.0192878430079
 30
0.0
  0
SPLINE
  5
198
330
1F
100
AcDbEntity
  8
1
100
AcDbSpline
210
0.0
220
0.0
230
1.0
 70
     8
 71
     3
 72
    18
 73
    14
 74
     0
 42
0.000000001
 43
0.0000000001
 40
0.0
 40
0.0
 40
0.0
 40
0.0
 40
0.1250000000000011
 40
0.1250000000000011
 40
0.2500000000000022
 40
0.2500000000000022
 40
0.3750000000000033
 40
0.3750000000000033
 40
0.5000000000000045
 40
0.5000000000000045
 40
0.7500000000000023
 40
0.7500000000000023
 40
1.0
 40
1.0
 40
1.0
 40
1.0
 10
406.6941694474538
 20
296.0192878430079
 30
0.0
 10
406.6910114544225
 20
296.0154610470891
 30
0.0
 10
406.687568748251
 20
296.0119848352973
 30
0.0
 10
406.6801440178405
 20
296.0056977068111
 30
0.0
 10
406.6761184105989
 20
296.0028649961281
 30
0.0
 10
406.6677644187199
 20
295.9980280438964
 30
0.0
 10
406.6634409119894
 20
295.9960135774687
 30
0.0
 10
406.6545158482346
 20
295.992755794939
 30
0.0
 10
406.6498692205524
 20
295.9915062129542
 30
0.0
 10
406.6358520722989
 20
295.9890155059935
 30
0.0
 10
406.626446341856
 20
295.9889874275411
 30
0.0
 10
406.6078721390467
 20
295.9920777909382
 30
0.0
 10
406.5990843037297
 20
295.9951139474279
 30
0.0
 10
406.5907928923695
 20
295.9996245526518
 30
0.0
  0
SPLINE
  5
199
330
1F
100
AcDbEntity
  8
1
100
AcDbSpline
210
0.0
220
0.0
230
1.0
 70
     8
 71
     3
 72
    14
 73
    10
 74
     0
 42
0.000000001
 43
0.0000000001
 40
0.0
 40
0.0
 40
0.0
 40
0.0
 40
0.25
 40
0.25
 40
0.5
 40
0.5
 40
0.75
 40
0.75
 40
1.0
 40
1.0
 40
1.0
 40
1.0
 10
406.5227080387288
 20
296.0048876910796
 30
0.0
 10
406.5283717403443
 20
296.0069505353583
 30
0.0
 10
406.534230333757
 20
296.0083674497964
 30
0.0
 10
406.545893472132
 20
296.0099040317757
 30
0.0
 10
406.5517206185301
 20
296.0100421255752
 30
0.0
 10
406.5633699399921
 20
296.0090926869887
 30
0.0
 10
406.5691759574411
 20
296.0079888418722
 30
0.0
 10
406.5802720598265
 20
296.0046602854131
 30
0.0
 10
406.5856302692617
 20
296.0024330678426
 30
0.0
 10
406.5907928923696
 20
295.9996245526518
 30
0.0
  0
SPLINE
  5
19A
330
1F
100
AcDbEntity
  8
1
100
AcDbSpline
210
0.0
220
0.0
230
1.0
 70
     8
 71
     3
 72
     8
 73
     4
 74
     0
 42
0.000000001
 43
0.0000000001
 40
0.0
 40
0.0
 40
0.0
 40
0.0
 40
1.0
 40
1.0
 40
1.0
 40
1.0
 10
406.2626658511638
 20
295.548570352665
 30
0.0
 10
406.2605841023449
 20
295.5459632597124
 30
0.0
 10
406.2583390728743
 20
295.5434683273633
 30
0.0
 10
406.2559237035033
 20
295.5410904816541
 30
0.0
  0
SPLINE
  5
19B
330
1F
100
AcDbEntity
  8
1
100
AcDbSpline
210
0.0
220
0.0
230
1.0
 70
     8
 71
     3
 72
    20
 73
    16
 74
     0
 42
0.000000001
 43
0.0000000001
 40
0.0
 40
0.0
 40
0.0
 40
0.0
 40
0.0585238437954309
 40
0.0585238437954309
 40
0.1930204375390307
 40
0.2602687344108307
 40
0.2602687344108307
 40
0.3275170312826307
 40
0.3275170312826307
 40
0.4620136250261038
 40
0.5965102187695769
 40
0.5965102187695769
 40
0.73100681251305
 40
0.73100681251305
 40
1.0
 40
1.0
 40
1.0
 40
1.0
 10
406.2673102066055
 20
295.7442247278731
 30
0.0
 10
406.2697535434667
 20
295.7511927497697
 30
0.0
 10
406.2723699161987
 20
295.758094431302
 30
0.0
 10
406.2815486169453
 20
295.7805760215167
 30
0.0
 10
406.2924838710164
 20
295.8034894771203
 30
0.0
 10
406.3054808786838
 20
295.8255141809893
 30
0.0
 10
406.3146188740786
 20
295.8399940745248
 30
0.0
 10
406.3194440706908
 20
295.8471590846036
 30
0.0
 10
406.3344700839821
 20
295.8680856854335
 30
0.0
 10
406.3559725978057
 20
295.8945185770316
 30
0.0
 10
406.3803298783102
 20
295.91809090638
 30
0.0
 10
406.4061358655596
 20
295.9402131552696
 30
0.0
 10
406.4198198863626
 20
295.9505680298562
 30
0.0
 10
406.4618280216546
 20
295.9785555201073
 30
0.0
 10
406.4914544659898
 20
295.9935044547994
 30
0.0
 10
406.5227080387288
 20
296.0048876910796
 30
0.0
  0
SPLINE
  5
19C
330
1F
100
AcDbEntity
  8
1
100
AcDbSpline
210
0.0
220
0.0
230
1.0
 70
     8
 71
     3
 72
     8
 73
     4
 74
     0
 42
0.000000001
 43
0.0000000001
 40
0.0
 40
0.0
 40
0.0
 40
0.0
 40
1.0
 40
1.0
 40
1.0
 40
1.0
 10
406.5702524189127
 20
296.9385084309895
 30
0.0
 10
406.56445001204
 20
296.9312933645178
 30
0.0
 10
406.5576115272913
 20
296.9252541881258
 30
0.0
 10
406.5497501396321
 20
296.9203802715124
 30
0.0
  0
SPLINE
  5
19D
330
1F
100
AcDbEntity
  8
1
100
AcDbSpline
210
0.0
220
0.0
230
1.0
 70
     8
 71
     3
 72
    14
 73
    10
 74
     0
 42
0.000000001
 43
0.0000000001
 40
0.0
 40
0.0
 40
0.0
 40
0.0
 40
0.0604196899145548
 40
0.0604196899145548
 40
0.3736131266097031
 40
0.3736131266097031
 40
0.6868065633048516
 40
0.6868065633048516
 40
1.0
 40
1.0
 40
1.0
 40
1.0
 10
406.5159153043471
 20
296.8782588064536
 30
0.0
 10
406.5162900652788
 20
296.8793276415304
 30
0.0
 10
406.516685786615
 20
296.8803848614027
 30
0.0
 10
406.5192577584858
 20
296.8868419429222
 30
0.0
 10
406.5219519749513
 20
296.8919342864987
 30
0.0
 10
406.5283894481608
 20
296.9014988711215
 30
0.0
 10
406.5321389053839
 20
296.9059489916146
 30
0.0
 10
406.5403507530553
 20
296.9138413952203
 30
0.0
 10
406.5448481728634
 20
296.917341141742
 30
0.0
 10
406.5497501396321
 20
296.9203802715124
 30
0.0
  0
SPLINE
  5
19E
330
1F
100
AcDbEntity
  8
1
100
AcDbSpline
210
0.0
220
0.0
230
1.0
 70
     8
 71
     3
 72
    19
 73
    15
 74
     0
 42
0.000000001
 43
0.0000000001
 40
0.0
 40
0.0
 40
0.0
 40
0.0
 40
0.2500000000000697
 40
0.2500000000000697
 40
0.3750000000001921
 40
0.3750000000001921
 40
0.5000000000003144
 40
0.6250000000004366
 40
0.6250000000004366
 40
0.6875000000003979
 40
0.6875000000003979
 40
0.750000000000359
 40
0.750000000000359
 40
1.0
 40
1.0
 40
1.0
 40
1.0
 10
406.2559237035033
 20
295.5410904816541
 30
0.0
 10
406.2315953519318
 20
295.5171400800766
 30
0.0
 10
406.2048582393916
 20
295.4964053711315
 30
0.0
 10
406.161160393565
 20
295.4701021659358
 30
0.0
 10
406.1459607290107
 20
295.4621458694254
 30
0.0
 10
406.115098252725
 20
295.4482521035973
 30
0.0
 10
406.0835931330858
 20
295.4362577318196
 30
0.0
 10
406.0508171466451
 20
295.4280191766017
 30
0.0
 10
406.0257439549687
 20
295.4232920551269
 30
0.0
 10
406.01729663407
 20
295.4219600513324
 30
0.0
 10
406.0004666028969
 20
295.4198181788875
 30
0.0
 10
405.9920555686629
 20
295.4190022267917
 30
0.0
 10
405.9500201012406
 20
295.4161724282019
 30
0.0
 10
405.9164537372499
 20
295.4178572540747
 30
0.0
 10
405.8829550518271
 20
295.4235886834095
 30
0.0
  0
SPLINE
  5
19F
330
1F
100
AcDbEntity
  8
1
100
AcDbSpline
210
0.0
220
0.0
230
1.0
 70
     8
 71
     3
 72
    20
 73
    16
 74
     0
 42
0.000000001
 43
0.0000000001
 40
0.0
 40
0.0
 40
0.0
 40
0.0
 40
0.1250000000002772
 40
0.1250000000002772
 40
0.2500000000005543
 40
0.3125000000005917
 40
0.3125000000005917
 40
0.3750000000006293
 40
0.3750000000006293
 40
0.5000000000005035
 40
0.6250000000003775
 40
0.6250000000003775
 40
0.7500000000002517
 40
0.7500000000002517
 40
1.0
 40
1.0
 40
1.0
 40
1.0
 10
405.4008021813715
 20
295.6514371930067
 30
0.0
 10
405.4171124792656
 20
295.6558069781506
 30
0.0
 10
405.4337235389367
 20
295.6592233244268
 30
0.0
 10
405.4670776510135
 20
295.6640474533957
 30
0.0
 10
405.4922813386355
 20
295.6661867245647
 30
0.0
 10
405.5177848297377
 20
295.6660547192163
 30
0.0
 10
405.5348569154904
 20
295.6654453960682
 30
0.0
 10
405.5434606764976
 20
295.6648765696859
 30
0.0
 10
405.5690692087315
 20
295.6623929258413
 30
0.0
 10
405.6027143312388
 20
295.6570326691446
 30
0.0
 10
405.635386506046
 20
295.6476846593102
 30
0.0
 10
405.6675655881459
 20
295.6363145355442
 30
0.0
 10
405.6834535374285
 20
295.6295782464792
 30
0.0
 10
405.7289778819683
 20
295.6069484560042
 30
0.0
 10
405.7569895645435
 20
295.5885307394733
 30
0.0
 10
405.7827783988313
 20
295.5668626889863
 30
0.0
  0
SPLINE
  5
1A0
330
1F
100
AcDbEntity
  8
1
100
AcDbSpline
210
0.0
220
0.0
230
1.0
 70
     8
 71
     3
 72
    14
 73
    10
 74
     0
 42
0.000000001
 43
0.0000000001
 40
0.0
 40
0.0
 40
0.0
 40
0.0
 40
0.25
 40
0.25
 40
0.5
 40
0.5
 40
0.75
 40
0.75
 40
1.0
 40
1.0
 40
1.0
 40
1.0
 10
405.3467292636258
 20
295.6076888957242
 30
0.0
 10
405.3494662603994
 20
295.6129839982112
 30
0.0
 10
405.3527485436163
 20
295.6179951555953
 30
0.0
 10
405.3602258111022
 20
295.6272032099187
 30
0.0
 10
405.3643954779007
 20
295.6313854002343
 30
0.0
 10
405.373610757237
 20
295.6388954496427
 30
0.0
 10
405.3786841907701
 20
295.6422208077163
 30
0.0
 10
405.3893036188943
 20
295.647676793746
 30
0.0
 10
405.3948976030581
 20
295.649855263678
 30
0.0
 10
405.400802181372
 20
295.6514371930067
 30
0.0
  0
SPLINE
  5
1A1
330
1F
100
AcDbEntity
  8
1
100
AcDbSpline
210
0.0
220
0.0
230
1.0
 70
     8
 71
     3
 72
    20
 73
    16
 74
     0
 42
0.000000001
 43
0.0000000001
 40
0.0
 40
0.0
 40
0.0
 40
0.0
 40
0.2499999999996392
 40
0.2499999999996392
 40
0.3749999999996992
 40
0.3749999999996992
 40
0.4999999999997594
 40
0.4999999999997594
 40
0.6249999999998196
 40
0.6249999999998196
 40
0.7499999999998797
 40
0.7499999999998797
 40
0.8749999999999397
 40
0.8749999999999397
 40
1.0
 40
1.0
 40
1.0
 40
1.0
 10
405.3467292636258
 20
295.6076888957242
 30
0.0
 10
405.3423314634371
 20
295.5991807370953
 30
0.0
 10
405.3366923836251
 20
295.5916136566142
 30
0.0
 10
405.3263763121383
 20
295.5816753633698
 30
0.0
 10
405.3226259141028
 20
295.5786191310038
 30
0.0
 10
405.314744271983
 20
295.5732247645827
 30
0.0
 10
405.3105831919888
 20
295.5708554226877
 30
0.0
 10
405.3018011158163
 20
295.5668038114766
 30
0.0
 10
405.2972028611753
 20
295.5651409719507
 30
0.0
 10
405.2878584851572
 20
295.5626450877104
 30
0.0
 10
405.2830760292845
 20
295.5617936882601
 30
0.0
 10
405.2732786186791
 20
295.5609316854132
 30
0.0
 10
405.2683434237684
 20
295.5609337640353
 30
0.0
 10
405.2585898411691
 20
295.5617982094902
 30
0.0
 10
405.2537418778886
 20
295.5626573418528
 30
0.0
 10
405.2489249083533
 20
295.5639712058474
 30
0.0
  0
SPLINE
  5
1A2
330
1F
100
AcDbEntity
  8
1
100
AcDbSpline
210
0.0
220
0.0
230
1.0
 70
     8
 71
     3
 72
    14
 73
    10
 74
     0
 42
0.000000001
 43
0.0000000001
 40
0.0
 40
0.0
 40
0.0
 40
0.0
 40
0.25
 40
0.25
 40
0.5
 40
0.5
 40
0.75
 40
0.75
 40
1.0
 40
1.0
 40
1.0
 40
1.0
 10
404.8503276188441
 20
296.3849862075004
 30
0.0
 10
404.8562153519021
 20
296.3853471269453
 30
0.0
 10
404.862130546899
 20
296.3850945966152
 30
0.0
 10
404.8737147724162
 20
296.3833891741607
 30
0.0
 10
404.8793594775792
 20
296.3819504491075
 30
0.0
 10
404.8903520150043
 20
296.377882964848
 30
0.0
 10
404.8957107879115
 20
296.3752293370691
 30
0.0
 10
404.9056405780892
 20
296.3689038649828
 30
0.0
 10
404.9102763968306
 20
296.365215212381
 30
0.0
 10
404.9145561369798
 20
296.3609534440323
 30
0.0
  0
SPLINE
  5
1A3
330
1F
100
AcDbEntity
  8
1
100
AcDbSpline
210
0.0
220
0.0
230
1.0
 70
     8
 71
     3
 72
   108
 73
   104
 74
     0
 42
0.000000001
 43
0.0000000001
 40
0.0
 40
0.0
 40
0.0
 40
0.0
 40
0.0156250000000008
 40
0.0156250000000008
 40
0.0312500000000015
 40
0.0312500000000015
 40
0.0468750000000023
 40
0.0468750000000023
 40
0.0625000000000031
 40
0.0625000000000031
 40
0.0937500000000045
 40
0.0937500000000045
 40
0.109375000000005
 40
0.109375000000005
 40
0.1250000000000055
 40
0.1250000000000055
 40
0.140625000000006
 40
0.140625000000006
 40
0.1562500000000065
 40
0.171875000000007
 40
0.171875000000007
 40
0.1875000000000075
 40
0.1875000000000075
 40
0.203125000000008
 40
0.203125000000008
 40
0.2187500000000084
 40
0.2187500000000084
 40
0.25000000000001
 40
0.25000000000001
 40
0.2656250000000109
 40
0.2656250000000109
 40
0.2812500000000119
 40
0.2812500000000119
 40
0.2968750000000128
 40
0.2968750000000128
 40
0.3125000000000136
 40
0.3281250000000145
 40
0.3281250000000145
 40
0.3437500000000154
 40
0.3437500000000154
 40
0.3750000000000172
 40
0.406250000000019
 40
0.406250000000019
 40
0.4218750000000198
 40
0.4218750000000198
 40
0.4375000000000203
 40
0.4375000000000203
 40
0.4687500000000231
 40
0.4687500000000231
 40
0.4843750000000237
 40
0.4843750000000237
 40
0.5000000000000241
 40
0.5000000000000241
 40
0.5312500000000257
 40
0.5312500000000257
 40
0.5468750000000265
 40
0.5468750000000265
 40
0.5625000000000272
 40
0.5625000000000272
 40
0.5937500000000289
 40
0.5937500000000289
 40
0.6093750000000297
 40
0.6093750000000297
 40
0.6250000000000303
 40
0.6250000000000303
 40
0.6562500000000318
 40
0.6562500000000318
 40
0.6718750000000312
 40
0.6718750000000312
 40
0.6875000000000307
 40
0.6875000000000307
 40
0.7031250000000301
 40
0.7031250000000301
 40
0.7187500000000295
 40
0.7343750000000292
 40
0.7343750000000292
 40
0.7500000000000285
 40
0.7500000000000285
 40
0.7656250000000279
 40
0.7656250000000279
 40
0.7812500000000274
 40
0.7812500000000274
 40
0.8125000000000238
 40
0.8125000000000238
 40
0.8281250000000222
 40
0.8281250000000222
 40
0.8437500000000206
 40
0.8437500000000206
 40
0.8750000000000168
 40
0.8750000000000168
 40
0.890625000000015
 40
0.890625000000015
 40
0.9062500000000131
 40
0.9062500000000131
 40
0.9218750000000115
 40
0.9218750000000115
 40
0.9375000000000097
 40
0.9375000000000097
 40
0.9687500000000047
 40
0.9687500000000047
 40
0.9843750000000024
 40
0.9843750000000024
 40
1.0
 40
1.0
 40
1.0
 40
1.0
 10
407.725555750285
 20
284.9394935136933
 30
0.0
 10
407.7208865532568
 20
284.9142099529563
 30
0.0
 10
407.7162843074837
 20
284.8884488721387
 30
0.0
 10
407.7072149463571
 20
284.8359629124568
 30
0.0
 10
407.7027502903065
 20
284.8092482581984
 30
0.0
 10
407.6940219714396
 20
284.7552426428999
 30
0.0
 10
407.6897499762526
 20
284.7279042803847
 30
0.0
 10
407.6813906519682
 20
284.6725552164875
 30
0.0
 10
407.6772970595706
 20
284.6444996156255
 30
0.0
 10
407.6653433634842
 20
284.5596384492843
 30
0.0
 10
407.6578344743906
 20
284.5023372498856
 30
0.0
 10
407.6472627239152
 20
284.415292889542
 30
0.0
 10
407.643857063769
 20
284.386111839702
 30
0.0
 10
407.6373275729103
 20
284.3278138925457
 30
0.0
 10
407.6341971985472
 20
284.2986441163578
 30
0.0
 10
407.6282051610913
 20
284.24026296354
 30
0.0
 10
407.6253389863299
 20
284.2110023573005
 30
0.0
 10
407.6199017275918
 20
284.152688180217
 30
0.0
 10
407.6147655784291
 20
284.094657272103
 30
0.0
 10
407.6102271049539
 20
284.0371886276637
 30
0.0
 10
407.6059890779963
 20
283.980002628422
 30
0.0
 10
407.604023048144
 20
283.9515802912147
 30
0.0
 10
407.6004195941351
 20
283.8954306192823
 30
0.0
 10
407.598778354399
 20
283.8676530839314
 30
0.0
 10
407.59581621478
 20
283.8126914387181
 30
0.0
 10
407.5944934095597
 20
283.7854605878764
 30
0.0
 10
407.5910261431127
 20
283.7050398409712
 30
0.0
 10
407.5893818715151
 20
283.6532020617613
 30
0.0
 10
407.5879110645518
 20
283.5780954736941
 30
0.0
 10
407.5875885808402
 20
283.5535402692654
 30
0.0
 10
407.5872799095281
 20
283.5056559186013
 30
0.0
 10
407.5872928493205
 20
283.4822862181702
 30
0.0
 10
407.587652293548
 20
283.4366883918053
 30
0.0
 10
407.5879998506566
 20
283.4144229388573
 30
0.0
 10
407.5890261826534
 20
283.3712540178724
 30
0.0
 10
407.5903818094356
 20
283.3294603642786
 30
0.0
 10
407.5923899496762
 20
283.290391869179
 30
0.0
 10
407.5947254721062
 20
283.2526906537004
 30
0.0
 10
407.5960544324616
 20
283.2345798018288
 30
0.0
 10
407.6004856390955
 20
283.1828083254777
 30
0.0
 10
407.6075946212953
 20
283.1202600869707
 30
0.0
 10
407.6170476627833
 20
283.0703630929836
 30
0.0
 10
407.6250392470512
 20
283.0378075162709
 30
0.0
 10
407.6278511415519
 20
283.0277892883326
 30
0.0
 10
407.6337190663735
 20
283.0095952491918
 30
0.0
 10
407.636781666595
 20
283.0013912210121
 30
0.0
 10
407.6463541052334
 20
282.9794492565397
 30
0.0
 10
407.6532687947024
 20
282.9683727062603
 30
0.0
 10
407.6642668289596
 20
282.9573397160771
 30
0.0
 10
407.6680417134668
 20
282.9545796368226
 30
0.0
 10
407.6758094375177
 20
282.9508964068657
 30
0.0
 10
407.6798091408591
 20
282.9499738002689
 30
0.0
 10
407.6920873090836
 20
282.949995247205
 30
0.0
 10
407.7006221911409
 20
282.9537025150439
 30
0.0
 10
407.7139482797422
 20
282.9647987568733
 30
0.0
 10
407.7184798774887
 20
282.9694288003304
 30
0.0
 10
407.7276554160961
 20
282.9804806879593
 30
0.0
 10
407.7323069956936
 20
282.9869076798036
 30
0.0
 10
407.7464530338376
 20
283.0088899421203
 30
0.0
 10
407.7561647625959
 20
283.0272107735201
 30
0.0
 10
407.7709252890554
 20
283.0597784072098
 30
0.0
 10
407.7758839796516
 20
283.0714903049222
 30
0.0
 10
407.7858787901483
 20
283.096635009862
 30
0.0
 10
407.7909235054614
 20
283.1100933924398
 30
0.0
 10
407.8060829977277
 20
283.1528261354939
 30
0.0
 10
407.8162373884658
 20
283.1844730455967
 30
0.0
 10
407.8315417503888
 20
283.2367258486595
 30
0.0
 10
407.8366444386411
 20
283.2549080522696
 30
0.0
 10
407.8468052700885
 20
283.2926296478841
 30
0.0
 10
407.8518704686305
 20
283.3121928901783
 30
0.0
 10
407.8619703054768
 20
283.352730074277
 30
0.0
 10
407.8670136465204
 20
283.3737421922718
 30
0.0
 10
407.8770229121917
 20
283.4169984880621
 30
0.0
 10
407.8869468339262
 20
283.4614459972509
 30
0.0
 10
407.8967005660397
 20
283.5082689787348
 30
0.0
 10
407.9063683621661
 20
283.5562914373327
 30
0.0
 10
407.911155600549
 20
283.580887625779
 30
0.0
 10
407.9205745164164
 20
283.6309282161946
 30
0.0
 10
407.9252148152228
 20
283.6564147847462
 30
0.0
 10
407.9343567237881
 20
283.7083229684407
 30
0.0
 10
407.9388653385301
 20
283.7347875045992
 30
0.0
 10
407.9521282066418
 20
283.8152893592488
 30
0.0
 10
407.9605931113231
 20
283.8702501876013
 30
0.0
 10
407.9727229122315
 20
283.9546378313025
 30
0.0
 10
407.9766673897329
 20
283.9830722463561
 30
0.0
 10
407.9842801839675
 20
284.0399554657142
 30
0.0
 10
407.9879599387281
 20
284.0684825171575
 30
0.0
 10
407.9986254216214
 20
284.1543158504736
 30
0.0
 10
408.0052389259398
 20
284.2118732604853
 30
0.0
 10
408.0144097699866
 20
284.2987149813822
 30
0.0
 10
408.0173414289683
 20
284.3277467503991
 30
0.0
 10
408.0229485811948
 20
284.3859831157006
 30
0.0
 10
408.0256249703537
 20
284.4152084239651
 30
0.0
 10
408.0306586567194
 20
284.4731772909294
 30
0.0
 10
408.0330241194194
 20
284.5020022453135
 30
0.0
 10
408.0374530861896
 20
284.559334041145
 30
0.0
 10
408.0395188579627
 20
284.5878749170735
 30
0.0
 10
408.0452431958298
 20
284.6727850785276
 30
0.0
 10
408.0484108226603
 20
284.7281266237547
 30
0.0
 10
408.0521962392022
 20
284.8092545070182
 30
0.0
 10
408.0532959298867
 20
284.8359851325644
 30
0.0
 10
408.0551564799986
 20
284.8884274105137
 30
0.0
 10
408.0559198713278
 20
284.9141891876821
 30
0.0
 10
408.0565170730594
 20
284.9394935136932
 30
0.0
  0
SPLINE
  5
1A4
330
1F
100
AcDbEntity
  8
1
100
AcDbSpline
210
0.0
220
0.0
230
1.0
 70
     8
 71
     3
 72
    14
 73
    10
 74
     0
 42
0.000000001
 43
0.0000000001
 40
0.0
 40
0.0
 40
0.0
 40
0.0
 40
0.1250000000000035
 40
0.1250000000000035
 40
0.250000000000007
 40
0.250000000000007
 40
0.5000000000000048
 40
0.5000000000000048
 40
1.0
 40
1.0
 40
1.0
 40
1.0
 10
297.9048419452959
 20
299.2017222951863
 30
0.0
 10
297.8575296126398
 20
299.2017222951863
 30
0.0
 10
297.8101063843181
 20
299.2018982222939
 30
0.0
 10
297.7150346451922
 20
299.2026061070305
 30
0.0
 10
297.6674545744338
 20
299.2031382516599
 30
0.0
 10
297.5254219460747
 20
299.2052497495346
 30
0.0
 10
297.4313543985526
 20
299.2073468570662
 30
0.0
 10
297.1509748015634
 20
299.2155679703354
 30
0.0
 10
296.9664789187647
 20
299.2236339189271
 30
0.0
 10
296.7843883847572
 20
299.2337766013349
 30
0.0
  0
SPLINE
  5
1A5
330
1F
100
AcDbEntity
  8
1
100
AcDbSpline
210
0.0
220
0.0
230
1.0
 70
     8
 71
     3
 72
    18
 73
    14
 74
     0
 42
0.000000001
 43
0.0000000001
 40
0.0
 40
0.0
 40
0.0
 40
0.0
 40
0.2500000000000084
 40
0.2500000000000084
 40
0.5000000000000168
 40
0.5000000000000168
 40
0.625000000000021
 40
0.625000000000021
 40
0.6875000000000231
 40
0.6875000000000231
 40
0.7500000000000251
 40
0.7500000000000251
 40
1.0
 40
1.0
 40
1.0
 40
1.0
 10
403.7097817485539
 20
292.1802964646392
 30
0.0
 10
403.5441255385164
 20
292.1991016237848
 30
0.0
 10
403.3721434241808
 20
292.2179768719047
 30
0.0
 10
403.0168210926281
 20
292.2579454469545
 30
0.0
 10
402.8334727188934
 20
292.2790290025372
 30
0.0
 10
402.5502582642811
 20
292.3135650023336
 30
0.0
 10
402.4544823722951
 20
292.3255599393784
 30
0.0
 10
402.3087533424633
 20
292.3444212706461
 30
0.0
 10
402.2599153294
 20
292.3508427116293
 30
0.0
 10
402.1620891652082
 20
292.3639232999736
 30
0.0
 10
402.1130463790012
 20
292.3705894855542
 30
0.0
 10
401.8671970446723
 20
292.4045873950443
 30
0.0
 10
401.6684965604902
 20
292.433929452487
 30
0.0
 10
401.4678419461215
 20
292.465812167961
 30
0.0
  0
SPLINE
  5
1A6
330
1F
100
AcDbEntity
  8
1
100
AcDbSpline
210
0.0
220
0.0
230
1.0
 70
     8
 71
     3
 72
    16
 73
    12
 74
     0
 42
0.000000001
 43
0.0000000001
 40
0.0
 40
0.0
 40
0.0
 40
0.0
 40
0.2500000000000157
 40
0.2500000000000157
 40
0.5000000000000313
 40
0.5000000000000313
 40
0.6250000000000235
 40
0.6250000000000235
 40
0.7500000000000157
 40
0.7500000000000157
 40
1.0
 40
1.0
 40
1.0
 40
1.0
 10
401.4678419462937
 20
290.8090415265799
 30
0.0
 10
401.6730009408521
 20
290.7864621242838
 30
0.0
 10
401.8751340404643
 20
290.772158002834
 30
0.0
 10
402.2733789333686
 20
290.758982968895
 30
0.0
 10
402.4694918256153
 20
290.7601157047837
 30
0.0
 10
402.7588243139666
 20
290.7729221470488
 30
0.0
 10
402.8545022483586
 20
290.7790492815436
 30
0.0
 10
403.0439565098911
 20
290.7949600101795
 30
0.0
 10
403.1369280359725
 20
290.8046739927785
 30
0.0
 10
403.4105076653664
 20
290.8387701935311
 30
0.0
 10
403.5858169759467
 20
290.868095094141
 30
0.0
 10
403.7534723036781
 20
290.9033200850228
 30
0.0
  0
SPLINE
  5
1A7
330
1F
100
AcDbEntity
  8
1
100
AcDbSpline
210
0.0
220
0.0
230
1.0
 70
     8
 71
     3
 72
    23
 73
    19
 74
     0
 42
0.000000001
 43
0.0000000001
 40
0.0
 40
0.0
 40
0.0
 40
0.0
 40
0.0625883836988325
 40
0.125176767397665
 40
0.1877651510964974
 40
0.2503535347953298
 40
0.3129419184941621
 40
0.3755303021929943
 40
0.4381186858918265
 40
0.5007070695906588
 40
0.5632954532894909
 40
0.6258838369883231
 40
0.6884722206871552
 40
0.7510606043859874
 40
0.8136489880848197
 40
0.8762373717836517
 40
0.9388257554824839
 40
1.0
 40
1.0
 40
1.0
 40
1.0
 10
401.4678419461215
 20
292.465812167961
 30
0.0
 10
401.4678419461611
 20
292.3100694495908
 30
0.0
 10
401.4678419462371
 20
292.0075943297216
 30
0.0
 10
401.4678419463404
 20
291.586037015806
 30
0.0
 10
401.4678419464318
 20
291.2013993990761
 30
0.0
 10
401.4678419465104
 20
290.8580279483288
 30
0.0
 10
401.4678419465753
 20
290.5598028178484
 30
0.0
 10
401.4678419466259
 20
290.31009400102
 30
0.0
 10
401.4678419466612
 20
290.1117232488463
 30
0.0
 10
401.4678419466815
 20
289.9669321836934
 30
0.0
 10
401.4678419466857
 20
289.8773569685868
 30
0.0
 10
401.4678419466743
 20
289.8440098182987
 30
0.0
 10
401.4678419466473
 20
289.8672675611519
 30
0.0
 10
401.4678419466052
 20
289.9468673807992
 30
0.0
 10
401.4678419465481
 20
290.0819097860899
 30
0.0
 10
401.4678419464771
 20
290.2708687754702
 30
0.0
 10
401.4678419463932
 20
290.5097959634606
 30
0.0
 10
401.4678419463293
 20
290.7004489567562
 30
0.0
 10
401.4678419462962
 20
290.8019881135727
 30
0.0
  0
SPLINE
  5
1A8
330
1F
100
AcDbEntity
  8
1
100
AcDbSpline
210
0.0
220
0.0
230
1.0
 70
     8
 71
     3
 72
    10
 73
     6
 74
     0
 42
0.000000001
 43
0.0000000001
 40
0.0
 40
0.0
 40
0.0
 40
0.0
 40
0.5
 40
0.5
 40
1.0
 40
1.0
 40
1.0
 40
1.0
 10
400.0375760794661
 20
292.8373270859138
 30
0.0
 10
400.2716967298469
 20
292.7611195188193
 30
0.0
 10
400.5077243042099
 20
292.6918742071308
 30
0.0
 10
400.9842483206793
 20
292.5678171278438
 30
0.0
 10
401.224745032713
 20
292.51300493123
 30
0.0
 10
401.4678419452957
 20
292.4658121680922
 30
0.0
  0
SPLINE
  5
1A9
330
1F
100
AcDbEntity
  8
1
100
AcDbSpline
210
0.0
220
0.0
230
1.0
 70
     8
 71
     3
 72
     8
 73
     4
 74
     0
 42
0.000000001
 43
0.0000000001
 40
0.0
 40
0.0
 40
0.0
 40
0.0
 40
1.0
 40
1.0
 40
1.0
 40
1.0
 10
400.0375760794661
 20
292.8373270859138
 30
0.0
 10
399.7527230888719
 20
292.9132198181907
 30
0.0
 10
399.4714009220181
 20
292.9989500762791
 30
0.0
 10
399.1932420085926
 20
293.0944416476539
 30
0.0
  0
SPLINE
  5
1AA
330
1F
100
AcDbEntity
  8
1
100
AcDbSpline
210
0.0
220
0.0
230
1.0
 70
     8
 71
     3
 72
    42
 73
    38
 74
     0
 42
0.000000001
 43
0.0000000001
 40
0.0
 40
0.0
 40
0.0
 40
0.0
 40
0.250000000000006
 40
0.250000000000006
 40
0.3750000000000088
 40
0.3750000000000088
 40
0.4375000000000105
 40
0.4375000000000105
 40
0.5000000000000123
 40
0.5000000000000123
 40
0.6249999999999997
 40
0.6249999999999997
 40
0.6874999999999929
 40
0.6874999999999929
 40
0.7499999999999865
 40
0.7499999999999865
 40
0.8124999999999797
 40
0.8124999999999797
 40
0.8437499999999765
 40
0.8437499999999765
 40
0.8749999999999733
 40
0.8749999999999733
 40
0.9062499999999699
 40
0.9062499999999699
 40
0.9218749999999722
 40
0.9218749999999722
 40
0.9374999999999745
 40
0.9374999999999745
 40
0.9531249999999767
 40
0.9531249999999767
 40
0.9609374999999777
 40
0.9609374999999777
 40
0.9687499999999785
 40
0.9687499999999785
 40
0.9843749999999891
 40
0.9843749999999891
 40
1.0
 40
1.0
 40
1.0
 40
1.0
 10
399.1932420085926
 20
293.0944416476539
 30
0.0
 10
399.0295778912568
 20
293.150627313429
 30
0.0
 10
398.8697957279786
 20
293.2145078716489
 30
0.0
 10
398.6365943765762
 20
293.3237801662628
 30
0.0
 10
398.5599431910663
 20
293.3624562299753
 30
0.0
 10
398.4467513331505
 20
293.4242731047722
 30
0.0
 10
398.4093189718965
 20
293.4455142877728
 30
0.0
 10
398.335091951372
 20
293.4893705450183
 30
0.0
 10
398.2982621049842
 20
293.5120085393945
 30
0.0
 10
398.1892033930562
 20
293.5819346060887
 30
0.0
 10
398.1183110594434
 20
293.6312277588717
 30
0.0
 10
398.0154004900399
 20
293.710274242989
 30
0.0
 10
397.9816676850684
 20
293.7374888718881
 30
0.0
 10
397.9158538308615
 20
293.7937698153825
 30
0.0
 10
397.8837360563066
 20
293.822851055506
 30
0.0
 10
397.8215687554076
 20
293.8834656917081
 30
0.0
 10
397.7915793357496
 20
293.9149027396192
 30
0.0
 10
397.7491742123332
 20
293.9644785320993
 30
0.0
 10
397.7354658582059
 20
293.9814264343544
 30
0.0
 10
397.7093800923508
 20
294.0162037955014
 30
0.0
 10
397.6969746343089
 20
294.0340484569816
 30
0.0
 10
397.6740491192672
 20
294.0710742862023
 30
0.0
 10
397.6634569608603
 20
294.0903424111931
 30
0.0
 10
397.6502697107498
 20
294.1203918754744
 30
0.0
 10
397.646323959976
 20
294.1306080971298
 30
0.0
 10
397.6397224220203
 20
294.1516097557533
 30
0.0
 10
397.6371087322187
 20
294.1622672638569
 30
0.0
 10
397.6339003629112
 20
294.1838151932072
 30
0.0
 10
397.6332771871664
 20
294.1947287296899
 30
0.0
 10
397.6347226150004
 20
294.2114336004646
 30
0.0
 10
397.6356087961527
 20
294.2169711221666
 30
0.0
 10
397.6382790342548
 20
294.2277631650074
 30
0.0
 10
397.6400651254922
 20
294.2330481504077
 30
0.0
 10
397.6469742672766
 20
294.2485205154348
 30
0.0
 10
397.6533919321848
 20
294.2576992103553
 30
0.0
 10
397.6693089554842
 20
294.2737621806347
 30
0.0
 10
397.6783904444339
 20
294.2802949565254
 30
0.0
 10
397.6882349542632
 20
294.2858096267458
 30
0.0
  0
SPLINE
  5
1AB
330
1F
100
AcDbEntity
  8
1
100
AcDbSpline
210
0.0
220
0.0
230
1.0
 70
     8
 71
     3
 72
    12
 73
     8
 74
     0
 42
0.000000001
 43
0.0000000001
 40
0.0
 40
0.0
 40
0.0
 40
0.0
 40
0.2548436071213667
 40
0.2548436071213667
 40
0.6274218035606835
 40
0.6274218035606835
 40
1.0
 40
1.0
 40
1.0
 40
1.0
 10
290.8753828839004
 20
299.5540370038154
 30
0.0
 10
291.054530897847
 20
299.5296501079025
 30
0.0
 10
291.234641132687
 20
299.5075497974965
 30
0.0
 10
291.6805616591882
 20
299.4590808855451
 30
0.0
 10
291.9475223177926
 20
299.4354558810753
 30
0.0
 10
292.4861915556531
 20
299.3995645156972
 30
0.0
 10
292.7578992823765
 20
299.3872964317079
 30
0.0
 10
293.0322589432839
 20
299.3813778105733
 30
0.0
  0
SPLINE
  5
1AC
330
1F
100
AcDbEntity
  8
1
100
AcDbSpline
210
0.0
220
0.0
230
1.0
 70
     8
 71
     3
 72
    14
 73
    10
 74
     0
 42
0.000000001
 43
0.0000000001
 40
0.0
 40
0.0
 40
0.0
 40
0.0
 40
0.25
 40
0.25
 40
0.5
 40
0.5
 40
0.75
 40
0.75
 40
1.0
 40
1.0
 40
1.0
 40
1.0
 10
279.4048419452996
 20
273.1559568432116
 30
0.0
 10
279.5924388195153
 20
273.2600411570401
 30
0.0
 10
279.7818320761974
 20
273.3712643279741
 30
0.0
 10
280.1634060128583
 20
273.6049096469433
 30
0.0
 10
280.355588663806
 20
273.7273435662658
 30
0.0
 10
280.7420628196949
 20
273.9811644472187
 30
0.0
 10
280.9363550754524
 20
274.1125572503296
 30
0.0
 10
281.3264509251903
 20
274.3825914014692
 30
0.0
 10
281.5222545802153
 20
274.5212356144065
 30
0.0
 10
281.7185504442911
 20
274.6628620825394
 30
0.0
  0
SPLINE
  5
1AD
330
1F
100
AcDbEntity
  8
1
100
AcDbSpline
210
0.0
220
0.0
230
1.0
 70
     8
 71
     3
 72
    14
 73
    10
 74
     0
 42
0.000000001
 43
0.0000000001
 40
0.0
 40
0.0
 40
0.0
 40
0.0
 40
0.25
 40
0.25
 40
0.5
 40
0.5
 40
0.75
 40
0.75
 40
1.0
 40
1.0
 40
1.0
 40
1.0
 10
281.7185504442804
 20
281.3325564440298
 30
0.0
 10
281.5192683600128
 20
281.1442420185985
 30
0.0
 10
281.3214525154906
 20
280.9521672107263
 30
0.0
 10
280.9289512792745
 20
280.5597031906613
 30
0.0
 10
280.7342654853074
 20
280.359316267559
 30
0.0
 10
280.3482706063526
 20
279.9492179118441
 30
0.0
 10
280.1569606208299
 20
279.7395107383902
 30
0.0
 10
279.7780307199886
 20
279.3094487689988
 30
0.0
 10
279.5904089704469
 20
279.089102094753
 30
0.0
 10
279.4048419452956
 20
278.8625252581046
 30
0.0
  0
SPLINE
  5
1AE
330
1F
100
AcDbEntity
  8
1
100
AcDbSpline
210
0.0
220
0.0
230
1.0
 70
     8
 71
     3
 72
    10
 73
     6
 74
     0
 42
0.000000001
 43
0.0000000001
 40
0.0
 40
0.0
 40
0.0
 40
0.0
 40
0.5
 40
0.5
 40
1.0
 40
1.0
 40
1.0
 40
1.0
 10
296.5616574991863
 20
278.6242948172803
 30
0.0
 10
296.781057916096
 20
278.6379174391537
 30
0.0
 10
297.0026888001919
 20
278.648751854383
 30
0.0
 10
297.4503917055557
 20
278.6634539811274
 30
0.0
 10
297.6764631847802
 20
278.6673231000419
 30
0.0
 10
297.9048419452957
 20
278.6673231000419
 30
0.0
  0
SPLINE
  5
1AF
330
1F
100
AcDbEntity
  8
1
100
AcDbSpline
210
0.0
220
0.0
230
1.0
 70
     8
 71
     3
 72
    24
 73
    20
 74
     0
 42
0.000000001
 43
0.0000000001
 40
0.0
 40
0.0
 40
0.0
 40
0.0
 40
0.0566673377533324
 40
0.0566673377533324
 40
0.124048242199523
 40
0.124048242199523
 40
0.1914291466457135
 40
0.1914291466457135
 40
0.3261909555380943
 40
0.3261909555380943
 40
0.4609527644304751
 40
0.4609527644304751
 40
0.5957145733228562
 40
0.5957145733228562
 40
0.7304763822152369
 40
0.7304763822152369
 40
0.8652381911076185
 40
0.8652381911076185
 40
1.0
 40
1.0
 40
1.0
 40
1.0
 10
336.0553707542335
 20
280.3741299256886
 30
0.0
 10
335.3375716643697
 20
280.315066782481
 30
0.0
 10
334.619339304447
 20
280.2588942374128
 30
0.0
 10
333.0462717272971
 20
280.1413230472014
 30
0.0
 10
332.1912653178947
 20
280.0809438909332
 30
0.0
 10
330.480463733491
 20
279.9659848597053
 30
0.0
 10
329.624762508874
 20
279.9114120684131
 30
0.0
 10
327.0569337146927
 20
279.7549861304935
 30
0.0
 10
325.3440897239075
 20
279.6603423599914
 30
0.0
 10
321.9172228743617
 20
279.4850413924237
 30
0.0
 10
320.2031998135599
 20
279.4044114284508
 30
0.0
 10
316.7744385373592
 20
279.2542368623188
 30
0.0
 10
315.0596657701864
 20
279.1847134578326
 30
0.0
 10
311.6297896064641
 20
279.0554462595478
 30
0.0
 10
309.9146976713153
 20
278.9957228396746
 30
0.0
 10
306.4841685997298
 20
278.8856988434204
 30
0.0
 10
304.7687299634566
 20
278.8354167655805
 30
0.0
 10
301.3372921124731
 20
278.7442978446252
 30
0.0
 10
299.6212904889589
 20
278.7034756656673
 30
0.0
 10
297.9048419452957
 20
278.6673231000419
 30
0.0
  0
SPLINE
  5
1B0
330
1F
100
AcDbEntity
  8
1
100
AcDbSpline
210
0.0
220
0.0
230
1.0
 70
     8
 71
     3
 72
    14
 73
    10
 74
     0
 42
0.000000001
 43
0.0000000001
 40
0.0
 40
0.0
 40
0.0
 40
0.0
 40
0.25
 40
0.25
 40
0.5
 40
0.5
 40
0.75
 40
0.75
 40
1.0
 40
1.0
 40
1.0
 40
1.0
 10
293.0322589432653
 20
278.4583772298356
 30
0.0
 10
293.3267657380189
 20
278.467291504337
 30
0.0
 10
293.6210964004079
 20
278.4774333601732
 30
0.0
 10
294.209400709213
 20
278.5002524254332
 30
0.0
 10
294.5033741663049
 20
278.5129329498452
 30
0.0
 10
295.0911810180319
 20
278.5407916425439
 30
0.0
 10
295.3850155427931
 20
278.5559722797488
 30
0.0
 10
295.9729719997108
 20
278.5885787400996
 30
0.0
 10
296.2670960636403
 20
278.6060054306354
 30
0.0
 10
296.5616574991864
 20
278.6242948172803
 30
0.0
  0
SPLINE
  5
1B1
330
1F
100
AcDbEntity
  8
1
100
AcDbSpline
210
0.0
220
0.0
230
1.0
 70
     8
 71
     3
 72
    40
 73
    36
 74
     0
 42
0.000000001
 43
0.0000000001
 40
0.0
 40
0.0
 40
0.0
 40
0.0
 40
0.1250000000000021
 40
0.1250000000000021
 40
0.2500000000000042
 40
0.2500000000000042
 40
0.3125000000000053
 40
0.3125000000000053
 40
0.3750000000000065
 40
0.3750000000000065
 40
0.406250000000007
 40
0.4218750000000071
 40
0.4218750000000071
 40
0.4375000000000072
 40
0.4375000000000072
 40
0.5000000000000067
 40
0.5000000000000067
 40
0.5625000000000063
 40
0.5625000000000063
 40
0.6250000000000058
 40
0.6250000000000058
 40
0.6875000000000053
 40
0.6875000000000053
 40
0.7187500000000053
 40
0.7343750000000052
 40
0.7343750000000052
 40
0.7500000000000048
 40
0.7500000000000048
 40
0.8125000000000037
 40
0.8125000000000037
 40
0.8750000000000024
 40
0.8750000000000024
 40
0.9375000000000012
 40
0.9375000000000012
 40
1.0
 40
1.0
 40
1.0
 40
1.0
 10
281.7185504442806
 20
281.3325564440296
 30
0.0
 10
282.0770279339681
 20
281.6713048204763
 30
0.0
 10
282.4511729345667
 20
281.9901654609934
 30
0.0
 10
283.2312767276627
 20
282.5882372362576
 30
0.0
 10
283.6372255844913
 20
282.8674619006412
 30
0.0
 10
284.2714083796504
 20
283.2553370952768
 30
0.0
 10
284.4870243178243
 20
283.3794535676874
 30
0.0
 10
284.9271012900723
 20
283.616912985808
 30
0.0
 10
285.1515613314114
 20
283.7302574178472
 30
0.0
 10
285.4952908983813
 20
283.89173760387
 30
0.0
 10
285.6689173439242
 20
283.9703411779307
 30
0.0
 10
285.8452806849705
 20
284.0456293301832
 30
0.0
 10
285.9634763497751
 20
284.0950704130402
 30
0.0
 10
286.0229057245092
 20
284.1194232737643
 30
0.0
 10
286.3206225791416
 20
284.2388762311602
 30
0.0
 10
286.5613744886335
 20
284.3273745758111
 30
0.0
 10
287.0481640516232
 20
284.4898525247918
 30
0.0
 10
287.2942016836891
 20
284.5638330704497
 30
0.0
 10
287.7917482224757
 20
284.6966466677584
 30
0.0
 10
288.0432571141182
 20
284.7554810004676
 30
0.0
 10
288.5519890112844
 20
284.8571008353781
 30
0.0
 10
288.8092120527224
 20
284.8998879501883
 30
0.0
 10
289.1995572248237
 20
284.9511189540262
 30
0.0
 10
289.395858130157
 20
284.9734931032615
 30
0.0
 10
289.5938995378602
 20
284.9907953414725
 30
0.0
 10
289.7263196413352
 20
285.0011768932313
 30
0.0
 10
289.7925386258675
 20
285.0057762557142
 30
0.0
 10
290.1235226742351
 20
285.0257913935785
 30
0.0
 10
290.3881153185064
 20
285.032280857499
 30
0.0
 10
290.9167634249555
 20
285.0257816704131
 30
0.0
 10
291.1808189611319
 20
285.0127910522557
 30
0.0
 10
291.7082047285904
 20
284.966767204879
 30
0.0
 10
291.9715349317684
 20
284.9337313763435
 30
0.0
 10
292.4972406205657
 20
284.8469916521411
 30
0.0
 10
292.7596159031221
 20
284.7932843086458
 30
0.0
 10
293.0213800558118
 20
284.7289446773801
 30
0.0
  0
SPLINE
  5
1B2
330
1F
100
AcDbEntity
  8
1
100
AcDbSpline
210
0.0
220
0.0
230
1.0
 70
     8
 71
     3
 72
    16
 73
    12
 74
     0
 42
0.000000001
 43
0.0000000001
 40
0.0
 40
0.0
 40
0.0
 40
0.0
 40
0.2499999999999395
 40
0.2499999999999395
 40
0.3749999999999093
 40
0.3749999999999093
 40
0.4999999999998792
 40
0.4999999999998792
 40
0.7499999999999396
 40
0.7499999999999396
 40
1.0
 40
1.0
 40
1.0
 40
1.0
 10
404.1543061943565
 20
293.0170194181583
 30
0.0
 10
404.1221850929363
 20
292.9817945326433
 30
0.0
 10
404.088191468085
 20
292.9489938754189
 30
0.0
 10
404.0344499459487
 20
292.9032031770485
 30
0.0
 10
404.0160757691507
 20
292.8885108455803
 30
0.0
 10
403.9783946045839
 20
292.8602617481457
 30
0.0
 10
403.9590310636336
 20
292.8466707970649
 30
0.0
 10
403.9001372761491
 20
292.8080195157292
 30
0.0
 10
403.8596992464913
 20
292.7849616052814
 30
0.0
 10
403.7762547981065
 20
292.7440044695813
 30
0.0
 10
403.7332504719425
 20
292.7261051416233
 30
0.0
 10
403.6887430014275
 20
292.7108675136734
 30
0.0
  0
SPLINE
  5
1B3
330
1F
100
AcDbEntity
  8
1
100
AcDbSpline
210
0.0
220
0.0
230
1.0
 70
     8
 71
     3
 72
    14
 73
    10
 74
     0
 42
0.000000001
 43
0.0000000001
 40
0.0
 40
0.0
 40
0.0
 40
0.0
 40
0.125
 40
0.125
 40
0.25
 40
0.25
 40
0.5
 40
0.75
 40
1.0
 40
1.0
 40
1.0
 40
1.0
 10
400.0375760794661
 20
292.8373270859138
 30
0.0
 10
400.1864421622976
 20
292.8001724522666
 30
0.0
 10
400.3361033899712
 20
292.7656653081674
 30
0.0
 10
400.6370254051176
 20
292.7019842306174
 30
0.0
 10
400.7884369897996
 20
292.6727893302906
 30
0.0
 10
401.2429030897421
 20
292.5936438978671
 30
0.0
 10
401.8506024257691
 20
292.5103151928441
 30
0.0
 10
402.7673144211132
 20
292.4511215543611
 30
0.0
 10
403.3819068465481
 20
292.4556888271102
 30
0.0
 10
403.6900824348879
 20
292.4691992049598
 30
0.0
  0
SPLINE
  5
1B4
330
1F
100
AcDbEntity
  8
1
100
AcDbSpline
210
0.0
220
0.0
230
1.0
 70
     8
 71
     3
 72
    25
 73
    21
 74
     0
 42
0.000000001
 43
0.0000000001
 40
0.0
 40
0.0
 40
0.0
 40
0.0
 40
0.1250000000000162
 40
0.1250000000000162
 40
0.2500000000000325
 40
0.2500000000000325
 40
0.3750000000000487
 40
0.3750000000000487
 40
0.4062500000000463
 40
0.4062500000000463
 40
0.4375000000000439
 40
0.4375000000000439
 40
0.500000000000039
 40
0.500000000000039
 40
0.6250000000000293
 40
0.6250000000000293
 40
0.7500000000000195
 40
0.8750000000000097
 40
0.8750000000000097
 40
1.0
 40
1.0
 40
1.0
 40
1.0
 10
397.8781845911789
 20
291.7913933749439
 30
0.0
 10
398.1013849797163
 20
291.6751616636311
 30
0.0
 10
398.3283540043959
 20
291.5663765749493
 30
0.0
 10
398.7896800501454
 20
291.3637896461445
 30
0.0
 10
399.0240369203524
 20
291.2699870292897
 30
0.0
 10
399.5000831503799
 20
291.0975874831107
 30
0.0
 10
399.7417721496583
 20
291.0189894940605
 30
0.0
 10
400.048494787858
 20
290.9304850313063
 30
0.0
 10
400.1100701499653
 20
290.9132717305118
 30
0.0
 10
400.2336843628156
 20
290.8798281781693
 30
0.0
 10
400.2957786267167
 20
290.8635844431616
 30
0.0
 10
400.4821646551187
 20
290.8164881691139
 30
0.0
 10
400.6066520250826
 20
290.787240678616
 30
0.0
 10
400.9807915415892
 20
290.7058571005911
 30
0.0
 10
401.2311201559422
 20
290.660072431795
 30
0.0
 10
401.7335379547198
 20
290.585144361342
 30
0.0
 10
402.2377163973583
 20
290.5268579242542
 30
0.0
 10
402.7453875484567
 20
290.5017281321986
 30
0.0
 10
403.2548202583018
 20
290.493352212058
 30
0.0
 10
403.5104173097883
 20
290.4975404951421
 30
0.0
 10
403.7669183853221
 20
290.5103214470064
 30
0.0
  0
SPLINE
  5
1B5
330
1F
100
AcDbEntity
  8
1
100
AcDbSpline
210
0.0
220
0.0
230
1.0
 70
     8
 71
     3
 72
    29
 73
    25
 74
     0
 42
0.000000001
 43
0.0000000001
 40
0.0
 40
0.0
 40
0.0
 40
0.0
 40
0.1249999999999334
 40
0.1249999999999334
 40
0.1874999999999126
 40
0.1874999999999126
 40
0.2499999999998918
 40
0.2499999999998918
 40
0.374999999999784
 40
0.374999999999784
 40
0.43749999999973
 40
0.43749999999973
 40
0.4999999999996761
 40
0.4999999999996761
 40
0.6249999999996696
 40
0.6249999999996696
 40
0.6874999999997245
 40
0.6874999999997245
 40
0.7499999999997793
 40
0.812499999999834
 40
0.812499999999834
 40
0.8749999999998889
 40
0.8749999999998889
 40
1.0
 40
1.0
 40
1.0
 40
1.0
 10
408.907961410622
 20
299.4288291270641
 30
0.0
 10
408.9068232682691
 20
299.4543622848117
 30
0.0
 10
408.9031237976026
 20
299.4793432185529
 30
0.0
 10
408.8939548586536
 20
299.5160342024484
 30
0.0
 10
408.8902903480256
 20
299.5281334026162
 30
0.0
 10
408.881725458592
 20
299.55206534899
 30
0.0
 10
408.8768103038916
 20
299.5639106135145
 30
0.0
 10
408.8605316099891
 20
299.5982791794621
 30
0.0
 10
408.8475666204983
 20
299.6199119864991
 30
0.0
 10
408.8249940383623
 20
299.6504683064332
 30
0.0
 10
408.8169014889323
 20
299.660382771844
 30
0.0
 10
408.7998492653504
 20
299.6793109228319
 30
0.0
 10
408.7909246803453
 20
299.6882965730618
 30
0.0
 10
408.7629893596613
 20
299.7138588945983
 30
0.0
 10
408.742828517311
 20
299.7290546949503
 30
0.0
 10
408.7102067746537
 20
299.7489902827717
 30
0.0
 10
408.6989730536125
 20
299.755122696619
 30
0.0
 10
408.6761848564561
 20
299.7661656048533
 30
0.0
 10
408.6529674689067
 20
299.7760550418539
 30
0.0
 10
408.6288985173251
 20
299.7836558567604
 30
0.0
 10
408.6043943525316
 20
299.7900870137983
 30
0.0
 10
408.5918655099449
 20
299.792725985134
 30
0.0
 10
408.5540697166745
 20
299.7987259315238
 30
0.0
 10
408.5286948240018
 20
299.8002026814693
 30
0.0
 10
408.5031374287918
 20
299.7990879830243
 30
0.0
  0
SPLINE
  5
1B6
330
1F
100
AcDbEntity
  8
1
100
AcDbSpline
210
0.0
220
0.0
230
1.0
 70
     8
 71
     3
 72
    29
 73
    25
 74
     0
 42
0.000000001
 43
0.0000000001
 40
0.0
 40
0.0
 40
0.0
 40
0.0
 40
0.1250000000001381
 40
0.1250000000001381
 40
0.1875000000001405
 40
0.1875000000001405
 40
0.2500000000001429
 40
0.2500000000001429
 40
0.3750000000001476
 40
0.3750000000001476
 40
0.437500000000095
 40
0.437500000000095
 40
0.5000000000000422
 40
0.5000000000000422
 40
0.6250000000000294
 40
0.6250000000000294
 40
0.6875000000000231
 40
0.6875000000000231
 40
0.7500000000000168
 40
0.8125000000000104
 40
0.8125000000000104
 40
0.8750000000000042
 40
0.8750000000000042
 40
1.0
 40
1.0
 40
1.0
 40
1.0
 10
402.9355201740703
 20
299.5562536000519
 30
0.0
 10
402.909960410489
 20
299.5551387983093
 30
0.0
 10
402.8849556858847
 20
299.5514649529045
 30
0.0
 10
402.8482329938806
 20
299.5423376805753
 30
0.0
 10
402.8361238927693
 20
299.5386876013204
 30
0.0
 10
402.8121735027617
 20
299.5301526770017
 30
0.0
 10
402.8003196948161
 20
299.5252530828234
 30
0.0
 10
402.7659280877769
 20
299.5090217135084
 30
0.0
 10
402.7442831322812
 20
299.4960894443572
 30
0.0
 10
402.713713341625
 20
299.473567674441
 30
0.0
 10
402.7037951710148
 20
299.4654924408258
 30
0.0
 10
402.6848613339945
 20
299.4484750041236
 30
0.0
 10
402.6758737028382
 20
299.4395678280526
 30
0.0
 10
402.6503079515498
 20
299.411684779338
 30
0.0
 10
402.6351131906079
 20
299.3915588447442
 30
0.0
 10
402.6151843120266
 20
299.3589895562856
 30
0.0
 10
402.6090550003223
 20
299.3477732640076
 30
0.0
 10
402.5980198945872
 20
299.3250192121372
 30
0.0
 10
402.5881398782432
 20
299.3018354338819
 30
0.0
 10
402.5805516946067
 20
299.2777990281232
 30
0.0
 10
402.5741348097038
 20
299.2533268656394
 30
0.0
 10
402.5715038372132
 20
299.2408138233799
 30
0.0
 10
402.5655301400964
 20
299.2030639966432
 30
0.0
 10
402.5640737701841
 20
299.1777177547882
 30
0.0
 10
402.5652118070763
 20
299.1521869629465
 30
0.0
  0
SPLINE
  5
1B7
330
1F
100
AcDbEntity
  8
1
100
AcDbSpline
210
0.0
220
0.0
230
1.0
 70
     8
 71
     3
 72
    29
 73
    25
 74
     0
 42
0.000000001
 43
0.0000000001
 40
0.0
 40
0.0
 40
0.0
 40
0.0
 40
0.1250000000000815
 40
0.1250000000000815
 40
0.1875000000001056
 40
0.1875000000001056
 40
0.2500000000001297
 40
0.2500000000001297
 40
0.3750000000001195
 40
0.3750000000001195
 40
0.4375000000001144
 40
0.4375000000001144
 40
0.5000000000001093
 40
0.5000000000001093
 40
0.6249999999999947
 40
0.6249999999999947
 40
0.6874999999999955
 40
0.6874999999999955
 40
0.7499999999999963
 40
0.8124999999999969
 40
0.8124999999999969
 40
0.8749999999999978
 40
0.8749999999999978
 40
1.0
 40
1.0
 40
1.0
 40
1.0
 10
402.8131304147946
 20
293.59036518825
 30
0.0
 10
402.8142685571472
 20
293.5648320305023
 30
0.0
 10
402.8179680278139
 20
293.5398510967613
 30
0.0
 10
402.8271369667629
 20
293.5031601128656
 30
0.0
 10
402.8308014773909
 20
293.4910609126979
 30
0.0
 10
402.8393663668246
 20
293.4671289663242
 30
0.0
 10
402.844281521525
 20
293.4552837017997
 30
0.0
 10
402.8605602154274
 20
293.4209151358521
 30
0.0
 10
402.8735252049182
 20
293.399282328815
 30
0.0
 10
402.8960977870543
 20
293.3687260088809
 30
0.0
 10
402.9041903364842
 20
293.3588115434702
 30
0.0
 10
402.9212425600659
 20
293.3398833924822
 30
0.0
 10
402.9301671450712
 20
293.3308977422523
 30
0.0
 10
402.958102465755
 20
293.3053354207158
 30
0.0
 10
402.9782633081054
 20
293.2901396203638
 30
0.0
 10
403.0108850507628
 20
293.2702040325424
 30
0.0
 10
403.0221187718041
 20
293.2640716186951
 30
0.0
 10
403.0449069689605
 20
293.2530287104608
 30
0.0
 10
403.0681243565097
 20
293.2431392734603
 30
0.0
 10
403.0921933080916
 20
293.2355384585536
 30
0.0
 10
403.1166974728848
 20
293.2291073015158
 30
0.0
 10
403.1292263154716
 20
293.2264683301801
 30
0.0
 10
403.1670221087422
 20
293.2204683837901
 30
0.0
 10
403.1923970014146
 20
293.2189916338448
 30
0.0
 10
403.2179543966247
 20
293.2201063322898
 30
0.0
  0
SPLINE
  5
1B8
330
1F
100
AcDbEntity
  8
1
100
AcDbSpline
210
0.0
220
0.0
230
1.0
 70
     8
 71
     3
 72
    29
 73
    25
 74
     0
 42
0.000000001
 43
0.0000000001
 40
0.0
 40
0.0
 40
0.0
 40
0.0
 40
0.1250000000000924
 40
0.1250000000000924
 40
0.1875000000000725
 40
0.1875000000000725
 40
0.2500000000000526
 40
0.2500000000000526
 40
0.3750000000001344
 40
0.3750000000001344
 40
0.4375000000001203
 40
0.4375000000001203
 40
0.5000000000001062
 40
0.5000000000001062
 40
0.625000000000078
 40
0.625000000000078
 40
0.6875000000000658
 40
0.6875000000000658
 40
0.7500000000000534
 40
0.812500000000041
 40
0.812500000000041
 40
0.8750000000000287
 40
0.8750000000000287
 40
1.0
 40
1.0
 40
1.0
 40
1.0
 10
408.7855716513462
 20
293.4629407152621
 30
0.0
 10
408.8111314149275
 20
293.4640555170049
 30
0.0
 10
408.8361361395319
 20
293.4677293624096
 30
0.0
 10
408.8728588315357
 20
293.4768566347388
 30
0.0
 10
408.8849679326471
 20
293.4805067139937
 30
0.0
 10
408.9089183226549
 20
293.4890416383124
 30
0.0
 10
408.9207721306003
 20
293.4939412324906
 30
0.0
 10
408.9551637376394
 20
293.5101726018057
 30
0.0
 10
408.9768086931353
 20
293.5231048709569
 30
0.0
 10
409.0073784837914
 20
293.5456266408731
 30
0.0
 10
409.0172966544017
 20
293.5537018744883
 30
0.0
 10
409.0362304914219
 20
293.5707193111905
 30
0.0
 10
409.0452181225782
 20
293.5796264872615
 30
0.0
 10
409.0707838738667
 20
293.6075095359761
 30
0.0
 10
409.0859786348087
 20
293.6276354705699
 30
0.0
 10
409.1059075133899
 20
293.6602047590285
 30
0.0
 10
409.1120368250943
 20
293.6714210513065
 30
0.0
 10
409.1230719308293
 20
293.6941751031769
 30
0.0
 10
409.1329519471732
 20
293.7173588814321
 30
0.0
 10
409.1405401308098
 20
293.7413952871909
 30
0.0
 10
409.1469570157128
 20
293.7658674496747
 30
0.0
 10
409.1495879882033
 20
293.7783804919342
 30
0.0
 10
409.1555616853201
 20
293.8161303186708
 30
0.0
 10
409.1570180552325
 20
293.8414765605259
 30
0.0
 10
409.1558800183403
 20
293.8670073523677
 30
0.0
  0
SPLINE
  5
1B9
330
1F
100
AcDbEntity
  8
1
100
AcDbSpline
210
0.0
220
0.0
230
1.0
 70
     8
 71
     3
 72
     8
 73
     4
 74
     0
 42
0.000000001
 43
0.0000000001
 40
0.0
 40
0.0
 40
0.0
 40
0.0
 40
1.0
 40
1.0
 40
1.0
 40
1.0
 10
403.6900824349118
 20
292.4691992049609
 30
0.0
 10
403.6933486117321
 20
292.4693423937293
 30
0.0
 10
403.6966153162348
 20
292.4694852392674
 30
0.0
 10
403.6998825489357
 20
292.4696277412392
 30
0.0
  0
SPLINE
  5
1BA
330
1F
100
AcDbEntity
  8
1
100
AcDbSpline
210
0.0
220
0.0
230
1.0
 70
     8
 71
     3
 72
    14
 73
    10
 74
     0
 42
0.000000001
 43
0.0000000001
 40
0.0
 40
0.0
 40
0.0
 40
0.0
 40
0.2500000000000052
 40
0.2500000000000052
 40
0.5000000000000105
 40
0.5000000000000105
 40
0.7500000000000053
 40
0.7500000000000053
 40
1.0
 40
1.0
 40
1.0
 40
1.0
 10
401.4678419452962
 20
290.8090415266897
 30
0.0
 10
401.1548749286846
 20
290.8503965554413
 30
0.0
 10
400.8450649061505
 20
290.9014371047995
 30
0.0
 10
400.2313396774253
 20
291.0236351477806
 30
0.0
 10
399.9274241126781
 20
291.0947947027155
 30
0.0
 10
399.3251749278937
 20
291.2584627524523
 30
0.0
 10
399.0291500832699
 20
291.3503452481345
 30
0.0
 10
398.4466427406493
 20
291.5549468563624
 30
0.0
 10
398.1601511448665
 20
291.6676674225322
 30
0.0
 10
397.8781845911837
 20
291.79139337494
 30
0.0
  0
SPLINE
  5
1BB
330
1F
100
AcDbEntity
  8
1
100
AcDbSpline
210
0.0
220
0.0
230
1.0
 70
     8
 71
     3
 72
    33
 73
    29
 74
     0
 42
0.000000001
 43
0.0000000001
 40
0.0
 40
0.0
 40
0.0
 40
0.0
 40
0.1249999999999033
 40
0.1249999999999033
 40
0.2499999999998065
 40
0.2499999999998065
 40
0.2812499999997823
 40
0.2812499999997823
 40
0.3124999999997582
 40
0.3749999999997758
 40
0.3749999999997758
 40
0.4999999999998112
 40
0.4999999999998112
 40
0.5312499999998042
 40
0.5312499999998042
 40
0.5624999999997972
 40
0.6249999999998448
 40
0.6249999999998448
 40
0.7499999999998798
 40
0.7499999999998798
 40
0.7812499999998747
 40
0.7812499999998747
 40
0.8124999999998694
 40
0.8749999999999129
 40
0.8749999999999129
 40
0.9374999999999566
 40
0.9374999999999566
 40
1.0
 40
1.0
 40
1.0
 40
1.0
 10
403.6887430014275
 20
292.7108675136734
 30
0.0
 10
403.6393887718648
 20
292.6939705438135
 30
0.0
 10
403.5892746825855
 20
292.680713199319
 30
0.0
 10
403.4873442919844
 20
292.6614581044157
 30
0.0
 10
403.4355258438826
 20
292.6554613552902
 30
0.0
 10
403.3695473359246
 20
292.6528264405984
 30
0.0
 10
403.3562930200226
 20
292.6525456997826
 30
0.0
 10
403.3299573365574
 20
292.6524793446388
 30
0.0
 10
403.2906022662636
 20
292.6531172277002
 30
0.0
 10
403.2516810211713
 20
292.6559201985505
 30
0.0
 10
403.1743796522476
 20
292.6643301599243
 30
0.0
 10
403.1235666124613
 20
292.6736590568059
 30
0.0
 10
403.0608137731221
 20
292.6899343574784
 30
0.0
 10
403.04828125786
 20
292.6934279655814
 30
0.0
 10
403.0234528584298
 20
292.7008326595073
 30
0.0
 10
402.9865240714241
 20
292.7125747851995
 30
0.0
 10
402.9504853338086
 20
292.7261880826123
 30
0.0
 10
402.8794872309874
 20
292.7558758902509
 30
0.0
 10
402.8335869928603
 20
292.7789296330839
 30
0.0
 10
402.7777757223616
 20
292.8120065096972
 30
0.0
 10
402.766677324337
 20
292.8188466865633
 30
0.0
 10
402.7447772359753
 20
292.8328734005555
 30
0.0
 10
402.7123302714759
 20
292.8544563352186
 30
0.0
 10
402.6810666960848
 20
292.8776577636806
 30
0.0
 10
402.6404060868212
 20
292.9100408028989
 30
0.0
 10
402.6205879221901
 20
292.9269561173907
 30
0.0
 10
402.5819664117217
 20
292.9622740457012
 30
0.0
 10
402.5631407486446
 20
292.980699889454
 30
0.0
 10
402.5448723174866
 20
292.999858425232
 30
0.0
  0
SPLINE
  5
1BC
330
1F
100
AcDbEntity
  8
1
100
AcDbSpline
210
0.0
220
0.0
230
1.0
 70
     8
 71
     3
 72
    14
 73
    10
 74
     0
 42
0.000000001
 43
0.0000000001
 40
0.0
 40
0.0
 40
0.0
 40
0.0
 40
0.25
 40
0.25
 40
0.5
 40
0.5
 40
0.75
 40
0.75
 40
1.0
 40
1.0
 40
1.0
 40
1.0
 10
398.2519887091322
 20
295.5313264636535
 30
0.0
 10
398.0141607800819
 20
295.8364273488867
 30
0.0
 10
397.7791021203752
 20
296.1435899223035
 30
0.0
 10
397.3158242401441
 20
296.7630069504943
 30
0.0
 10
397.0876062183748
 20
297.0752622977272
 30
0.0
 10
396.6391357662403
 20
297.7057032805237
 30
0.0
 10
396.4190197057183
 20
298.0237005043381
 30
0.0
 10
395.9879785940927
 20
298.6657994511914
 30
0.0
 10
395.7770470122918
 20
298.9899107481546
 30
0.0
 10
395.5710392202501
 20
299.3173072621042
 30
0.0
  0
SPLINE
  5
1BD
330
1F
100
AcDbEntity
  8
1
100
AcDbSpline
210
0.0
220
0.0
230
1.0
 70
     8
 71
     3
 72
    40
 73
    36
 74
     0
 42
0.000000001
 43
0.0000000001
 40
0.0
 40
0.0
 40
0.0
 40
0.0
 40
0.0916653302209451
 40
0.0916653302209451
 40
0.1374979953314177
 40
0.1374979953314177
 40
0.1833306604418903
 40
0.1833306604418903
 40
0.2291633255523628
 40
0.2291633255523628
 40
0.2749959906628354
 40
0.2749959906628354
 40
0.320828655773308
 40
0.320828655773308
 40
0.3666613208837806
 40
0.3666613208837806
 40
0.4583266511047257
 40
0.4583266511047257
 40
0.5499919813256709
 40
0.5499919813256709
 40
0.641657311546616
 40
0.641657311546616
 40
0.6874899766570886
 40
0.6874899766570886
 40
0.7333226417675612
 40
0.7333226417675612
 40
0.7791553068780336
 40
0.7791553068780336
 40
0.8249879719885061
 40
0.8249879719885061
 40
0.8708206370989788
 40
0.8708206370989788
 40
0.9166533022094512
 40
0.9166533022094512
 40
1.0
 40
1.0
 40
1.0
 40
1.0
 10
395.5710392202501
 20
299.3173072621043
 30
0.0
 10
393.5606486882327
 20
299.3505009875122
 30
0.0
 10
391.5481449324293
 20
299.3724770614118
 30
0.0
 10
388.5267765081807
 20
299.3937250453769
 30
0.0
 10
387.5191797646221
 20
299.3988344111708
 30
0.0
 10
385.5034153387912
 20
299.4057366895625
 30
0.0
 10
384.4952657840174
 20
299.4075296940017
 30
0.0
 10
382.4785111967888
 20
299.4082991902363
 30
0.0
 10
381.4699060354525
 20
299.4072759389586
 30
0.0
 10
379.4523362729303
 20
299.402775767133
 30
0.0
 10
378.4433715653411
 20
299.399299356733
 30
0.0
 10
376.425199396391
 20
299.3901072389847
 30
0.0
 10
375.415994730387
 20
299.3843896932038
 30
0.0
 10
373.3974660247578
 20
299.3707768751987
 30
0.0
 10
372.3881399123626
 20
299.3628821733028
 30
0.0
 10
369.3601207870512
 20
299.3358766222385
 30
0.0
 10
367.3413666386639
 20
299.3134790937318
 30
0.0
 10
363.3045993531303
 20
299.2585411133572
 30
0.0
 10
361.2865740978248
 20
299.2259930246559
 30
0.0
 10
357.2517292549712
 20
299.1483605462994
 30
0.0
 10
355.2348981481206
 20
299.1033114317154
 30
0.0
 10
352.2109331597444
 20
299.0235753296172
 30
0.0
 10
351.2031599232989
 20
298.9949561491547
 30
0.0
 10
349.1881461264997
 20
298.9328919520286
 30
0.0
 10
348.1808730592528
 20
298.8994416026379
 30
0.0
 10
346.1669527755276
 20
298.8275741044784
 30
0.0
 10
345.1602960438536
 20
298.7891530705456
 30
0.0
 10
343.1474514802743
 20
298.7073568156998
 30
0.0
 10
342.141264199416
 20
298.6639779247246
 30
0.0
 10
340.1291798060358
 20
298.5725494673665
 30
0.0
 10
339.1232828528172
 20
298.5244969120795
 30
0.0
 10
337.1115471650669
 20
298.4243774722584
 30
0.0
 10
336.1056940144625
 20
298.3723672124812
 30
0.0
 10
333.2706065387773
 20
298.2207835408029
 30
0.0
 10
331.4413063151647
 20
298.1170720695451
 30
0.0
 10
329.6117011344626
 20
298.0085423967945
 30
0.0
  0
SPLINE
  5
1BE
330
1F
100
AcDbEntity
  8
1
100
AcDbSpline
210
0.0
220
0.0
230
1.0
 70
    28
 71
     4
 72
    10
 73
     5
 74
     0
 42
0.000000001
 43
0.0000000001
 40
0.0
 40
0.0
 40
0.0
 40
0.0
 40
0.0
 40
1.0
 40
1.0
 40
1.0
 40
1.0
 40
1.0
 10
297.9048419452957
 20
283.6045921000323
 30
0.0
 41
1.001240992237524
 10
297.9048419452957
 20
282.4460321300403
 30
0.0
 41
0.9995809609278275
 10
297.9048419452957
 20
281.0884817039156
 30
0.0
 41
0.9932623203475204
 10
297.9048419452957
 20
279.7615406273814
 30
0.0
 41
0.9983947408236154
 10
297.9048419452957
 20
278.6673231000419
 30
0.0
 41
1.00073992311903
  0
SPLINE
  5
1BF
330
1F
100
AcDbEntity
  8
1
100
AcDbSpline
210
0.0
220
0.0
230
1.0
 70
     8
 71
     3
 72
    67
 73
    63
 74
     0
 42
0.000000001
 43
0.0000000001
 40
0.0
 40
0.0
 40
0.0
 40
0.0
 40
0.0312500000000004
 40
0.0625000000000008
 40
0.0625000000000008
 40
0.1250000000000016
 40
0.1250000000000016
 40
0.1875000000000024
 40
0.1875000000000024
 40
0.2500000000000032
 40
0.2500000000000032
 40
0.2812500000000037
 40
0.2812500000000037
 40
0.3125000000000043
 40
0.3125000000000043
 40
0.3437500000000048
 40
0.3437500000000048
 40
0.3750000000000053
 40
0.3750000000000053
 40
0.4062500000000058
 40
0.4062500000000058
 40
0.4375000000000063
 40
0.4375000000000063
 40
0.4687500000000068
 40
0.4687500000000068
 40
0.5000000000000073
 40
0.5000000000000073
 40
0.5312500000000079
 40
0.5312500000000079
 40
0.5625000000000084
 40
0.5625000000000084
 40
0.5781250000000084
 40
0.5781250000000084
 40
0.5937500000000084
 40
0.5937500000000084
 40
0.6250000000000079
 40
0.6250000000000079
 40
0.6562500000000076
 40
0.6562500000000076
 40
0.6875000000000072
 40
0.6875000000000072
 40
0.7187500000000068
 40
0.7187500000000068
 40
0.7343750000000066
 40
0.7343750000000066
 40
0.7500000000000063
 40
0.7500000000000063
 40
0.8125000000000051
 40
0.8125000000000051
 40
0.8437500000000042
 40
0.8437500000000042
 40
0.8593750000000037
 40
0.8593750000000037
 40
0.8750000000000031
 40
0.8750000000000031
 40
0.9062500000000024
 40
0.9062500000000024
 40
0.9375000000000015
 40
0.9375000000000015
 40
0.9687500000000007
 40
0.9687500000000007
 40
1.0
 40
1.0
 40
1.0
 40
1.0
 10
299.1458626416236
 20
283.3317163736217
 30
0.0
 10
300.0690287222068
 20
283.2448692117724
 30
0.0
 10
301.9158462447659
 20
283.0768941111602
 30
0.0
 10
303.7635054574104
 20
282.9188585960739
 30
0.0
 10
306.5355005384723
 20
282.687997101553
 30
0.0
 10
308.3841793023946
 20
282.5423650386924
 30
0.0
 10
312.0820399027548
 20
282.2601656168252
 30
0.0
 10
313.9311957897971
 20
282.1235668299097
 30
0.0
 10
317.628611113266
 20
281.8516730026614
 30
0.0
 10
319.4768901423217
 20
281.7163326407123
 30
0.0
 10
322.2476869968827
 20
281.5091364768798
 30
0.0
 10
323.1710151276416
 20
281.4393845951168
 30
0.0
 10
325.0169686620213
 20
281.297859921718
 30
0.0
 10
325.9395937989965
 20
281.2260852246575
 30
0.0
 10
327.7839902627665
 20
281.0800671544653
 30
0.0
 10
328.7057612719905
 20
281.0058217947524
 30
0.0
 10
330.5483175828241
 20
280.8546770319349
 30
0.0
 10
331.4691025118812
 20
280.777775710572
 30
0.0
 10
333.309584291234
 20
280.6214552957892
 30
0.0
 10
334.2292807167161
 20
280.5420345939509
 30
0.0
 10
336.0675246250044
 20
280.3811872805033
 30
0.0
 10
336.9860662380804
 20
280.2997335544179
 30
0.0
 10
338.8220178656879
 20
280.1358603432132
 30
0.0
 10
339.7392179123065
 20
280.0536954588455
 30
0.0
 10
341.5726625468403
 20
279.892654140239
 30
0.0
 10
342.4889408335056
 20
279.8137735008314
 30
0.0
 10
344.3212836044143
 20
279.6618454763821
 30
0.0
 10
345.2373482701653
 20
279.58879199267
 30
0.0
 10
347.0697958988024
 20
279.44999798547
 30
0.0
 10
347.986177777501
 20
279.3842479394933
 30
0.0
 10
349.3612891971711
 20
279.2915947060905
 30
0.0
 10
349.8197485092721
 20
279.2617000678104
 30
0.0
 10
350.7368868996936
 20
279.2039211308122
 30
0.0
 10
351.1955654390817
 20
279.1760343768752
 30
0.0
 10
352.5719137241078
 20
279.095225191238
 30
0.0
 10
353.4898933281772
 20
279.045146560847
 30
0.0
 10
355.3266783456276
 20
278.9519914914809
 30
0.0
 10
356.2454849140485
 20
278.9089207466677
 30
0.0
 10
358.0839996907313
 20
278.8293740408811
 30
0.0
 10
359.0037088714727
 20
278.7929016267961
 30
0.0
 10
360.8441481159674
 20
278.726169143348
 30
0.0
 10
361.7648789137813
 20
278.6959108444466
 30
0.0
 10
363.1468434500658
 20
278.6548559220038
 30
0.0
 10
363.6076430893731
 20
278.6418924723433
 30
0.0
 10
364.5295490588446
 20
278.6173461679438
 30
0.0
 10
364.9906682739604
 20
278.6057630703949
 30
0.0
 10
367.2966097346463
 20
278.5511397430877
 30
0.0
 10
369.1428095121157
 20
278.5180056416926
 30
0.0
 10
371.9148422017303
 20
278.4803001522495
 30
0.0
 10
372.8393072821727
 20
278.4697226932448
 30
0.0
 10
374.226744454871
 20
278.4563200655362
 30
0.0
 10
374.6893466872615
 20
278.4522630087116
 30
0.0
 10
375.6148063557729
 20
278.4448828103297
 30
0.0
 10
376.0776666020421
 20
278.4415617548763
 30
0.0
 10
377.4666171844252
 20
278.4325512156871
 30
0.0
 10
378.3930663278892
 20
278.4277944393094
 30
0.0
 10
380.2466436233349
 20
278.4200505097324
 30
0.0
 10
381.1737718219887
 20
278.4170653989359
 30
0.0
 10
383.0284242609265
 20
278.412418577418
 30
0.0
 10
383.9559456977578
 20
278.4107580160463
 30
0.0
 10
385.8110474882537
 20
278.4085453606615
 30
0.0
 10
386.7386398042009
 20
278.4079935137005
 30
0.0
 10
387.6661544887809
 20
278.4079935137005
 30
0.0
  0
SPLINE
  5
1C0
330
1F
100
AcDbEntity
  8
1
100
AcDbSpline
210
0.0
220
0.0
230
1.0
 70
     8
 71
     3
 72
    56
 73
    52
 74
     0
 42
0.000000001
 43
0.0000000001
 40
0.0
 40
0.0
 40
0.0
 40
0.0
 40
0.062499999999999
 40
0.062499999999999
 40
0.124999999999998
 40
0.124999999999998
 40
0.1874999999999969
 40
0.1874999999999969
 40
0.2499999999999959
 40
0.2499999999999959
 40
0.3124999999999949
 40
0.3124999999999949
 40
0.3749999999999939
 40
0.3749999999999939
 40
0.3906249999999938
 40
0.3906249999999938
 40
0.4062499999999939
 40
0.4062499999999939
 40
0.4374999999999943
 40
0.4374999999999943
 40
0.4687499999999944
 40
0.4687499999999944
 40
0.4999999999999946
 40
0.4999999999999946
 40
0.5312499999999947
 40
0.5312499999999947
 40
0.5624999999999949
 40
0.5624999999999949
 40
0.5937499999999951
 40
0.5937499999999951
 40
0.6249999999999952
 40
0.6249999999999952
 40
0.6874999999999961
 40
0.6874999999999961
 40
0.7499999999999969
 40
0.7499999999999969
 40
0.7812499999999974
 40
0.7812499999999974
 40
0.8124999999999976
 40
0.8124999999999976
 40
0.843749999999998
 40
0.843749999999998
 40
0.8749999999999984
 40
0.8749999999999984
 40
0.9062499999999987
 40
0.9062499999999987
 40
0.9374999999999992
 40
0.9374999999999992
 40
0.9687499999999996
 40
0.9687499999999996
 40
1.0
 40
1.0
 40
1.0
 40
1.0
 10
297.9048419452956
 20
299.2017222951864
 30
0.0
 10
299.9932058453174
 20
299.1649843688362
 30
0.0
 10
302.0807198281441
 20
299.1216757840259
 30
0.0
 10
306.254156467889
 20
299.0194033038529
 30
0.0
 10
308.3401371296408
 20
298.9604193094948
 30
0.0
 10
312.5102450702187
 20
298.8247587251772
 30
0.0
 10
314.5944188530147
 20
298.7480626229289
 30
0.0
 10
318.761469306137
 20
298.5759853168612
 30
0.0
 10
320.8443476503502
 20
298.4805912246259
 30
0.0
 10
325.0094533062049
 20
298.2716850307935
 30
0.0
 10
327.0917478026673
 20
298.1581684387862
 30
0.0
 10
331.2559700606122
 20
297.9153947858852
 30
0.0
 10
333.3379327403982
 20
297.786152218315
 30
0.0
 10
335.9407017230596
 20
297.617210367474
 30
0.0
 10
336.4612712129091
 20
297.5830555363575
 30
0.0
 10
337.5024534781512
 20
297.5140839495169
 30
0.0
 10
338.0230686909909
 20
297.4792795767873
 30
0.0
 10
339.5849672318481
 20
297.3738371102839
 30
0.0
 10
340.6262957206046
 20
297.3021353079168
 30
0.0
 10
342.7089560215941
 20
297.1553238479342
 30
0.0
 10
343.7502880571951
 20
297.0802124295324
 30
0.0
 10
345.8329063364041
 20
296.926268548381
 30
0.0
 10
346.874188988857
 20
296.8474373778778
 30
0.0
 10
348.956616346016
 20
296.6860523472122
 30
0.0
 10
349.9977726192118
 20
296.6034899941252
 30
0.0
 10
352.0800283035323
 20
296.4349077149857
 30
0.0
 10
353.1211373042733
 20
296.348942482854
 30
0.0
 10
355.203422031026
 20
296.1742907903273
 30
0.0
 10
356.2445974229806
 20
296.0856020356518
 30
0.0
 10
358.3269648142717
 20
295.9058943108434
 30
0.0
 10
359.3681693787087
 20
295.8148722146129
 30
0.0
 10
362.491883332053
 20
295.5386176829614
 30
0.0
 10
364.5744979293957
 20
295.3502373451032
 30
0.0
 10
368.740004736993
 20
294.9653888273988
 30
0.0
 10
370.8228968823313
 20
294.7689302521032
 30
0.0
 10
373.9473147283275
 20
294.4673436826963
 30
0.0
 10
374.9888068455044
 20
294.3656538635215
 30
0.0
 10
377.0716720905616
 20
294.1595951973097
 30
0.0
 10
378.1130488466288
 20
294.0551758370025
 30
0.0
 10
380.1954973148117
 20
293.842038055305
 30
0.0
 10
381.2365682235313
 20
293.7333119568803
 30
0.0
 10
383.3182884088452
 20
293.5105145950048
 30
0.0
 10
384.3589490397393
 20
293.3964319843792
 30
0.0
 10
386.4397184342111
 20
293.1626383722093
 30
0.0
 10
387.4798370765781
 20
293.0429158150646
 30
0.0
 10
389.5596722118743
 20
292.7986068706615
 30
0.0
 10
390.5993880022442
 20
292.6740119134701
 30
0.0
 10
392.6787188945527
 20
292.4220812802919
 30
0.0
 10
393.7183342077905
 20
292.294740702568
 30
0.0
 10
395.7978571909696
 20
292.0410167584164
 30
0.0
 10
396.8377756393762
 20
291.9146300868414
 30
0.0
 10
397.8781845912005
 20
291.7913933749326
 30
0.0
  0
SPLINE
  5
1C1
330
1F
100
AcDbEntity
  8
1
100
AcDbSpline
210
0.0
220
0.0
230
1.0
 70
     8
 71
     3
 72
    42
 73
    38
 74
     0
 42
0.000000001
 43
0.0000000001
 40
0.0
 40
0.0
 40
0.0
 40
0.0
 40
0.0625000000000089
 40
0.0625000000000089
 40
0.1250000000000178
 40
0.1250000000000178
 40
0.2500000000000574
 40
0.2500000000000574
 40
0.3750000000000971
 40
0.3750000000000971
 40
0.406250000000103
 40
0.406250000000103
 40
0.4375000000001089
 40
0.4375000000001089
 40
0.5000000000001041
 40
0.5000000000001041
 40
0.5625000000000994
 40
0.5625000000000994
 40
0.6250000000000946
 40
0.6250000000000946
 40
0.6562500000000884
 40
0.6562500000000884
 40
0.6875000000000822
 40
0.6875000000000822
 40
0.7500000000000651
 40
0.7500000000000651
 40
0.7812500000000576
 40
0.7812500000000576
 40
0.81250000000005
 40
0.81250000000005
 40
0.8750000000000333
 40
0.8750000000000333
 40
0.906250000000025
 40
0.906250000000025
 40
0.9375000000000166
 40
0.9375000000000166
 40
1.0
 40
1.0
 40
1.0
 40
1.0
 10
397.688234954264
 20
294.2858096267418
 30
0.0
 10
397.717320679854
 20
294.3021027878569
 30
0.0
 10
397.7462014419416
 20
294.3188277374704
 30
0.0
 10
397.8032598475024
 20
294.3531215173366
 30
0.0
 10
397.831463581985
 20
294.3707041907867
 30
0.0
 10
397.9149578010826
 20
294.4249477895742
 30
0.0
 10
397.9691510415486
 20
294.4630778623438
 30
0.0
 10
398.0734919711545
 20
294.5447547707325
 30
0.0
 10
398.1236678268729
 20
294.5882638929072
 30
0.0
 10
398.182599158802
 20
294.6477228649431
 30
0.0
 10
398.1941983300923
 20
294.6598823046083
 30
0.0
 10
398.2167909156121
 20
294.6845957597706
 30
0.0
 10
398.2278051398503
 20
294.6971699062959
 30
0.0
 10
398.2599135256723
 20
294.7356124959571
 30
0.0
 10
398.2800810953254
 20
294.7621951578865
 30
0.0
 10
398.317320661038
 20
294.8177465556632
 30
0.0
 10
398.3344563501189
 20
294.8468867869836
 30
0.0
 10
398.3639872741784
 20
294.9065820705566
 30
0.0
 10
398.3764910991254
 20
294.9372605745056
 30
0.0
 10
398.3912538151495
 20
294.9847452547281
 30
0.0
 10
398.3955074808335
 20
295.0008186066435
 30
0.0
 10
398.4025544785832
 20
295.0335017961716
 30
0.0
 10
398.4053565387287
 20
295.0502144738974
 30
0.0
 10
398.4112600926701
 20
295.1002964357678
 30
0.0
 10
398.4119117784087
 20
295.1336189905582
 30
0.0
 10
398.4080520280368
 20
295.1835064609445
 30
0.0
 10
398.4059589948131
 20
295.2001195527269
 30
0.0
 10
398.4001721474448
 20
295.2333138476758
 30
0.0
 10
398.3964873516273
 20
295.2498057053876
 30
0.0
 10
398.3833799733611
 20
295.2983407834395
 30
0.0
 10
398.3718679529405
 20
295.3297200391919
 30
0.0
 10
398.3510943710473
 20
295.3755535829598
 30
0.0
 10
398.3435613118168
 20
295.3906639778461
 30
0.0
 10
398.3275338070528
 20
295.4202807382994
 30
0.0
 10
398.3190470178296
 20
295.434782119673
 30
0.0
 10
398.2923253719375
 20
295.4774676997121
 30
0.0
 10
398.2728358001085
 20
295.5048375936946
 30
0.0
 10
398.2519887091322
 20
295.5313264636535
 30
0.0
  0
SPLINE
  5
1C2
330
1F
100
AcDbEntity
  8
1
100
AcDbSpline
210
0.0
220
0.0
230
1.0
 70
    12
 71
     3
 72
     9
 73
     5
 74
     0
 42
0.000000001
 43
0.0000000001
 40
0.0
 40
0.0
 40
0.0
 40
0.0
 40
0.5088431774167674
 40
1.0
 40
1.0
 40
1.0
 40
1.0
 10
352.7120416330116
 20
296.3914843517401
 30
0.0
 41
1.001564785876158
 10
360.4366977631328
 20
296.4379760635072
 30
0.0
 41
1.001803722115182
 10
375.6340597383361
 20
295.8226201800692
 30
0.0
 41
1.001000609202546
 10
390.8016558044376
 20
295.5149022221092
 30
0.0
 41
1.0017486557343
 10
398.2519887091322
 20
295.5313264636535
 30
0.0
 41
1.001597870208484
  0
SPLINE
  5
1C3
330
1F
100
AcDbEntity
  8
1
100
AcDbSpline
210
0.0
220
0.0
230
1.0
 70
     8
 71
     3
 72
    36
 73
    32
 74
     0
 42
0.000000001
 43
0.0000000001
 40
0.0
 40
0.0
 40
0.0
 40
0.0
 40
0.0624999999999997
 40
0.0624999999999997
 40
0.1249999999999994
 40
0.1249999999999994
 40
0.1874999999999991
 40
0.1874999999999991
 40
0.2499999999999987
 40
0.2499999999999987
 40
0.3124999999999987
 40
0.3124999999999987
 40
0.3749999999999987
 40
0.4374999999999988
 40
0.4374999999999988
 40
0.4531249999999988
 40
0.4531249999999988
 40
0.4687499999999988
 40
0.499999999999999
 40
0.499999999999999
 40
0.6249999999999991
 40
0.6249999999999991
 40
0.7499999999999992
 40
0.7499999999999992
 40
0.8749999999999992
 40
0.8749999999999992
 40
0.9374999999999996
 40
0.9374999999999996
 40
0.9687499999999996
 40
0.9687499999999996
 40
1.0
 40
1.0
 40
1.0
 40
1.0
 10
293.0322589432653
 20
278.4583772298356
 30
0.0
 10
292.7570544293392
 20
278.450047206132
 30
0.0
 10
292.4845954870503
 20
278.4352545167263
 30
0.0
 10
291.9445881230673
 20
278.3941739228057
 30
0.0
 10
291.6770404630834
 20
278.3678842168964
 30
0.0
 10
291.146415170108
 20
278.3049226597965
 30
0.0
 10
290.8833381188464
 20
278.2682492533557
 30
0.0
 10
290.3613318561033
 20
278.1853705803101
 30
0.0
 10
290.1024031267696
 20
278.139163950122
 30
0.0
 10
289.588473933798
 20
278.0378499625039
 30
0.0
 10
289.3334738884334
 20
277.9827414283128
 30
0.0
 10
288.8272717057079
 20
277.8640737228451
 30
0.0
 10
288.3248678523421
 20
277.7369541966461
 30
0.0
 10
287.8299550249058
 20
277.5935339453752
 30
0.0
 10
287.522984266937
 20
277.4989150109544
 30
0.0
 10
287.4616873554505
 20
277.4797352366821
 30
0.0
 10
287.3395243865104
 20
277.4409413616555
 30
0.0
 10
287.1568690887074
 20
277.382081914253
 30
0.0
 10
286.9759728169166
 20
277.3212391613433
 30
0.0
 10
286.3768695632757
 20
277.1141095015364
 30
0.0
 10
285.9099762510973
 20
276.9346224754641
 30
0.0
 10
285.0010599940542
 20
276.5495504616246
 30
0.0
 10
284.5590472974451
 20
276.3439550867504
 30
0.0
 10
283.7008374963891
 20
275.9072424414707
 30
0.0
 10
283.284643016836
 20
275.6761223564725
 30
0.0
 10
282.6808945574388
 20
275.3102328011299
 30
0.0
 10
282.4830736989273
 20
275.1850630145173
 30
0.0
 10
282.1916773703853
 20
274.9924439599353
 30
0.0
 10
282.0955479019663
 20
274.9275006455505
 30
0.0
 10
281.9054532354948
 20
274.7962360254533
 30
0.0
 10
281.8114659866524
 20
274.7299001740511
 30
0.0
 10
281.7185504442911
 20
274.6628620825395
 30
0.0
  0
SPLINE
  5
1C4
330
1F
100
AcDbEntity
  8
1
100
AcDbSpline
210
0.0
220
0.0
230
1.0
 70
     8
 71
     3
 72
    57
 73
    53
 74
     0
 42
0.000000001
 43
0.0000000001
 40
0.0
 40
0.0
 40
0.0
 40
0.0
 40
0.0625000000000016
 40
0.0625000000000016
 40
0.1250000000000031
 40
0.1250000000000031
 40
0.1875000000000047
 40
0.1875000000000047
 40
0.2031250000000052
 40
0.2031250000000052
 40
0.2187500000000058
 40
0.2500000000000071
 40
0.2500000000000071
 40
0.3125000000000104
 40
0.3125000000000104
 40
0.3750000000000138
 40
0.3750000000000138
 40
0.3906250000000142
 40
0.3984375000000145
 40
0.3984375000000145
 40
0.4062500000000148
 40
0.4062500000000148
 40
0.4375000000000153
 40
0.4375000000000153
 40
0.5000000000000157
 40
0.5000000000000157
 40
0.562500000000016
 40
0.562500000000016
 40
0.5781250000000161
 40
0.5781250000000161
 40
0.5859375000000157
 40
0.5859375000000157
 40
0.5937500000000153
 40
0.6250000000000146
 40
0.6250000000000146
 40
0.6875000000000127
 40
0.6875000000000127
 40
0.7187500000000116
 40
0.7187500000000116
 40
0.7343750000000111
 40
0.7343750000000111
 40
0.7500000000000106
 40
0.7500000000000106
 40
0.8125000000000078
 40
0.8125000000000078
 40
0.8750000000000051
 40
0.8750000000000051
 40
0.9062500000000037
 40
0.9062500000000037
 40
0.9375000000000024
 40
0.9375000000000024
 40
1.0
 40
1.0
 40
1.0
 40
1.0
 10
279.4048419452957
 20
278.862525258104
 30
0.0
 10
279.2396649910714
 20
278.7495820412067
 30
0.0
 10
279.0822564420208
 20
278.6320502200358
 30
0.0
 10
278.7829510936906
 20
278.3884396247279
 30
0.0
 10
278.6410529201372
 20
278.2623603926758
 30
0.0
 10
278.3732595095347
 20
278.0019932198066
 30
0.0
 10
278.2473594842057
 20
277.867706499654
 30
0.0
 10
278.1006697142665
 20
277.6947424766917
 30
0.0
 10
278.0718272833299
 20
277.6598428676219
 30
0.0
 10
278.0154413830195
 20
277.5897819145766
 30
0.0
 10
277.9329139699007
 20
277.4844340948303
 30
0.0
 10
277.8565127634465
 20
277.3783639115795
 30
0.0
 10
277.7118686208066
 20
277.1653681984575
 30
0.0
 10
277.6262928166028
 20
277.0222357240598
 30
0.0
 10
277.4773593631735
 20
276.7341424171169
 30
0.0
 10
277.4139961968424
 20
276.5891815076293
 30
0.0
 10
277.3495164870441
 20
276.4070112359224
 30
0.0
 10
277.3312803798783
 20
276.3522868603431
 30
0.0
 10
277.3147409423589
 20
276.2974555458497
 30
0.0
 10
277.3040961047207
 20
276.2608778219075
 30
0.0
 10
277.298965454418
 20
276.2425791352173
 30
0.0
 10
277.2743696639679
 20
276.1513903020709
 30
0.0
 10
277.2579882686497
 20
276.0791239580294
 30
0.0
 10
277.2185571686503
 20
275.8643845135198
 30
0.0
 10
277.2051928755121
 20
275.723970642014
 30
0.0
 10
277.204086384658
 20
275.4486705824938
 30
0.0
 10
277.2163431671976
 20
275.3137843052864
 30
0.0
 10
277.2481019578621
 20
275.1486615360548
 30
0.0
 10
277.255277896389
 20
275.1158112698479
 30
0.0
 10
277.2672931457685
 20
275.0667979758161
 30
0.0
 10
277.2715090641368
 20
275.0504971546934
 30
0.0
 10
277.2803273049406
 20
275.0181006282044
 30
0.0
 10
277.3033558381748
 20
274.9375513818477
 30
0.0
 10
277.3312476019613
 20
274.8591832427293
 30
0.0
 10
277.4072439225758
 20
274.6750978293141
 30
0.0
 10
277.4699573052406
 20
274.5576980681187
 30
0.0
 10
277.5814910069198
 20
274.3889758740074
 30
0.0
 10
277.6215861684987
 20
274.3339665910637
 30
0.0
 10
277.6860851866826
 20
274.2532386045361
 30
0.0
 10
277.7083112823005
 20
274.2266270240402
 30
0.0
 10
277.7542175396837
 20
274.1739901982843
 30
0.0
 10
277.7779228749288
 20
274.1479386134001
 30
0.0
 10
277.8998085200604
 20
274.0194255165817
 30
0.0
 10
278.0071623422511
 20
273.9230578283251
 30
0.0
 10
278.240184587957
 20
273.7415872670912
 30
0.0
 10
278.3658590749845
 20
273.6564895181783
 30
0.0
 10
278.5676029545694
 20
273.536394247726
 30
0.0
 10
278.6370610876062
 20
273.4976237931363
 30
0.0
 10
278.7803665787363
 20
273.4224836913579
 30
0.0
 10
278.8543077666013
 20
273.3860767289106
 30
0.0
 10
279.081194158813
 20
273.2809691459191
 30
0.0
 10
279.2395763270351
 20
273.2161446574931
 30
0.0
 10
279.4048419453021
 20
273.1559568432074
 30
0.0
  0
SPLINE
  5
1C5
330
1F
100
AcDbEntity
  8
1
100
AcDbSpline
210
0.0
220
0.0
230
1.0
 70
     9
 71
     3
 72
   121
 73
   117
 74
     0
 42
0.000000001
 43
0.0000000001
 40
0.0
 40
0.0
 40
0.0
 40
0.0
 40
0.0312500000000444
 40
0.0312500000000444
 40
0.0468750000000666
 40
0.0468750000000666
 40
0.0546875000000717
 40
0.0546875000000717
 40
0.0625000000000768
 40
0.0625000000000768
 40
0.0937500000001201
 40
0.0937500000001201
 40
0.1015625000001232
 40
0.1015625000001232
 40
0.1093750000001263
 40
0.1093750000001263
 40
0.1250000000001421
 40
0.1250000000001421
 40
0.1562500000001734
 40
0.1562500000001734
 40
0.1875000000002048
 40
0.1875000000002048
 40
0.2031250000002207
 40
0.2031250000002207
 40
0.2109375000002269
 40
0.2109375000002269
 40
0.2187500000002331
 40
0.2187500000002331
 40
0.2500000000002576
 40
0.2500000000002576
 40
0.2578125000002638
 40
0.2578125000002638
 40
0.2656250000002701
 40
0.2656250000002701
 40
0.281250000000284
 40
0.281250000000284
 40
0.3125000000003143
 40
0.3125000000003143
 40
0.3281250000003321
 40
0.3281250000003321
 40
0.3437500000003498
 40
0.3437500000003498
 40
0.3750000000003778
 40
0.3750000000003778
 40
0.3828125000003827
 40
0.3828125000003827
 40
0.3906250000003876
 40
0.4062500000003877
 40
0.4218750000003878
 40
0.4218750000003878
 40
0.429687500000388
 40
0.429687500000388
 40
0.437500000000388
 40
0.437500000000388
 40
0.4687500000003883
 40
0.4687500000003883
 40
0.4843750000003884
 40
0.4843750000003884
 40
0.4921875000003884
 40
0.4921875000003884
 40
0.5000000000003885
 40
0.5000000000003885
 40
0.5312500000003633
 40
0.5312500000003633
 40
0.5390625000003601
 40
0.5390625000003601
 40
0.5468750000003569
 40
0.5625000000003503
 40
0.5781250000003438
 40
0.5781250000003438
 40
0.5937500000003372
 40
0.5937500000003372
 40
0.6250000000003241
 40
0.6250000000003241
 40
0.6328125000003208
 40
0.6328125000003208
 40
0.6406250000003173
 40
0.6406250000003173
 40
0.6562500000003105
 40
0.6562500000003105
 40
0.6875000000002968
 40
0.6875000000002968
 40
0.6953125000002909
 40
0.6953125000002909
 40
0.7031250000002851
 40
0.71875000000027
 40
0.7343750000002549
 40
0.7343750000002549
 40
0.7421875000002473
 40
0.7421875000002473
 40
0.7500000000002398
 40
0.7500000000002398
 40
0.7812500000002093
 40
0.7812500000002093
 40
0.7968750000001941
 40
0.7968750000001941
 40
0.8125000000001788
 40
0.8125000000001788
 40
0.8437500000001433
 40
0.8437500000001433
 40
0.8593750000001254
 40
0.8593750000001254
 40
0.8750000000001076
 40
0.8750000000001076
 40
0.9062500000000808
 40
0.9062500000000808
 40
0.9218750000000673
 40
0.9218750000000673
 40
0.937500000000054
 40
0.9531250000000405
 40
0.9531250000000405
 40
0.9609375000000337
 40
0.9609375000000337
 40
0.968750000000027
 40
0.968750000000027
 40
1.0
 40
1.0
 40
1.0
 40
1.0
 10
405.2962249652843
 20
287.2069886193043
 30
0.0
 10
405.365207050807
 20
287.2057845325226
 30
0.0
 10
405.4328742000129
 20
287.1977074915396
 30
0.0
 10
405.5324838534225
 20
287.1757191725458
 30
0.0
 10
405.5653694284208
 20
287.1667315864757
 30
0.0
 10
405.6142094708363
 20
287.1507043627805
 30
0.0
 10
405.6304541731046
 20
287.1449181937738
 30
0.0
 10
405.6625008273641
 20
287.1325853392383
 30
0.0
 10
405.6783028856377
 20
287.1260421646082
 30
0.0
 10
405.7562288811181
 20
287.0914820851104
 30
0.0
 10
405.8151315260216
 20
287.0579856539669
 30
0.0
 10
405.8844858814399
 20
287.0088831824808
 30
0.0
 10
405.8981410917628
 20
286.9986977965605
 30
0.0
 10
405.9250127616933
 20
286.9775857658165
 30
0.0
 10
405.9382286302756
 20
286.9666554251253
 30
0.0
 10
405.9767721182748
 20
286.9331256031313
 30
0.0
 10
406.0011538999855
 20
286.9096711642367
 30
0.0
 10
406.0704755312501
 20
286.8361176860219
 30
0.0
 10
406.1116272272813
 20
286.7828580567551
 30
0.0
 10
406.1835501286497
 20
286.6677558780013
 30
0.0
 10
406.2131704217414
 20
286.6077455062052
 30
0.0
 10
406.2485496861585
 20
286.5144358290411
 30
0.0
 10
406.2588277739437
 20
286.4827716157742
 30
0.0
 10
406.2719441664052
 20
286.4344284896056
 30
0.0
 10
406.275939788533
 20
286.4181369585385
 30
0.0
 10
406.283113141932
 20
286.3854389732266
 30
0.0
 10
406.2862830540836
 20
286.3690777229118
 30
0.0
 10
406.3000979124155
 20
286.2872132501292
 30
0.0
 10
406.3046946227925
 20
286.2215383750975
 30
0.0
 10
406.3025699735068
 20
286.1392329019109
 30
0.0
 10
406.3017480696607
 20
286.1227610281645
 30
0.0
 10
406.2993013717376
 20
286.0897954108357
 30
0.0
 10
406.2976712441568
 20
286.0732615323561
 30
0.0
 10
406.2915953632328
 20
286.0239407393726
 30
0.0
 10
406.2859877290421
 20
285.9915242898305
 30
0.0
 10
406.2646506750651
 20
285.8956146507825
 30
0.0
 10
406.2444493549898
 20
285.8334499174269
 30
0.0
 10
406.2050214585086
 20
285.7428681402843
 30
0.0
 10
406.1902837887248
 20
285.7130382567113
 30
0.0
 10
406.1582953691178
 20
285.6554748663955
 30
0.0
 10
406.1409924303588
 20
285.6275965206571
 30
0.0
 10
406.085201793684
 20
285.5466208398537
 30
0.0
 10
406.0428737050671
 20
285.4961556211587
 30
0.0
 10
405.9831049403115
 20
285.4376948072038
 30
0.0
 10
405.9708347071078
 20
285.426268253823
 30
0.0
 10
405.9458674950437
 20
285.4041300023057
 30
0.0
 10
405.9076877736115
 20
285.3719124868508
 30
0.0
 10
405.8404520306299
 20
285.3230928229083
 30
0.0
 10
405.7827947787463
 20
285.2892396756114
 30
0.0
 10
405.7380467932171
 20
285.265861791181
 30
0.0
 10
405.7228794852146
 20
285.2584051295602
 30
0.0
 10
405.6920269609951
 20
285.2441822930854
 30
0.0
 10
405.6763211471047
 20
285.2374108726632
 30
0.0
 10
405.5974456517231
 20
285.2057130181009
 30
0.0
 10
405.5325246051188
 20
285.1868447422602
 30
0.0
 10
405.4324097509028
 20
285.1682223711663
 30
0.0
 10
405.3985794201473
 20
285.1636399080883
 30
0.0
 10
405.3471146926912
 20
285.159309994543
 30
0.0
 10
405.3298831700943
 20
285.1582980578529
 30
0.0
 10
405.2956039984791
 20
285.1571467212281
 30
0.0
 10
405.2785077833097
 20
285.1570028523414
 30
0.0
 10
405.1932400479733
 20
285.1584074242961
 30
0.0
 10
405.1257024682005
 20
285.1662645741908
 30
0.0
 10
405.0421321650945
 20
285.1845850011068
 30
0.0
 10
405.0254121835632
 20
285.1886923817377
 30
0.0
 10
404.992372650948
 20
285.1976933175482
 30
0.0
 10
404.9433874287155
 20
285.2123751877389
 30
0.0
 10
404.8645288462701
 20
285.2425781318012
 30
0.0
 10
404.8043264649821
 20
285.2727068472263
 30
0.0
 10
404.7455667361303
 20
285.3058347481562
 30
0.0
 10
404.7168157921395
 20
285.3239810807547
 30
0.0
 10
404.6344601793146
 20
285.3818017381337
 30
0.0
 10
404.58415923538
 20
285.4250832303502
 30
0.0
 10
404.5267993015306
 20
285.4849416446193
 30
0.0
 10
404.5156057692407
 20
285.4972038849044
 30
0.0
 10
404.4937801723033
 20
285.5223163366618
 30
0.0
 10
404.4831295629032
 20
285.5351926179129
 30
0.0
 10
404.4523226937815
 20
285.5743376488381
 30
0.0
 10
404.4332190532379
 20
285.6012146806556
 30
0.0
 10
404.3800544990232
 20
285.684122552005
 30
0.0
 10
404.3501006706704
 20
285.7424091677117
 30
0.0
 10
404.3196219809831
 20
285.8191506804203
 30
0.0
 10
404.313871836447
 20
285.8347176577082
 30
0.0
 10
404.3031897339719
 20
285.8659361937274
 30
0.0
 10
404.2883523228431
 20
285.9129965863469
 30
0.0
 10
404.2694301015272
 20
285.9925769189187
 30
0.0
 10
404.2604166264816
 20
286.0574606283355
 30
0.0
 10
404.2559923940299
 20
286.106590687696
 30
0.0
 10
404.2549076389133
 20
286.1230453703749
 30
0.0
 10
404.2535332195578
 20
286.1561138787661
 30
0.0
 10
404.253244487301
 20
286.1727727004065
 30
0.0
 10
404.2538311233007
 20
286.2558299796767
 30
0.0
 10
404.2606962322513
 20
286.3214200177087
 30
0.0
 10
404.2804185266905
 20
286.418526144337
 30
0.0
 10
404.2885741115287
 20
286.4506800044781
 30
0.0
 10
404.3081531228987
 20
286.514537546488
 30
0.0
 10
404.3196436275013
 20
286.5463643993419
 30
0.0
 10
404.3583904885578
 20
286.639107346286
 30
0.0
 10
404.3900094723051
 20
286.6979016695264
 30
0.0
 10
404.4461396021758
 20
286.7814776206189
 30
0.0
 10
404.4663095309092
 20
286.8085618346386
 30
0.0
 10
404.5096991249888
 20
286.861101835882
 30
0.0
 10
404.5325976744501
 20
286.8861617048134
 30
0.0
 10
404.6045488322485
 20
286.9575150917922
 30
0.0
 10
404.6569333862724
 20
287.0001492732223
 30
0.0
 10
404.742291318317
 20
287.056468939051
 30
0.0
 10
404.7720132750078
 20
287.0740117946393
 30
0.0
 10
404.8324618110246
 20
287.1057170112093
 30
0.0
 10
404.8941742162971
 20
287.1342450914678
 30
0.0
 10
404.9583688153178
 20
287.1565204519324
 30
0.0
 10
405.0074564579298
 20
287.1708508001103
 30
0.0
 10
405.0239762428631
 20
287.1752308363793
 30
0.0
 10
405.0573357472403
 20
287.1831830937177
 30
0.0
 10
405.074216143978
 20
287.1867623020235
 30
0.0
 10
405.1588611977268
 20
287.2024850602667
 30
0.0
 10
405.2272428797619
 20
287.208192706086
 30
0.0
 10
405.2962249652843
 20
287.2069886193043
 30
0.0
  0
SPLINE
  5
1C6
330
1F
100
AcDbEntity
  8
1
100
AcDbSpline
210
0.0
220
0.0
230
1.0
 70
    12
 71
     2
 72
     6
 73
     3
 74
     0
 42
0.000000001
 43
0.0000000001
 40
0.0
 40
0.0
 40
0.0
 40
1.0
 40
1.0
 40
1.0
 10
402.3608973847153
 20
299.3396256947406
 30
0.0
 41
0.4999984185804247
 10
402.4731220148892
 20
299.3394022652779
 30
0.0
 41
0.5000015814195753
 10
402.5853439265825
 20
299.3391781080389
 30
0.0
 41
0.4999984185804247
  0
SPLINE
  5
1C8
330
1F
100
AcDbEntity
  8
1
100
AcDbSpline
210
0.0
220
0.0
230
1.0
 70
     8
 71
     3
 72
    18
 73
    14
 74
     0
 42
0.000000001
 43
0.0000000001
 40
0.0
 40
0.0
 40
0.0
 40
0.0
 40
0.1249999999998912
 40
0.1249999999998912
 40
0.2499999999997824
 40
0.2499999999997824
 40
0.3749999999996736
 40
0.3749999999996736
 40
0.4999999999995648
 40
0.4999999999995648
 40
0.7499999999997824
 40
0.7499999999997824
 40
1.0
 40
1.0
 40
1.0
 40
1.0
 10
405.8829550518271
 20
295.4235886834095
 30
0.0
 10
405.8780393579151
 20
295.4244297299141
 30
0.0
 10
405.873280534828
 20
295.4256973781467
 30
0.0
 10
405.8640609046496
 20
295.4290414450823
 30
0.0
 10
405.8595588995178
 20
295.431145090286
 30
0.0
 10
405.8511125141815
 20
295.4360374556488
 30
0.0
 10
405.8471631152024
 20
295.4388160490963
 30
0.0
 10
405.8397872990104
 20
295.44500626256
 30
0.0
 10
405.8363326007727
 20
295.4484539705815
 30
0.0
 10
405.8270102468363
 20
295.4595039375067
 30
0.0
 10
405.8221729401208
 20
295.4677459312928
 30
0.0
 10
405.8153267652114
 20
295.4856196610233
 30
0.0
 10
405.8134443858703
 20
295.4948711725625
 30
0.0
 10
405.8130855281214
 20
295.5044315515136
 30
0.0
  0
SPLINE
  5
1C9
330
1F
100
AcDbEntity
  8
1
100
AcDbSpline
210
0.0
220
0.0
230
1.0
 70
     8
 71
     3
 72
    19
 73
    15
 74
     0
 42
0.000000001
 43
0.0000000001
 40
0.0
 40
0.0
 40
0.0
 40
0.0
 40
0.25
 40
0.25
 40
0.375
 40
0.375
 40
0.5
 40
0.625
 40
0.625
 40
0.6875
 40
0.6875
 40
0.75
 40
0.75
 40
1.0
 40
1.0
 40
1.0
 40
1.0
 10
405.2489249083533
 20
295.5639712058474
 30
0.0
 10
405.2160937981598
 20
295.5729261334771
 30
0.0
 10
405.1848146266626
 20
295.585604684723
 30
0.0
 10
405.1402157716822
 20
295.6101743903574
 30
0.0
 10
405.1257286376467
 20
295.6193258347889
 30
0.0
 10
405.0982577051287
 20
295.6390546965431
 30
0.0
 10
405.0720970828717
 20
295.6603047147942
 30
0.0
 10
405.0485275493093
 20
295.6845626046791
 30
0.0
 10
405.0318519536219
 20
295.7039187402781
 30
0.0
 10
405.0264580106168
 20
295.7105720905557
 30
0.0
 10
405.016151655026
 20
295.7240876291903
 30
0.0
 10
405.0112197589726
 20
295.7309713169534
 30
0.0
 10
404.987645049755
 20
295.7660069556359
 30
0.0
 10
404.9722120841432
 20
295.7959853068055
 30
0.0
 10
404.9602913441066
 20
295.82796034208
 30
0.0
  0
SPLINE
  5
1CA
330
1F
100
AcDbEntity
  8
1
100
AcDbSpline
210
0.0
220
0.0
230
1.0
 70
     8
 71
     3
 72
    14
 73
    10
 74
     0
 42
0.000000001
 43
0.0000000001
 40
0.0
 40
0.0
 40
0.0
 40
0.0
 40
0.25
 40
0.25
 40
0.5
 40
0.5
 40
0.75
 40
0.75
 40
1.0
 40
1.0
 40
1.0
 40
1.0
 10
405.7827783988313
 20
295.5668626889864
 30
0.0
 10
405.7874518359977
 20
295.5629360178024
 30
0.0
 10
405.7916693781766
 20
295.5585106907644
 30
0.0
 10
405.7989607502321
 20
295.5490495346775
 30
0.0
 10
405.8020614226116
 20
295.5440039131892
 30
0.0
 10
405.8072047936241
 20
295.5332975748636
 30
0.0
 10
405.8092258523923
 20
295.5276410629795
 30
0.0
 10
405.8120380657032
 20
295.5162149634651
 30
0.0
 10
405.8128620905601
 20
295.5103841825096
 30
0.0
 10
405.8130855281214
 20
295.5044315515136
 30
0.0
  0
SPLINE
  5
1CB
330
1F
100
AcDbEntity
  8
1
100
AcDbSpline
210
0.0
220
0.0
230
1.0
 70
     8
 71
     3
 72
    12
 73
     8
 74
     0
 42
0.000000001
 43
0.0000000001
 40
0.0
 40
0.0
 40
0.0
 40
0.0
 40
0.4950504394599389
 40
0.4950504394599389
 40
0.9901008789198776
 40
0.9901008789198776
 40
1.0
 40
1.0
 40
1.0
 40
1.0
 10
404.9602913441066
 20
295.82796034208
 30
0.0
 10
404.9585420522858
 20
295.8326524725607
 30
0.0
 10
404.9572365365049
 20
295.8374273594067
 30
0.0
 10
404.9554671653392
 20
295.8471336854037
 30
0.0
 10
404.9550059903575
 20
295.8521147369542
 30
0.0
 10
404.9549772003393
 20
295.8571269755946
 30
0.0
 10
404.954976804548
 20
295.857225209845
 30
0.0
 10
404.9549765772123
 20
295.8573234175473
 30
0.0
  0
SPLINE
  5
1CC
330
1F
100
AcDbEntity
  8
1
100
AcDbSpline
210
0.0
220
0.0
230
1.0
 70
     8
 71
     3
 72
     8
 73
     4
 74
     0
 42
0.000000001
 43
0.0000000001
 40
0.0
 40
0.0
 40
0.0
 40
0.0
 40
1.0
 40
1.0
 40
1.0
 40
1.0
 10
405.0325079175651
 20
295.9882853514515
 30
0.0
 10
405.0316886011148
 20
295.9833944815541
 30
0.0
 10
405.0304432307103
 20
295.9785933343294
 30
0.0
 10
405.0288281261414
 20
295.9739872829505
 30
0.0
  0
SPLINE
  5
1CD
330
1F
100
AcDbEntity
  8
1
100
AcDbSpline
210
0.0
220
0.0
230
1.0
 70
     8
 71
     3
 72
    20
 73
    16
 74
     0
 42
0.000000001
 43
0.0000000001
 40
0.0
 40
0.0
 40
0.0
 40
0.0
 40
0.124999999999869
 40
0.124999999999869
 40
0.249999999999738
 40
0.3124999999997274
 40
0.3124999999997274
 40
0.374999999999717
 40
0.374999999999717
 40
0.4999999999997736
 40
0.6249999999998303
 40
0.6249999999998303
 40
0.7499999999998868
 40
0.7499999999998868
 40
1.0
 40
1.0
 40
1.0
 40
1.0
 10
404.9145561369797
 20
296.3609534440328
 30
0.0
 10
404.9263771754606
 20
296.3491820453291
 30
0.0
 10
404.9375348205677
 20
296.3366597918843
 30
0.0
 10
404.9582060782316
 20
296.3104619312691
 30
0.0
 10
404.9725442702151
 20
296.2898861328923
 30
0.0
 10
404.9851011491391
 20
296.2678732783508
 30
0.0
 10
404.993064268573
 20
296.2528670998865
 30
0.0
 10
404.9968551148583
 20
296.2451684415533
 30
0.0
 10
405.0074674298444
 20
296.2218420372683
 30
0.0
 10
405.0196297266265
 20
296.190104279409
 30
0.0
 10
405.0279247193755
 20
296.1571277946882
 30
0.0
 10
405.0342582161436
 20
296.1235237402402
 30
0.0
 10
405.0364324984549
 20
296.1063479521907
 30
0.0
 10
405.0398345916528
 20
296.0554050544462
 30
0.0
 10
405.0381098909559
 20
296.021726060487
 30
0.0
 10
405.0325079175651
 20
295.9882853514515
 30
0.0
  0
SPLINE
  5
1CE
330
1F
100
AcDbEntity
  8
1
100
AcDbSpline
210
0.0
220
0.0
230
1.0
 70
     8
 71
     3
 72
    20
 73
    16
 74
     0
 42
0.000000001
 43
0.0000000001
 40
0.0
 40
0.0
 40
0.0
 40
0.0
 40
0.2499999999995228
 40
0.2499999999995228
 40
0.3749999999996024
 40
0.3749999999996024
 40
0.499999999999682
 40
0.499999999999682
 40
0.6249999999997615
 40
0.6249999999997615
 40
0.7499999999998411
 40
0.7499999999998411
 40
0.8749999999999204
 40
0.8749999999999204
 40
1.0
 40
1.0
 40
1.0
 40
1.0
 10
404.8503276188441
 20
296.3849862075004
 30
0.0
 10
404.8408678696559
 20
296.3844063226119
 30
0.0
 10
404.8315986194737
 20
296.3853734753591
 30
0.0
 10
404.8179838031651
 20
296.3891415198799
 30
0.0
 10
404.8135104159027
 20
296.3907965302322
 30
0.0
 10
404.8049904989406
 20
296.3948007622506
 30
0.0
 10
404.8009023600711
 20
296.3971596365793
 30
0.0
 10
404.7930871653555
 20
296.4026233132813
 30
0.0
 10
404.7893876972205
 20
296.4057187851022
 30
0.0
 10
404.7826268684356
 20
296.4124605657012
 30
0.0
 10
404.7795317259453
 20
296.4161287107443
 30
0.0
 10
404.7739471033776
 20
296.4240938477916
 30
0.0
 10
404.7715076853617
 20
296.4283293280805
 30
0.0
 10
404.7674244318098
 20
296.4371388850242
 30
0.0
 10
404.7657630751152
 20
296.4417368453506
 30
0.0
 10
404.7645069445833
 20
296.4465402258717
 30
0.0
  0
SPLINE
  5
1CF
330
1F
100
AcDbEntity
  8
1
100
AcDbSpline
210
0.0
220
0.0
230
1.0
 70
     8
 71
     3
 72
    13
 73
     9
 74
     0
 42
0.000000001
 43
0.0000000001
 40
0.0
 40
0.0
 40
0.0
 40
0.0
 40
0.4968174147988065
 40
0.4968174147988065
 40
0.7452261221982163
 40
0.7452261221982163
 40
0.9936348295976259
 40
1.0
 40
1.0
 40
1.0
 40
1.0
 10
404.7645069445833
 20
296.4465402258717
 30
0.0
 10
404.7559455173117
 20
296.4792786968715
 30
0.0
 10
404.7513598206069
 20
296.5125681876369
 30
0.0
 10
404.7504147783731
 20
296.5633158740321
 30
0.0
 10
404.7511161525976
 20
296.5803918597652
 30
0.0
 10
404.7544929639041
 20
296.6139726993398
 30
0.0
 10
404.7572298756936
 20
296.631010252614
 30
0.0
 10
404.7609863278888
 20
296.6478620372705
 30
0.0
 10
404.7610808144908
 20
296.6482829395902
 30
0.0
  0
SPLINE
  5
1D0
330
1F
100
AcDbEntity
  8
1
100
AcDbSpline
210
0.0
220
0.0
230
1.0
 70
     8
 71
     3
 72
     8
 73
     4
 74
     0
 42
0.000000001
 43
0.0000000001
 40
0.0
 40
0.0
 40
0.0
 40
0.0
 40
1.0
 40
1.0
 40
1.0
 40
1.0
 10
405.2861915130708
 20
297.1358266045713
 30
0.0
 10
405.2836943486899
 20
297.1268190360996
 30
0.0
 10
405.2808874717935
 20
297.1178703458575
 30
0.0
 10
405.2777843532222
 20
297.1090202595034
 30
0.0
  0
SPLINE
  5
1D1
330
1F
100
AcDbEntity
  8
1
100
AcDbSpline
210
0.0
220
0.0
230
1.0
 70
     8
 71
     3
 72
    14
 73
    10
 74
     0
 42
0.000000001
 43
0.0000000001
 40
0.0
 40
0.0
 40
0.0
 40
0.0
 40
0.25
 40
0.25
 40
0.5
 40
0.5
 40
0.75
 40
0.75
 40
1.0
 40
1.0
 40
1.0
 40
1.0
 10
405.2756411306021
 20
297.2024845821504
 30
0.0
 10
405.2788293815996
 20
297.1976561738872
 30
0.0
 10
405.2814992637778
 20
297.1924981403178
 30
0.0
 10
405.2856791330541
 20
297.181790802984
 30
0.0
 10
405.2871892961039
 20
297.1762696849183
 30
0.0
 10
405.289033938378
 20
297.1648850458917
 30
0.0
 10
405.2893522702746
 20
297.1589993142063
 30
0.0
 10
405.288722717329
 20
297.147388284817
 30
0.0
 10
405.2877919419216
 20
297.1415995414958
 30
0.0
 10
405.2861915130705
 20
297.1358266045708
 30
0.0
  0
SPLINE
  5
1D2
330
1F
100
AcDbEntity
  8
1
100
AcDbSpline
210
0.0
220
0.0
230
1.0
 70
     8
 71
     3
 72
    12
 73
     8
 74
     0
 42
0.000000001
 43
0.0000000001
 40
0.0
 40
0.0
 40
0.0
 40
0.0
 40
0.5649716632246032
 40
0.5649716632246032
 40
0.8474574948369035
 40
0.8474574948369035
 40
1.0
 40
1.0
 40
1.0
 40
1.0
 10
405.2756411306021
 20
297.2024845821504
 30
0.0
 10
405.2705182850616
 20
297.2102428137824
 30
0.0
 10
405.2668292843974
 20
297.2186123128986
 30
0.0
 10
405.2634454203356
 20
297.2320784024699
 30
0.0
 10
405.2626951286445
 20
297.2367103277144
 30
0.0
 10
405.2621633097922
 20
297.2438314353574
 30
0.0
 10
405.2620914531743
 20
297.2463378354642
 30
0.0
 10
405.2621371353785
 20
297.2488537131894
 30
0.0
  0
LINE
  5
1EE
330
1F
100
AcDbEntity
  8
SK4
100
AcDbLine
 10
214.904842
 20
288.907994
 30
0.0
 11
277.404842
 21
288.907994
 31
0.0
  0
LINE
  5
1EF
330
1F
100
AcDbEntity
  8
4
100
AcDbLine
 10
270.032259
 20
288.907994
 30
0.0
 11
413.9147389999999
 21
288.907994
 31
0.0
  0
MTEXT
  5
1F0
330
1F
100
AcDbEntity
  8
SK6
100
AcDbMText
 10
299.563793
 20
249.353545
 30
0.0
 40
3.5
 41
0.0
 71
     7
 72
     5
  1
\W0.7240;805D-22-110-S25
  7
cesky
 73
     2
 44
0.8433729999999998
  0
MTEXT
  5
306
330
1F
100
AcDbEntity
  8
2
100
AcDbMText
 10
310.827842
 20
343.029854
 30
0.0
 40
3.5
 41
0.0
 71
     7
 72
     5
  1
\W0.9524;191
  7
cesky
 73
     2
 44
0.8433729999999998
  0
LINE
  5
307
330
1F
100
AcDbEntity
  8
2
100
AcDbLine
 10
409.404842
 20
301.907994
 30
0.0
 11
409.404842
 21
344.155687
 31
0.0
  0
LINE
  5
308
330
1F
100
AcDbEntity
  8
2
100
AcDbLine
 10
218.404842
 20
299.407994
 30
0.0
 11
218.404842
 21
344.155687
 31
0.0
  0
LINE
  5
309
330
1F
100
AcDbEntity
  8
2
100
AcDbLine
 10
409.404842
 20
343.155687
 30
0.0
 11
218.404842
 21
343.155687
 31
0.0
  0
SOLID
  5
30A
330
1F
100
AcDbEntity
  8
2
100
AcDbTrace
 10
409.404842
 20
343.155687
 30
0.0
 11
405.9048439999999
 21
342.538543
 31
0.0
 12
405.90484
 22
343.772832
 32
0.0
 13
405.90484
 23
343.772832
 33
0.0
  0
SOLID
  5
30B
330
1F
100
AcDbEntity
  8
2
100
AcDbTrace
 10
218.404842
 20
343.155687
 30
0.0
 11
221.90484
 21
343.772832
 31
0.0
 12
221.904844
 22
342.538543
 32
0.0
 13
221.904844
 23
342.538543
 33
0.0
  0
MTEXT
  5
30C
330
1F
100
AcDbEntity
  8
2
100
AcDbMText
 10
244.590342
 20
329.044517
 30
0.0
 40
3.5
 41
0.0
 71
     7
 72
     5
  1
\W0.7259;56
  7
cesky
 73
     2
 44
0.8433729999999998
  0
LINE
  5
30D
330
1F
100
AcDbEntity
  8
2
100
AcDbLine
 10
274.404842
 20
288.907994
 30
0.0
 11
274.404842
 21
330.17035
 31
0.0
  0
LINE
  5
30E
330
1F
100
AcDbEntity
  8
2
100
AcDbLine
 10
218.404842
 20
299.407994
 30
0.0
 11
218.404842
 21
330.17035
 31
0.0
  0
LINE
  5
30F
330
1F
100
AcDbEntity
  8
2
100
AcDbLine
 10
274.404842
 20
329.17035
 30
0.0
 11
218.404842
 21
329.17035
 31
0.0
  0
SOLID
  5
310
330
1F
100
AcDbEntity
  8
2
100
AcDbTrace
 10
274.404842
 20
329.17035
 30
0.0
 11
270.904844
 21
328.553206
 31
0.0
 12
270.90484
 22
329.7874950000001
 32
0.0
 13
270.90484
 23
329.7874950000001
 33
0.0
  0
SOLID
  5
311
330
1F
100
AcDbEntity
  8
2
100
AcDbTrace
 10
218.404842
 20
329.17035
 30
0.0
 11
221.90484
 21
329.7874950000001
 31
0.0
 12
221.904844
 22
328.553206
 32
0.0
 13
221.904844
 23
328.553206
 33
0.0
  0
MTEXT
  5
312
330
1F
100
AcDbEntity
  8
2
100
AcDbMText
 10
426.516711
 20
285.4802049999999
 30
0.0
 40
3.5
 41
0.0
 71
     7
 72
     5
  1
\W0.7045;22
  7
cesky
 11
0.0000000000000001
 21
1.0
 31
0.0
 73
     2
 44
0.8433729999999998
  0
MTEXT
  5
313
330
1F
100
AcDbEntity
  8
2
100
AcDbMText
 10
426.516711
 20
278.742705
 30
0.0
 40
3.5
 41
0.0
 71
     7
 72
     5
  1
\W3.0115;\H2.63;%%c\H3.50;
  7
cesky
 11
0.0000000000000001
 21
1.0
 31
0.0
 73
     2
 44
0.8433729999999998
  0
LINE
  5
314
330
1F
100
AcDbEntity
  8
2
100
AcDbLine
 10
411.4048419999999
 20
299.907994
 30
0.0
 11
427.704128
 21
299.907994
 31
0.0
  0
LINE
  5
315
330
1F
100
AcDbEntity
  8
2
100
AcDbLine
 10
426.7041279999999
 20
299.907994
 30
0.0
 11
426.7041279999999
 21
278.585205
 31
0.0
  0
SOLID
  5
316
330
1F
100
AcDbEntity
  8
2
100
AcDbTrace
 10
426.7041279999999
 20
299.907994
 30
0.0
 11
427.321272
 21
296.407996
 31
0.0
 12
426.086983
 22
296.407991
 32
0.0
 13
426.086983
 23
296.407991
 33
0.0
  0
MTEXT
  5
317
330
1F
100
AcDbEntity
  8
2
100
AcDbMText
 10
338.827842
 20
329.044517
 30
0.0
 40
3.5
 41
0.0
 71
     7
 72
     5
  1
\W0.7809;135
  7
cesky
 73
     2
 44
0.8433729999999998
  0
LINE
  5
318
330
1F
100
AcDbEntity
  8
2
100
AcDbLine
 10
409.404842
 20
299.907994
 30
0.0
 11
409.404842
 21
330.17035
 31
0.0
  0
LINE
  5
319
330
1F
100
AcDbEntity
  8
2
100
AcDbLine
 10
274.404842
 20
289.907567
 30
0.0
 11
274.404842
 21
330.17035
 31
0.0
  0
LINE
  5
31A
330
1F
100
AcDbEntity
  8
2
100
AcDbLine
 10
409.404842
 20
329.17035
 30
0.0
 11
274.404842
 21
329.17035
 31
0.0
  0
SOLID
  5
31B
330
1F
100
AcDbEntity
  8
2
100
AcDbTrace
 10
409.404842
 20
329.17035
 30
0.0
 11
405.9048439999999
 21
328.553206
 31
0.0
 12
405.90484
 22
329.7874950000001
 32
0.0
 13
405.90484
 23
329.7874950000001
 33
0.0
  0
SOLID
  5
31C
330
1F
100
AcDbEntity
  8
2
100
AcDbTrace
 10
274.404842
 20
329.17035
 30
0.0
 11
277.90484
 21
329.7874950000001
 31
0.0
 12
277.904844
 22
328.553206
 32
0.0
 13
277.904844
 23
328.553206
 33
0.0
  0
MTEXT
  5
31D
330
1F
100
AcDbEntity
  8
2
100
AcDbMText
 10
348.330128
 20
314.470071
 30
0.0
 40
3.5
 41
0.0
 71
     7
 72
     5
  1
\W0.8677;116
  7
cesky
 73
     2
 44
0.8433729999999998
  0
LINE
  5
31E
330
1F
100
AcDbEntity
  8
2
100
AcDbLine
 10
409.404842
 20
301.907994
 30
0.0
 11
409.404842
 21
315.595905
 31
0.0
  0
LINE
  5
31F
330
1F
100
AcDbEntity
  8
2
100
AcDbLine
 10
293.409414
 20
299.583205
 30
0.0
 11
293.409414
 21
315.595905
 31
0.0
  0
LINE
  5
320
330
1F
100
AcDbEntity
  8
2
100
AcDbLine
 10
409.404842
 20
314.595905
 30
0.0
 11
293.409414
 21
314.595905
 31
0.0
  0
SOLID
  5
321
330
1F
100
AcDbEntity
  8
2
100
AcDbTrace
 10
409.404842
 20
314.595905
 30
0.0
 11
405.9048439999999
 21
313.97876
 31
0.0
 12
405.90484
 22
315.213049
 32
0.0
 13
405.90484
 23
315.213049
 33
0.0
  0
SOLID
  5
322
330
1F
100
AcDbEntity
  8
2
100
AcDbTrace
 10
293.409414
 20
314.595905
 30
0.0
 11
296.909411
 21
315.213049
 31
0.0
 12
296.909416
 22
313.97876
 32
0.0
 13
296.909416
 23
313.97876
 33
0.0
  0
MTEXT
  5
323
330
1F
100
AcDbEntity
  8
SK2
100
AcDbMText
 10
205.76788
 20
290.434244
 30
0.0
 40
3.5
 41
0.0
 71
     7
 72
     5
  1
\W0.7045;25
  7
cesky
 11
0.0000000000000001
 21
1.0
 31
0.0
 73
     2
 44
0.8433729999999998
  0
MTEXT
  5
324
330
1F
100
AcDbEntity
  8
SK2
100
AcDbMText
 10
205.76788
 20
283.696744
 30
0.0
 40
3.5
 41
0.0
 71
     7
 72
     5
  1
\W3.0115;\H2.63;%%c\H3.50;
  7
cesky
 11
0.0000000000000001
 21
1.0
 31
0.0
 73
     2
 44
0.8433729999999998
  0
LINE
  5
325
330
1F
100
AcDbEntity
  8
SK2
100
AcDbLine
 10
220.404842
 20
301.407994
 30
0.0
 11
204.955296
 21
301.407994
 31
0.0
  0
LINE
  5
326
330
1F
100
AcDbEntity
  8
SK2
100
AcDbLine
 10
220.404842
 20
276.407994
 30
0.0
 11
204.955296
 21
276.407994
 31
0.0
  0
LINE
  5
327
330
1F
100
AcDbEntity
  8
SK2
100
AcDbLine
 10
205.955296
 20
301.407994
 30
0.0
 11
205.955296
 21
276.407994
 31
0.0
  0
SOLID
  5
328
330
1F
100
AcDbEntity
  8
SK2
100
AcDbTrace
 10
205.955296
 20
301.407994
 30
0.0
 11
206.572441
 21
297.9079959999999
 31
0.0
 12
205.338152
 22
297.907991
 32
0.0
 13
205.338152
 23
297.907991
 33
0.0
  0
SOLID
  5
329
330
1F
100
AcDbEntity
  8
SK2
100
AcDbTrace
 10
205.955296
 20
276.407994
 30
0.0
 11
205.338152
 21
279.9079910000001
 31
0.0
 12
206.572441
 22
279.907996
 32
0.0
 13
206.572441
 23
279.907996
 33
0.0
  0
MTEXT
  5
32A
330
1F
100
AcDbEntity
  8
SK2
100
AcDbMText
 10
189.956072
 20
290.434244
 30
0.0
 40
3.5
 41
0.0
 71
     7
 72
     5
  1
\W0.7045;35
  7
cesky
 11
0.0000000000000001
 21
1.0
 31
0.0
 73
     2
 44
0.8433729999999998
  0
MTEXT
  5
32B
330
1F
100
AcDbEntity
  8
SK2
100
AcDbMText
 10
189.956072
 20
283.696744
 30
0.0
 40
3.5
 41
0.0
 71
     7
 72
     5
  1
\W3.0115;\H2.63;%%c\H3.50;
  7
cesky
 11
0.0000000000000001
 21
1.0
 31
0.0
 73
     2
 44
0.8433729999999998
  0
LINE
  5
32C
330
1F
100
AcDbEntity
  8
SK2
100
AcDbLine
 10
274.904842
 20
306.407994
 30
0.0
 11
189.143489
 21
306.407994
 31
0.0
  0
LINE
  5
32D
330
1F
100
AcDbEntity
  8
SK2
100
AcDbLine
 10
274.904842
 20
271.407994
 30
0.0
 11
189.143489
 21
271.407994
 31
0.0
  0
LINE
  5
32E
330
1F
100
AcDbEntity
  8
SK2
100
AcDbLine
 10
190.143489
 20
306.407994
 30
0.0
 11
190.143489
 21
271.407994
 31
0.0
  0
SOLID
  5
32F
330
1F
100
AcDbEntity
  8
SK2
100
AcDbTrace
 10
190.143489
 20
306.407994
 30
0.0
 11
190.760634
 21
302.907996
 31
0.0
 12
189.526345
 22
302.907991
 32
0.0
 13
189.526345
 23
302.907991
 33
0.0
  0
SOLID
  5
330
330
1F
100
AcDbEntity
  8
SK2
100
AcDbTrace
 10
190.143489
 20
271.407994
 30
0.0
 11
189.526345
 21
274.907991
 31
0.0
 12
190.760634
 22
274.9079959999999
 32
0.0
 13
190.760634
 23
274.9079959999999
 33
0.0
  0
LINE
  5
331
330
1F
100
AcDbEntity
  8
CUT
100
AcDbLine
 10
409.1288626295153
 20
294.6168552025337
 30
0.0
 11
409.2937097774335
 21
294.2789235815014
 31
0.0
  0
LINE
  5
333
330
1F
100
AcDbEntity
  8
CUT
100
AcDbLine
 10
409.3234688800448
 20
294.1549899927504
 30
0.0
 11
409.4017794576006
 21
289.6741808461446
 31
0.0
  0
LINE
  5
336
330
1F
100
AcDbEntity
  8
CUT
100
AcDbLine
 10
402.9355201740703
 20
299.6501665370747
 30
0.0
 11
408.5031374287918
 21
299.9055599811309
 31
0.0
  0
LINE
  5
337
330
1F
100
AcDbEntity
  8
CUT
100
AcDbLine
 10
408.907961410622
 20
299.5373899688016
 30
0.0
 11
409.1288626295153
 21
294.6168552025337
 31
0.0
  0
LINE
  5
338
330
1F
100
AcDbEntity
  8
CUT
100
AcDbLine
 10
409.4017789999999
 20
289.674181
 30
0.0
 11
409.4017789999999
 21
288.907994
 31
0.0
  0
LINE
  5
339
330
1F
100
AcDbEntity
  8
CUT
100
AcDbLine
 10
402.565212
 20
288.907994
 30
0.0
 11
402.565212
 21
299.246167
 31
0.0
  0
LINE
  5
33A
330
1F
100
AcDbEntity
  8
CUT
100
AcDbLine
 10
409.4017789999999
 20
288.907994
 30
0.0
 11
402.565212
 21
288.907994
 31
0.0
  0
ARC
  5
33B
330
1F
100
AcDbEntity
  8
CUT
100
AcDbCircle
 10
408.5183972866412
 20
299.515416264147
 30
0.0
 40
0.3904420356001183
100
AcDbArc
 50
7.397915811612475
 51
92.23989252238879
  0
ARC
  5
33C
330
1F
100
AcDbEntity
  8
CUT
100
AcDbCircle
 10
408.5412892393248
 20
299.520902961896
 30
0.0
 40
0.3670426441171349
100
AcDbArc
 50
2.574507015291099
 51
7.008679479014701
  0
LINE
  5
33D
330
1F
100
AcDbEntity
  8
CUT
100
AcDbLine
 10
402.5652118070763
 20
299.2461665555886
 30
0.0
 11
402.5652118070763
 21
299.2461665555886
 31
0.0
  0
ARC
  5
33E
330
1F
100
AcDbEntity
  8
CUT
100
AcDbCircle
 10
402.9562209765492
 20
299.2594788552731
 30
0.0
 40
0.3912357191448455
100
AcDbArc
 50
93.03301226412507
 51
181.9499391507005
  0
LINE
  5
33F
330
1F
100
AcDbEntity
  8
CUT
100
AcDbLine
 10
409.2937097774335
 20
294.2789235815014
 30
0.0
 11
409.2937097774335
 21
294.2789235815014
 31
0.0
  0
ARC
  5
340
330
1F
100
AcDbEntity
  8
CUT
100
AcDbCircle
 10
409.0291765160863
 20
294.1498638009027
 30
0.0
 40
0.2943370063841295
100
AcDbArc
 50
0.9979173581427938
 51
26.00669890486125
  0
ENDSEC
  0
SECTION
  2
OBJECTS
  0
DICTIONARY
  5
C
330
0
100
AcDbDictionary
281
     1
  3
ACAD_CIP_PREVIOUS_PRODUCT_INFO
350
303
  3
ACAD_COLOR
350
2FE
  3
ACAD_DETAILVIEWSTYLE
350
2FA
  3
ACAD_GROUP
350
D
  3
ACAD_LAYOUT
350
1A
  3
ACAD_MATERIAL
350
43
  3
ACAD_MLEADERSTYLE
350
6B
  3
ACAD_MLINESTYLE
350
17
  3
ACAD_PLOTSETTINGS
350
19
  3
ACAD_PLOTSTYLENAME
350
E
  3
ACAD_SCALELIST
350
47
  3
ACAD_SECTIONVIEWSTYLE
350
2FB
  3
ACAD_TABLESTYLE
350
69
  3
ACAD_VISUALSTYLE
350
2A
  3
ACDB_RECOMPOSE_DATA
350
36C
  3
AcDbVariableDictionary
350
2B7
  0
DICTIONARY
  5
34F
330
10
100
AcDbDictionary
280
     1
281
     1
  3
ADSK_XREC_LAYER_RECONCILED
360
350
  0
DICTIONARY
  5
351
330
341
100
AcDbDictionary
280
     1
281
     1
  3
ADSK_XREC_LAYER_RECONCILED
360
352
  0
DICTIONARY
  5
353
330
342
100
AcDbDictionary
280
     1
281
     1
  3
ADSK_XREC_LAYER_RECONCILED
360
354
  0
DICTIONARY
  5
355
330
343
100
AcDbDictionary
280
     1
281
     1
  3
ADSK_XREC_LAYER_RECONCILED
360
356
  0
DICTIONARY
  5
357
330
345
100
AcDbDictionary
280
     1
281
     1
  3
ADSK_XREC_LAYER_RECONCILED
360
358
  0
DICTIONARY
  5
359
330
346
100
AcDbDictionary
280
     1
281
     1
  3
ADSK_XREC_LAYER_RECONCILED
360
35A
  0
DICTIONARY
  5
35B
330
348
100
AcDbDictionary
280
     1
281
     1
  3
ADSK_XREC_LAYER_RECONCILED
360
35C
  0
DICTIONARY
  5
35D
330
349
100
AcDbDictionary
280
     1
281
     1
  3
ADSK_XREC_LAYER_RECONCILED
360
35E
  0
DICTIONARY
  5
35F
330
34A
100
AcDbDictionary
280
     1
281
     1
  3
ADSK_XREC_LAYER_RECONCILED
360
360
  0
DICTIONARY
  5
361
330
34B
100
AcDbDictionary
280
     1
281
     1
  3
ADSK_XREC_LAYER_RECONCILED
360
362
  0
DICTIONARY
  5
363
330
34C
100
AcDbDictionary
280
     1
281
     1
  3
ADSK_XREC_LAYER_RECONCILED
360
364
  0
DICTIONARY
  5
365
330
34D
100
AcDbDictionary
280
     1
281
     1
  3
ADSK_XREC_LAYER_RECONCILED
360
366
  0
DICTIONARY
  5
304
330
1F
100
AcDbDictionary
280
     1
281
     1
  3
ACAD_SORTENTS
360
305
  0
XRECORD
  5
303
102
{ACAD_REACTORS
330
C
102
}
330
C
100
AcDbXrecord
280
     1
300
ACD
300
2019
300
87084ACD_2019_0F
  0
DICTIONARY
  5
2FE
102
{ACAD_REACTORS
330
C
102
}
330
C
100
AcDbDictionary
281
     1
  0
DICTIONARY
  5
2FA
102
{ACAD_REACTORS
330
C
102
}
330
C
100
AcDbDictionary
281
     1
  3
Metric50
350
300
  0
DICTIONARY
  5
D
102
{ACAD_REACTORS
330
C
102
}
330
C
100
AcDbDictionary
281
     1
  3
NULOVY_BOD
350
34E
  0
DICTIONARY
  5
1A
102
{ACAD_REACTORS
330
C
102
}
330
C
100
AcDbDictionary
281
     1
  3
Layout1
350
1E
  3
Layout2
350
26
  3
Model
350
22
  0
DICTIONARY
  5
43
102
{ACAD_REACTORS
330
C
102
}
330
C
100
AcDbDictionary
281
     1
  3
ByBlock
350
45
  3
ByLayer
350
44
  3
Global
350
46
  0
DICTIONARY
  5
6B
102
{ACAD_REACTORS
330
C
102
}
330
C
100
AcDbDictionary
281
     1
  3
Standard
350
6C
  0
DICTIONARY
  5
17
102
{ACAD_REACTORS
330
C
102
}
330
C
100
AcDbDictionary
281
     1
  3
Standard
350
18
  0
DICTIONARY
  5
19
102
{ACAD_REACTORS
330
C
102
}
330
C
100
AcDbDictionary
281
     1
  0
ACDBDICTIONARYWDFLT
  5
E
102
{ACAD_REACTORS
330
C
102
}
330
C
100
AcDbDictionary
281
     1
  3
Normal
350
F
100
AcDbDictionaryWithDefault
340
F
  0
DICTIONARY
  5
47
102
{ACAD_REACTORS
330
C
102
}
330
C
100
AcDbDictionary
281
     1
  3
A0
350
48
  3
A1
350
49
  3
A2
350
4A
  3
A3
350
4B
  3
A4
350
4C
  3
A5
350
4D
  3
A6
350
4E
  3
A7
350
4F
  3
A8
350
50
  3
A9
350
51
  3
B0
350
52
  3
B1
350
53
  3
B2
350
54
  3
B3
350
55
  3
B4
350
56
  3
B5
350
57
  3
B6
350
58
  3
B7
350
59
  3
B8
350
5A
  3
B9
350
5B
  3
C0
350
5C
  3
C1
350
5D
  3
C2
350
5E
  3
C3
350
5F
  3
C4
350
60
  3
C5
350
61
  3
C6
350
62
  3
C7
350
63
  3
C8
350
64
  3
C9
350
65
  3
D0
350
66
  3
D1
350
67
  3
D2
350
68
  0
DICTIONARY
  5
2FB
102
{ACAD_REACTORS
330
C
102
}
330
C
100
AcDbDictionary
281
     1
  3
Metric50
350
2FF
  0
DICTIONARY
  5
69
102
{ACAD_REACTORS
330
C
102
}
330
C
100
AcDbDictionary
281
     1
  3
Standard
350
6A
  0
DICTIONARY
  5
2A
102
{ACAD_REACTORS
330
C
102
}
330
C
100
AcDbDictionary
281
     1
  3
2dWireframe
350
2F
  3
Basic
350
32
  3
Brighten
350
36
  3
ColorChange
350
3A
  3
Conceptual
350
34
  3
Dim
350
35
  3
EdgeColorOff
350
3D
  3
Facepattern
350
39
  3
Flat
350
2B
  3
FlatWithEdges
350
2C
  3
Gouraud
350
2D
  3
GouraudWithEdges
350
2E
  3
Hidden
350
31
  3
JitterOff
350
3B
  3
Linepattern
350
38
  3
OverhangOff
350
3C
  3
Realistic
350
33
  3
Shaded
350
42
  3
Shaded with edges
350
41
  3
Shades of Gray
350
3E
  3
Sketchy
350
3F
  3
Thicken
350
37
  3
Wireframe
350
30
  3
X-Ray
350
40
  0
XRECORD
  5
36C
102
{ACAD_REACTORS
330
C
102
}
330
C
100
AcDbXrecord
280
     1
 90
        1
330
6A
  0
DICTIONARY
  5
2B7
102
{ACAD_REACTORS
330
C
102
}
330
C
100
AcDbDictionary
281
     1
  3
CANNOSCALE
350
2B8
  3
CMLEADERSTYLE
350
2F9
  3
CTABLESTYLE
350
2F8
  3
CVIEWDETAILSTYLE
350
367
  3
CVIEWSECTIONSTYLE
350
368
  3
MSLTSCALE
350
2B9
  3
XCLIPFRAME
350
369
  0
XRECORD
  5
350
102
{ACAD_REACTORS
330
34F
102
}
330
34F
100
AcDbXrecord
280
     1
290
     1
  0
XRECORD
  5
352
102
{ACAD_REACTORS
330
351
102
}
330
351
100
AcDbXrecord
280
     1
290
     1
  0
XRECORD
  5
354
102
{ACAD_REACTORS
330
353
102
}
330
353
100
AcDbXrecord
280
     1
290
     1
  0
XRECORD
  5
356
102
{ACAD_REACTORS
330
355
102
}
330
355
100
AcDbXrecord
280
     1
290
     1
  0
XRECORD
  5
358
102
{ACAD_REACTORS
330
357
102
}
330
357
100
AcDbXrecord
280
     1
290
     1
  0
XRECORD
  5
35A
102
{ACAD_REACTORS
330
359
102
}
330
359
100
AcDbXrecord
280
     1
290
     1
  0
XRECORD
  5
35C
102
{ACAD_REACTORS
330
35B
102
}
330
35B
100
AcDbXrecord
280
     1
290
     1
  0
XRECORD
  5
35E
102
{ACAD_REACTORS
330
35D
102
}
330
35D
100
AcDbXrecord
280
     1
290
     1
  0
XRECORD
  5
360
102
{ACAD_REACTORS
330
35F
102
}
330
35F
100
AcDbXrecord
280
     1
290
     1
  0
XRECORD
  5
362
102
{ACAD_REACTORS
330
361
102
}
330
361
100
AcDbXrecord
280
     1
290
     1
  0
XRECORD
  5
364
102
{ACAD_REACTORS
330
363
102
}
330
363
100
AcDbXrecord
280
     1
290
     1
  0
XRECORD
  5
366
102
{ACAD_REACTORS
330
365
102
}
330
365
100
AcDbXrecord
280
     1
290
     1
  0
SORTENTSTABLE
  5
305
102
{ACAD_REACTORS
330
304
102
}
330
304
100
AcDbSortentsTable
330
1F
331
306
  5
241
331
307
  5
25A
331
308
  5
306
331
309
  5
307
331
30A
  5
308
331
30B
  5
309
331
30C
  5
30A
331
30D
  5
30B
331
30E
  5
30C
331
30F
  5
30D
331
310
  5
30E
331
311
  5
30F
331
312
  5
310
331
313
  5
311
331
314
  5
312
331
315
  5
313
331
316
  5
314
331
317
  5
325
331
318
  5
326
331
319
  5
327
331
31A
  5
328
331
31B
  5
329
331
31C
  5
32A
331
31D
  5
32B
331
31E
  5
32C
331
31F
  5
32D
331
320
  5
32E
331
321
  5
32F
331
322
  5
330
331
323
  5
317
331
324
  5
318
331
325
  5
319
331
326
  5
31A
331
327
  5
31B
331
328
  5
31C
331
329
  5
31D
331
32A
  5
31E
331
32B
  5
31F
331
32C
  5
320
331
32D
  5
321
331
32E
  5
322
331
32F
  5
323
331
330
  5
324
331
333
  5
337
331
336
  5
33C
331
337
  5
33D
331
338
  5
33E
331
339
  5
33F
331
33A
  5
340
331
33B
  5
333
331
33C
  5
336
331
33D
  5
338
331
33E
  5
339
331
33F
  5
33A
331
340
  5
33B
  0
ACDBDETAILVIEWSTYLE
  5
300
102
{ACAD_XDICTIONARY
360
3A0
102
}
102
{ACAD_REACTORS
330
2FA
102
}
330
2FA
100
AcDbModelDocViewStyle
 70
     0
  3
Metric50
290
     0
100
AcDbDetailViewStyle
 70
     0
 71
     0
 90
        3
 71
     1
340
11
 62
   256
 40
5.0
340
0
 62
   256
 40
5.0
300

 40
0.0
280
     1
 71
     2
340
16
 90
       25
 62
   256
 71
     3
340
11
 62
   256
 40
5.0
 90
        0
 40
15.0
 90
        1
300
%<\AcVar ViewDetailId>% (%<\AcVar ViewScale \f "%sn">%)
 71
     4
340
16
 90
       25
 62
   256
340
16
 90
       25
 62
   256
280
     0
  0
GROUP
  5
34E
102
{ACAD_REACTORS
330
D
102
}
330
D
100
AcDbGroup
300

 70
     0
 71
     1
340
73
  0
LAYOUT
  5
1E
102
{ACAD_REACTORS
330
1A
102
}
330
1A
100
AcDbPlotSettings
  1

  2
none_device
  4

  6

 40
0.0
 41
0.0
 42
0.0
 43
0.0
 44
0.0
 45
0.0
 46
0.0
 47
0.0
 48
0.0
 49
0.0
140
0.0
141
0.0
142
1.0
143
1.0
 70
   688
 72
     0
 73
     0
 74
     5
  7

 75
    16
147
1.0
 76
     0
 77
     2
 78
   300
148
0.0
149
0.0
100
AcDbLayout
  1
Layout1
 70
     1
 71
     1
 10
-0.5
 20
-0.5
 11
5.0
 21
5.0
 12
0.0
 22
0.0
 32
0.0
 14
-0.5
 24
-0.5
 34
-0.5
 15
5.0
 25
5.0
 35
5.0
146
0.0
 13
0.0
 23
0.0
 33
0.0
 16
1.0
 26
0.0
 36
0.0
 17
0.0
 27
1.0
 37
0.0
 76
     0
330
1B
  0
LAYOUT
  5
26
102
{ACAD_REACTORS
330
1A
102
}
330
1A
100
AcDbPlotSettings
  1

  2
none_device
  4

  6

 40
0.0
 41
0.0
 42
0.0
 43
0.0
 44
0.0
 45
0.0
 46
0.0
 47
0.0
 48
0.0
 49
0.0
140
0.0
141
0.0
142
1.0
143
1.0
 70
   688
 72
     0
 73
     0
 74
     5
  7

 75
    16
147
1.0
 76
     0
 77
     2
 78
   300
148
0.0
149
0.0
100
AcDbLayout
  1
Layout2
 70
     1
 71
     2
 10
0.0
 20
0.0
 11
0.0
 21
0.0
 12
0.0
 22
0.0
 32
0.0
 14
0.0
 24
0.0
 34
0.0
 15
0.0
 25
0.0
 35
0.0
146
0.0
 13
0.0
 23
0.0
 33
0.0
 16
1.0
 26
0.0
 36
0.0
 17
0.0
 27
1.0
 37
0.0
 76
     0
330
23
  0
LAYOUT
  5
22
102
{ACAD_REACTORS
330
1A
102
}
330
1A
100
AcDbPlotSettings
  1

  2
none_device
  4
Letter_(8.50_x_11.00_Inches)
  6

 40
6.349999999999999
 41
6.349999999999999
 42
6.350005
 43
6.350005
 44
215.9
 45
279.4
 46
0.0
 47
0.0
 48
0.0
 49
0.0
140
0.0
141
0.0
142
1.0
143
1.0
 70
  1712
 72
     0
 73
     0
 74
     0
  7

 75
     0
147
1.0
 76
     0
 77
     2
 78
   300
148
0.0
149
0.0
100
AcDbLayout
  1
Model
 70
     1
 71
     0
 10
-0.5
 20
-0.5
 11
5.0
 21
5.0
 12
0.0
 22
0.0
 32
0.0
 14
-0.5
 24
-0.5
 34
-0.5
 15
5.0
 25
5.0
 35
5.0
146
0.0
 13
0.0
 23
0.0
 33
0.0
 16
1.0
 26
0.0
 36
0.0
 17
0.0
 27
1.0
 37
0.0
 76
     0
330
1F
331
29
  0
MATERIAL
  5
45
102
{ACAD_XDICTIONARY
360
2ED
102
}
102
{ACAD_REACTORS
330
43
102
}
330
43
100
AcDbMaterial
  1
ByBlock
  0
MATERIAL
  5
44
102
{ACAD_XDICTIONARY
360
2EB
102
}
102
{ACAD_REACTORS
330
43
102
}
330
43
100
AcDbMaterial
  1
ByLayer
  0
MATERIAL
  5
46
102
{ACAD_XDICTIONARY
360
2EF
102
}
102
{ACAD_REACTORS
330
43
102
}
330
43
100
AcDbMaterial
  1
Global
  0
MLEADERSTYLE
  5
6C
102
{ACAD_REACTORS
330
6B
102
}
330
6B
100
AcDbMLeaderStyle
170
     2
171
     1
172
     0
 90
        2
 40
0.0
 41
0.0
173
     1
 91
-1056964608
340
14
 92
       -2
290
     1
 42
0.09
291
     1
 43
0.36
  3
Standard
 44
0.18
300

342
11
174
     1
178
     6
175
     1
176
     0
 93
-1056964608
 45
0.18
292
     0
297
     0
 46
0.18
 94
-1056964608
 47
1.0
 49
1.0
140
1.0
293
     1
141
0.0
294
     1
177
     0
142
1.0
295
     0
296
     0
143
0.125
1001
ACAD_MLEADERVER
1070
     2
  0
MLINESTYLE
  5
18
102
{ACAD_REACTORS
330
17
102
}
330
17
100
AcDbMlineStyle
  2
STANDARD
 70
     0
  3

 62
   256
 51
90.0
 52
90.0
 71
     2
 49
0.5
 62
   256
  6
BYLAYER
 49
-0.5
 62
   256
  6
BYLAYER
  0
ACDBPLACEHOLDER
  5
F
102
{ACAD_REACTORS
330
E
102
}
330
E
  0
SCALE
  5
48
102
{ACAD_REACTORS
330
47
102
}
330
47
100
AcDbScale
 70
     0
300
1:1
140
1.0
141
1.0
290
     1
  0
SCALE
  5
49
102
{ACAD_REACTORS
330
47
102
}
330
47
100
AcDbScale
 70
     0
300
1:2
140
1.0
141
2.0
290
     0
  0
SCALE
  5
4A
102
{ACAD_REACTORS
330
47
102
}
330
47
100
AcDbScale
 70
     0
300
1:4
140
1.0
141
4.0
290
     0
  0
SCALE
  5
4B
102
{ACAD_REACTORS
330
47
102
}
330
47
100
AcDbScale
 70
     0
300
1:5
140
1.0
141
5.0
290
     0
  0
SCALE
  5
4C
102
{ACAD_REACTORS
330
47
102
}
330
47
100
AcDbScale
 70
     0
300
1:8
140
1.0
141
8.0
290
     0
  0
SCALE
  5
4D
102
{ACAD_REACTORS
330
47
102
}
330
47
100
AcDbScale
 70
     0
300
1:10
140
1.0
141
10.0
290
     0
  0
SCALE
  5
4E
102
{ACAD_REACTORS
330
47
102
}
330
47
100
AcDbScale
 70
     0
300
1:16
140
1.0
141
16.0
290
     0
  0
SCALE
  5
4F
102
{ACAD_REACTORS
330
47
102
}
330
47
100
AcDbScale
 70
     0
300
1:20
140
1.0
141
20.0
290
     0
  0
SCALE
  5
50
102
{ACAD_REACTORS
330
47
102
}
330
47
100
AcDbScale
 70
     0
300
1:30
140
1.0
141
30.0
290
     0
  0
SCALE
  5
51
102
{ACAD_REACTORS
330
47
102
}
330
47
100
AcDbScale
 70
     0
300
1:40
140
1.0
141
40.0
290
     0
  0
SCALE
  5
52
102
{ACAD_REACTORS
330
47
102
}
330
47
100
AcDbScale
 70
     0
300
1:50
140
1.0
141
50.0
290
     0
  0
SCALE
  5
53
102
{ACAD_REACTORS
330
47
102
}
330
47
100
AcDbScale
 70
     0
300
1:100
140
1.0
141
100.0
290
     0
  0
SCALE
  5
54
102
{ACAD_REACTORS
330
47
102
}
330
47
100
AcDbScale
 70
     0
300
2:1
140
2.0
141
1.0
290
     0
  0
SCALE
  5
55
102
{ACAD_REACTORS
330
47
102
}
330
47
100
AcDbScale
 70
     0
300
4:1
140
4.0
141
1.0
290
     0
  0
SCALE
  5
56
102
{ACAD_REACTORS
330
47
102
}
330
47
100
AcDbScale
 70
     0
300
8:1
140
8.0
141
1.0
290
     0
  0
SCALE
  5
57
102
{ACAD_REACTORS
330
47
102
}
330
47
100
AcDbScale
 70
     0
300
10:1
140
10.0
141
1.0
290
     0
  0
SCALE
  5
58
102
{ACAD_REACTORS
330
47
102
}
330
47
100
AcDbScale
 70
     0
300
100:1
140
100.0
141
1.0
290
     0
  0
SCALE
  5
59
102
{ACAD_REACTORS
330
47
102
}
330
47
100
AcDbScale
 70
     0
300
1/128" = 1'-0"
140
0.007812
141
12.0
290
     0
  0
SCALE
  5
5A
102
{ACAD_REACTORS
330
47
102
}
330
47
100
AcDbScale
 70
     0
300
1/64" = 1'-0"
140
0.015625
141
12.0
290
     0
  0
SCALE
  5
5B
102
{ACAD_REACTORS
330
47
102
}
330
47
100
AcDbScale
 70
     0
300
1/32" = 1'-0"
140
0.03125
141
12.0
290
     0
  0
SCALE
  5
5C
102
{ACAD_REACTORS
330
47
102
}
330
47
100
AcDbScale
 70
     0
300
1/16" = 1'-0"
140
0.0625
141
12.0
290
     0
  0
SCALE
  5
5D
102
{ACAD_REACTORS
330
47
102
}
330
47
100
AcDbScale
 70
     0
300
3/32" = 1'-0"
140
0.09375
141
12.0
290
     0
  0
SCALE
  5
5E
102
{ACAD_REACTORS
330
47
102
}
330
47
100
AcDbScale
 70
     0
300
1/8" = 1'-0"
140
0.125
141
12.0
290
     0
  0
SCALE
  5
5F
102
{ACAD_REACTORS
330
47
102
}
330
47
100
AcDbScale
 70
     0
300
3/16" = 1'-0"
140
0.1875
141
12.0
290
     0
  0
SCALE
  5
60
102
{ACAD_REACTORS
330
47
102
}
330
47
100
AcDbScale
 70
     0
300
1/4" = 1'-0"
140
0.25
141
12.0
290
     0
  0
SCALE
  5
61
102
{ACAD_REACTORS
330
47
102
}
330
47
100
AcDbScale
 70
     0
300
3/8" = 1'-0"
140
0.375
141
12.0
290
     0
  0
SCALE
  5
62
102
{ACAD_REACTORS
330
47
102
}
330
47
100
AcDbScale
 70
     0
300
1/2" = 1'-0"
140
0.5
141
12.0
290
     0
  0
SCALE
  5
63
102
{ACAD_REACTORS
330
47
102
}
330
47
100
AcDbScale
 70
     0
300
3/4" = 1'-0"
140
0.75
141
12.0
290
     0
  0
SCALE
  5
64
102
{ACAD_REACTORS
330
47
102
}
330
47
100
AcDbScale
 70
     0
300
1" = 1'-0"
140
1.0
141
12.0
290
     0
  0
SCALE
  5
65
102
{ACAD_REACTORS
330
47
102
}
330
47
100
AcDbScale
 70
     0
300
1-1/2" = 1'-0"
140
1.5
141
12.0
290
     0
  0
SCALE
  5
66
102
{ACAD_REACTORS
330
47
102
}
330
47
100
AcDbScale
 70
     0
300
3" = 1'-0"
140
3.0
141
12.0
290
     0
  0
SCALE
  5
67
102
{ACAD_REACTORS
330
47
102
}
330
47
100
AcDbScale
 70
     0
300
6" = 1'-0"
140
6.0
141
12.0
290
     0
  0
SCALE
  5
68
102
{ACAD_REACTORS
330
47
102
}
330
47
100
AcDbScale
 70
     0
300
1'-0" = 1'-0"
140
12.0
141
12.0
290
     0
  0
ACDBSECTIONVIEWSTYLE
  5
2FF
102
{ACAD_XDICTIONARY
360
39E
102
}
102
{ACAD_REACTORS
330
2FB
102
}
330
2FB
100
AcDbModelDocViewStyle
 70
     0
  3
Metric50
290
     0
100
AcDbSectionViewStyle
 70
     0
 71
     0
 90
      102
 71
     1
340
11
 62
   256
 40
5.0
340
0
340
0
 62
   256
 40
5.0
300
I, O, Q, S, X, Z
 40
10.0
 90
        0
 40
2.5
 90
        0
 71
     2
340
16
 90
       25
 62
   256
340
16
 90
       50
 62
   256
 40
5.0
 40
2.5
 40
5.0
 71
     3
340
11
 62
   256
 40
5.0
 90
        0
 40
15.0
 90
        1
300
%<\AcVar ViewSectionStartId>%-%<\AcVar ViewSectionEndId>% (%<\AcVar ViewScale \f "%sn">%)
 71
     4
 62
   256
 62
   257
300
ANSI31
 40
1.0
 90
        0
290
     0
290
     0
 90
        6
 40
0.0
 40
1.570796326794896
 40
0.2617993877991494
 40
1.308996938995747
 40
-0.2617993877991494
 40
1.832595714594046
  0
TABLESTYLE
  5
6A
102
{ACAD_XDICTIONARY
360
2F1
102
}
102
{ACAD_REACTORS
330
69
102
}
330
69
100
AcDbTableStyle
  3
Standard
 70
     0
 71
     0
 40
0.06
 41
0.06
280
     0
281
     0
  7
Standard
140
0.18
170
     2
 62
     0
 63
     7
283
     0
274
    -2
284
     1
 64
     0
275
    -2
285
     1
 65
     0
276
    -2
286
     1
 66
     0
277
    -2
287
     1
 67
     0
278
    -2
288
     1
 68
     0
279
    -2
289
     1
 69
     0
  7
Standard
140
0.25
170
     5
 62
     0
 63
     7
283
     0
274
    -2
284
     1
 64
     0
275
    -2
285
     1
 65
     0
276
    -2
286
     1
 66
     0
277
    -2
287
     1
 67
     0
278
    -2
288
     1
 68
     0
279
    -2
289
     1
 69
     0
  7
Standard
140
0.18
170
     5
 62
     0
 63
     7
283
     0
274
    -2
284
     1
 64
     0
275
    -2
285
     1
 65
     0
276
    -2
286
     1
 66
     0
277
    -2
287
     1
 67
     0
278
    -2
288
     1
 68
     0
279
    -2
289
     1
 69
     0
  0
VISUALSTYLE
  5
2F
102
{ACAD_XDICTIONARY
360
375
102
}
102
{ACAD_REACTORS
330
2A
102
}
330
2A
100
AcDbVisualStyle
  2

 70
     4
 71
     0
 72
     2
 73
     0
 90
        0
 40
-0.6
 41
-30.0
 62
     5
 63
     7
421
 16777215
 74
     1
 91
        4
 64
     7
 65
   257
 75
     1
175
     1
 42
1.0
 92
        0
 66
   257
 43
1.0
 76
     1
 77
     6
 78
     2
 67
     7
 79
     5
170
     0
171
     0
290
     0
174
     0
 93
        1
 44
0.0
173
     0
291
     0
 45
0.0
1001
ACAD
1000
AcDbSavedByObjectVersion
1070
     0
  0
VISUALSTYLE
  5
32
102
{ACAD_XDICTIONARY
360
37B
102
}
102
{ACAD_REACTORS
330
2A
102
}
330
2A
100
AcDbVisualStyle
  2

 70
     7
 71
     1
 72
     0
 73
     1
 90
        0
 40
-0.6
 41
-30.0
 62
     5
 63
     7
421
 16777215
 74
     0
 91
        4
 64
     7
 65
   257
 75
     1
175
     1
 42
1.0
 92
        8
 66
     7
 43
1.0
 76
     1
 77
     6
 78
     2
 67
     7
 79
     5
170
     0
171
     0
290
     0
174
     0
 93
        1
 44
0.0
173
     0
291
     1
 45
0.0
1001
ACAD
1000
AcDbSavedByObjectVersion
1070
     0
  0
VISUALSTYLE
  5
36
102
{ACAD_XDICTIONARY
360
383
102
}
102
{ACAD_REACTORS
330
2A
102
}
330
2A
100
AcDbVisualStyle
  2

 70
    12
 71
     2
 72
     2
 73
     0
 90
        0
 40
-0.6
 41
-30.0
 62
     5
 63
     7
421
 16777215
 74
     1
 91
        4
 64
     7
 65
   257
 75
     1
175
     1
 42
1.0
 92
        8
 66
     7
 43
1.0
 76
     1
 77
     6
 78
     2
 67
     7
 79
     5
170
     0
171
     0
290
     0
174
     0
 93
        1
 44
50.0
173
     0
291
     1
 45
0.0
1001
ACAD
1000
AcDbSavedByObjectVersion
1070
     0
  0
VISUALSTYLE
  5
3A
102
{ACAD_XDICTIONARY
360
38B
102
}
102
{ACAD_REACTORS
330
2A
102
}
330
2A
100
AcDbVisualStyle
  2

 70
    16
 71
     2
 72
     2
 73
     3
 90
        0
 40
-0.6
 41
-30.0
 62
     5
 63
     8
421
  8421504
 74
     1
 91
        4
 64
     7
 65
   257
 75
     1
175
     1
 42
1.0
 92
        8
 66
     8
424
  8421504
 43
1.0
 76
     1
 77
     6
 78
     2
 67
     7
 79
     5
170
     0
171
     0
290
     0
174
     0
 93
        1
 44
0.0
173
     0
291
     1
 45
0.0
1001
ACAD
1000
AcDbSavedByObjectVersion
1070
     0
  0
VISUALSTYLE
  5
34
102
{ACAD_XDICTIONARY
360
37F
102
}
102
{ACAD_REACTORS
330
2A
102
}
330
2A
100
AcDbVisualStyle
  2

 70
     9
 71
     3
 72
     2
 73
     0
 90
        0
 40
-0.6
 41
-30.0
 62
     5
 63
     7
421
 16777215
 74
     2
 91
        2
 64
     7
 65
   257
 75
     1
175
     1
 42
179.0
 92
        8
 66
     7
 43
1.0
 76
     1
 77
     6
 78
     2
 67
     7
 79
     3
170
     0
171
     0
290
     0
174
     0
 93
        1
 44
0.0
173
     0
291
     0
 45
0.0
1001
ACAD
1000
AcDbSavedByObjectVersion
1070
     0
  0
VISUALSTYLE
  5
35
102
{ACAD_XDICTIONARY
360
381
102
}
102
{ACAD_REACTORS
330
2A
102
}
330
2A
100
AcDbVisualStyle
  2

 70
    11
 71
     2
 72
     2
 73
     0
 90
        0
 40
-0.6
 41
-30.0
 62
     5
 63
     7
421
 16777215
 74
     1
 91
        4
 64
     7
 65
   257
 75
     1
175
     1
 42
1.0
 92
        8
 66
     7
 43
1.0
 76
     1
 77
     6
 78
     2
 67
     7
 79
     5
170
     0
171
     0
290
     0
174
     0
 93
        1
 44
-50.0
173
     0
291
     1
 45
0.0
1001
ACAD
1000
AcDbSavedByObjectVersion
1070
     0
  0
VISUALSTYLE
  5
3D
102
{ACAD_XDICTIONARY
360
391
102
}
102
{ACAD_REACTORS
330
2A
102
}
330
2A
100
AcDbVisualStyle
  2

 70
    22
 71
     2
 72
     2
 73
     0
 90
        0
 40
-0.6
 41
-30.0
 62
     5
 63
     7
421
 16777215
 74
     1
 91
        4
 64
     7
 65
   257
 75
     1
175
     1
 42
1.0
 92
        8
 66
     7
 43
1.0
 76
     1
 77
     6
 78
     2
 67
     7
 79
     5
170
     0
171
     0
290
     0
174
     0
 93
        1
 44
0.0
173
     0
291
     1
 45
0.0
1001
ACAD
1000
AcDbSavedByObjectVersion
1070
     0
  0
VISUALSTYLE
  5
39
102
{ACAD_XDICTIONARY
360
389
102
}
102
{ACAD_REACTORS
330
2A
102
}
330
2A
100
AcDbVisualStyle
  2

 70
    15
 71
     2
 72
     2
 73
     0
 90
        0
 40
-0.6
 41
-30.0
 62
     5
 63
     7
421
 16777215
 74
     1
 91
        4
 64
     7
 65
   257
 75
     1
175
     1
 42
1.0
 92
        8
 66
     7
 43
1.0
 76
     1
 77
     6
 78
     2
 67
     7
 79
     5
170
     0
171
     0
290
     0
174
     0
 93
        1
 44
0.0
173
     0
291
     1
 45
0.0
1001
ACAD
1000
AcDbSavedByObjectVersion
1070
     0
  0
VISUALSTYLE
  5
2B
102
{ACAD_XDICTIONARY
360
36D
102
}
102
{ACAD_REACTORS
330
2A
102
}
330
2A
100
AcDbVisualStyle
  2

 70
     0
 71
     2
 72
     1
 73
     1
 90
        2
 40
-0.6
 41
30.0
 62
     5
 63
     7
421
 16777215
 74
     0
 91
        0
 64
     7
 65
   257
 75
     1
175
     1
 42
1.0
 92
        8
 66
     7
 43
1.0
 76
     1
 77
     6
 78
     2
 67
     7
 79
     5
170
     0
171
     0
290
     0
174
     0
 93
       13
 44
0.0
173
     0
291
     1
 45
0.0
1001
ACAD
1000
AcDbSavedByObjectVersion
1070
     0
  0
VISUALSTYLE
  5
2C
102
{ACAD_XDICTIONARY
360
36F
102
}
102
{ACAD_REACTORS
330
2A
102
}
330
2A
100
AcDbVisualStyle
  2

 70
     1
 71
     2
 72
     1
 73
     1
 90
        2
 40
-0.6
 41
30.0
 62
     5
 63
     7
421
 16777215
 74
     1
 91
        0
 64
     7
 65
   257
 75
     1
175
     1
 42
1.0
 92
        0
 66
   257
 43
1.0
 76
     1
 77
     6
 78
     2
 67
     7
 79
     5
170
     0
171
     0
290
     0
174
     0
 93
       13
 44
0.0
173
     0
291
     1
 45
0.0
1001
ACAD
1000
AcDbSavedByObjectVersion
1070
     0
  0
VISUALSTYLE
  5
2D
102
{ACAD_XDICTIONARY
360
371
102
}
102
{ACAD_REACTORS
330
2A
102
}
330
2A
100
AcDbVisualStyle
  2

 70
     2
 71
     2
 72
     2
 73
     1
 90
        2
 40
-0.6
 41
30.0
 62
     5
 63
     7
421
 16777215
 74
     0
 91
        0
 64
     7
 65
   257
 75
     1
175
     1
 42
1.0
 92
        0
 66
     7
 43
1.0
 76
     1
 77
     6
 78
     2
 67
     7
 79
     5
170
     0
171
     0
290
     0
174
     0
 93
       13
 44
0.0
173
     0
291
     1
 45
0.0
1001
ACAD
1000
AcDbSavedByObjectVersion
1070
     0
  0
VISUALSTYLE
  5
2E
102
{ACAD_XDICTIONARY
360
373
102
}
102
{ACAD_REACTORS
330
2A
102
}
330
2A
100
AcDbVisualStyle
  2

 70
     3
 71
     2
 72
     2
 73
     1
 90
        2
 40
-0.6
 41
30.0
 62
     5
 63
     7
421
 16777215
 74
     1
 91
        0
 64
     7
 65
   257
 75
     1
175
     1
 42
1.0
 92
        0
 66
   257
 43
1.0
 76
     1
 77
     6
 78
     2
 67
     7
 79
     5
170
     0
171
     0
290
     0
174
     0
 93
       13
 44
0.0
173
     0
291
     1
 45
0.0
1001
ACAD
1000
AcDbSavedByObjectVersion
1070
     0
  0
VISUALSTYLE
  5
31
102
{ACAD_XDICTIONARY
360
379
102
}
102
{ACAD_REACTORS
330
2A
102
}
330
2A
100
AcDbVisualStyle
  2

 70
     6
 71
     1
 72
     2
 73
     2
 90
        0
 40
-0.6
 41
-30.0
 62
     5
 63
     7
421
 16777215
 74
     2
 91
        2
 64
     7
 65
   257
 75
     2
175
     1
 42
40.0
 92
        0
 66
   257
 43
1.0
 76
     1
 77
     6
 78
     2
 67
     7
 79
     3
170
     0
171
     0
290
     0
174
     0
 93
        1
 44
0.0
173
     0
291
     0
 45
0.0
1001
ACAD
1000
AcDbSavedByObjectVersion
1070
     0
  0
VISUALSTYLE
  5
3B
102
{ACAD_XDICTIONARY
360
38D
102
}
102
{ACAD_REACTORS
330
2A
102
}
330
2A
100
AcDbVisualStyle
  2

 70
    20
 71
     2
 72
     2
 73
     0
 90
        0
 40
-0.6
 41
-30.0
 62
     5
 63
     7
421
 16777215
 74
     1
 91
        4
 64
     7
 65
   257
 75
     1
175
     1
 42
1.0
 92
       10
 66
     7
 43
1.0
 76
     1
 77
     6
 78
     2
 67
     7
 79
     5
170
     0
171
     0
290
     0
174
     0
 93
        1
 44
0.0
173
     0
291
     1
 45
0.0
1001
ACAD
1000
AcDbSavedByObjectVersion
1070
     0
  0
VISUALSTYLE
  5
38
102
{ACAD_XDICTIONARY
360
387
102
}
102
{ACAD_REACTORS
330
2A
102
}
330
2A
100
AcDbVisualStyle
  2

 70
    14
 71
     2
 72
     2
 73
     0
 90
        0
 40
-0.6
 41
-30.0
 62
     5
 63
     7
421
 16777215
 74
     1
 91
        4
 64
     7
 65
   257
 75
     7
175
     7
 42
1.0
 92
        8
 66
     7
 43
1.0
 76
     1
 77
     6
 78
     2
 67
     7
 79
     5
170
     0
171
     0
290
     0
174
     0
 93
        1
 44
0.0
173
     0
291
     1
 45
0.0
1001
ACAD
1000
AcDbSavedByObjectVersion
1070
     0
  0
VISUALSTYLE
  5
3C
102
{ACAD_XDICTIONARY
360
38F
102
}
102
{ACAD_REACTORS
330
2A
102
}
330
2A
100
AcDbVisualStyle
  2

 70
    21
 71
     2
 72
     2
 73
     0
 90
        0
 40
-0.6
 41
-30.0
 62
     5
 63
     7
421
 16777215
 74
     1
 91
        4
 64
     7
 65
   257
 75
     1
175
     1
 42
1.0
 92
        9
 66
     7
 43
1.0
 76
     1
 77
     6
 78
     2
 67
     7
 79
     5
170
     0
171
     0
290
     0
174
     0
 93
        1
 44
0.0
173
     0
291
     1
 45
0.0
1001
ACAD
1000
AcDbSavedByObjectVersion
1070
     0
  0
VISUALSTYLE
  5
33
102
{ACAD_XDICTIONARY
360
37D
102
}
102
{ACAD_REACTORS
330
2A
102
}
330
2A
100
AcDbVisualStyle
  2

 70
     8
 71
     2
 72
     3
 73
     0
 90
        2
 40
-0.6
 41
30.0
 62
     5
 63
     7
421
 16777215
 74
     0
 91
        0
 64
     7
 65
   257
 75
     1
175
     1
 42
1.0
 92
        8
 66
   257
 43
1.0
 76
     1
 77
     6
 78
     2
 67
     7
 79
     3
170
     0
171
     0
290
     0
174
     0
 93
       13
 44
0.0
173
     0
291
     0
 45
0.0
1001
ACAD
1000
AcDbSavedByObjectVersion
1070
     0
  0
VISUALSTYLE
  5
42
102
{ACAD_XDICTIONARY
360
39B
102
}
102
{ACAD_REACTORS
330
2A
102
}
330
2A
100
AcDbVisualStyle
  2

 70
    27
 71
     2
 72
     2
 73
     1
 90
        2
 40
-0.6
 41
30.0
 62
     5
 63
     7
421
 16777215
 74
     0
 91
        4
 64
     7
 65
   257
 75
     1
175
     1
 42
1.0
 92
        8
 66
   257
 43
1.0
 76
     1
 77
     6
 78
     2
 67
     8
425
  7895160
 79
     3
170
     0
171
     0
290
     0
174
     0
 93
        5
 44
0.0
173
     0
291
     0
 45
0.0
1001
ACAD
1000
AcDbSavedByObjectVersion
1070
     0
  0
VISUALSTYLE
  5
41
102
{ACAD_XDICTIONARY
360
399
102
}
102
{ACAD_REACTORS
330
2A
102
}
330
2A
100
AcDbVisualStyle
  2

 70
    26
 71
     2
 72
     2
 73
     1
 90
        2
 40
-0.6
 41
30.0
 62
     5
 63
     7
421
 16777215
 74
     1
 91
       10
 64
     7
 65
   257
 75
     2
175
     1
 42
1.0
 92
        8
 66
   257
 43
1.0
 76
     1
 77
     6
 78
     2
 67
     7
 79
     3
170
     0
171
     0
290
     0
174
     0
 93
        5
 44
0.0
173
     0
291
     0
 45
0.0
1001
ACAD
1000
AcDbSavedByObjectVersion
1070
     0
  0
VISUALSTYLE
  5
3E
102
{ACAD_XDICTIONARY
360
393
102
}
102
{ACAD_REACTORS
330
2A
102
}
330
2A
100
AcDbVisualStyle
  2

 70
    23
 71
     2
 72
     2
 73
     3
 90
        0
 40
-0.6
 41
-30.0
 62
     5
 63
     7
421
 16777215
 74
     2
 91
        2
 64
     7
 65
     7
 75
     1
175
     1
 42
40.0
 92
        8
 66
     7
 43
1.0
 76
     1
 77
     6
 78
     2
 67
     7
 79
     3
170
     0
171
     0
290
     0
174
     0
 93
        1
 44
0.0
173
     0
291
     0
 45
0.0
1001
ACAD
1000
AcDbSavedByObjectVersion
1070
     0
  0
VISUALSTYLE
  5
3F
102
{ACAD_XDICTIONARY
360
395
102
}
102
{ACAD_REACTORS
330
2A
102
}
330
2A
100
AcDbVisualStyle
  2

 70
    24
 71
     1
 72
     2
 73
     2
 90
        0
 40
-0.6
 41
-30.0
 62
     5
 63
     7
421
 16777215
 74
     2
 91
        2
 64
     7
 65
     7
 75
     1
175
     1
 42
40.0
 92
       11
 66
     7
 43
1.0
 76
     1
 77
     6
 78
     2
 67
     7
 79
     6
170
     0
171
     0
290
     0
174
     0
 93
        1
 44
0.0
173
     0
291
     0
 45
0.0
1001
ACAD
1000
AcDbSavedByObjectVersion
1070
     0
  0
VISUALSTYLE
  5
37
102
{ACAD_XDICTIONARY
360
385
102
}
102
{ACAD_REACTORS
330
2A
102
}
330
2A
100
AcDbVisualStyle
  2

 70
    13
 71
     2
 72
     2
 73
     0
 90
        0
 40
-0.6
 41
-30.0
 62
     5
 63
     7
421
 16777215
 74
     1
 91
        4
 64
     7
 65
   257
 75
     1
175
     1
 42
1.0
 92
       12
 66
     7
 43
1.0
 76
     1
 77
     6
 78
     2
 67
     7
 79
     5
170
     0
171
     0
290
     0
174
     0
 93
        1
 44
0.0
173
     0
291
     1
 45
0.0
1001
ACAD
1000
AcDbSavedByObjectVersion
1070
     0
  0
VISUALSTYLE
  5
30
102
{ACAD_XDICTIONARY
360
377
102
}
102
{ACAD_REACTORS
330
2A
102
}
330
2A
100
AcDbVisualStyle
  2

 70
     5
 71
     0
 72
     2
 73
     0
 90
        0
 40
-0.6
 41
-30.0
 62
     5
 63
     7
421
 16777215
 74
     1
 91
        4
 64
     7
 65
   257
 75
     1
175
     1
 42
1.0
 92
        0
 66
   257
 43
1.0
 76
     1
 77
     6
 78
     2
 67
     7
 79
     3
170
     0
171
     0
290
     0
174
     0
 93
        1
 44
0.0
173
     0
291
     0
 45
0.0
1001
ACAD
1000
AcDbSavedByObjectVersion
1070
     0
  0
VISUALSTYLE
  5
40
102
{ACAD_XDICTIONARY
360
397
102
}
102
{ACAD_REACTORS
330
2A
102
}
330
2A
100
AcDbVisualStyle
  2

 70
    25
 71
     2
 72
     2
 73
     1
 90
        1
 40
0.5
 41
-30.0
 62
     5
 63
     7
421
 16777215
 74
     1
 91
        0
 64
     7
 65
   257
 75
     1
175
     1
 42
1.0
 92
        8
 66
     7
 43
1.0
 76
     1
 77
     6
 78
     2
 67
     7
 79
     3
170
     0
171
     0
290
     0
174
     0
 93
       13
 44
0.0
173
     0
291
     0
 45
0.0
1001
ACAD
1000
AcDbSavedByObjectVersion
1070
     0
  0
DICTIONARYVAR
  5
2B8
102
{ACAD_REACTORS
330
2B7
102
}
330
2B7
100
DictionaryVariables
280
     0
  1
1:1
  0
DICTIONARYVAR
  5
2F9
102
{ACAD_REACTORS
330
2B7
102
}
330
2B7
100
DictionaryVariables
280
     0
  1
STANDARD
  0
DICTIONARYVAR
  5
2F8
102
{ACAD_REACTORS
330
2B7
102
}
330
2B7
100
DictionaryVariables
280
     0
  1
STANDARD
  0
DICTIONARYVAR
  5
367
102
{ACAD_REACTORS
330
2B7
102
}
330
2B7
100
DictionaryVariables
280
     0
  1
Metric50
  0
DICTIONARYVAR
  5
368
102
{ACAD_REACTORS
330
2B7
102
}
330
2B7
100
DictionaryVariables
280
     0
  1
Metric50
  0
DICTIONARYVAR
  5
2B9
102
{ACAD_REACTORS
330
2B7
102
}
330
2B7
100
DictionaryVariables
280
     0
  1
1
  0
DICTIONARYVAR
  5
369
102
{ACAD_REACTORS
330
2B7
102
}
330
2B7
100
DictionaryVariables
280
     0
  1
2
  0
DICTIONARY
  5
3A0
330
300
100
AcDbDictionary
280
     1
281
     1
  3
ACAD_XREC_ROUNDTRIP
360
3A1
  0
DICTIONARY
  5
2ED
330
45
100
AcDbDictionary
280
     1
281
     1
  3
ACAD_XREC_ROUNDTRIP
360
2EE
  0
DICTIONARY
  5
2EB
330
44
100
AcDbDictionary
280
     1
281
     1
  3
ACAD_XREC_ROUNDTRIP
360
2EC
  0
DICTIONARY
  5
2EF
330
46
100
AcDbDictionary
280
     1
281
     1
  3
ACAD_XREC_ROUNDTRIP
360
2F0
  0
DICTIONARY
  5
39E
330
2FF
100
AcDbDictionary
280
     1
281
     1
  3
ACAD_XREC_ROUNDTRIP
360
39F
  0
DICTIONARY
  5
2F1
330
6A
100
AcDbDictionary
280
     1
281
     1
  3
ACAD_ROUNDTRIP_2008_TABLESTYLE_CELLSTYLEMAP
360
36B
  3
ACAD_XREC_ROUNDTRIP
360
39D
  0
DICTIONARY
  5
375
330
2F
100
AcDbDictionary
280
     1
281
     1
  3
ACAD_XREC_ROUNDTRIP
360
376
  0
DICTIONARY
  5
37B
330
32
100
AcDbDictionary
280
     1
281
     1
  3
ACAD_XREC_ROUNDTRIP
360
37C
  0
DICTIONARY
  5
383
330
36
100
AcDbDictionary
280
     1
281
     1
  3
ACAD_XREC_ROUNDTRIP
360
384
  0
DICTIONARY
  5
38B
330
3A
100
AcDbDictionary
280
     1
281
     1
  3
ACAD_XREC_ROUNDTRIP
360
38C
  0
DICTIONARY
  5
37F
330
34
100
AcDbDictionary
280
     1
281
     1
  3
ACAD_XREC_ROUNDTRIP
360
380
  0
DICTIONARY
  5
381
330
35
100
AcDbDictionary
280
     1
281
     1
  3
ACAD_XREC_ROUNDTRIP
360
382
  0
DICTIONARY
  5
391
330
3D
100
AcDbDictionary
280
     1
281
     1
  3
ACAD_XREC_ROUNDTRIP
360
392
  0
DICTIONARY
  5
389
330
39
100
AcDbDictionary
280
     1
281
     1
  3
ACAD_XREC_ROUNDTRIP
360
38A
  0
DICTIONARY
  5
36D
330
2B
100
AcDbDictionary
280
     1
281
     1
  3
ACAD_XREC_ROUNDTRIP
360
36E
  0
DICTIONARY
  5
36F
330
2C
100
AcDbDictionary
280
     1
281
     1
  3
ACAD_XREC_ROUNDTRIP
360
370
  0
DICTIONARY
  5
371
330
2D
100
AcDbDictionary
280
     1
281
     1
  3
ACAD_XREC_ROUNDTRIP
360
372
  0
DICTIONARY
  5
373
330
2E
100
AcDbDictionary
280
     1
281
     1
  3
ACAD_XREC_ROUNDTRIP
360
374
  0
DICTIONARY
  5
379
330
31
100
AcDbDictionary
280
     1
281
     1
  3
ACAD_XREC_ROUNDTRIP
360
37A
  0
DICTIONARY
  5
38D
330
3B
100
AcDbDictionary
280
     1
281
     1
  3
ACAD_XREC_ROUNDTRIP
360
38E
  0
DICTIONARY
  5
387
330
38
100
AcDbDictionary
280
     1
281
     1
  3
ACAD_XREC_ROUNDTRIP
360
388
  0
DICTIONARY
  5
38F
330
3C
100
AcDbDictionary
280
     1
281
     1
  3
ACAD_XREC_ROUNDTRIP
360
390
  0
DICTIONARY
  5
37D
330
33
100
AcDbDictionary
280
     1
281
     1
  3
ACAD_XREC_ROUNDTRIP
360
37E
  0
DICTIONARY
  5
39B
330
42
100
AcDbDictionary
280
     1
281
     1
  3
ACAD_XREC_ROUNDTRIP
360
39C
  0
DICTIONARY
  5
399
330
41
100
AcDbDictionary
280
     1
281
     1
  3
ACAD_XREC_ROUNDTRIP
360
39A
  0
DICTIONARY
  5
393
330
3E
100
AcDbDictionary
280
     1
281
     1
  3
ACAD_XREC_ROUNDTRIP
360
394
  0
DICTIONARY
  5
395
330
3F
100
AcDbDictionary
280
     1
281
     1
  3
ACAD_XREC_ROUNDTRIP
360
396
  0
DICTIONARY
  5
385
330
37
100
AcDbDictionary
280
     1
281
     1
  3
ACAD_XREC_ROUNDTRIP
360
386
  0
DICTIONARY
  5
377
330
30
100
AcDbDictionary
280
     1
281
     1
  3
ACAD_XREC_ROUNDTRIP
360
378
  0
DICTIONARY
  5
397
330
40
100
AcDbDictionary
280
     1
281
     1
  3
ACAD_XREC_ROUNDTRIP
360
398
  0
XRECORD
  5
3A1
102
{ACAD_REACTORS
330
3A0
102
}
330
3A0
100
AcDbXrecord
280
     1
102
DISPLAYNAME
  1
Metric50
102
FLAGS
 90
        0
  0
XRECORD
  5
2EE
102
{ACAD_REACTORS
330
2ED
102
}
330
2ED
100
AcDbXrecord
280
     1
102
MATERIAL
148
0.0
149
0.0
149
0.0
 93
        0
 94
      127
282
     0
 72
     1
 77
     1
171
     1
175
     1
179
     1
273
     0
  0
XRECORD
  5
2EC
102
{ACAD_REACTORS
330
2EB
102
}
330
2EB
100
AcDbXrecord
280
     1
102
MATERIAL
148
0.0
149
0.0
149
0.0
 93
        0
 94
      127
282
     0
 72
     1
 77
     1
171
     1
175
     1
179
     1
273
     0
  0
XRECORD
  5
2F0
102
{ACAD_REACTORS
330
2EF
102
}
330
2EF
100
AcDbXrecord
280
     1
102
MATERIAL
148
0.0
149
0.0
149
0.0
 93
        0
 94
      127
282
     0
 72
     1
 77
     1
171
     1
175
     1
179
     1
273
     0
  0
XRECORD
  5
39F
102
{ACAD_REACTORS
330
39E
102
}
330
39E
100
AcDbXrecord
280
     1
102
DISPLAYNAME
  1
Metric50
102
FLAGS
 90
        0
  0
CELLSTYLEMAP
  5
36B
102
{ACAD_REACTORS
330
2F1
102
}
330
2F1
100
AcDbCellStyleMap
 90
        3
300
CELLSTYLE
  1
TABLEFORMAT_BEGIN
 90
        5
170
     1
 91
        0
 92
    32768
 62
   257
 93
        1
300
CONTENTFORMAT
  1
CONTENTFORMAT_BEGIN
 90
        0
 91
        0
 92
        4
 93
        0
300

 40
0.0
140
1.0
 94
        5
 62
     0
340
11
144
0.25
309
CONTENTFORMAT_END
171
     1
301
MARGIN
  1
CELLMARGIN_BEGIN
 40
0.06
 40
0.06
 40
0.06
 40
0.06
 40
0.18
 40
0.18
309
CELLMARGIN_END
 94
        6
 95
        1
302
GRIDFORMAT
  1
GRIDFORMAT_BEGIN
 90
        0
 91
        1
 62
     0
 92
       -2
340
14
 93
        0
 40
0.045
309
GRIDFORMAT_END
 95
        2
302
GRIDFORMAT
  1
GRIDFORMAT_BEGIN
 90
        0
 91
        1
 62
     0
 92
       -2
340
14
 93
        0
 40
0.045
309
GRIDFORMAT_END
 95
        4
302
GRIDFORMAT
  1
GRIDFORMAT_BEGIN
 90
        0
 91
        1
 62
     0
 92
       -2
340
14
 93
        0
 40
0.045
309
GRIDFORMAT_END
 95
        8
302
GRIDFORMAT
  1
GRIDFORMAT_BEGIN
 90
        0
 91
        1
 62
     0
 92
       -2
340
14
 93
        0
 40
0.045
309
GRIDFORMAT_END
 95
       16
302
GRIDFORMAT
  1
GRIDFORMAT_BEGIN
 90
        0
 91
        1
 62
     0
 92
       -2
340
14
 93
        0
 40
0.045
309
GRIDFORMAT_END
 95
       32
302
GRIDFORMAT
  1
GRIDFORMAT_BEGIN
 90
        0
 91
        1
 62
     0
 92
       -2
340
14
 93
        0
 40
0.045
309
GRIDFORMAT_END
309
TABLEFORMAT_END
  1
CELLSTYLE_BEGIN
 90
        1
 91
        1
300
_TITLE
309
CELLSTYLE_END
300
CELLSTYLE
  1
TABLEFORMAT_BEGIN
 90
        5
170
     1
 91
        0
 92
        0
 62
   257
 93
        1
300
CONTENTFORMAT
  1
CONTENTFORMAT_BEGIN
 90
        0
 91
        0
 92
        4
 93
        0
300

 40
0.0
140
1.0
 94
        5
 62
     0
340
11
144
0.18
309
CONTENTFORMAT_END
171
     1
301
MARGIN
  1
CELLMARGIN_BEGIN
 40
0.06
 40
0.06
 40
0.06
 40
0.06
 40
0.18
 40
0.18
309
CELLMARGIN_END
 94
        6
 95
        1
302
GRIDFORMAT
  1
GRIDFORMAT_BEGIN
 90
        0
 91
        1
 62
     0
 92
       -2
340
14
 93
        0
 40
0.045
309
GRIDFORMAT_END
 95
        2
302
GRIDFORMAT
  1
GRIDFORMAT_BEGIN
 90
        0
 91
        1
 62
     0
 92
       -2
340
14
 93
        0
 40
0.045
309
GRIDFORMAT_END
 95
        4
302
GRIDFORMAT
  1
GRIDFORMAT_BEGIN
 90
        0
 91
        1
 62
     0
 92
       -2
340
14
 93
        0
 40
0.045
309
GRIDFORMAT_END
 95
        8
302
GRIDFORMAT
  1
GRIDFORMAT_BEGIN
 90
        0
 91
        1
 62
     0
 92
       -2
340
14
 93
        0
 40
0.045
309
GRIDFORMAT_END
 95
       16
302
GRIDFORMAT
  1
GRIDFORMAT_BEGIN
 90
        0
 91
        1
 62
     0
 92
       -2
340
14
 93
        0
 40
0.045
309
GRIDFORMAT_END
 95
       32
302
GRIDFORMAT
  1
GRIDFORMAT_BEGIN
 90
        0
 91
        1
 62
     0
 92
       -2
340
14
 93
        0
 40
0.045
309
GRIDFORMAT_END
309
TABLEFORMAT_END
  1
CELLSTYLE_BEGIN
 90
        2
 91
        1
300
_HEADER
309
CELLSTYLE_END
300
CELLSTYLE
  1
TABLEFORMAT_BEGIN
 90
        5
170
     1
 91
        0
 92
        0
 62
   257
 93
        1
300
CONTENTFORMAT
  1
CONTENTFORMAT_BEGIN
 90
        0
 91
        0
 92
        4
 93
        0
300

 40
0.0
140
1.0
 94
        2
 62
     0
340
11
144
0.18
309
CONTENTFORMAT_END
171
     1
301
MARGIN
  1
CELLMARGIN_BEGIN
 40
0.06
 40
0.06
 40
0.06
 40
0.06
 40
0.18
 40
0.18
309
CELLMARGIN_END
 94
        6
 95
        1
302
GRIDFORMAT
  1
GRIDFORMAT_BEGIN
 90
        0
 91
        1
 62
     0
 92
       -2
340
14
 93
        0
 40
0.045
309
GRIDFORMAT_END
 95
        2
302
GRIDFORMAT
  1
GRIDFORMAT_BEGIN
 90
        0
 91
        1
 62
     0
 92
       -2
340
14
 93
        0
 40
0.045
309
GRIDFORMAT_END
 95
        4
302
GRIDFORMAT
  1
GRIDFORMAT_BEGIN
 90
        0
 91
        1
 62
     0
 92
       -2
340
14
 93
        0
 40
0.045
309
GRIDFORMAT_END
 95
        8
302
GRIDFORMAT
  1
GRIDFORMAT_BEGIN
 90
        0
 91
        1
 62
     0
 92
       -2
340
14
 93
        0
 40
0.045
309
GRIDFORMAT_END
 95
       16
302
GRIDFORMAT
  1
GRIDFORMAT_BEGIN
 90
        0
 91
        1
 62
     0
 92
       -2
340
14
 93
        0
 40
0.045
309
GRIDFORMAT_END
 95
       32
302
GRIDFORMAT
  1
GRIDFORMAT_BEGIN
 90
        0
 91
        1
 62
     0
 92
       -2
340
14
 93
        0
 40
0.045
309
GRIDFORMAT_END
309
TABLEFORMAT_END
  1
CELLSTYLE_BEGIN
 90
        3
 91
        2
300
_DATA
309
CELLSTYLE_END
  0
XRECORD
  5
39D
102
{ACAD_REACTORS
330
2F1
102
}
330
2F1
100
AcDbXrecord
280
     1
102
ACAD_ROUNDTRIP_PRE2007_TABLESTYLE
 90
        4
 91
        0
  1

 92
        4
 93
        0
  2

 94
        4
 95
        0
  3

  0
XRECORD
  5
376
102
{ACAD_REACTORS
330
375
102
}
330
375
100
AcDbXrecord
280
     1
102
RTVSPost2010Prop28
280
     1
102
RTVSPost2010PropOp28
 70
     1
102
RTVSPost2010Prop29
280
     1
102
RTVSPost2010PropOp29
 70
     1
102
RTVSPost2010Prop30
280
     0
102
RTVSPost2010PropOp30
 70
     1
102
RTVSPost2010Prop31
280
     0
102
RTVSPost2010PropOp31
 70
     1
102
RTVSPost2010Prop32
280
     0
102
RTVSPost2010PropOp32
 70
     1
102
RTVSPost2010Prop33
280
     0
102
RTVSPost2010PropOp33
 70
     1
102
RTVSPost2010Prop34
280
     0
102
RTVSPost2010PropOp34
 70
     1
102
RTVSPost2010Prop35
280
     0
102
RTVSPost2010PropOp35
 70
     1
102
RTVSPost2010Prop36
280
     0
102
RTVSPost2010PropOp36
 70
     1
102
RTVSPost2010Prop37
 90
       50
102
RTVSPost2010PropOp37
 70
     1
102
RTVSPost2010Prop38
140
0.0
102
RTVSPost2010PropOp38
 70
     1
102
RTVSPost2010Prop39
140
1.0
102
RTVSPost2010PropOp39
 70
     1
102
RTVSPost2010Prop40
 90
        0
102
RTVSPost2010PropOp40
 70
     1
102
RTVSPost2010Prop41ColorIndex
 90
       18
102
RTVSPost2010Prop41ColorRGB
 90
        0
102
RTVSPost2010PropOp41
 70
     1
102
RTVSPost2010Prop42
 90
       50
102
RTVSPost2010PropOp42
 70
     1
102
RTVSPost2010Prop43
 90
        3
102
RTVSPost2010PropOp43
 70
     1
102
RTVSPost2010Prop44ColorIndex
 90
        5
102
RTVSPost2010Prop44ColorRGB
 90
      255
102
RTVSPost2010PropOp44
 70
     1
102
RTVSPost2010Prop45
280
     0
102
RTVSPost2010PropOp45
 70
     1
102
RTVSPost2010Prop46
 90
       50
102
RTVSPost2010PropOp46
 70
     1
102
RTVSPost2010Prop47
 90
       50
102
RTVSPost2010PropOp47
 70
     1
102
RTVSPost2010Prop48
 90
       50
102
RTVSPost2010PropOp48
 70
     1
102
RTVSPost2010Prop49
280
     0
102
RTVSPost2010PropOp49
 70
     1
102
RTVSPost2010Prop50
 90
       50
102
RTVSPost2010PropOp50
 70
     1
102
RTVSPost2010Prop51ColorIndex
 90
      256
102
RTVSPost2010Prop51ColorRGB
 90
-16777216
102
RTVSPost2010PropOp51
 70
     0
102
RTVSPost2010Prop52
140
1.0
102
RTVSPost2010PropOp52
 70
     0
102
RTVSPost2010Prop53
 90
        2
102
RTVSPost2010PropOp53
 70
     1
102
RTVSPost2010Prop54
  1
strokes_ogs.tif
102
RTVSPost2010PropOp54
 70
     1
102
RTVSPost2010Prop55
280
     0
102
RTVSPost2010PropOp55
 70
     1
102
RTVSPost2010Prop56
140
1.0
102
RTVSPost2010PropOp56
 70
     1
102
RTVSPost2010Prop57
140
1.0
102
RTVSPost2010PropOp57
 70
     1
102
RTVSPropertyOp0
 70
     1
102
RTVSPropertyOp1
 70
     1
102
RTVSPropertyOp2
 70
     1
102
RTVSPropertyOp3
 70
     1
102
RTVSPropertyOp4
 70
     1
102
RTVSPropertyOp5
 70
     1
102
RTVSPropertyOp6
 70
     1
102
RTVSPropertyOp7
 70
     1
102
RTVSPropertyOp8
 70
     1
102
RTVSPropertyOp9
 70
     1
102
RTVSPropertyOp10
 70
     1
102
RTVSPropertyOp11
 70
     1
102
RTVSPropertyOp12
 70
     1
102
RTVSPropertyOp13
 70
     1
102
RTVSPropertyOp14
 70
     1
102
RTVSPropertyOp15
 70
     1
102
RTVSPropertyOp16
 70
     1
102
RTVSPropertyOp17
 70
     1
102
RTVSPropertyOp18
 70
     1
102
RTVSPropertyOp19
 70
     1
102
RTVSPropertyOp20
 70
     1
102
RTVSPropertyOp21
 70
     1
102
RTVSPropertyOp22
 70
     1
102
RTVSPropertyOp23
 70
     1
102
RTVSPropertyOp24
 70
     1
102
RTVSPropertyOp25
 70
     1
102
RTVSPropertyOp26
 70
     1
102
RTVSPropertyOp27
 70
     1
102
RTVSPropertyOp28
 70
     1
102
RTVSPropertyOp29
 70
     1
102
RTVSPropertyOp30
 70
     1
102
RTVSPropertyOp31
 70
     1
102
RTVSPropertyOp32
 70
     1
102
RTVSPropertyOp33
 70
     1
102
RTVSPropertyOp34
 70
     1
102
RTVSPropertyOp35
 70
     1
102
RTVSPropertyOp36
 70
     1
102
RTVSPropertyOp37
 70
     1
102
RTVSPropertyOp38
 70
     1
102
RTVSPropertyOp39
 70
     1
102
RTVSPropertyOp40
 70
     1
102
RTVSPropertyOp41
 70
     1
102
RTVSPropertyOp42
 70
     1
102
RTVSPropertyOp43
 70
     1
102
RTVSPropertyOp44
 70
     1
102
RTVSPropertyOp45
 70
     1
102
RTVSPropertyOp46
 70
     1
102
RTVSPropertyOp47
 70
     1
102
RTVSPropertyOp48
 70
     1
102
RTVSPropertyOp49
 70
     1
102
RTVSPropertyOp50
 70
     1
102
RTVSPropertyOp51
 70
     0
102
RTVSPropertyOp52
 70
     0
102
RTVSPropertyOp53
 70
     1
102
RTVSPropertyOp54
 70
     1
102
RTVSPropertyOp55
 70
     1
102
RTVSPropertyOp56
 70
     1
102
RTVSPropertyOp57
 70
     1
102
RTVSPropertyOp58
 70
     1
102
RTVSPropertyOp59
 70
     1
102
RTVSPropertyOp60
 70
     1
102
RTVSPropertyOp61
 70
     1
102
RTVSPropertyOp62
 70
     1
  0
XRECORD
  5
37C
102
{ACAD_REACTORS
330
37B
102
}
330
37B
100
AcDbXrecord
280
     1
102
RTVSPost2010Prop28
280
     0
102
RTVSPost2010PropOp28
 70
     1
102
RTVSPost2010Prop29
280
     1
102
RTVSPost2010PropOp29
 70
     1
102
RTVSPost2010Prop30
280
     1
102
RTVSPost2010PropOp30
 70
     1
102
RTVSPost2010Prop31
280
     0
102
RTVSPost2010PropOp31
 70
     1
102
RTVSPost2010Prop32
280
     0
102
RTVSPost2010PropOp32
 70
     1
102
RTVSPost2010Prop33
280
     0
102
RTVSPost2010PropOp33
 70
     1
102
RTVSPost2010Prop34
280
     0
102
RTVSPost2010PropOp34
 70
     1
102
RTVSPost2010Prop35
280
     0
102
RTVSPost2010PropOp35
 70
     1
102
RTVSPost2010Prop36
280
     0
102
RTVSPost2010PropOp36
 70
     1
102
RTVSPost2010Prop37
 90
       50
102
RTVSPost2010PropOp37
 70
     1
102
RTVSPost2010Prop38
140
0.0
102
RTVSPost2010PropOp38
 70
     1
102
RTVSPost2010Prop39
140
1.0
102
RTVSPost2010PropOp39
 70
     1
102
RTVSPost2010Prop40
 90
        0
102
RTVSPost2010PropOp40
 70
     1
102
RTVSPost2010Prop41ColorIndex
 90
       18
102
RTVSPost2010Prop41ColorRGB
 90
        0
102
RTVSPost2010PropOp41
 70
     1
102
RTVSPost2010Prop42
 90
       50
102
RTVSPost2010PropOp42
 70
     1
102
RTVSPost2010Prop43
 90
        3
102
RTVSPost2010PropOp43
 70
     1
102
RTVSPost2010Prop44ColorIndex
 90
        5
102
RTVSPost2010Prop44ColorRGB
 90
      255
102
RTVSPost2010PropOp44
 70
     1
102
RTVSPost2010Prop45
280
     0
102
RTVSPost2010PropOp45
 70
     1
102
RTVSPost2010Prop46
 90
       50
102
RTVSPost2010PropOp46
 70
     1
102
RTVSPost2010Prop47
 90
       50
102
RTVSPost2010PropOp47
 70
     1
102
RTVSPost2010Prop48
 90
       50
102
RTVSPost2010PropOp48
 70
     1
102
RTVSPost2010Prop49
280
     0
102
RTVSPost2010PropOp49
 70
     1
102
RTVSPost2010Prop50
 90
       50
102
RTVSPost2010PropOp50
 70
     1
102
RTVSPost2010Prop51ColorIndex
 90
      256
102
RTVSPost2010Prop51ColorRGB
 90
-16777216
102
RTVSPost2010PropOp51
 70
     0
102
RTVSPost2010Prop52
140
1.0
102
RTVSPost2010PropOp52
 70
     0
102
RTVSPost2010Prop53
 90
        2
102
RTVSPost2010PropOp53
 70
     1
102
RTVSPost2010Prop54
  1
strokes_ogs.tif
102
RTVSPost2010PropOp54
 70
     1
102
RTVSPost2010Prop55
280
     0
102
RTVSPost2010PropOp55
 70
     1
102
RTVSPost2010Prop56
140
1.0
102
RTVSPost2010PropOp56
 70
     1
102
RTVSPost2010Prop57
140
1.0
102
RTVSPost2010PropOp57
 70
     1
102
RTVSPropertyOp0
 70
     1
102
RTVSPropertyOp1
 70
     1
102
RTVSPropertyOp2
 70
     1
102
RTVSPropertyOp3
 70
     1
102
RTVSPropertyOp4
 70
     1
102
RTVSPropertyOp5
 70
     1
102
RTVSPropertyOp6
 70
     1
102
RTVSPropertyOp7
 70
     1
102
RTVSPropertyOp8
 70
     1
102
RTVSPropertyOp9
 70
     1
102
RTVSPropertyOp10
 70
     1
102
RTVSPropertyOp11
 70
     1
102
RTVSPropertyOp12
 70
     1
102
RTVSPropertyOp13
 70
     1
102
RTVSPropertyOp14
 70
     1
102
RTVSPropertyOp15
 70
     1
102
RTVSPropertyOp16
 70
     1
102
RTVSPropertyOp17
 70
     1
102
RTVSPropertyOp18
 70
     1
102
RTVSPropertyOp19
 70
     1
102
RTVSPropertyOp20
 70
     1
102
RTVSPropertyOp21
 70
     1
102
RTVSPropertyOp22
 70
     1
102
RTVSPropertyOp23
 70
     1
102
RTVSPropertyOp24
 70
     1
102
RTVSPropertyOp25
 70
     1
102
RTVSPropertyOp26
 70
     1
102
RTVSPropertyOp27
 70
     1
102
RTVSPropertyOp28
 70
     1
102
RTVSPropertyOp29
 70
     1
102
RTVSPropertyOp30
 70
     1
102
RTVSPropertyOp31
 70
     1
102
RTVSPropertyOp32
 70
     1
102
RTVSPropertyOp33
 70
     1
102
RTVSPropertyOp34
 70
     1
102
RTVSPropertyOp35
 70
     1
102
RTVSPropertyOp36
 70
     1
102
RTVSPropertyOp37
 70
     1
102
RTVSPropertyOp38
 70
     1
102
RTVSPropertyOp39
 70
     1
102
RTVSPropertyOp40
 70
     1
102
RTVSPropertyOp41
 70
     1
102
RTVSPropertyOp42
 70
     1
102
RTVSPropertyOp43
 70
     1
102
RTVSPropertyOp44
 70
     1
102
RTVSPropertyOp45
 70
     1
102
RTVSPropertyOp46
 70
     1
102
RTVSPropertyOp47
 70
     1
102
RTVSPropertyOp48
 70
     1
102
RTVSPropertyOp49
 70
     1
102
RTVSPropertyOp50
 70
     1
102
RTVSPropertyOp51
 70
     0
102
RTVSPropertyOp52
 70
     0
102
RTVSPropertyOp53
 70
     1
102
RTVSPropertyOp54
 70
     1
102
RTVSPropertyOp55
 70
     1
102
RTVSPropertyOp56
 70
     1
102
RTVSPropertyOp57
 70
     1
102
RTVSPropertyOp58
 70
     1
102
RTVSPropertyOp59
 70
     1
102
RTVSPropertyOp60
 70
     1
102
RTVSPropertyOp61
 70
     1
102
RTVSPropertyOp62
 70
     1
  0
XRECORD
  5
384
102
{ACAD_REACTORS
330
383
102
}
330
383
100
AcDbXrecord
280
     1
102
RTVSPost2010Prop28
280
     0
102
RTVSPost2010PropOp28
 70
     1
102
RTVSPost2010Prop29
280
     1
102
RTVSPost2010PropOp29
 70
     1
102
RTVSPost2010Prop30
280
     1
102
RTVSPost2010PropOp30
 70
     1
102
RTVSPost2010Prop31
280
     0
102
RTVSPost2010PropOp31
 70
     1
102
RTVSPost2010Prop32
280
     0
102
RTVSPost2010PropOp32
 70
     1
102
RTVSPost2010Prop33
280
     0
102
RTVSPost2010PropOp33
 70
     1
102
RTVSPost2010Prop34
280
     0
102
RTVSPost2010PropOp34
 70
     1
102
RTVSPost2010Prop35
280
     0
102
RTVSPost2010PropOp35
 70
     1
102
RTVSPost2010Prop36
280
     0
102
RTVSPost2010PropOp36
 70
     1
102
RTVSPost2010Prop37
 90
       50
102
RTVSPost2010PropOp37
 70
     1
102
RTVSPost2010Prop38
140
0.0
102
RTVSPost2010PropOp38
 70
     1
102
RTVSPost2010Prop39
140
1.0
102
RTVSPost2010PropOp39
 70
     1
102
RTVSPost2010Prop40
 90
        0
102
RTVSPost2010PropOp40
 70
     1
102
RTVSPost2010Prop41ColorIndex
 90
       18
102
RTVSPost2010Prop41ColorRGB
 90
        0
102
RTVSPost2010PropOp41
 70
     1
102
RTVSPost2010Prop42
 90
       50
102
RTVSPost2010PropOp42
 70
     1
102
RTVSPost2010Prop43
 90
        3
102
RTVSPost2010PropOp43
 70
     1
102
RTVSPost2010Prop44ColorIndex
 90
        5
102
RTVSPost2010Prop44ColorRGB
 90
      255
102
RTVSPost2010PropOp44
 70
     1
102
RTVSPost2010Prop45
280
     0
102
RTVSPost2010PropOp45
 70
     1
102
RTVSPost2010Prop46
 90
       50
102
RTVSPost2010PropOp46
 70
     1
102
RTVSPost2010Prop47
 90
       50
102
RTVSPost2010PropOp47
 70
     1
102
RTVSPost2010Prop48
 90
       50
102
RTVSPost2010PropOp48
 70
     1
102
RTVSPost2010Prop49
280
     0
102
RTVSPost2010PropOp49
 70
     1
102
RTVSPost2010Prop50
 90
       50
102
RTVSPost2010PropOp50
 70
     1
102
RTVSPost2010Prop51ColorIndex
 90
      256
102
RTVSPost2010Prop51ColorRGB
 90
-16777216
102
RTVSPost2010PropOp51
 70
     0
102
RTVSPost2010Prop52
140
1.0
102
RTVSPost2010PropOp52
 70
     0
102
RTVSPost2010Prop53
 90
        2
102
RTVSPost2010PropOp53
 70
     1
102
RTVSPost2010Prop54
  1
strokes_ogs.tif
102
RTVSPost2010PropOp54
 70
     1
102
RTVSPost2010Prop55
280
     0
102
RTVSPost2010PropOp55
 70
     1
102
RTVSPost2010Prop56
140
1.0
102
RTVSPost2010PropOp56
 70
     1
102
RTVSPost2010Prop57
140
1.0
102
RTVSPost2010PropOp57
 70
     1
102
RTVSPropertyOp0
 70
     1
102
RTVSPropertyOp1
 70
     1
102
RTVSPropertyOp2
 70
     1
102
RTVSPropertyOp3
 70
     1
102
RTVSPropertyOp4
 70
     1
102
RTVSPropertyOp5
 70
     1
102
RTVSPropertyOp6
 70
     1
102
RTVSPropertyOp7
 70
     1
102
RTVSPropertyOp8
 70
     1
102
RTVSPropertyOp9
 70
     1
102
RTVSPropertyOp10
 70
     1
102
RTVSPropertyOp11
 70
     1
102
RTVSPropertyOp12
 70
     1
102
RTVSPropertyOp13
 70
     1
102
RTVSPropertyOp14
 70
     1
102
RTVSPropertyOp15
 70
     1
102
RTVSPropertyOp16
 70
     1
102
RTVSPropertyOp17
 70
     1
102
RTVSPropertyOp18
 70
     1
102
RTVSPropertyOp19
 70
     1
102
RTVSPropertyOp20
 70
     1
102
RTVSPropertyOp21
 70
     1
102
RTVSPropertyOp22
 70
     1
102
RTVSPropertyOp23
 70
     1
102
RTVSPropertyOp24
 70
     1
102
RTVSPropertyOp25
 70
     1
102
RTVSPropertyOp26
 70
     1
102
RTVSPropertyOp27
 70
     1
102
RTVSPropertyOp28
 70
     1
102
RTVSPropertyOp29
 70
     1
102
RTVSPropertyOp30
 70
     1
102
RTVSPropertyOp31
 70
     1
102
RTVSPropertyOp32
 70
     1
102
RTVSPropertyOp33
 70
     1
102
RTVSPropertyOp34
 70
     1
102
RTVSPropertyOp35
 70
     1
102
RTVSPropertyOp36
 70
     1
102
RTVSPropertyOp37
 70
     1
102
RTVSPropertyOp38
 70
     1
102
RTVSPropertyOp39
 70
     1
102
RTVSPropertyOp40
 70
     1
102
RTVSPropertyOp41
 70
     1
102
RTVSPropertyOp42
 70
     1
102
RTVSPropertyOp43
 70
     1
102
RTVSPropertyOp44
 70
     1
102
RTVSPropertyOp45
 70
     1
102
RTVSPropertyOp46
 70
     1
102
RTVSPropertyOp47
 70
     1
102
RTVSPropertyOp48
 70
     1
102
RTVSPropertyOp49
 70
     1
102
RTVSPropertyOp50
 70
     1
102
RTVSPropertyOp51
 70
     0
102
RTVSPropertyOp52
 70
     0
102
RTVSPropertyOp53
 70
     1
102
RTVSPropertyOp54
 70
     1
102
RTVSPropertyOp55
 70
     1
102
RTVSPropertyOp56
 70
     1
102
RTVSPropertyOp57
 70
     1
102
RTVSPropertyOp58
 70
     1
102
RTVSPropertyOp59
 70
     1
102
RTVSPropertyOp60
 70
     1
102
RTVSPropertyOp61
 70
     1
102
RTVSPropertyOp62
 70
     1
  0
XRECORD
  5
38C
102
{ACAD_REACTORS
330
38B
102
}
330
38B
100
AcDbXrecord
280
     1
102
RTVSPost2010Prop28
280
     0
102
RTVSPost2010PropOp28
 70
     1
102
RTVSPost2010Prop29
280
     1
102
RTVSPost2010PropOp29
 70
     1
102
RTVSPost2010Prop30
280
     1
102
RTVSPost2010PropOp30
 70
     1
102
RTVSPost2010Prop31
280
     0
102
RTVSPost2010PropOp31
 70
     1
102
RTVSPost2010Prop32
280
     0
102
RTVSPost2010PropOp32
 70
     1
102
RTVSPost2010Prop33
280
     0
102
RTVSPost2010PropOp33
 70
     1
102
RTVSPost2010Prop34
280
     0
102
RTVSPost2010PropOp34
 70
     1
102
RTVSPost2010Prop35
280
     0
102
RTVSPost2010PropOp35
 70
     1
102
RTVSPost2010Prop36
280
     0
102
RTVSPost2010PropOp36
 70
     1
102
RTVSPost2010Prop37
 90
       50
102
RTVSPost2010PropOp37
 70
     1
102
RTVSPost2010Prop38
140
0.0
102
RTVSPost2010PropOp38
 70
     1
102
RTVSPost2010Prop39
140
1.0
102
RTVSPost2010PropOp39
 70
     1
102
RTVSPost2010Prop40
 90
        0
102
RTVSPost2010PropOp40
 70
     1
102
RTVSPost2010Prop41ColorIndex
 90
       18
102
RTVSPost2010Prop41ColorRGB
 90
        0
102
RTVSPost2010PropOp41
 70
     1
102
RTVSPost2010Prop42
 90
       50
102
RTVSPost2010PropOp42
 70
     1
102
RTVSPost2010Prop43
 90
        3
102
RTVSPost2010PropOp43
 70
     1
102
RTVSPost2010Prop44ColorIndex
 90
        5
102
RTVSPost2010Prop44ColorRGB
 90
      255
102
RTVSPost2010PropOp44
 70
     1
102
RTVSPost2010Prop45
280
     0
102
RTVSPost2010PropOp45
 70
     1
102
RTVSPost2010Prop46
 90
       50
102
RTVSPost2010PropOp46
 70
     1
102
RTVSPost2010Prop47
 90
       50
102
RTVSPost2010PropOp47
 70
     1
102
RTVSPost2010Prop48
 90
       50
102
RTVSPost2010PropOp48
 70
     1
102
RTVSPost2010Prop49
280
     0
102
RTVSPost2010PropOp49
 70
     1
102
RTVSPost2010Prop50
 90
       50
102
RTVSPost2010PropOp50
 70
     1
102
RTVSPost2010Prop51ColorIndex
 90
      256
102
RTVSPost2010Prop51ColorRGB
 90
-16777216
102
RTVSPost2010PropOp51
 70
     0
102
RTVSPost2010Prop52
140
1.0
102
RTVSPost2010PropOp52
 70
     0
102
RTVSPost2010Prop53
 90
        2
102
RTVSPost2010PropOp53
 70
     1
102
RTVSPost2010Prop54
  1
strokes_ogs.tif
102
RTVSPost2010PropOp54
 70
     1
102
RTVSPost2010Prop55
280
     0
102
RTVSPost2010PropOp55
 70
     1
102
RTVSPost2010Prop56
140
1.0
102
RTVSPost2010PropOp56
 70
     1
102
RTVSPost2010Prop57
140
1.0
102
RTVSPost2010PropOp57
 70
     1
102
RTVSPropertyOp0
 70
     1
102
RTVSPropertyOp1
 70
     1
102
RTVSPropertyOp2
 70
     1
102
RTVSPropertyOp3
 70
     1
102
RTVSPropertyOp4
 70
     1
102
RTVSPropertyOp5
 70
     1
102
RTVSPropertyOp6
 70
     1
102
RTVSPropertyOp7
 70
     1
102
RTVSPropertyOp8
 70
     1
102
RTVSPropertyOp9
 70
     1
102
RTVSPropertyOp10
 70
     1
102
RTVSPropertyOp11
 70
     1
102
RTVSPropertyOp12
 70
     1
102
RTVSPropertyOp13
 70
     1
102
RTVSPropertyOp14
 70
     1
102
RTVSPropertyOp15
 70
     1
102
RTVSPropertyOp16
 70
     1
102
RTVSPropertyOp17
 70
     1
102
RTVSPropertyOp18
 70
     1
102
RTVSPropertyOp19
 70
     1
102
RTVSPropertyOp20
 70
     1
102
RTVSPropertyOp21
 70
     1
102
RTVSPropertyOp22
 70
     1
102
RTVSPropertyOp23
 70
     1
102
RTVSPropertyOp24
 70
     1
102
RTVSPropertyOp25
 70
     1
102
RTVSPropertyOp26
 70
     1
102
RTVSPropertyOp27
 70
     1
102
RTVSPropertyOp28
 70
     1
102
RTVSPropertyOp29
 70
     1
102
RTVSPropertyOp30
 70
     1
102
RTVSPropertyOp31
 70
     1
102
RTVSPropertyOp32
 70
     1
102
RTVSPropertyOp33
 70
     1
102
RTVSPropertyOp34
 70
     1
102
RTVSPropertyOp35
 70
     1
102
RTVSPropertyOp36
 70
     1
102
RTVSPropertyOp37
 70
     1
102
RTVSPropertyOp38
 70
     1
102
RTVSPropertyOp39
 70
     1
102
RTVSPropertyOp40
 70
     1
102
RTVSPropertyOp41
 70
     1
102
RTVSPropertyOp42
 70
     1
102
RTVSPropertyOp43
 70
     1
102
RTVSPropertyOp44
 70
     1
102
RTVSPropertyOp45
 70
     1
102
RTVSPropertyOp46
 70
     1
102
RTVSPropertyOp47
 70
     1
102
RTVSPropertyOp48
 70
     1
102
RTVSPropertyOp49
 70
     1
102
RTVSPropertyOp50
 70
     1
102
RTVSPropertyOp51
 70
     0
102
RTVSPropertyOp52
 70
     0
102
RTVSPropertyOp53
 70
     1
102
RTVSPropertyOp54
 70
     1
102
RTVSPropertyOp55
 70
     1
102
RTVSPropertyOp56
 70
     1
102
RTVSPropertyOp57
 70
     1
102
RTVSPropertyOp58
 70
     1
102
RTVSPropertyOp59
 70
     1
102
RTVSPropertyOp60
 70
     1
102
RTVSPropertyOp61
 70
     1
102
RTVSPropertyOp62
 70
     1
  0
XRECORD
  5
380
102
{ACAD_REACTORS
330
37F
102
}
330
37F
100
AcDbXrecord
280
     1
102
RTVSPost2010Prop28
280
     0
102
RTVSPost2010PropOp28
 70
     1
102
RTVSPost2010Prop29
280
     1
102
RTVSPost2010PropOp29
 70
     1
102
RTVSPost2010Prop30
280
     1
102
RTVSPost2010PropOp30
 70
     1
102
RTVSPost2010Prop31
280
     0
102
RTVSPost2010PropOp31
 70
     1
102
RTVSPost2010Prop32
280
     0
102
RTVSPost2010PropOp32
 70
     1
102
RTVSPost2010Prop33
280
     0
102
RTVSPost2010PropOp33
 70
     1
102
RTVSPost2010Prop34
280
     0
102
RTVSPost2010PropOp34
 70
     1
102
RTVSPost2010Prop35
280
     0
102
RTVSPost2010PropOp35
 70
     1
102
RTVSPost2010Prop36
280
     0
102
RTVSPost2010PropOp36
 70
     1
102
RTVSPost2010Prop37
 90
       50
102
RTVSPost2010PropOp37
 70
     1
102
RTVSPost2010Prop38
140
0.0
102
RTVSPost2010PropOp38
 70
     1
102
RTVSPost2010Prop39
140
1.0
102
RTVSPost2010PropOp39
 70
     1
102
RTVSPost2010Prop40
 90
        0
102
RTVSPost2010PropOp40
 70
     1
102
RTVSPost2010Prop41ColorIndex
 90
       18
102
RTVSPost2010Prop41ColorRGB
 90
        0
102
RTVSPost2010PropOp41
 70
     1
102
RTVSPost2010Prop42
 90
       50
102
RTVSPost2010PropOp42
 70
     1
102
RTVSPost2010Prop43
 90
        3
102
RTVSPost2010PropOp43
 70
     1
102
RTVSPost2010Prop44ColorIndex
 90
        5
102
RTVSPost2010Prop44ColorRGB
 90
      255
102
RTVSPost2010PropOp44
 70
     1
102
RTVSPost2010Prop45
280
     0
102
RTVSPost2010PropOp45
 70
     1
102
RTVSPost2010Prop46
 90
       50
102
RTVSPost2010PropOp46
 70
     1
102
RTVSPost2010Prop47
 90
       50
102
RTVSPost2010PropOp47
 70
     1
102
RTVSPost2010Prop48
 90
       50
102
RTVSPost2010PropOp48
 70
     1
102
RTVSPost2010Prop49
280
     0
102
RTVSPost2010PropOp49
 70
     1
102
RTVSPost2010Prop50
 90
       50
102
RTVSPost2010PropOp50
 70
     1
102
RTVSPost2010Prop51ColorIndex
 90
      256
102
RTVSPost2010Prop51ColorRGB
 90
-16777216
102
RTVSPost2010PropOp51
 70
     0
102
RTVSPost2010Prop52
140
1.0
102
RTVSPost2010PropOp52
 70
     0
102
RTVSPost2010Prop53
 90
        2
102
RTVSPost2010PropOp53
 70
     1
102
RTVSPost2010Prop54
  1
strokes_ogs.tif
102
RTVSPost2010PropOp54
 70
     1
102
RTVSPost2010Prop55
280
     0
102
RTVSPost2010PropOp55
 70
     1
102
RTVSPost2010Prop56
140
1.0
102
RTVSPost2010PropOp56
 70
     1
102
RTVSPost2010Prop57
140
1.0
102
RTVSPost2010PropOp57
 70
     1
102
RTVSPropertyOp0
 70
     1
102
RTVSPropertyOp1
 70
     1
102
RTVSPropertyOp2
 70
     1
102
RTVSPropertyOp3
 70
     1
102
RTVSPropertyOp4
 70
     1
102
RTVSPropertyOp5
 70
     1
102
RTVSPropertyOp6
 70
     1
102
RTVSPropertyOp7
 70
     1
102
RTVSPropertyOp8
 70
     1
102
RTVSPropertyOp9
 70
     1
102
RTVSPropertyOp10
 70
     1
102
RTVSPropertyOp11
 70
     1
102
RTVSPropertyOp12
 70
     1
102
RTVSPropertyOp13
 70
     1
102
RTVSPropertyOp14
 70
     1
102
RTVSPropertyOp15
 70
     1
102
RTVSPropertyOp16
 70
     1
102
RTVSPropertyOp17
 70
     1
102
RTVSPropertyOp18
 70
     1
102
RTVSPropertyOp19
 70
     1
102
RTVSPropertyOp20
 70
     1
102
RTVSPropertyOp21
 70
     1
102
RTVSPropertyOp22
 70
     1
102
RTVSPropertyOp23
 70
     1
102
RTVSPropertyOp24
 70
     1
102
RTVSPropertyOp25
 70
     1
102
RTVSPropertyOp26
 70
     1
102
RTVSPropertyOp27
 70
     1
102
RTVSPropertyOp28
 70
     1
102
RTVSPropertyOp29
 70
     1
102
RTVSPropertyOp30
 70
     1
102
RTVSPropertyOp31
 70
     1
102
RTVSPropertyOp32
 70
     1
102
RTVSPropertyOp33
 70
     1
102
RTVSPropertyOp34
 70
     1
102
RTVSPropertyOp35
 70
     1
102
RTVSPropertyOp36
 70
     1
102
RTVSPropertyOp37
 70
     1
102
RTVSPropertyOp38
 70
     1
102
RTVSPropertyOp39
 70
     1
102
RTVSPropertyOp40
 70
     1
102
RTVSPropertyOp41
 70
     1
102
RTVSPropertyOp42
 70
     1
102
RTVSPropertyOp43
 70
     1
102
RTVSPropertyOp44
 70
     1
102
RTVSPropertyOp45
 70
     1
102
RTVSPropertyOp46
 70
     1
102
RTVSPropertyOp47
 70
     1
102
RTVSPropertyOp48
 70
     1
102
RTVSPropertyOp49
 70
     1
102
RTVSPropertyOp50
 70
     1
102
RTVSPropertyOp51
 70
     0
102
RTVSPropertyOp52
 70
     0
102
RTVSPropertyOp53
 70
     1
102
RTVSPropertyOp54
 70
     1
102
RTVSPropertyOp55
 70
     1
102
RTVSPropertyOp56
 70
     1
102
RTVSPropertyOp57
 70
     1
102
RTVSPropertyOp58
 70
     1
102
RTVSPropertyOp59
 70
     1
102
RTVSPropertyOp60
 70
     1
102
RTVSPropertyOp61
 70
     1
102
RTVSPropertyOp62
 70
     1
  0
XRECORD
  5
382
102
{ACAD_REACTORS
330
381
102
}
330
381
100
AcDbXrecord
280
     1
102
RTVSPost2010Prop28
280
     0
102
RTVSPost2010PropOp28
 70
     1
102
RTVSPost2010Prop29
280
     1
102
RTVSPost2010PropOp29
 70
     1
102
RTVSPost2010Prop30
280
     1
102
RTVSPost2010PropOp30
 70
     1
102
RTVSPost2010Prop31
280
     0
102
RTVSPost2010PropOp31
 70
     1
102
RTVSPost2010Prop32
280
     0
102
RTVSPost2010PropOp32
 70
     1
102
RTVSPost2010Prop33
280
     0
102
RTVSPost2010PropOp33
 70
     1
102
RTVSPost2010Prop34
280
     0
102
RTVSPost2010PropOp34
 70
     1
102
RTVSPost2010Prop35
280
     0
102
RTVSPost2010PropOp35
 70
     1
102
RTVSPost2010Prop36
280
     0
102
RTVSPost2010PropOp36
 70
     1
102
RTVSPost2010Prop37
 90
       50
102
RTVSPost2010PropOp37
 70
     1
102
RTVSPost2010Prop38
140
0.0
102
RTVSPost2010PropOp38
 70
     1
102
RTVSPost2010Prop39
140
1.0
102
RTVSPost2010PropOp39
 70
     1
102
RTVSPost2010Prop40
 90
        0
102
RTVSPost2010PropOp40
 70
     1
102
RTVSPost2010Prop41ColorIndex
 90
       18
102
RTVSPost2010Prop41ColorRGB
 90
        0
102
RTVSPost2010PropOp41
 70
     1
102
RTVSPost2010Prop42
 90
       50
102
RTVSPost2010PropOp42
 70
     1
102
RTVSPost2010Prop43
 90
        3
102
RTVSPost2010PropOp43
 70
     1
102
RTVSPost2010Prop44ColorIndex
 90
        5
102
RTVSPost2010Prop44ColorRGB
 90
      255
102
RTVSPost2010PropOp44
 70
     1
102
RTVSPost2010Prop45
280
     0
102
RTVSPost2010PropOp45
 70
     1
102
RTVSPost2010Prop46
 90
       50
102
RTVSPost2010PropOp46
 70
     1
102
RTVSPost2010Prop47
 90
       50
102
RTVSPost2010PropOp47
 70
     1
102
RTVSPost2010Prop48
 90
       50
102
RTVSPost2010PropOp48
 70
     1
102
RTVSPost2010Prop49
280
     0
102
RTVSPost2010PropOp49
 70
     1
102
RTVSPost2010Prop50
 90
       50
102
RTVSPost2010PropOp50
 70
     1
102
RTVSPost2010Prop51ColorIndex
 90
      256
102
RTVSPost2010Prop51ColorRGB
 90
-16777216
102
RTVSPost2010PropOp51
 70
     0
102
RTVSPost2010Prop52
140
1.0
102
RTVSPost2010PropOp52
 70
     0
102
RTVSPost2010Prop53
 90
        2
102
RTVSPost2010PropOp53
 70
     1
102
RTVSPost2010Prop54
  1
strokes_ogs.tif
102
RTVSPost2010PropOp54
 70
     1
102
RTVSPost2010Prop55
280
     0
102
RTVSPost2010PropOp55
 70
     1
102
RTVSPost2010Prop56
140
1.0
102
RTVSPost2010PropOp56
 70
     1
102
RTVSPost2010Prop57
140
1.0
102
RTVSPost2010PropOp57
 70
     1
102
RTVSPropertyOp0
 70
     1
102
RTVSPropertyOp1
 70
     1
102
RTVSPropertyOp2
 70
     1
102
RTVSPropertyOp3
 70
     1
102
RTVSPropertyOp4
 70
     1
102
RTVSPropertyOp5
 70
     1
102
RTVSPropertyOp6
 70
     1
102
RTVSPropertyOp7
 70
     1
102
RTVSPropertyOp8
 70
     1
102
RTVSPropertyOp9
 70
     1
102
RTVSPropertyOp10
 70
     1
102
RTVSPropertyOp11
 70
     1
102
RTVSPropertyOp12
 70
     1
102
RTVSPropertyOp13
 70
     1
102
RTVSPropertyOp14
 70
     1
102
RTVSPropertyOp15
 70
     1
102
RTVSPropertyOp16
 70
     1
102
RTVSPropertyOp17
 70
     1
102
RTVSPropertyOp18
 70
     1
102
RTVSPropertyOp19
 70
     1
102
RTVSPropertyOp20
 70
     1
102
RTVSPropertyOp21
 70
     1
102
RTVSPropertyOp22
 70
     1
102
RTVSPropertyOp23
 70
     1
102
RTVSPropertyOp24
 70
     1
102
RTVSPropertyOp25
 70
     1
102
RTVSPropertyOp26
 70
     1
102
RTVSPropertyOp27
 70
     1
102
RTVSPropertyOp28
 70
     1
102
RTVSPropertyOp29
 70
     1
102
RTVSPropertyOp30
 70
     1
102
RTVSPropertyOp31
 70
     1
102
RTVSPropertyOp32
 70
     1
102
RTVSPropertyOp33
 70
     1
102
RTVSPropertyOp34
 70
     1
102
RTVSPropertyOp35
 70
     1
102
RTVSPropertyOp36
 70
     1
102
RTVSPropertyOp37
 70
     1
102
RTVSPropertyOp38
 70
     1
102
RTVSPropertyOp39
 70
     1
102
RTVSPropertyOp40
 70
     1
102
RTVSPropertyOp41
 70
     1
102
RTVSPropertyOp42
 70
     1
102
RTVSPropertyOp43
 70
     1
102
RTVSPropertyOp44
 70
     1
102
RTVSPropertyOp45
 70
     1
102
RTVSPropertyOp46
 70
     1
102
RTVSPropertyOp47
 70
     1
102
RTVSPropertyOp48
 70
     1
102
RTVSPropertyOp49
 70
     1
102
RTVSPropertyOp50
 70
     1
102
RTVSPropertyOp51
 70
     0
102
RTVSPropertyOp52
 70
     0
102
RTVSPropertyOp53
 70
     1
102
RTVSPropertyOp54
 70
     1
102
RTVSPropertyOp55
 70
     1
102
RTVSPropertyOp56
 70
     1
102
RTVSPropertyOp57
 70
     1
102
RTVSPropertyOp58
 70
     1
102
RTVSPropertyOp59
 70
     1
102
RTVSPropertyOp60
 70
     1
102
RTVSPropertyOp61
 70
     1
102
RTVSPropertyOp62
 70
     1
  0
XRECORD
  5
392
102
{ACAD_REACTORS
330
391
102
}
330
391
100
AcDbXrecord
280
     1
102
RTVSPost2010Prop28
280
     0
102
RTVSPost2010PropOp28
 70
     0
102
RTVSPost2010Prop29
280
     1
102
RTVSPost2010PropOp29
 70
     0
102
RTVSPost2010Prop30
280
     1
102
RTVSPost2010PropOp30
 70
     0
102
RTVSPost2010Prop31
280
     0
102
RTVSPost2010PropOp31
 70
     0
102
RTVSPost2010Prop32
280
     0
102
RTVSPost2010PropOp32
 70
     0
102
RTVSPost2010Prop33
280
     0
102
RTVSPost2010PropOp33
 70
     0
102
RTVSPost2010Prop34
280
     0
102
RTVSPost2010PropOp34
 70
     0
102
RTVSPost2010Prop35
280
     0
102
RTVSPost2010PropOp35
 70
     0
102
RTVSPost2010Prop36
280
     0
102
RTVSPost2010PropOp36
 70
     0
102
RTVSPost2010Prop37
 90
       50
102
RTVSPost2010PropOp37
 70
     0
102
RTVSPost2010Prop38
140
0.0
102
RTVSPost2010PropOp38
 70
     0
102
RTVSPost2010Prop39
140
1.0
102
RTVSPost2010PropOp39
 70
     0
102
RTVSPost2010Prop40
 90
        0
102
RTVSPost2010PropOp40
 70
     0
102
RTVSPost2010Prop41ColorIndex
 90
       18
102
RTVSPost2010Prop41ColorRGB
 90
        0
102
RTVSPost2010PropOp41
 70
     0
102
RTVSPost2010Prop42
 90
       50
102
RTVSPost2010PropOp42
 70
     0
102
RTVSPost2010Prop43
 90
        3
102
RTVSPost2010PropOp43
 70
     0
102
RTVSPost2010Prop44ColorIndex
 90
        5
102
RTVSPost2010Prop44ColorRGB
 90
      255
102
RTVSPost2010PropOp44
 70
     0
102
RTVSPost2010Prop45
280
     0
102
RTVSPost2010PropOp45
 70
     0
102
RTVSPost2010Prop46
 90
       50
102
RTVSPost2010PropOp46
 70
     0
102
RTVSPost2010Prop47
 90
       50
102
RTVSPost2010PropOp47
 70
     0
102
RTVSPost2010Prop48
 90
       50
102
RTVSPost2010PropOp48
 70
     0
102
RTVSPost2010Prop49
280
     0
102
RTVSPost2010PropOp49
 70
     0
102
RTVSPost2010Prop50
 90
       50
102
RTVSPost2010PropOp50
 70
     0
102
RTVSPost2010Prop51ColorIndex
 90
      256
102
RTVSPost2010Prop51ColorRGB
 90
-16777216
102
RTVSPost2010PropOp51
 70
     0
102
RTVSPost2010Prop52
140
1.0
102
RTVSPost2010PropOp52
 70
     0
102
RTVSPost2010Prop53
 90
        2
102
RTVSPost2010PropOp53
 70
     0
102
RTVSPost2010Prop54
  1
strokes_ogs.tif
102
RTVSPost2010PropOp54
 70
     0
102
RTVSPost2010Prop55
280
     0
102
RTVSPost2010PropOp55
 70
     0
102
RTVSPost2010Prop56
140
1.0
102
RTVSPost2010PropOp56
 70
     0
102
RTVSPost2010Prop57
140
1.0
102
RTVSPost2010PropOp57
 70
     0
102
RTVSPropertyOp0
 70
     0
102
RTVSPropertyOp1
 70
     0
102
RTVSPropertyOp2
 70
     0
102
RTVSPropertyOp3
 70
     0
102
RTVSPropertyOp4
 70
     0
102
RTVSPropertyOp5
 70
     0
102
RTVSPropertyOp6
 70
     0
102
RTVSPropertyOp7
 70
     0
102
RTVSPropertyOp8
 70
     0
102
RTVSPropertyOp9
 70
     0
102
RTVSPropertyOp10
 70
     0
102
RTVSPropertyOp11
 70
     0
102
RTVSPropertyOp12
 70
     0
102
RTVSPropertyOp13
 70
     0
102
RTVSPropertyOp14
 70
     2
102
RTVSPropertyOp15
 70
     0
102
RTVSPropertyOp16
 70
     0
102
RTVSPropertyOp17
 70
     0
102
RTVSPropertyOp18
 70
     0
102
RTVSPropertyOp19
 70
     0
102
RTVSPropertyOp20
 70
     0
102
RTVSPropertyOp21
 70
     0
102
RTVSPropertyOp22
 70
     0
102
RTVSPropertyOp23
 70
     0
102
RTVSPropertyOp24
 70
     0
102
RTVSPropertyOp25
 70
     0
102
RTVSPropertyOp26
 70
     0
102
RTVSPropertyOp27
 70
     0
102
RTVSPropertyOp28
 70
     0
102
RTVSPropertyOp29
 70
     0
102
RTVSPropertyOp30
 70
     0
102
RTVSPropertyOp31
 70
     0
102
RTVSPropertyOp32
 70
     0
102
RTVSPropertyOp33
 70
     0
102
RTVSPropertyOp34
 70
     0
102
RTVSPropertyOp35
 70
     0
102
RTVSPropertyOp36
 70
     0
102
RTVSPropertyOp37
 70
     0
102
RTVSPropertyOp38
 70
     0
102
RTVSPropertyOp39
 70
     0
102
RTVSPropertyOp40
 70
     0
102
RTVSPropertyOp41
 70
     0
102
RTVSPropertyOp42
 70
     0
102
RTVSPropertyOp43
 70
     0
102
RTVSPropertyOp44
 70
     0
102
RTVSPropertyOp45
 70
     0
102
RTVSPropertyOp46
 70
     0
102
RTVSPropertyOp47
 70
     0
102
RTVSPropertyOp48
 70
     0
102
RTVSPropertyOp49
 70
     0
102
RTVSPropertyOp50
 70
     0
102
RTVSPropertyOp51
 70
     0
102
RTVSPropertyOp52
 70
     0
102
RTVSPropertyOp53
 70
     0
102
RTVSPropertyOp54
 70
     0
102
RTVSPropertyOp55
 70
     0
102
RTVSPropertyOp56
 70
     0
102
RTVSPropertyOp57
 70
     0
102
RTVSPropertyOp58
 70
     1
102
RTVSPropertyOp59
 70
     1
102
RTVSPropertyOp60
 70
     1
102
RTVSPropertyOp61
 70
     1
102
RTVSPropertyOp62
 70
     1
  0
XRECORD
  5
38A
102
{ACAD_REACTORS
330
389
102
}
330
389
100
AcDbXrecord
280
     1
102
RTVSPost2010Prop28
280
     0
102
RTVSPost2010PropOp28
 70
     1
102
RTVSPost2010Prop29
280
     1
102
RTVSPost2010PropOp29
 70
     1
102
RTVSPost2010Prop30
280
     1
102
RTVSPost2010PropOp30
 70
     1
102
RTVSPost2010Prop31
280
     0
102
RTVSPost2010PropOp31
 70
     1
102
RTVSPost2010Prop32
280
     0
102
RTVSPost2010PropOp32
 70
     1
102
RTVSPost2010Prop33
280
     0
102
RTVSPost2010PropOp33
 70
     1
102
RTVSPost2010Prop34
280
     0
102
RTVSPost2010PropOp34
 70
     1
102
RTVSPost2010Prop35
280
     0
102
RTVSPost2010PropOp35
 70
     1
102
RTVSPost2010Prop36
280
     0
102
RTVSPost2010PropOp36
 70
     1
102
RTVSPost2010Prop37
 90
       50
102
RTVSPost2010PropOp37
 70
     1
102
RTVSPost2010Prop38
140
0.0
102
RTVSPost2010PropOp38
 70
     1
102
RTVSPost2010Prop39
140
1.0
102
RTVSPost2010PropOp39
 70
     1
102
RTVSPost2010Prop40
 90
        0
102
RTVSPost2010PropOp40
 70
     1
102
RTVSPost2010Prop41ColorIndex
 90
       18
102
RTVSPost2010Prop41ColorRGB
 90
        0
102
RTVSPost2010PropOp41
 70
     1
102
RTVSPost2010Prop42
 90
       50
102
RTVSPost2010PropOp42
 70
     1
102
RTVSPost2010Prop43
 90
        3
102
RTVSPost2010PropOp43
 70
     1
102
RTVSPost2010Prop44ColorIndex
 90
        5
102
RTVSPost2010Prop44ColorRGB
 90
      255
102
RTVSPost2010PropOp44
 70
     1
102
RTVSPost2010Prop45
280
     0
102
RTVSPost2010PropOp45
 70
     1
102
RTVSPost2010Prop46
 90
       50
102
RTVSPost2010PropOp46
 70
     1
102
RTVSPost2010Prop47
 90
       50
102
RTVSPost2010PropOp47
 70
     1
102
RTVSPost2010Prop48
 90
       50
102
RTVSPost2010PropOp48
 70
     1
102
RTVSPost2010Prop49
280
     0
102
RTVSPost2010PropOp49
 70
     1
102
RTVSPost2010Prop50
 90
       50
102
RTVSPost2010PropOp50
 70
     1
102
RTVSPost2010Prop51ColorIndex
 90
      256
102
RTVSPost2010Prop51ColorRGB
 90
-16777216
102
RTVSPost2010PropOp51
 70
     0
102
RTVSPost2010Prop52
140
1.0
102
RTVSPost2010PropOp52
 70
     0
102
RTVSPost2010Prop53
 90
        2
102
RTVSPost2010PropOp53
 70
     1
102
RTVSPost2010Prop54
  1
strokes_ogs.tif
102
RTVSPost2010PropOp54
 70
     1
102
RTVSPost2010Prop55
280
     0
102
RTVSPost2010PropOp55
 70
     1
102
RTVSPost2010Prop56
140
1.0
102
RTVSPost2010PropOp56
 70
     1
102
RTVSPost2010Prop57
140
1.0
102
RTVSPost2010PropOp57
 70
     1
102
RTVSPropertyOp0
 70
     1
102
RTVSPropertyOp1
 70
     1
102
RTVSPropertyOp2
 70
     1
102
RTVSPropertyOp3
 70
     1
102
RTVSPropertyOp4
 70
     1
102
RTVSPropertyOp5
 70
     1
102
RTVSPropertyOp6
 70
     1
102
RTVSPropertyOp7
 70
     1
102
RTVSPropertyOp8
 70
     1
102
RTVSPropertyOp9
 70
     1
102
RTVSPropertyOp10
 70
     1
102
RTVSPropertyOp11
 70
     1
102
RTVSPropertyOp12
 70
     1
102
RTVSPropertyOp13
 70
     1
102
RTVSPropertyOp14
 70
     1
102
RTVSPropertyOp15
 70
     1
102
RTVSPropertyOp16
 70
     1
102
RTVSPropertyOp17
 70
     1
102
RTVSPropertyOp18
 70
     1
102
RTVSPropertyOp19
 70
     1
102
RTVSPropertyOp20
 70
     1
102
RTVSPropertyOp21
 70
     1
102
RTVSPropertyOp22
 70
     1
102
RTVSPropertyOp23
 70
     1
102
RTVSPropertyOp24
 70
     1
102
RTVSPropertyOp25
 70
     1
102
RTVSPropertyOp26
 70
     1
102
RTVSPropertyOp27
 70
     1
102
RTVSPropertyOp28
 70
     1
102
RTVSPropertyOp29
 70
     1
102
RTVSPropertyOp30
 70
     1
102
RTVSPropertyOp31
 70
     1
102
RTVSPropertyOp32
 70
     1
102
RTVSPropertyOp33
 70
     1
102
RTVSPropertyOp34
 70
     1
102
RTVSPropertyOp35
 70
     1
102
RTVSPropertyOp36
 70
     1
102
RTVSPropertyOp37
 70
     1
102
RTVSPropertyOp38
 70
     1
102
RTVSPropertyOp39
 70
     1
102
RTVSPropertyOp40
 70
     1
102
RTVSPropertyOp41
 70
     1
102
RTVSPropertyOp42
 70
     1
102
RTVSPropertyOp43
 70
     1
102
RTVSPropertyOp44
 70
     1
102
RTVSPropertyOp45
 70
     1
102
RTVSPropertyOp46
 70
     1
102
RTVSPropertyOp47
 70
     1
102
RTVSPropertyOp48
 70
     1
102
RTVSPropertyOp49
 70
     1
102
RTVSPropertyOp50
 70
     1
102
RTVSPropertyOp51
 70
     0
102
RTVSPropertyOp52
 70
     0
102
RTVSPropertyOp53
 70
     1
102
RTVSPropertyOp54
 70
     1
102
RTVSPropertyOp55
 70
     1
102
RTVSPropertyOp56
 70
     1
102
RTVSPropertyOp57
 70
     1
102
RTVSPropertyOp58
 70
     1
102
RTVSPropertyOp59
 70
     1
102
RTVSPropertyOp60
 70
     1
102
RTVSPropertyOp61
 70
     1
102
RTVSPropertyOp62
 70
     1
  0
XRECORD
  5
36E
102
{ACAD_REACTORS
330
36D
102
}
330
36D
100
AcDbXrecord
280
     1
102
RTVSPost2010Prop28
280
     0
102
RTVSPost2010PropOp28
 70
     1
102
RTVSPost2010Prop29
280
     1
102
RTVSPost2010PropOp29
 70
     1
102
RTVSPost2010Prop30
280
     1
102
RTVSPost2010PropOp30
 70
     1
102
RTVSPost2010Prop31
280
     0
102
RTVSPost2010PropOp31
 70
     1
102
RTVSPost2010Prop32
280
     0
102
RTVSPost2010PropOp32
 70
     1
102
RTVSPost2010Prop33
280
     0
102
RTVSPost2010PropOp33
 70
     1
102
RTVSPost2010Prop34
280
     0
102
RTVSPost2010PropOp34
 70
     1
102
RTVSPost2010Prop35
280
     0
102
RTVSPost2010PropOp35
 70
     1
102
RTVSPost2010Prop36
280
     0
102
RTVSPost2010PropOp36
 70
     1
102
RTVSPost2010Prop37
 90
       50
102
RTVSPost2010PropOp37
 70
     1
102
RTVSPost2010Prop38
140
0.0
102
RTVSPost2010PropOp38
 70
     1
102
RTVSPost2010Prop39
140
1.0
102
RTVSPost2010PropOp39
 70
     1
102
RTVSPost2010Prop40
 90
        0
102
RTVSPost2010PropOp40
 70
     1
102
RTVSPost2010Prop41ColorIndex
 90
       18
102
RTVSPost2010Prop41ColorRGB
 90
        0
102
RTVSPost2010PropOp41
 70
     1
102
RTVSPost2010Prop42
 90
       50
102
RTVSPost2010PropOp42
 70
     1
102
RTVSPost2010Prop43
 90
        3
102
RTVSPost2010PropOp43
 70
     1
102
RTVSPost2010Prop44ColorIndex
 90
        5
102
RTVSPost2010Prop44ColorRGB
 90
      255
102
RTVSPost2010PropOp44
 70
     1
102
RTVSPost2010Prop45
280
     0
102
RTVSPost2010PropOp45
 70
     1
102
RTVSPost2010Prop46
 90
       50
102
RTVSPost2010PropOp46
 70
     1
102
RTVSPost2010Prop47
 90
       50
102
RTVSPost2010PropOp47
 70
     1
102
RTVSPost2010Prop48
 90
       50
102
RTVSPost2010PropOp48
 70
     1
102
RTVSPost2010Prop49
280
     0
102
RTVSPost2010PropOp49
 70
     1
102
RTVSPost2010Prop50
 90
       50
102
RTVSPost2010PropOp50
 70
     1
102
RTVSPost2010Prop51ColorIndex
 90
      256
102
RTVSPost2010Prop51ColorRGB
 90
-16777216
102
RTVSPost2010PropOp51
 70
     0
102
RTVSPost2010Prop52
140
1.0
102
RTVSPost2010PropOp52
 70
     0
102
RTVSPost2010Prop53
 90
        2
102
RTVSPost2010PropOp53
 70
     1
102
RTVSPost2010Prop54
  1
strokes_ogs.tif
102
RTVSPost2010PropOp54
 70
     1
102
RTVSPost2010Prop55
280
     0
102
RTVSPost2010PropOp55
 70
     1
102
RTVSPost2010Prop56
140
1.0
102
RTVSPost2010PropOp56
 70
     1
102
RTVSPost2010Prop57
140
1.0
102
RTVSPost2010PropOp57
 70
     1
102
RTVSPropertyOp0
 70
     1
102
RTVSPropertyOp1
 70
     1
102
RTVSPropertyOp2
 70
     1
102
RTVSPropertyOp3
 70
     1
102
RTVSPropertyOp4
 70
     1
102
RTVSPropertyOp5
 70
     1
102
RTVSPropertyOp6
 70
     1
102
RTVSPropertyOp7
 70
     1
102
RTVSPropertyOp8
 70
     1
102
RTVSPropertyOp9
 70
     1
102
RTVSPropertyOp10
 70
     1
102
RTVSPropertyOp11
 70
     1
102
RTVSPropertyOp12
 70
     1
102
RTVSPropertyOp13
 70
     1
102
RTVSPropertyOp14
 70
     1
102
RTVSPropertyOp15
 70
     1
102
RTVSPropertyOp16
 70
     1
102
RTVSPropertyOp17
 70
     1
102
RTVSPropertyOp18
 70
     1
102
RTVSPropertyOp19
 70
     1
102
RTVSPropertyOp20
 70
     1
102
RTVSPropertyOp21
 70
     1
102
RTVSPropertyOp22
 70
     1
102
RTVSPropertyOp23
 70
     1
102
RTVSPropertyOp24
 70
     1
102
RTVSPropertyOp25
 70
     1
102
RTVSPropertyOp26
 70
     1
102
RTVSPropertyOp27
 70
     1
102
RTVSPropertyOp28
 70
     1
102
RTVSPropertyOp29
 70
     1
102
RTVSPropertyOp30
 70
     1
102
RTVSPropertyOp31
 70
     1
102
RTVSPropertyOp32
 70
     1
102
RTVSPropertyOp33
 70
     1
102
RTVSPropertyOp34
 70
     1
102
RTVSPropertyOp35
 70
     1
102
RTVSPropertyOp36
 70
     1
102
RTVSPropertyOp37
 70
     1
102
RTVSPropertyOp38
 70
     1
102
RTVSPropertyOp39
 70
     1
102
RTVSPropertyOp40
 70
     1
102
RTVSPropertyOp41
 70
     1
102
RTVSPropertyOp42
 70
     1
102
RTVSPropertyOp43
 70
     1
102
RTVSPropertyOp44
 70
     1
102
RTVSPropertyOp45
 70
     1
102
RTVSPropertyOp46
 70
     1
102
RTVSPropertyOp47
 70
     1
102
RTVSPropertyOp48
 70
     1
102
RTVSPropertyOp49
 70
     1
102
RTVSPropertyOp50
 70
     1
102
RTVSPropertyOp51
 70
     0
102
RTVSPropertyOp52
 70
     0
102
RTVSPropertyOp53
 70
     1
102
RTVSPropertyOp54
 70
     1
102
RTVSPropertyOp55
 70
     1
102
RTVSPropertyOp56
 70
     1
102
RTVSPropertyOp57
 70
     1
102
RTVSPropertyOp58
 70
     1
102
RTVSPropertyOp59
 70
     1
102
RTVSPropertyOp60
 70
     1
102
RTVSPropertyOp61
 70
     1
102
RTVSPropertyOp62
 70
     1
  0
XRECORD
  5
370
102
{ACAD_REACTORS
330
36F
102
}
330
36F
100
AcDbXrecord
280
     1
102
RTVSPost2010Prop28
280
     0
102
RTVSPost2010PropOp28
 70
     1
102
RTVSPost2010Prop29
280
     1
102
RTVSPost2010PropOp29
 70
     1
102
RTVSPost2010Prop30
280
     1
102
RTVSPost2010PropOp30
 70
     1
102
RTVSPost2010Prop31
280
     0
102
RTVSPost2010PropOp31
 70
     1
102
RTVSPost2010Prop32
280
     0
102
RTVSPost2010PropOp32
 70
     1
102
RTVSPost2010Prop33
280
     0
102
RTVSPost2010PropOp33
 70
     1
102
RTVSPost2010Prop34
280
     0
102
RTVSPost2010PropOp34
 70
     1
102
RTVSPost2010Prop35
280
     0
102
RTVSPost2010PropOp35
 70
     1
102
RTVSPost2010Prop36
280
     0
102
RTVSPost2010PropOp36
 70
     1
102
RTVSPost2010Prop37
 90
       50
102
RTVSPost2010PropOp37
 70
     1
102
RTVSPost2010Prop38
140
0.0
102
RTVSPost2010PropOp38
 70
     1
102
RTVSPost2010Prop39
140
1.0
102
RTVSPost2010PropOp39
 70
     1
102
RTVSPost2010Prop40
 90
        0
102
RTVSPost2010PropOp40
 70
     1
102
RTVSPost2010Prop41ColorIndex
 90
       18
102
RTVSPost2010Prop41ColorRGB
 90
        0
102
RTVSPost2010PropOp41
 70
     1
102
RTVSPost2010Prop42
 90
       50
102
RTVSPost2010PropOp42
 70
     1
102
RTVSPost2010Prop43
 90
        3
102
RTVSPost2010PropOp43
 70
     1
102
RTVSPost2010Prop44ColorIndex
 90
        5
102
RTVSPost2010Prop44ColorRGB
 90
      255
102
RTVSPost2010PropOp44
 70
     1
102
RTVSPost2010Prop45
280
     0
102
RTVSPost2010PropOp45
 70
     1
102
RTVSPost2010Prop46
 90
       50
102
RTVSPost2010PropOp46
 70
     1
102
RTVSPost2010Prop47
 90
       50
102
RTVSPost2010PropOp47
 70
     1
102
RTVSPost2010Prop48
 90
       50
102
RTVSPost2010PropOp48
 70
     1
102
RTVSPost2010Prop49
280
     0
102
RTVSPost2010PropOp49
 70
     1
102
RTVSPost2010Prop50
 90
       50
102
RTVSPost2010PropOp50
 70
     1
102
RTVSPost2010Prop51ColorIndex
 90
      256
102
RTVSPost2010Prop51ColorRGB
 90
-16777216
102
RTVSPost2010PropOp51
 70
     0
102
RTVSPost2010Prop52
140
1.0
102
RTVSPost2010PropOp52
 70
     0
102
RTVSPost2010Prop53
 90
        2
102
RTVSPost2010PropOp53
 70
     1
102
RTVSPost2010Prop54
  1
strokes_ogs.tif
102
RTVSPost2010PropOp54
 70
     1
102
RTVSPost2010Prop55
280
     0
102
RTVSPost2010PropOp55
 70
     1
102
RTVSPost2010Prop56
140
1.0
102
RTVSPost2010PropOp56
 70
     1
102
RTVSPost2010Prop57
140
1.0
102
RTVSPost2010PropOp57
 70
     1
102
RTVSPropertyOp0
 70
     1
102
RTVSPropertyOp1
 70
     1
102
RTVSPropertyOp2
 70
     1
102
RTVSPropertyOp3
 70
     1
102
RTVSPropertyOp4
 70
     1
102
RTVSPropertyOp5
 70
     1
102
RTVSPropertyOp6
 70
     1
102
RTVSPropertyOp7
 70
     1
102
RTVSPropertyOp8
 70
     1
102
RTVSPropertyOp9
 70
     1
102
RTVSPropertyOp10
 70
     1
102
RTVSPropertyOp11
 70
     1
102
RTVSPropertyOp12
 70
     1
102
RTVSPropertyOp13
 70
     1
102
RTVSPropertyOp14
 70
     1
102
RTVSPropertyOp15
 70
     1
102
RTVSPropertyOp16
 70
     1
102
RTVSPropertyOp17
 70
     1
102
RTVSPropertyOp18
 70
     1
102
RTVSPropertyOp19
 70
     1
102
RTVSPropertyOp20
 70
     1
102
RTVSPropertyOp21
 70
     1
102
RTVSPropertyOp22
 70
     1
102
RTVSPropertyOp23
 70
     1
102
RTVSPropertyOp24
 70
     1
102
RTVSPropertyOp25
 70
     1
102
RTVSPropertyOp26
 70
     1
102
RTVSPropertyOp27
 70
     1
102
RTVSPropertyOp28
 70
     1
102
RTVSPropertyOp29
 70
     1
102
RTVSPropertyOp30
 70
     1
102
RTVSPropertyOp31
 70
     1
102
RTVSPropertyOp32
 70
     1
102
RTVSPropertyOp33
 70
     1
102
RTVSPropertyOp34
 70
     1
102
RTVSPropertyOp35
 70
     1
102
RTVSPropertyOp36
 70
     1
102
RTVSPropertyOp37
 70
     1
102
RTVSPropertyOp38
 70
     1
102
RTVSPropertyOp39
 70
     1
102
RTVSPropertyOp40
 70
     1
102
RTVSPropertyOp41
 70
     1
102
RTVSPropertyOp42
 70
     1
102
RTVSPropertyOp43
 70
     1
102
RTVSPropertyOp44
 70
     1
102
RTVSPropertyOp45
 70
     1
102
RTVSPropertyOp46
 70
     1
102
RTVSPropertyOp47
 70
     1
102
RTVSPropertyOp48
 70
     1
102
RTVSPropertyOp49
 70
     1
102
RTVSPropertyOp50
 70
     1
102
RTVSPropertyOp51
 70
     0
102
RTVSPropertyOp52
 70
     0
102
RTVSPropertyOp53
 70
     1
102
RTVSPropertyOp54
 70
     1
102
RTVSPropertyOp55
 70
     1
102
RTVSPropertyOp56
 70
     1
102
RTVSPropertyOp57
 70
     1
102
RTVSPropertyOp58
 70
     1
102
RTVSPropertyOp59
 70
     1
102
RTVSPropertyOp60
 70
     1
102
RTVSPropertyOp61
 70
     1
102
RTVSPropertyOp62
 70
     1
  0
XRECORD
  5
372
102
{ACAD_REACTORS
330
371
102
}
330
371
100
AcDbXrecord
280
     1
102
RTVSPost2010Prop28
280
     0
102
RTVSPost2010PropOp28
 70
     1
102
RTVSPost2010Prop29
280
     1
102
RTVSPost2010PropOp29
 70
     1
102
RTVSPost2010Prop30
280
     1
102
RTVSPost2010PropOp30
 70
     1
102
RTVSPost2010Prop31
280
     0
102
RTVSPost2010PropOp31
 70
     1
102
RTVSPost2010Prop32
280
     0
102
RTVSPost2010PropOp32
 70
     1
102
RTVSPost2010Prop33
280
     0
102
RTVSPost2010PropOp33
 70
     1
102
RTVSPost2010Prop34
280
     0
102
RTVSPost2010PropOp34
 70
     1
102
RTVSPost2010Prop35
280
     0
102
RTVSPost2010PropOp35
 70
     1
102
RTVSPost2010Prop36
280
     0
102
RTVSPost2010PropOp36
 70
     1
102
RTVSPost2010Prop37
 90
       50
102
RTVSPost2010PropOp37
 70
     1
102
RTVSPost2010Prop38
140
0.0
102
RTVSPost2010PropOp38
 70
     1
102
RTVSPost2010Prop39
140
1.0
102
RTVSPost2010PropOp39
 70
     1
102
RTVSPost2010Prop40
 90
        0
102
RTVSPost2010PropOp40
 70
     1
102
RTVSPost2010Prop41ColorIndex
 90
       18
102
RTVSPost2010Prop41ColorRGB
 90
        0
102
RTVSPost2010PropOp41
 70
     1
102
RTVSPost2010Prop42
 90
       50
102
RTVSPost2010PropOp42
 70
     1
102
RTVSPost2010Prop43
 90
        3
102
RTVSPost2010PropOp43
 70
     1
102
RTVSPost2010Prop44ColorIndex
 90
        5
102
RTVSPost2010Prop44ColorRGB
 90
      255
102
RTVSPost2010PropOp44
 70
     1
102
RTVSPost2010Prop45
280
     0
102
RTVSPost2010PropOp45
 70
     1
102
RTVSPost2010Prop46
 90
       50
102
RTVSPost2010PropOp46
 70
     1
102
RTVSPost2010Prop47
 90
       50
102
RTVSPost2010PropOp47
 70
     1
102
RTVSPost2010Prop48
 90
       50
102
RTVSPost2010PropOp48
 70
     1
102
RTVSPost2010Prop49
280
     0
102
RTVSPost2010PropOp49
 70
     1
102
RTVSPost2010Prop50
 90
       50
102
RTVSPost2010PropOp50
 70
     1
102
RTVSPost2010Prop51ColorIndex
 90
      256
102
RTVSPost2010Prop51ColorRGB
 90
-16777216
102
RTVSPost2010PropOp51
 70
     0
102
RTVSPost2010Prop52
140
1.0
102
RTVSPost2010PropOp52
 70
     0
102
RTVSPost2010Prop53
 90
        2
102
RTVSPost2010PropOp53
 70
     1
102
RTVSPost2010Prop54
  1
strokes_ogs.tif
102
RTVSPost2010PropOp54
 70
     1
102
RTVSPost2010Prop55
280
     0
102
RTVSPost2010PropOp55
 70
     1
102
RTVSPost2010Prop56
140
1.0
102
RTVSPost2010PropOp56
 70
     1
102
RTVSPost2010Prop57
140
1.0
102
RTVSPost2010PropOp57
 70
     1
102
RTVSPropertyOp0
 70
     1
102
RTVSPropertyOp1
 70
     1
102
RTVSPropertyOp2
 70
     1
102
RTVSPropertyOp3
 70
     1
102
RTVSPropertyOp4
 70
     1
102
RTVSPropertyOp5
 70
     1
102
RTVSPropertyOp6
 70
     1
102
RTVSPropertyOp7
 70
     1
102
RTVSPropertyOp8
 70
     1
102
RTVSPropertyOp9
 70
     1
102
RTVSPropertyOp10
 70
     1
102
RTVSPropertyOp11
 70
     1
102
RTVSPropertyOp12
 70
     1
102
RTVSPropertyOp13
 70
     1
102
RTVSPropertyOp14
 70
     1
102
RTVSPropertyOp15
 70
     1
102
RTVSPropertyOp16
 70
     1
102
RTVSPropertyOp17
 70
     1
102
RTVSPropertyOp18
 70
     1
102
RTVSPropertyOp19
 70
     1
102
RTVSPropertyOp20
 70
     1
102
RTVSPropertyOp21
 70
     1
102
RTVSPropertyOp22
 70
     1
102
RTVSPropertyOp23
 70
     1
102
RTVSPropertyOp24
 70
     1
102
RTVSPropertyOp25
 70
     1
102
RTVSPropertyOp26
 70
     1
102
RTVSPropertyOp27
 70
     1
102
RTVSPropertyOp28
 70
     1
102
RTVSPropertyOp29
 70
     1
102
RTVSPropertyOp30
 70
     1
102
RTVSPropertyOp31
 70
     1
102
RTVSPropertyOp32
 70
     1
102
RTVSPropertyOp33
 70
     1
102
RTVSPropertyOp34
 70
     1
102
RTVSPropertyOp35
 70
     1
102
RTVSPropertyOp36
 70
     1
102
RTVSPropertyOp37
 70
     1
102
RTVSPropertyOp38
 70
     1
102
RTVSPropertyOp39
 70
     1
102
RTVSPropertyOp40
 70
     1
102
RTVSPropertyOp41
 70
     1
102
RTVSPropertyOp42
 70
     1
102
RTVSPropertyOp43
 70
     1
102
RTVSPropertyOp44
 70
     1
102
RTVSPropertyOp45
 70
     1
102
RTVSPropertyOp46
 70
     1
102
RTVSPropertyOp47
 70
     1
102
RTVSPropertyOp48
 70
     1
102
RTVSPropertyOp49
 70
     1
102
RTVSPropertyOp50
 70
     1
102
RTVSPropertyOp51
 70
     0
102
RTVSPropertyOp52
 70
     0
102
RTVSPropertyOp53
 70
     1
102
RTVSPropertyOp54
 70
     1
102
RTVSPropertyOp55
 70
     1
102
RTVSPropertyOp56
 70
     1
102
RTVSPropertyOp57
 70
     1
102
RTVSPropertyOp58
 70
     1
102
RTVSPropertyOp59
 70
     1
102
RTVSPropertyOp60
 70
     1
102
RTVSPropertyOp61
 70
     1
102
RTVSPropertyOp62
 70
     1
  0
XRECORD
  5
374
102
{ACAD_REACTORS
330
373
102
}
330
373
100
AcDbXrecord
280
     1
102
RTVSPost2010Prop28
280
     0
102
RTVSPost2010PropOp28
 70
     1
102
RTVSPost2010Prop29
280
     1
102
RTVSPost2010PropOp29
 70
     1
102
RTVSPost2010Prop30
280
     1
102
RTVSPost2010PropOp30
 70
     1
102
RTVSPost2010Prop31
280
     0
102
RTVSPost2010PropOp31
 70
     1
102
RTVSPost2010Prop32
280
     0
102
RTVSPost2010PropOp32
 70
     1
102
RTVSPost2010Prop33
280
     0
102
RTVSPost2010PropOp33
 70
     1
102
RTVSPost2010Prop34
280
     0
102
RTVSPost2010PropOp34
 70
     1
102
RTVSPost2010Prop35
280
     0
102
RTVSPost2010PropOp35
 70
     1
102
RTVSPost2010Prop36
280
     0
102
RTVSPost2010PropOp36
 70
     1
102
RTVSPost2010Prop37
 90
       50
102
RTVSPost2010PropOp37
 70
     1
102
RTVSPost2010Prop38
140
0.0
102
RTVSPost2010PropOp38
 70
     1
102
RTVSPost2010Prop39
140
1.0
102
RTVSPost2010PropOp39
 70
     1
102
RTVSPost2010Prop40
 90
        0
102
RTVSPost2010PropOp40
 70
     1
102
RTVSPost2010Prop41ColorIndex
 90
       18
102
RTVSPost2010Prop41ColorRGB
 90
        0
102
RTVSPost2010PropOp41
 70
     1
102
RTVSPost2010Prop42
 90
       50
102
RTVSPost2010PropOp42
 70
     1
102
RTVSPost2010Prop43
 90
        3
102
RTVSPost2010PropOp43
 70
     1
102
RTVSPost2010Prop44ColorIndex
 90
        5
102
RTVSPost2010Prop44ColorRGB
 90
      255
102
RTVSPost2010PropOp44
 70
     1
102
RTVSPost2010Prop45
280
     0
102
RTVSPost2010PropOp45
 70
     1
102
RTVSPost2010Prop46
 90
       50
102
RTVSPost2010PropOp46
 70
     1
102
RTVSPost2010Prop47
 90
       50
102
RTVSPost2010PropOp47
 70
     1
102
RTVSPost2010Prop48
 90
       50
102
RTVSPost2010PropOp48
 70
     1
102
RTVSPost2010Prop49
280
     0
102
RTVSPost2010PropOp49
 70
     1
102
RTVSPost2010Prop50
 90
       50
102
RTVSPost2010PropOp50
 70
     1
102
RTVSPost2010Prop51ColorIndex
 90
      256
102
RTVSPost2010Prop51ColorRGB
 90
-16777216
102
RTVSPost2010PropOp51
 70
     0
102
RTVSPost2010Prop52
140
1.0
102
RTVSPost2010PropOp52
 70
     0
102
RTVSPost2010Prop53
 90
        2
102
RTVSPost2010PropOp53
 70
     1
102
RTVSPost2010Prop54
  1
strokes_ogs.tif
102
RTVSPost2010PropOp54
 70
     1
102
RTVSPost2010Prop55
280
     0
102
RTVSPost2010PropOp55
 70
     1
102
RTVSPost2010Prop56
140
1.0
102
RTVSPost2010PropOp56
 70
     1
102
RTVSPost2010Prop57
140
1.0
102
RTVSPost2010PropOp57
 70
     1
102
RTVSPropertyOp0
 70
     1
102
RTVSPropertyOp1
 70
     1
102
RTVSPropertyOp2
 70
     1
102
RTVSPropertyOp3
 70
     1
102
RTVSPropertyOp4
 70
     1
102
RTVSPropertyOp5
 70
     1
102
RTVSPropertyOp6
 70
     1
102
RTVSPropertyOp7
 70
     1
102
RTVSPropertyOp8
 70
     1
102
RTVSPropertyOp9
 70
     1
102
RTVSPropertyOp10
 70
     1
102
RTVSPropertyOp11
 70
     1
102
RTVSPropertyOp12
 70
     1
102
RTVSPropertyOp13
 70
     1
102
RTVSPropertyOp14
 70
     1
102
RTVSPropertyOp15
 70
     1
102
RTVSPropertyOp16
 70
     1
102
RTVSPropertyOp17
 70
     1
102
RTVSPropertyOp18
 70
     1
102
RTVSPropertyOp19
 70
     1
102
RTVSPropertyOp20
 70
     1
102
RTVSPropertyOp21
 70
     1
102
RTVSPropertyOp22
 70
     1
102
RTVSPropertyOp23
 70
     1
102
RTVSPropertyOp24
 70
     1
102
RTVSPropertyOp25
 70
     1
102
RTVSPropertyOp26
 70
     1
102
RTVSPropertyOp27
 70
     1
102
RTVSPropertyOp28
 70
     1
102
RTVSPropertyOp29
 70
     1
102
RTVSPropertyOp30
 70
     1
102
RTVSPropertyOp31
 70
     1
102
RTVSPropertyOp32
 70
     1
102
RTVSPropertyOp33
 70
     1
102
RTVSPropertyOp34
 70
     1
102
RTVSPropertyOp35
 70
     1
102
RTVSPropertyOp36
 70
     1
102
RTVSPropertyOp37
 70
     1
102
RTVSPropertyOp38
 70
     1
102
RTVSPropertyOp39
 70
     1
102
RTVSPropertyOp40
 70
     1
102
RTVSPropertyOp41
 70
     1
102
RTVSPropertyOp42
 70
     1
102
RTVSPropertyOp43
 70
     1
102
RTVSPropertyOp44
 70
     1
102
RTVSPropertyOp45
 70
     1
102
RTVSPropertyOp46
 70
     1
102
RTVSPropertyOp47
 70
     1
102
RTVSPropertyOp48
 70
     1
102
RTVSPropertyOp49
 70
     1
102
RTVSPropertyOp50
 70
     1
102
RTVSPropertyOp51
 70
     0
102
RTVSPropertyOp52
 70
     0
102
RTVSPropertyOp53
 70
     1
102
RTVSPropertyOp54
 70
     1
102
RTVSPropertyOp55
 70
     1
102
RTVSPropertyOp56
 70
     1
102
RTVSPropertyOp57
 70
     1
102
RTVSPropertyOp58
 70
     1
102
RTVSPropertyOp59
 70
     1
102
RTVSPropertyOp60
 70
     1
102
RTVSPropertyOp61
 70
     1
102
RTVSPropertyOp62
 70
     1
  0
XRECORD
  5
37A
102
{ACAD_REACTORS
330
379
102
}
330
379
100
AcDbXrecord
280
     1
102
RTVSPost2010Prop28
280
     0
102
RTVSPost2010PropOp28
 70
     1
102
RTVSPost2010Prop29
280
     1
102
RTVSPost2010PropOp29
 70
     1
102
RTVSPost2010Prop30
280
     1
102
RTVSPost2010PropOp30
 70
     1
102
RTVSPost2010Prop31
280
     0
102
RTVSPost2010PropOp31
 70
     1
102
RTVSPost2010Prop32
280
     0
102
RTVSPost2010PropOp32
 70
     1
102
RTVSPost2010Prop33
280
     0
102
RTVSPost2010PropOp33
 70
     1
102
RTVSPost2010Prop34
280
     0
102
RTVSPost2010PropOp34
 70
     1
102
RTVSPost2010Prop35
280
     0
102
RTVSPost2010PropOp35
 70
     1
102
RTVSPost2010Prop36
280
     0
102
RTVSPost2010PropOp36
 70
     1
102
RTVSPost2010Prop37
 90
       50
102
RTVSPost2010PropOp37
 70
     1
102
RTVSPost2010Prop38
140
0.0
102
RTVSPost2010PropOp38
 70
     1
102
RTVSPost2010Prop39
140
1.0
102
RTVSPost2010PropOp39
 70
     1
102
RTVSPost2010Prop40
 90
        0
102
RTVSPost2010PropOp40
 70
     1
102
RTVSPost2010Prop41ColorIndex
 90
       18
102
RTVSPost2010Prop41ColorRGB
 90
        0
102
RTVSPost2010PropOp41
 70
     1
102
RTVSPost2010Prop42
 90
       50
102
RTVSPost2010PropOp42
 70
     1
102
RTVSPost2010Prop43
 90
        3
102
RTVSPost2010PropOp43
 70
     1
102
RTVSPost2010Prop44ColorIndex
 90
        5
102
RTVSPost2010Prop44ColorRGB
 90
      255
102
RTVSPost2010PropOp44
 70
     1
102
RTVSPost2010Prop45
280
     0
102
RTVSPost2010PropOp45
 70
     1
102
RTVSPost2010Prop46
 90
       50
102
RTVSPost2010PropOp46
 70
     1
102
RTVSPost2010Prop47
 90
       50
102
RTVSPost2010PropOp47
 70
     1
102
RTVSPost2010Prop48
 90
       50
102
RTVSPost2010PropOp48
 70
     1
102
RTVSPost2010Prop49
280
     0
102
RTVSPost2010PropOp49
 70
     1
102
RTVSPost2010Prop50
 90
       50
102
RTVSPost2010PropOp50
 70
     1
102
RTVSPost2010Prop51ColorIndex
 90
      256
102
RTVSPost2010Prop51ColorRGB
 90
-16777216
102
RTVSPost2010PropOp51
 70
     0
102
RTVSPost2010Prop52
140
1.0
102
RTVSPost2010PropOp52
 70
     0
102
RTVSPost2010Prop53
 90
        2
102
RTVSPost2010PropOp53
 70
     1
102
RTVSPost2010Prop54
  1
strokes_ogs.tif
102
RTVSPost2010PropOp54
 70
     1
102
RTVSPost2010Prop55
280
     0
102
RTVSPost2010PropOp55
 70
     1
102
RTVSPost2010Prop56
140
1.0
102
RTVSPost2010PropOp56
 70
     1
102
RTVSPost2010Prop57
140
1.0
102
RTVSPost2010PropOp57
 70
     1
102
RTVSPropertyOp0
 70
     1
102
RTVSPropertyOp1
 70
     1
102
RTVSPropertyOp2
 70
     1
102
RTVSPropertyOp3
 70
     1
102
RTVSPropertyOp4
 70
     1
102
RTVSPropertyOp5
 70
     1
102
RTVSPropertyOp6
 70
     1
102
RTVSPropertyOp7
 70
     1
102
RTVSPropertyOp8
 70
     1
102
RTVSPropertyOp9
 70
     1
102
RTVSPropertyOp10
 70
     1
102
RTVSPropertyOp11
 70
     1
102
RTVSPropertyOp12
 70
     1
102
RTVSPropertyOp13
 70
     1
102
RTVSPropertyOp14
 70
     1
102
RTVSPropertyOp15
 70
     1
102
RTVSPropertyOp16
 70
     1
102
RTVSPropertyOp17
 70
     1
102
RTVSPropertyOp18
 70
     1
102
RTVSPropertyOp19
 70
     1
102
RTVSPropertyOp20
 70
     1
102
RTVSPropertyOp21
 70
     1
102
RTVSPropertyOp22
 70
     1
102
RTVSPropertyOp23
 70
     1
102
RTVSPropertyOp24
 70
     1
102
RTVSPropertyOp25
 70
     1
102
RTVSPropertyOp26
 70
     1
102
RTVSPropertyOp27
 70
     1
102
RTVSPropertyOp28
 70
     1
102
RTVSPropertyOp29
 70
     1
102
RTVSPropertyOp30
 70
     1
102
RTVSPropertyOp31
 70
     1
102
RTVSPropertyOp32
 70
     1
102
RTVSPropertyOp33
 70
     1
102
RTVSPropertyOp34
 70
     1
102
RTVSPropertyOp35
 70
     1
102
RTVSPropertyOp36
 70
     1
102
RTVSPropertyOp37
 70
     1
102
RTVSPropertyOp38
 70
     1
102
RTVSPropertyOp39
 70
     1
102
RTVSPropertyOp40
 70
     1
102
RTVSPropertyOp41
 70
     1
102
RTVSPropertyOp42
 70
     1
102
RTVSPropertyOp43
 70
     1
102
RTVSPropertyOp44
 70
     1
102
RTVSPropertyOp45
 70
     1
102
RTVSPropertyOp46
 70
     1
102
RTVSPropertyOp47
 70
     1
102
RTVSPropertyOp48
 70
     1
102
RTVSPropertyOp49
 70
     1
102
RTVSPropertyOp50
 70
     1
102
RTVSPropertyOp51
 70
     0
102
RTVSPropertyOp52
 70
     0
102
RTVSPropertyOp53
 70
     1
102
RTVSPropertyOp54
 70
     1
102
RTVSPropertyOp55
 70
     1
102
RTVSPropertyOp56
 70
     1
102
RTVSPropertyOp57
 70
     1
102
RTVSPropertyOp58
 70
     1
102
RTVSPropertyOp59
 70
     1
102
RTVSPropertyOp60
 70
     1
102
RTVSPropertyOp61
 70
     1
102
RTVSPropertyOp62
 70
     1
  0
XRECORD
  5
38E
102
{ACAD_REACTORS
330
38D
102
}
330
38D
100
AcDbXrecord
280
     1
102
RTVSPost2010Prop28
280
     0
102
RTVSPost2010PropOp28
 70
     0
102
RTVSPost2010Prop29
280
     1
102
RTVSPost2010PropOp29
 70
     0
102
RTVSPost2010Prop30
280
     1
102
RTVSPost2010PropOp30
 70
     0
102
RTVSPost2010Prop31
280
     0
102
RTVSPost2010PropOp31
 70
     0
102
RTVSPost2010Prop32
280
     0
102
RTVSPost2010PropOp32
 70
     0
102
RTVSPost2010Prop33
280
     0
102
RTVSPost2010PropOp33
 70
     0
102
RTVSPost2010Prop34
280
     0
102
RTVSPost2010PropOp34
 70
     0
102
RTVSPost2010Prop35
280
     0
102
RTVSPost2010PropOp35
 70
     0
102
RTVSPost2010Prop36
280
     0
102
RTVSPost2010PropOp36
 70
     0
102
RTVSPost2010Prop37
 90
       50
102
RTVSPost2010PropOp37
 70
     0
102
RTVSPost2010Prop38
140
0.0
102
RTVSPost2010PropOp38
 70
     0
102
RTVSPost2010Prop39
140
1.0
102
RTVSPost2010PropOp39
 70
     0
102
RTVSPost2010Prop40
 90
        0
102
RTVSPost2010PropOp40
 70
     0
102
RTVSPost2010Prop41ColorIndex
 90
       18
102
RTVSPost2010Prop41ColorRGB
 90
        0
102
RTVSPost2010PropOp41
 70
     0
102
RTVSPost2010Prop42
 90
       50
102
RTVSPost2010PropOp42
 70
     0
102
RTVSPost2010Prop43
 90
        3
102
RTVSPost2010PropOp43
 70
     0
102
RTVSPost2010Prop44ColorIndex
 90
        5
102
RTVSPost2010Prop44ColorRGB
 90
      255
102
RTVSPost2010PropOp44
 70
     0
102
RTVSPost2010Prop45
280
     0
102
RTVSPost2010PropOp45
 70
     0
102
RTVSPost2010Prop46
 90
       50
102
RTVSPost2010PropOp46
 70
     0
102
RTVSPost2010Prop47
 90
       50
102
RTVSPost2010PropOp47
 70
     0
102
RTVSPost2010Prop48
 90
       50
102
RTVSPost2010PropOp48
 70
     0
102
RTVSPost2010Prop49
280
     0
102
RTVSPost2010PropOp49
 70
     0
102
RTVSPost2010Prop50
 90
       50
102
RTVSPost2010PropOp50
 70
     0
102
RTVSPost2010Prop51ColorIndex
 90
      256
102
RTVSPost2010Prop51ColorRGB
 90
-16777216
102
RTVSPost2010PropOp51
 70
     0
102
RTVSPost2010Prop52
140
1.0
102
RTVSPost2010PropOp52
 70
     0
102
RTVSPost2010Prop53
 90
        2
102
RTVSPost2010PropOp53
 70
     0
102
RTVSPost2010Prop54
  1
strokes_ogs.tif
102
RTVSPost2010PropOp54
 70
     0
102
RTVSPost2010Prop55
280
     0
102
RTVSPost2010PropOp55
 70
     0
102
RTVSPost2010Prop56
140
1.0
102
RTVSPost2010PropOp56
 70
     0
102
RTVSPost2010Prop57
140
1.0
102
RTVSPost2010PropOp57
 70
     0
102
RTVSPropertyOp0
 70
     0
102
RTVSPropertyOp1
 70
     0
102
RTVSPropertyOp2
 70
     0
102
RTVSPropertyOp3
 70
     0
102
RTVSPropertyOp4
 70
     0
102
RTVSPropertyOp5
 70
     0
102
RTVSPropertyOp6
 70
     0
102
RTVSPropertyOp7
 70
     0
102
RTVSPropertyOp8
 70
     0
102
RTVSPropertyOp9
 70
     0
102
RTVSPropertyOp10
 70
     0
102
RTVSPropertyOp11
 70
     0
102
RTVSPropertyOp12
 70
     0
102
RTVSPropertyOp13
 70
     0
102
RTVSPropertyOp14
 70
     2
102
RTVSPropertyOp15
 70
     0
102
RTVSPropertyOp16
 70
     0
102
RTVSPropertyOp17
 70
     0
102
RTVSPropertyOp18
 70
     0
102
RTVSPropertyOp19
 70
     0
102
RTVSPropertyOp20
 70
     0
102
RTVSPropertyOp21
 70
     0
102
RTVSPropertyOp22
 70
     0
102
RTVSPropertyOp23
 70
     0
102
RTVSPropertyOp24
 70
     0
102
RTVSPropertyOp25
 70
     0
102
RTVSPropertyOp26
 70
     0
102
RTVSPropertyOp27
 70
     0
102
RTVSPropertyOp28
 70
     0
102
RTVSPropertyOp29
 70
     0
102
RTVSPropertyOp30
 70
     0
102
RTVSPropertyOp31
 70
     0
102
RTVSPropertyOp32
 70
     0
102
RTVSPropertyOp33
 70
     0
102
RTVSPropertyOp34
 70
     0
102
RTVSPropertyOp35
 70
     0
102
RTVSPropertyOp36
 70
     0
102
RTVSPropertyOp37
 70
     0
102
RTVSPropertyOp38
 70
     0
102
RTVSPropertyOp39
 70
     0
102
RTVSPropertyOp40
 70
     0
102
RTVSPropertyOp41
 70
     0
102
RTVSPropertyOp42
 70
     0
102
RTVSPropertyOp43
 70
     0
102
RTVSPropertyOp44
 70
     0
102
RTVSPropertyOp45
 70
     0
102
RTVSPropertyOp46
 70
     0
102
RTVSPropertyOp47
 70
     0
102
RTVSPropertyOp48
 70
     0
102
RTVSPropertyOp49
 70
     0
102
RTVSPropertyOp50
 70
     0
102
RTVSPropertyOp51
 70
     0
102
RTVSPropertyOp52
 70
     0
102
RTVSPropertyOp53
 70
     0
102
RTVSPropertyOp54
 70
     0
102
RTVSPropertyOp55
 70
     0
102
RTVSPropertyOp56
 70
     0
102
RTVSPropertyOp57
 70
     0
102
RTVSPropertyOp58
 70
     1
102
RTVSPropertyOp59
 70
     1
102
RTVSPropertyOp60
 70
     1
102
RTVSPropertyOp61
 70
     1
102
RTVSPropertyOp62
 70
     1
  0
XRECORD
  5
388
102
{ACAD_REACTORS
330
387
102
}
330
387
100
AcDbXrecord
280
     1
102
RTVSPost2010Prop28
280
     0
102
RTVSPost2010PropOp28
 70
     1
102
RTVSPost2010Prop29
280
     1
102
RTVSPost2010PropOp29
 70
     1
102
RTVSPost2010Prop30
280
     1
102
RTVSPost2010PropOp30
 70
     1
102
RTVSPost2010Prop31
280
     0
102
RTVSPost2010PropOp31
 70
     1
102
RTVSPost2010Prop32
280
     0
102
RTVSPost2010PropOp32
 70
     1
102
RTVSPost2010Prop33
280
     0
102
RTVSPost2010PropOp33
 70
     1
102
RTVSPost2010Prop34
280
     0
102
RTVSPost2010PropOp34
 70
     1
102
RTVSPost2010Prop35
280
     0
102
RTVSPost2010PropOp35
 70
     1
102
RTVSPost2010Prop36
280
     0
102
RTVSPost2010PropOp36
 70
     1
102
RTVSPost2010Prop37
 90
       50
102
RTVSPost2010PropOp37
 70
     1
102
RTVSPost2010Prop38
140
0.0
102
RTVSPost2010PropOp38
 70
     1
102
RTVSPost2010Prop39
140
1.0
102
RTVSPost2010PropOp39
 70
     1
102
RTVSPost2010Prop40
 90
        0
102
RTVSPost2010PropOp40
 70
     1
102
RTVSPost2010Prop41ColorIndex
 90
       18
102
RTVSPost2010Prop41ColorRGB
 90
        0
102
RTVSPost2010PropOp41
 70
     1
102
RTVSPost2010Prop42
 90
       50
102
RTVSPost2010PropOp42
 70
     1
102
RTVSPost2010Prop43
 90
        3
102
RTVSPost2010PropOp43
 70
     1
102
RTVSPost2010Prop44ColorIndex
 90
        5
102
RTVSPost2010Prop44ColorRGB
 90
      255
102
RTVSPost2010PropOp44
 70
     1
102
RTVSPost2010Prop45
280
     0
102
RTVSPost2010PropOp45
 70
     1
102
RTVSPost2010Prop46
 90
       50
102
RTVSPost2010PropOp46
 70
     1
102
RTVSPost2010Prop47
 90
       50
102
RTVSPost2010PropOp47
 70
     1
102
RTVSPost2010Prop48
 90
       50
102
RTVSPost2010PropOp48
 70
     1
102
RTVSPost2010Prop49
280
     0
102
RTVSPost2010PropOp49
 70
     1
102
RTVSPost2010Prop50
 90
       50
102
RTVSPost2010PropOp50
 70
     1
102
RTVSPost2010Prop51ColorIndex
 90
      256
102
RTVSPost2010Prop51ColorRGB
 90
-16777216
102
RTVSPost2010PropOp51
 70
     0
102
RTVSPost2010Prop52
140
1.0
102
RTVSPost2010PropOp52
 70
     0
102
RTVSPost2010Prop53
 90
        2
102
RTVSPost2010PropOp53
 70
     1
102
RTVSPost2010Prop54
  1
strokes_ogs.tif
102
RTVSPost2010PropOp54
 70
     1
102
RTVSPost2010Prop55
280
     0
102
RTVSPost2010PropOp55
 70
     1
102
RTVSPost2010Prop56
140
1.0
102
RTVSPost2010PropOp56
 70
     1
102
RTVSPost2010Prop57
140
1.0
102
RTVSPost2010PropOp57
 70
     1
102
RTVSPropertyOp0
 70
     1
102
RTVSPropertyOp1
 70
     1
102
RTVSPropertyOp2
 70
     1
102
RTVSPropertyOp3
 70
     1
102
RTVSPropertyOp4
 70
     1
102
RTVSPropertyOp5
 70
     1
102
RTVSPropertyOp6
 70
     1
102
RTVSPropertyOp7
 70
     1
102
RTVSPropertyOp8
 70
     1
102
RTVSPropertyOp9
 70
     1
102
RTVSPropertyOp10
 70
     1
102
RTVSPropertyOp11
 70
     1
102
RTVSPropertyOp12
 70
     1
102
RTVSPropertyOp13
 70
     1
102
RTVSPropertyOp14
 70
     1
102
RTVSPropertyOp15
 70
     1
102
RTVSPropertyOp16
 70
     1
102
RTVSPropertyOp17
 70
     1
102
RTVSPropertyOp18
 70
     1
102
RTVSPropertyOp19
 70
     1
102
RTVSPropertyOp20
 70
     1
102
RTVSPropertyOp21
 70
     1
102
RTVSPropertyOp22
 70
     1
102
RTVSPropertyOp23
 70
     1
102
RTVSPropertyOp24
 70
     1
102
RTVSPropertyOp25
 70
     1
102
RTVSPropertyOp26
 70
     1
102
RTVSPropertyOp27
 70
     1
102
RTVSPropertyOp28
 70
     1
102
RTVSPropertyOp29
 70
     1
102
RTVSPropertyOp30
 70
     1
102
RTVSPropertyOp31
 70
     1
102
RTVSPropertyOp32
 70
     1
102
RTVSPropertyOp33
 70
     1
102
RTVSPropertyOp34
 70
     1
102
RTVSPropertyOp35
 70
     1
102
RTVSPropertyOp36
 70
     1
102
RTVSPropertyOp37
 70
     1
102
RTVSPropertyOp38
 70
     1
102
RTVSPropertyOp39
 70
     1
102
RTVSPropertyOp40
 70
     1
102
RTVSPropertyOp41
 70
     1
102
RTVSPropertyOp42
 70
     1
102
RTVSPropertyOp43
 70
     1
102
RTVSPropertyOp44
 70
     1
102
RTVSPropertyOp45
 70
     1
102
RTVSPropertyOp46
 70
     1
102
RTVSPropertyOp47
 70
     1
102
RTVSPropertyOp48
 70
     1
102
RTVSPropertyOp49
 70
     1
102
RTVSPropertyOp50
 70
     1
102
RTVSPropertyOp51
 70
     0
102
RTVSPropertyOp52
 70
     0
102
RTVSPropertyOp53
 70
     1
102
RTVSPropertyOp54
 70
     1
102
RTVSPropertyOp55
 70
     1
102
RTVSPropertyOp56
 70
     1
102
RTVSPropertyOp57
 70
     1
102
RTVSPropertyOp58
 70
     1
102
RTVSPropertyOp59
 70
     1
102
RTVSPropertyOp60
 70
     1
102
RTVSPropertyOp61
 70
     1
102
RTVSPropertyOp62
 70
     1
  0
XRECORD
  5
390
102
{ACAD_REACTORS
330
38F
102
}
330
38F
100
AcDbXrecord
280
     1
102
RTVSPost2010Prop28
280
     0
102
RTVSPost2010PropOp28
 70
     0
102
RTVSPost2010Prop29
280
     1
102
RTVSPost2010PropOp29
 70
     0
102
RTVSPost2010Prop30
280
     1
102
RTVSPost2010PropOp30
 70
     0
102
RTVSPost2010Prop31
280
     0
102
RTVSPost2010PropOp31
 70
     0
102
RTVSPost2010Prop32
280
     0
102
RTVSPost2010PropOp32
 70
     0
102
RTVSPost2010Prop33
280
     0
102
RTVSPost2010PropOp33
 70
     0
102
RTVSPost2010Prop34
280
     0
102
RTVSPost2010PropOp34
 70
     0
102
RTVSPost2010Prop35
280
     0
102
RTVSPost2010PropOp35
 70
     0
102
RTVSPost2010Prop36
280
     0
102
RTVSPost2010PropOp36
 70
     0
102
RTVSPost2010Prop37
 90
       50
102
RTVSPost2010PropOp37
 70
     0
102
RTVSPost2010Prop38
140
0.0
102
RTVSPost2010PropOp38
 70
     0
102
RTVSPost2010Prop39
140
1.0
102
RTVSPost2010PropOp39
 70
     0
102
RTVSPost2010Prop40
 90
        0
102
RTVSPost2010PropOp40
 70
     0
102
RTVSPost2010Prop41ColorIndex
 90
       18
102
RTVSPost2010Prop41ColorRGB
 90
        0
102
RTVSPost2010PropOp41
 70
     0
102
RTVSPost2010Prop42
 90
       50
102
RTVSPost2010PropOp42
 70
     0
102
RTVSPost2010Prop43
 90
        3
102
RTVSPost2010PropOp43
 70
     0
102
RTVSPost2010Prop44ColorIndex
 90
        5
102
RTVSPost2010Prop44ColorRGB
 90
      255
102
RTVSPost2010PropOp44
 70
     0
102
RTVSPost2010Prop45
280
     0
102
RTVSPost2010PropOp45
 70
     0
102
RTVSPost2010Prop46
 90
       50
102
RTVSPost2010PropOp46
 70
     0
102
RTVSPost2010Prop47
 90
       50
102
RTVSPost2010PropOp47
 70
     0
102
RTVSPost2010Prop48
 90
       50
102
RTVSPost2010PropOp48
 70
     0
102
RTVSPost2010Prop49
280
     0
102
RTVSPost2010PropOp49
 70
     0
102
RTVSPost2010Prop50
 90
       50
102
RTVSPost2010PropOp50
 70
     0
102
RTVSPost2010Prop51ColorIndex
 90
      256
102
RTVSPost2010Prop51ColorRGB
 90
-16777216
102
RTVSPost2010PropOp51
 70
     0
102
RTVSPost2010Prop52
140
1.0
102
RTVSPost2010PropOp52
 70
     0
102
RTVSPost2010Prop53
 90
        2
102
RTVSPost2010PropOp53
 70
     0
102
RTVSPost2010Prop54
  1
strokes_ogs.tif
102
RTVSPost2010PropOp54
 70
     0
102
RTVSPost2010Prop55
280
     0
102
RTVSPost2010PropOp55
 70
     0
102
RTVSPost2010Prop56
140
1.0
102
RTVSPost2010PropOp56
 70
     0
102
RTVSPost2010Prop57
140
1.0
102
RTVSPost2010PropOp57
 70
     0
102
RTVSPropertyOp0
 70
     0
102
RTVSPropertyOp1
 70
     0
102
RTVSPropertyOp2
 70
     0
102
RTVSPropertyOp3
 70
     0
102
RTVSPropertyOp4
 70
     0
102
RTVSPropertyOp5
 70
     0
102
RTVSPropertyOp6
 70
     0
102
RTVSPropertyOp7
 70
     0
102
RTVSPropertyOp8
 70
     0
102
RTVSPropertyOp9
 70
     0
102
RTVSPropertyOp10
 70
     0
102
RTVSPropertyOp11
 70
     0
102
RTVSPropertyOp12
 70
     0
102
RTVSPropertyOp13
 70
     0
102
RTVSPropertyOp14
 70
     2
102
RTVSPropertyOp15
 70
     0
102
RTVSPropertyOp16
 70
     0
102
RTVSPropertyOp17
 70
     0
102
RTVSPropertyOp18
 70
     0
102
RTVSPropertyOp19
 70
     0
102
RTVSPropertyOp20
 70
     0
102
RTVSPropertyOp21
 70
     0
102
RTVSPropertyOp22
 70
     0
102
RTVSPropertyOp23
 70
     0
102
RTVSPropertyOp24
 70
     0
102
RTVSPropertyOp25
 70
     0
102
RTVSPropertyOp26
 70
     0
102
RTVSPropertyOp27
 70
     0
102
RTVSPropertyOp28
 70
     0
102
RTVSPropertyOp29
 70
     0
102
RTVSPropertyOp30
 70
     0
102
RTVSPropertyOp31
 70
     0
102
RTVSPropertyOp32
 70
     0
102
RTVSPropertyOp33
 70
     0
102
RTVSPropertyOp34
 70
     0
102
RTVSPropertyOp35
 70
     0
102
RTVSPropertyOp36
 70
     0
102
RTVSPropertyOp37
 70
     0
102
RTVSPropertyOp38
 70
     0
102
RTVSPropertyOp39
 70
     0
102
RTVSPropertyOp40
 70
     0
102
RTVSPropertyOp41
 70
     0
102
RTVSPropertyOp42
 70
     0
102
RTVSPropertyOp43
 70
     0
102
RTVSPropertyOp44
 70
     0
102
RTVSPropertyOp45
 70
     0
102
RTVSPropertyOp46
 70
     0
102
RTVSPropertyOp47
 70
     0
102
RTVSPropertyOp48
 70
     0
102
RTVSPropertyOp49
 70
     0
102
RTVSPropertyOp50
 70
     0
102
RTVSPropertyOp51
 70
     0
102
RTVSPropertyOp52
 70
     0
102
RTVSPropertyOp53
 70
     0
102
RTVSPropertyOp54
 70
     0
102
RTVSPropertyOp55
 70
     0
102
RTVSPropertyOp56
 70
     0
102
RTVSPropertyOp57
 70
     0
102
RTVSPropertyOp58
 70
     1
102
RTVSPropertyOp59
 70
     1
102
RTVSPropertyOp60
 70
     1
102
RTVSPropertyOp61
 70
     1
102
RTVSPropertyOp62
 70
     1
  0
XRECORD
  5
37E
102
{ACAD_REACTORS
330
37D
102
}
330
37D
100
AcDbXrecord
280
     1
102
RTVSPost2010Prop28
280
     0
102
RTVSPost2010PropOp28
 70
     1
102
RTVSPost2010Prop29
280
     1
102
RTVSPost2010PropOp29
 70
     1
102
RTVSPost2010Prop30
280
     1
102
RTVSPost2010PropOp30
 70
     1
102
RTVSPost2010Prop31
280
     0
102
RTVSPost2010PropOp31
 70
     1
102
RTVSPost2010Prop32
280
     0
102
RTVSPost2010PropOp32
 70
     1
102
RTVSPost2010Prop33
280
     0
102
RTVSPost2010PropOp33
 70
     1
102
RTVSPost2010Prop34
280
     0
102
RTVSPost2010PropOp34
 70
     1
102
RTVSPost2010Prop35
280
     0
102
RTVSPost2010PropOp35
 70
     1
102
RTVSPost2010Prop36
280
     0
102
RTVSPost2010PropOp36
 70
     1
102
RTVSPost2010Prop37
 90
       50
102
RTVSPost2010PropOp37
 70
     1
102
RTVSPost2010Prop38
140
0.0
102
RTVSPost2010PropOp38
 70
     1
102
RTVSPost2010Prop39
140
1.0
102
RTVSPost2010PropOp39
 70
     1
102
RTVSPost2010Prop40
 90
        0
102
RTVSPost2010PropOp40
 70
     1
102
RTVSPost2010Prop41ColorIndex
 90
       18
102
RTVSPost2010Prop41ColorRGB
 90
        0
102
RTVSPost2010PropOp41
 70
     1
102
RTVSPost2010Prop42
 90
       50
102
RTVSPost2010PropOp42
 70
     1
102
RTVSPost2010Prop43
 90
        3
102
RTVSPost2010PropOp43
 70
     1
102
RTVSPost2010Prop44ColorIndex
 90
        5
102
RTVSPost2010Prop44ColorRGB
 90
      255
102
RTVSPost2010PropOp44
 70
     1
102
RTVSPost2010Prop45
280
     0
102
RTVSPost2010PropOp45
 70
     1
102
RTVSPost2010Prop46
 90
       50
102
RTVSPost2010PropOp46
 70
     1
102
RTVSPost2010Prop47
 90
       50
102
RTVSPost2010PropOp47
 70
     1
102
RTVSPost2010Prop48
 90
       50
102
RTVSPost2010PropOp48
 70
     1
102
RTVSPost2010Prop49
280
     0
102
RTVSPost2010PropOp49
 70
     1
102
RTVSPost2010Prop50
 90
       50
102
RTVSPost2010PropOp50
 70
     1
102
RTVSPost2010Prop51ColorIndex
 90
      256
102
RTVSPost2010Prop51ColorRGB
 90
-16777216
102
RTVSPost2010PropOp51
 70
     0
102
RTVSPost2010Prop52
140
1.0
102
RTVSPost2010PropOp52
 70
     0
102
RTVSPost2010Prop53
 90
        2
102
RTVSPost2010PropOp53
 70
     1
102
RTVSPost2010Prop54
  1
strokes_ogs.tif
102
RTVSPost2010PropOp54
 70
     1
102
RTVSPost2010Prop55
280
     0
102
RTVSPost2010PropOp55
 70
     1
102
RTVSPost2010Prop56
140
1.0
102
RTVSPost2010PropOp56
 70
     1
102
RTVSPost2010Prop57
140
1.0
102
RTVSPost2010PropOp57
 70
     1
102
RTVSPropertyOp0
 70
     1
102
RTVSPropertyOp1
 70
     1
102
RTVSPropertyOp2
 70
     1
102
RTVSPropertyOp3
 70
     1
102
RTVSPropertyOp4
 70
     1
102
RTVSPropertyOp5
 70
     1
102
RTVSPropertyOp6
 70
     1
102
RTVSPropertyOp7
 70
     1
102
RTVSPropertyOp8
 70
     1
102
RTVSPropertyOp9
 70
     1
102
RTVSPropertyOp10
 70
     1
102
RTVSPropertyOp11
 70
     1
102
RTVSPropertyOp12
 70
     1
102
RTVSPropertyOp13
 70
     1
102
RTVSPropertyOp14
 70
     1
102
RTVSPropertyOp15
 70
     1
102
RTVSPropertyOp16
 70
     1
102
RTVSPropertyOp17
 70
     1
102
RTVSPropertyOp18
 70
     1
102
RTVSPropertyOp19
 70
     1
102
RTVSPropertyOp20
 70
     1
102
RTVSPropertyOp21
 70
     1
102
RTVSPropertyOp22
 70
     1
102
RTVSPropertyOp23
 70
     1
102
RTVSPropertyOp24
 70
     1
102
RTVSPropertyOp25
 70
     1
102
RTVSPropertyOp26
 70
     1
102
RTVSPropertyOp27
 70
     1
102
RTVSPropertyOp28
 70
     1
102
RTVSPropertyOp29
 70
     1
102
RTVSPropertyOp30
 70
     1
102
RTVSPropertyOp31
 70
     1
102
RTVSPropertyOp32
 70
     1
102
RTVSPropertyOp33
 70
     1
102
RTVSPropertyOp34
 70
     1
102
RTVSPropertyOp35
 70
     1
102
RTVSPropertyOp36
 70
     1
102
RTVSPropertyOp37
 70
     1
102
RTVSPropertyOp38
 70
     1
102
RTVSPropertyOp39
 70
     1
102
RTVSPropertyOp40
 70
     1
102
RTVSPropertyOp41
 70
     1
102
RTVSPropertyOp42
 70
     1
102
RTVSPropertyOp43
 70
     1
102
RTVSPropertyOp44
 70
     1
102
RTVSPropertyOp45
 70
     1
102
RTVSPropertyOp46
 70
     1
102
RTVSPropertyOp47
 70
     1
102
RTVSPropertyOp48
 70
     1
102
RTVSPropertyOp49
 70
     1
102
RTVSPropertyOp50
 70
     1
102
RTVSPropertyOp51
 70
     0
102
RTVSPropertyOp52
 70
     0
102
RTVSPropertyOp53
 70
     1
102
RTVSPropertyOp54
 70
     1
102
RTVSPropertyOp55
 70
     1
102
RTVSPropertyOp56
 70
     1
102
RTVSPropertyOp57
 70
     1
102
RTVSPropertyOp58
 70
     1
102
RTVSPropertyOp59
 70
     1
102
RTVSPropertyOp60
 70
     1
102
RTVSPropertyOp61
 70
     1
102
RTVSPropertyOp62
 70
     1
  0
XRECORD
  5
39C
102
{ACAD_REACTORS
330
39B
102
}
330
39B
100
AcDbXrecord
280
     1
102
RTVSPost2010Prop28
280
     0
102
RTVSPost2010PropOp28
 70
     1
102
RTVSPost2010Prop29
280
     1
102
RTVSPost2010PropOp29
 70
     1
102
RTVSPost2010Prop30
280
     1
102
RTVSPost2010PropOp30
 70
     1
102
RTVSPost2010Prop31
280
     0
102
RTVSPost2010PropOp31
 70
     1
102
RTVSPost2010Prop32
280
     0
102
RTVSPost2010PropOp32
 70
     1
102
RTVSPost2010Prop33
280
     0
102
RTVSPost2010PropOp33
 70
     1
102
RTVSPost2010Prop34
280
     0
102
RTVSPost2010PropOp34
 70
     1
102
RTVSPost2010Prop35
280
     0
102
RTVSPost2010PropOp35
 70
     1
102
RTVSPost2010Prop36
280
     0
102
RTVSPost2010PropOp36
 70
     1
102
RTVSPost2010Prop37
 90
       50
102
RTVSPost2010PropOp37
 70
     1
102
RTVSPost2010Prop38
140
0.0
102
RTVSPost2010PropOp38
 70
     1
102
RTVSPost2010Prop39
140
1.0
102
RTVSPost2010PropOp39
 70
     1
102
RTVSPost2010Prop40
 90
        0
102
RTVSPost2010PropOp40
 70
     1
102
RTVSPost2010Prop41ColorIndex
 90
       18
102
RTVSPost2010Prop41ColorRGB
 90
        0
102
RTVSPost2010PropOp41
 70
     1
102
RTVSPost2010Prop42
 90
       50
102
RTVSPost2010PropOp42
 70
     1
102
RTVSPost2010Prop43
 90
        3
102
RTVSPost2010PropOp43
 70
     1
102
RTVSPost2010Prop44ColorIndex
 90
        5
102
RTVSPost2010Prop44ColorRGB
 90
      255
102
RTVSPost2010PropOp44
 70
     1
102
RTVSPost2010Prop45
280
     0
102
RTVSPost2010PropOp45
 70
     1
102
RTVSPost2010Prop46
 90
       50
102
RTVSPost2010PropOp46
 70
     1
102
RTVSPost2010Prop47
 90
       50
102
RTVSPost2010PropOp47
 70
     1
102
RTVSPost2010Prop48
 90
       50
102
RTVSPost2010PropOp48
 70
     1
102
RTVSPost2010Prop49
280
     0
102
RTVSPost2010PropOp49
 70
     1
102
RTVSPost2010Prop50
 90
       50
102
RTVSPost2010PropOp50
 70
     1
102
RTVSPost2010Prop51ColorIndex
 90
      256
102
RTVSPost2010Prop51ColorRGB
 90
-16777216
102
RTVSPost2010PropOp51
 70
     0
102
RTVSPost2010Prop52
140
1.0
102
RTVSPost2010PropOp52
 70
     0
102
RTVSPost2010Prop53
 90
        2
102
RTVSPost2010PropOp53
 70
     1
102
RTVSPost2010Prop54
  1
strokes_ogs.tif
102
RTVSPost2010PropOp54
 70
     1
102
RTVSPost2010Prop55
280
     0
102
RTVSPost2010PropOp55
 70
     1
102
RTVSPost2010Prop56
140
1.0
102
RTVSPost2010PropOp56
 70
     1
102
RTVSPost2010Prop57
140
1.0
102
RTVSPost2010PropOp57
 70
     1
102
RTVSPropertyOp0
 70
     1
102
RTVSPropertyOp1
 70
     1
102
RTVSPropertyOp2
 70
     1
102
RTVSPropertyOp3
 70
     1
102
RTVSPropertyOp4
 70
     1
102
RTVSPropertyOp5
 70
     1
102
RTVSPropertyOp6
 70
     1
102
RTVSPropertyOp7
 70
     1
102
RTVSPropertyOp8
 70
     1
102
RTVSPropertyOp9
 70
     1
102
RTVSPropertyOp10
 70
     1
102
RTVSPropertyOp11
 70
     1
102
RTVSPropertyOp12
 70
     1
102
RTVSPropertyOp13
 70
     1
102
RTVSPropertyOp14
 70
     1
102
RTVSPropertyOp15
 70
     1
102
RTVSPropertyOp16
 70
     1
102
RTVSPropertyOp17
 70
     1
102
RTVSPropertyOp18
 70
     1
102
RTVSPropertyOp19
 70
     1
102
RTVSPropertyOp20
 70
     1
102
RTVSPropertyOp21
 70
     1
102
RTVSPropertyOp22
 70
     1
102
RTVSPropertyOp23
 70
     1
102
RTVSPropertyOp24
 70
     1
102
RTVSPropertyOp25
 70
     1
102
RTVSPropertyOp26
 70
     1
102
RTVSPropertyOp27
 70
     1
102
RTVSPropertyOp28
 70
     1
102
RTVSPropertyOp29
 70
     1
102
RTVSPropertyOp30
 70
     1
102
RTVSPropertyOp31
 70
     1
102
RTVSPropertyOp32
 70
     1
102
RTVSPropertyOp33
 70
     1
102
RTVSPropertyOp34
 70
     1
102
RTVSPropertyOp35
 70
     1
102
RTVSPropertyOp36
 70
     1
102
RTVSPropertyOp37
 70
     1
102
RTVSPropertyOp38
 70
     1
102
RTVSPropertyOp39
 70
     1
102
RTVSPropertyOp40
 70
     1
102
RTVSPropertyOp41
 70
     1
102
RTVSPropertyOp42
 70
     1
102
RTVSPropertyOp43
 70
     1
102
RTVSPropertyOp44
 70
     1
102
RTVSPropertyOp45
 70
     1
102
RTVSPropertyOp46
 70
     1
102
RTVSPropertyOp47
 70
     1
102
RTVSPropertyOp48
 70
     1
102
RTVSPropertyOp49
 70
     1
102
RTVSPropertyOp50
 70
     1
102
RTVSPropertyOp51
 70
     0
102
RTVSPropertyOp52
 70
     0
102
RTVSPropertyOp53
 70
     1
102
RTVSPropertyOp54
 70
     1
102
RTVSPropertyOp55
 70
     1
102
RTVSPropertyOp56
 70
     1
102
RTVSPropertyOp57
 70
     1
102
RTVSPropertyOp58
 70
     1
102
RTVSPropertyOp59
 70
     1
102
RTVSPropertyOp60
 70
     1
102
RTVSPropertyOp61
 70
     1
102
RTVSPropertyOp62
 70
     1
  0
XRECORD
  5
39A
102
{ACAD_REACTORS
330
399
102
}
330
399
100
AcDbXrecord
280
     1
102
RTVSPost2010Prop28
280
     0
102
RTVSPost2010PropOp28
 70
     1
102
RTVSPost2010Prop29
280
     1
102
RTVSPost2010PropOp29
 70
     1
102
RTVSPost2010Prop30
280
     1
102
RTVSPost2010PropOp30
 70
     1
102
RTVSPost2010Prop31
280
     0
102
RTVSPost2010PropOp31
 70
     1
102
RTVSPost2010Prop32
280
     0
102
RTVSPost2010PropOp32
 70
     1
102
RTVSPost2010Prop33
280
     0
102
RTVSPost2010PropOp33
 70
     1
102
RTVSPost2010Prop34
280
     0
102
RTVSPost2010PropOp34
 70
     1
102
RTVSPost2010Prop35
280
     0
102
RTVSPost2010PropOp35
 70
     1
102
RTVSPost2010Prop36
280
     0
102
RTVSPost2010PropOp36
 70
     1
102
RTVSPost2010Prop37
 90
       50
102
RTVSPost2010PropOp37
 70
     1
102
RTVSPost2010Prop38
140
0.0
102
RTVSPost2010PropOp38
 70
     1
102
RTVSPost2010Prop39
140
1.0
102
RTVSPost2010PropOp39
 70
     1
102
RTVSPost2010Prop40
 90
        0
102
RTVSPost2010PropOp40
 70
     1
102
RTVSPost2010Prop41ColorIndex
 90
       18
102
RTVSPost2010Prop41ColorRGB
 90
        0
102
RTVSPost2010PropOp41
 70
     1
102
RTVSPost2010Prop42
 90
       50
102
RTVSPost2010PropOp42
 70
     1
102
RTVSPost2010Prop43
 90
        3
102
RTVSPost2010PropOp43
 70
     1
102
RTVSPost2010Prop44ColorIndex
 90
        5
102
RTVSPost2010Prop44ColorRGB
 90
      255
102
RTVSPost2010PropOp44
 70
     1
102
RTVSPost2010Prop45
280
     0
102
RTVSPost2010PropOp45
 70
     1
102
RTVSPost2010Prop46
 90
       50
102
RTVSPost2010PropOp46
 70
     1
102
RTVSPost2010Prop47
 90
       50
102
RTVSPost2010PropOp47
 70
     1
102
RTVSPost2010Prop48
 90
       50
102
RTVSPost2010PropOp48
 70
     1
102
RTVSPost2010Prop49
280
     0
102
RTVSPost2010PropOp49
 70
     1
102
RTVSPost2010Prop50
 90
       50
102
RTVSPost2010PropOp50
 70
     1
102
RTVSPost2010Prop51ColorIndex
 90
      256
102
RTVSPost2010Prop51ColorRGB
 90
-16777216
102
RTVSPost2010PropOp51
 70
     0
102
RTVSPost2010Prop52
140
1.0
102
RTVSPost2010PropOp52
 70
     0
102
RTVSPost2010Prop53
 90
        2
102
RTVSPost2010PropOp53
 70
     1
102
RTVSPost2010Prop54
  1
strokes_ogs.tif
102
RTVSPost2010PropOp54
 70
     1
102
RTVSPost2010Prop55
280
     0
102
RTVSPost2010PropOp55
 70
     1
102
RTVSPost2010Prop56
140
1.0
102
RTVSPost2010PropOp56
 70
     1
102
RTVSPost2010Prop57
140
1.0
102
RTVSPost2010PropOp57
 70
     1
102
RTVSPropertyOp0
 70
     1
102
RTVSPropertyOp1
 70
     1
102
RTVSPropertyOp2
 70
     1
102
RTVSPropertyOp3
 70
     1
102
RTVSPropertyOp4
 70
     1
102
RTVSPropertyOp5
 70
     1
102
RTVSPropertyOp6
 70
     1
102
RTVSPropertyOp7
 70
     1
102
RTVSPropertyOp8
 70
     1
102
RTVSPropertyOp9
 70
     1
102
RTVSPropertyOp10
 70
     1
102
RTVSPropertyOp11
 70
     1
102
RTVSPropertyOp12
 70
     1
102
RTVSPropertyOp13
 70
     1
102
RTVSPropertyOp14
 70
     1
102
RTVSPropertyOp15
 70
     1
102
RTVSPropertyOp16
 70
     1
102
RTVSPropertyOp17
 70
     1
102
RTVSPropertyOp18
 70
     1
102
RTVSPropertyOp19
 70
     1
102
RTVSPropertyOp20
 70
     1
102
RTVSPropertyOp21
 70
     1
102
RTVSPropertyOp22
 70
     1
102
RTVSPropertyOp23
 70
     1
102
RTVSPropertyOp24
 70
     1
102
RTVSPropertyOp25
 70
     1
102
RTVSPropertyOp26
 70
     1
102
RTVSPropertyOp27
 70
     1
102
RTVSPropertyOp28
 70
     1
102
RTVSPropertyOp29
 70
     1
102
RTVSPropertyOp30
 70
     1
102
RTVSPropertyOp31
 70
     1
102
RTVSPropertyOp32
 70
     1
102
RTVSPropertyOp33
 70
     1
102
RTVSPropertyOp34
 70
     1
102
RTVSPropertyOp35
 70
     1
102
RTVSPropertyOp36
 70
     1
102
RTVSPropertyOp37
 70
     1
102
RTVSPropertyOp38
 70
     1
102
RTVSPropertyOp39
 70
     1
102
RTVSPropertyOp40
 70
     1
102
RTVSPropertyOp41
 70
     1
102
RTVSPropertyOp42
 70
     1
102
RTVSPropertyOp43
 70
     1
102
RTVSPropertyOp44
 70
     1
102
RTVSPropertyOp45
 70
     1
102
RTVSPropertyOp46
 70
     1
102
RTVSPropertyOp47
 70
     1
102
RTVSPropertyOp48
 70
     1
102
RTVSPropertyOp49
 70
     1
102
RTVSPropertyOp50
 70
     1
102
RTVSPropertyOp51
 70
     0
102
RTVSPropertyOp52
 70
     0
102
RTVSPropertyOp53
 70
     1
102
RTVSPropertyOp54
 70
     1
102
RTVSPropertyOp55
 70
     1
102
RTVSPropertyOp56
 70
     1
102
RTVSPropertyOp57
 70
     1
102
RTVSPropertyOp58
 70
     1
102
RTVSPropertyOp59
 70
     1
102
RTVSPropertyOp60
 70
     1
102
RTVSPropertyOp61
 70
     1
102
RTVSPropertyOp62
 70
     1
  0
XRECORD
  5
394
102
{ACAD_REACTORS
330
393
102
}
330
393
100
AcDbXrecord
280
     1
102
RTVSPost2010Prop28
280
     0
102
RTVSPost2010PropOp28
 70
     1
102
RTVSPost2010Prop29
280
     1
102
RTVSPost2010PropOp29
 70
     1
102
RTVSPost2010Prop30
280
     1
102
RTVSPost2010PropOp30
 70
     1
102
RTVSPost2010Prop31
280
     0
102
RTVSPost2010PropOp31
 70
     1
102
RTVSPost2010Prop32
280
     0
102
RTVSPost2010PropOp32
 70
     1
102
RTVSPost2010Prop33
280
     0
102
RTVSPost2010PropOp33
 70
     1
102
RTVSPost2010Prop34
280
     0
102
RTVSPost2010PropOp34
 70
     1
102
RTVSPost2010Prop35
280
     0
102
RTVSPost2010PropOp35
 70
     1
102
RTVSPost2010Prop36
280
     0
102
RTVSPost2010PropOp36
 70
     1
102
RTVSPost2010Prop37
 90
       50
102
RTVSPost2010PropOp37
 70
     1
102
RTVSPost2010Prop38
140
0.0
102
RTVSPost2010PropOp38
 70
     1
102
RTVSPost2010Prop39
140
1.0
102
RTVSPost2010PropOp39
 70
     1
102
RTVSPost2010Prop40
 90
        0
102
RTVSPost2010PropOp40
 70
     1
102
RTVSPost2010Prop41ColorIndex
 90
       18
102
RTVSPost2010Prop41ColorRGB
 90
        0
102
RTVSPost2010PropOp41
 70
     1
102
RTVSPost2010Prop42
 90
       50
102
RTVSPost2010PropOp42
 70
     1
102
RTVSPost2010Prop43
 90
        3
102
RTVSPost2010PropOp43
 70
     1
102
RTVSPost2010Prop44ColorIndex
 90
        5
102
RTVSPost2010Prop44ColorRGB
 90
      255
102
RTVSPost2010PropOp44
 70
     1
102
RTVSPost2010Prop45
280
     0
102
RTVSPost2010PropOp45
 70
     1
102
RTVSPost2010Prop46
 90
       50
102
RTVSPost2010PropOp46
 70
     1
102
RTVSPost2010Prop47
 90
       50
102
RTVSPost2010PropOp47
 70
     1
102
RTVSPost2010Prop48
 90
       50
102
RTVSPost2010PropOp48
 70
     1
102
RTVSPost2010Prop49
280
     0
102
RTVSPost2010PropOp49
 70
     1
102
RTVSPost2010Prop50
 90
       50
102
RTVSPost2010PropOp50
 70
     1
102
RTVSPost2010Prop51ColorIndex
 90
      256
102
RTVSPost2010Prop51ColorRGB
 90
-16777216
102
RTVSPost2010PropOp51
 70
     0
102
RTVSPost2010Prop52
140
1.0
102
RTVSPost2010PropOp52
 70
     0
102
RTVSPost2010Prop53
 90
        2
102
RTVSPost2010PropOp53
 70
     1
102
RTVSPost2010Prop54
  1
strokes_ogs.tif
102
RTVSPost2010PropOp54
 70
     1
102
RTVSPost2010Prop55
280
     0
102
RTVSPost2010PropOp55
 70
     1
102
RTVSPost2010Prop56
140
1.0
102
RTVSPost2010PropOp56
 70
     1
102
RTVSPost2010Prop57
140
1.0
102
RTVSPost2010PropOp57
 70
     1
102
RTVSPropertyOp0
 70
     1
102
RTVSPropertyOp1
 70
     1
102
RTVSPropertyOp2
 70
     1
102
RTVSPropertyOp3
 70
     1
102
RTVSPropertyOp4
 70
     1
102
RTVSPropertyOp5
 70
     1
102
RTVSPropertyOp6
 70
     1
102
RTVSPropertyOp7
 70
     1
102
RTVSPropertyOp8
 70
     1
102
RTVSPropertyOp9
 70
     1
102
RTVSPropertyOp10
 70
     1
102
RTVSPropertyOp11
 70
     1
102
RTVSPropertyOp12
 70
     1
102
RTVSPropertyOp13
 70
     1
102
RTVSPropertyOp14
 70
     1
102
RTVSPropertyOp15
 70
     1
102
RTVSPropertyOp16
 70
     1
102
RTVSPropertyOp17
 70
     1
102
RTVSPropertyOp18
 70
     1
102
RTVSPropertyOp19
 70
     1
102
RTVSPropertyOp20
 70
     1
102
RTVSPropertyOp21
 70
     1
102
RTVSPropertyOp22
 70
     1
102
RTVSPropertyOp23
 70
     1
102
RTVSPropertyOp24
 70
     1
102
RTVSPropertyOp25
 70
     1
102
RTVSPropertyOp26
 70
     1
102
RTVSPropertyOp27
 70
     1
102
RTVSPropertyOp28
 70
     1
102
RTVSPropertyOp29
 70
     1
102
RTVSPropertyOp30
 70
     1
102
RTVSPropertyOp31
 70
     1
102
RTVSPropertyOp32
 70
     1
102
RTVSPropertyOp33
 70
     1
102
RTVSPropertyOp34
 70
     1
102
RTVSPropertyOp35
 70
     1
102
RTVSPropertyOp36
 70
     1
102
RTVSPropertyOp37
 70
     1
102
RTVSPropertyOp38
 70
     1
102
RTVSPropertyOp39
 70
     1
102
RTVSPropertyOp40
 70
     1
102
RTVSPropertyOp41
 70
     1
102
RTVSPropertyOp42
 70
     1
102
RTVSPropertyOp43
 70
     1
102
RTVSPropertyOp44
 70
     1
102
RTVSPropertyOp45
 70
     1
102
RTVSPropertyOp46
 70
     1
102
RTVSPropertyOp47
 70
     1
102
RTVSPropertyOp48
 70
     1
102
RTVSPropertyOp49
 70
     1
102
RTVSPropertyOp50
 70
     1
102
RTVSPropertyOp51
 70
     0
102
RTVSPropertyOp52
 70
     0
102
RTVSPropertyOp53
 70
     1
102
RTVSPropertyOp54
 70
     1
102
RTVSPropertyOp55
 70
     1
102
RTVSPropertyOp56
 70
     1
102
RTVSPropertyOp57
 70
     1
102
RTVSPropertyOp58
 70
     1
102
RTVSPropertyOp59
 70
     1
102
RTVSPropertyOp60
 70
     1
102
RTVSPropertyOp61
 70
     1
102
RTVSPropertyOp62
 70
     1
  0
XRECORD
  5
396
102
{ACAD_REACTORS
330
395
102
}
330
395
100
AcDbXrecord
280
     1
102
RTVSPost2010Prop28
280
     0
102
RTVSPost2010PropOp28
 70
     1
102
RTVSPost2010Prop29
280
     1
102
RTVSPost2010PropOp29
 70
     1
102
RTVSPost2010Prop30
280
     1
102
RTVSPost2010PropOp30
 70
     1
102
RTVSPost2010Prop31
280
     0
102
RTVSPost2010PropOp31
 70
     1
102
RTVSPost2010Prop32
280
     0
102
RTVSPost2010PropOp32
 70
     1
102
RTVSPost2010Prop33
280
     0
102
RTVSPost2010PropOp33
 70
     1
102
RTVSPost2010Prop34
280
     0
102
RTVSPost2010PropOp34
 70
     1
102
RTVSPost2010Prop35
280
     0
102
RTVSPost2010PropOp35
 70
     1
102
RTVSPost2010Prop36
280
     0
102
RTVSPost2010PropOp36
 70
     1
102
RTVSPost2010Prop37
 90
       50
102
RTVSPost2010PropOp37
 70
     1
102
RTVSPost2010Prop38
140
0.0
102
RTVSPost2010PropOp38
 70
     1
102
RTVSPost2010Prop39
140
1.0
102
RTVSPost2010PropOp39
 70
     1
102
RTVSPost2010Prop40
 90
        0
102
RTVSPost2010PropOp40
 70
     1
102
RTVSPost2010Prop41ColorIndex
 90
       18
102
RTVSPost2010Prop41ColorRGB
 90
        0
102
RTVSPost2010PropOp41
 70
     1
102
RTVSPost2010Prop42
 90
       50
102
RTVSPost2010PropOp42
 70
     1
102
RTVSPost2010Prop43
 90
        3
102
RTVSPost2010PropOp43
 70
     1
102
RTVSPost2010Prop44ColorIndex
 90
        5
102
RTVSPost2010Prop44ColorRGB
 90
      255
102
RTVSPost2010PropOp44
 70
     1
102
RTVSPost2010Prop45
280
     0
102
RTVSPost2010PropOp45
 70
     1
102
RTVSPost2010Prop46
 90
       50
102
RTVSPost2010PropOp46
 70
     1
102
RTVSPost2010Prop47
 90
       50
102
RTVSPost2010PropOp47
 70
     1
102
RTVSPost2010Prop48
 90
       50
102
RTVSPost2010PropOp48
 70
     1
102
RTVSPost2010Prop49
280
     0
102
RTVSPost2010PropOp49
 70
     1
102
RTVSPost2010Prop50
 90
       50
102
RTVSPost2010PropOp50
 70
     1
102
RTVSPost2010Prop51ColorIndex
 90
      256
102
RTVSPost2010Prop51ColorRGB
 90
-16777216
102
RTVSPost2010PropOp51
 70
     0
102
RTVSPost2010Prop52
140
1.0
102
RTVSPost2010PropOp52
 70
     0
102
RTVSPost2010Prop53
 90
        2
102
RTVSPost2010PropOp53
 70
     1
102
RTVSPost2010Prop54
  1
strokes_ogs.tif
102
RTVSPost2010PropOp54
 70
     1
102
RTVSPost2010Prop55
280
     0
102
RTVSPost2010PropOp55
 70
     1
102
RTVSPost2010Prop56
140
1.0
102
RTVSPost2010PropOp56
 70
     1
102
RTVSPost2010Prop57
140
1.0
102
RTVSPost2010PropOp57
 70
     1
102
RTVSPropertyOp0
 70
     1
102
RTVSPropertyOp1
 70
     1
102
RTVSPropertyOp2
 70
     1
102
RTVSPropertyOp3
 70
     1
102
RTVSPropertyOp4
 70
     1
102
RTVSPropertyOp5
 70
     1
102
RTVSPropertyOp6
 70
     1
102
RTVSPropertyOp7
 70
     1
102
RTVSPropertyOp8
 70
     1
102
RTVSPropertyOp9
 70
     1
102
RTVSPropertyOp10
 70
     1
102
RTVSPropertyOp11
 70
     1
102
RTVSPropertyOp12
 70
     1
102
RTVSPropertyOp13
 70
     1
102
RTVSPropertyOp14
 70
     1
102
RTVSPropertyOp15
 70
     1
102
RTVSPropertyOp16
 70
     1
102
RTVSPropertyOp17
 70
     1
102
RTVSPropertyOp18
 70
     1
102
RTVSPropertyOp19
 70
     1
102
RTVSPropertyOp20
 70
     1
102
RTVSPropertyOp21
 70
     1
102
RTVSPropertyOp22
 70
     1
102
RTVSPropertyOp23
 70
     1
102
RTVSPropertyOp24
 70
     1
102
RTVSPropertyOp25
 70
     1
102
RTVSPropertyOp26
 70
     1
102
RTVSPropertyOp27
 70
     1
102
RTVSPropertyOp28
 70
     1
102
RTVSPropertyOp29
 70
     1
102
RTVSPropertyOp30
 70
     1
102
RTVSPropertyOp31
 70
     1
102
RTVSPropertyOp32
 70
     1
102
RTVSPropertyOp33
 70
     1
102
RTVSPropertyOp34
 70
     1
102
RTVSPropertyOp35
 70
     1
102
RTVSPropertyOp36
 70
     1
102
RTVSPropertyOp37
 70
     1
102
RTVSPropertyOp38
 70
     1
102
RTVSPropertyOp39
 70
     1
102
RTVSPropertyOp40
 70
     1
102
RTVSPropertyOp41
 70
     1
102
RTVSPropertyOp42
 70
     1
102
RTVSPropertyOp43
 70
     1
102
RTVSPropertyOp44
 70
     1
102
RTVSPropertyOp45
 70
     1
102
RTVSPropertyOp46
 70
     1
102
RTVSPropertyOp47
 70
     1
102
RTVSPropertyOp48
 70
     1
102
RTVSPropertyOp49
 70
     1
102
RTVSPropertyOp50
 70
     1
102
RTVSPropertyOp51
 70
     0
102
RTVSPropertyOp52
 70
     0
102
RTVSPropertyOp53
 70
     1
102
RTVSPropertyOp54
 70
     1
102
RTVSPropertyOp55
 70
     1
102
RTVSPropertyOp56
 70
     1
102
RTVSPropertyOp57
 70
     1
102
RTVSPropertyOp58
 70
     1
102
RTVSPropertyOp59
 70
     1
102
RTVSPropertyOp60
 70
     1
102
RTVSPropertyOp61
 70
     1
102
RTVSPropertyOp62
 70
     1
  0
XRECORD
  5
386
102
{ACAD_REACTORS
330
385
102
}
330
385
100
AcDbXrecord
280
     1
102
RTVSPost2010Prop28
280
     0
102
RTVSPost2010PropOp28
 70
     1
102
RTVSPost2010Prop29
280
     1
102
RTVSPost2010PropOp29
 70
     1
102
RTVSPost2010Prop30
280
     1
102
RTVSPost2010PropOp30
 70
     1
102
RTVSPost2010Prop31
280
     0
102
RTVSPost2010PropOp31
 70
     1
102
RTVSPost2010Prop32
280
     0
102
RTVSPost2010PropOp32
 70
     1
102
RTVSPost2010Prop33
280
     0
102
RTVSPost2010PropOp33
 70
     1
102
RTVSPost2010Prop34
280
     0
102
RTVSPost2010PropOp34
 70
     1
102
RTVSPost2010Prop35
280
     0
102
RTVSPost2010PropOp35
 70
     1
102
RTVSPost2010Prop36
280
     0
102
RTVSPost2010PropOp36
 70
     1
102
RTVSPost2010Prop37
 90
       50
102
RTVSPost2010PropOp37
 70
     1
102
RTVSPost2010Prop38
140
0.0
102
RTVSPost2010PropOp38
 70
     1
102
RTVSPost2010Prop39
140
1.0
102
RTVSPost2010PropOp39
 70
     1
102
RTVSPost2010Prop40
 90
        0
102
RTVSPost2010PropOp40
 70
     1
102
RTVSPost2010Prop41ColorIndex
 90
       18
102
RTVSPost2010Prop41ColorRGB
 90
        0
102
RTVSPost2010PropOp41
 70
     1
102
RTVSPost2010Prop42
 90
       50
102
RTVSPost2010PropOp42
 70
     1
102
RTVSPost2010Prop43
 90
        3
102
RTVSPost2010PropOp43
 70
     1
102
RTVSPost2010Prop44ColorIndex
 90
        5
102
RTVSPost2010Prop44ColorRGB
 90
      255
102
RTVSPost2010PropOp44
 70
     1
102
RTVSPost2010Prop45
280
     0
102
RTVSPost2010PropOp45
 70
     1
102
RTVSPost2010Prop46
 90
       50
102
RTVSPost2010PropOp46
 70
     1
102
RTVSPost2010Prop47
 90
       50
102
RTVSPost2010PropOp47
 70
     1
102
RTVSPost2010Prop48
 90
       50
102
RTVSPost2010PropOp48
 70
     1
102
RTVSPost2010Prop49
280
     0
102
RTVSPost2010PropOp49
 70
     1
102
RTVSPost2010Prop50
 90
       50
102
RTVSPost2010PropOp50
 70
     1
102
RTVSPost2010Prop51ColorIndex
 90
      256
102
RTVSPost2010Prop51ColorRGB
 90
-16777216
102
RTVSPost2010PropOp51
 70
     0
102
RTVSPost2010Prop52
140
1.0
102
RTVSPost2010PropOp52
 70
     0
102
RTVSPost2010Prop53
 90
        2
102
RTVSPost2010PropOp53
 70
     1
102
RTVSPost2010Prop54
  1
strokes_ogs.tif
102
RTVSPost2010PropOp54
 70
     1
102
RTVSPost2010Prop55
280
     0
102
RTVSPost2010PropOp55
 70
     1
102
RTVSPost2010Prop56
140
1.0
102
RTVSPost2010PropOp56
 70
     1
102
RTVSPost2010Prop57
140
1.0
102
RTVSPost2010PropOp57
 70
     1
102
RTVSPropertyOp0
 70
     1
102
RTVSPropertyOp1
 70
     1
102
RTVSPropertyOp2
 70
     1
102
RTVSPropertyOp3
 70
     1
102
RTVSPropertyOp4
 70
     1
102
RTVSPropertyOp5
 70
     1
102
RTVSPropertyOp6
 70
     1
102
RTVSPropertyOp7
 70
     1
102
RTVSPropertyOp8
 70
     1
102
RTVSPropertyOp9
 70
     1
102
RTVSPropertyOp10
 70
     1
102
RTVSPropertyOp11
 70
     1
102
RTVSPropertyOp12
 70
     1
102
RTVSPropertyOp13
 70
     1
102
RTVSPropertyOp14
 70
     1
102
RTVSPropertyOp15
 70
     1
102
RTVSPropertyOp16
 70
     1
102
RTVSPropertyOp17
 70
     1
102
RTVSPropertyOp18
 70
     1
102
RTVSPropertyOp19
 70
     1
102
RTVSPropertyOp20
 70
     1
102
RTVSPropertyOp21
 70
     1
102
RTVSPropertyOp22
 70
     1
102
RTVSPropertyOp23
 70
     1
102
RTVSPropertyOp24
 70
     1
102
RTVSPropertyOp25
 70
     1
102
RTVSPropertyOp26
 70
     1
102
RTVSPropertyOp27
 70
     1
102
RTVSPropertyOp28
 70
     1
102
RTVSPropertyOp29
 70
     1
102
RTVSPropertyOp30
 70
     1
102
RTVSPropertyOp31
 70
     1
102
RTVSPropertyOp32
 70
     1
102
RTVSPropertyOp33
 70
     1
102
RTVSPropertyOp34
 70
     1
102
RTVSPropertyOp35
 70
     1
102
RTVSPropertyOp36
 70
     1
102
RTVSPropertyOp37
 70
     1
102
RTVSPropertyOp38
 70
     1
102
RTVSPropertyOp39
 70
     1
102
RTVSPropertyOp40
 70
     1
102
RTVSPropertyOp41
 70
     1
102
RTVSPropertyOp42
 70
     1
102
RTVSPropertyOp43
 70
     1
102
RTVSPropertyOp44
 70
     1
102
RTVSPropertyOp45
 70
     1
102
RTVSPropertyOp46
 70
     1
102
RTVSPropertyOp47
 70
     1
102
RTVSPropertyOp48
 70
     1
102
RTVSPropertyOp49
 70
     1
102
RTVSPropertyOp50
 70
     1
102
RTVSPropertyOp51
 70
     0
102
RTVSPropertyOp52
 70
     0
102
RTVSPropertyOp53
 70
     1
102
RTVSPropertyOp54
 70
     1
102
RTVSPropertyOp55
 70
     1
102
RTVSPropertyOp56
 70
     1
102
RTVSPropertyOp57
 70
     1
102
RTVSPropertyOp58
 70
     1
102
RTVSPropertyOp59
 70
     1
102
RTVSPropertyOp60
 70
     1
102
RTVSPropertyOp61
 70
     1
102
RTVSPropertyOp62
 70
     1
  0
XRECORD
  5
378
102
{ACAD_REACTORS
330
377
102
}
330
377
100
AcDbXrecord
280
     1
102
RTVSPost2010Prop28
280
     0
102
RTVSPost2010PropOp28
 70
     1
102
RTVSPost2010Prop29
280
     1
102
RTVSPost2010PropOp29
 70
     1
102
RTVSPost2010Prop30
280
     1
102
RTVSPost2010PropOp30
 70
     1
102
RTVSPost2010Prop31
280
     0
102
RTVSPost2010PropOp31
 70
     1
102
RTVSPost2010Prop32
280
     0
102
RTVSPost2010PropOp32
 70
     1
102
RTVSPost2010Prop33
280
     0
102
RTVSPost2010PropOp33
 70
     1
102
RTVSPost2010Prop34
280
     0
102
RTVSPost2010PropOp34
 70
     1
102
RTVSPost2010Prop35
280
     0
102
RTVSPost2010PropOp35
 70
     1
102
RTVSPost2010Prop36
280
     0
102
RTVSPost2010PropOp36
 70
     1
102
RTVSPost2010Prop37
 90
       50
102
RTVSPost2010PropOp37
 70
     1
102
RTVSPost2010Prop38
140
0.0
102
RTVSPost2010PropOp38
 70
     1
102
RTVSPost2010Prop39
140
1.0
102
RTVSPost2010PropOp39
 70
     1
102
RTVSPost2010Prop40
 90
        0
102
RTVSPost2010PropOp40
 70
     1
102
RTVSPost2010Prop41ColorIndex
 90
       18
102
RTVSPost2010Prop41ColorRGB
 90
        0
102
RTVSPost2010PropOp41
 70
     1
102
RTVSPost2010Prop42
 90
       50
102
RTVSPost2010PropOp42
 70
     1
102
RTVSPost2010Prop43
 90
        3
102
RTVSPost2010PropOp43
 70
     1
102
RTVSPost2010Prop44ColorIndex
 90
        5
102
RTVSPost2010Prop44ColorRGB
 90
      255
102
RTVSPost2010PropOp44
 70
     1
102
RTVSPost2010Prop45
280
     0
102
RTVSPost2010PropOp45
 70
     1
102
RTVSPost2010Prop46
 90
       50
102
RTVSPost2010PropOp46
 70
     1
102
RTVSPost2010Prop47
 90
       50
102
RTVSPost2010PropOp47
 70
     1
102
RTVSPost2010Prop48
 90
       50
102
RTVSPost2010PropOp48
 70
     1
102
RTVSPost2010Prop49
280
     0
102
RTVSPost2010PropOp49
 70
     1
102
RTVSPost2010Prop50
 90
       50
102
RTVSPost2010PropOp50
 70
     1
102
RTVSPost2010Prop51ColorIndex
 90
      256
102
RTVSPost2010Prop51ColorRGB
 90
-16777216
102
RTVSPost2010PropOp51
 70
     0
102
RTVSPost2010Prop52
140
1.0
102
RTVSPost2010PropOp52
 70
     0
102
RTVSPost2010Prop53
 90
        2
102
RTVSPost2010PropOp53
 70
     1
102
RTVSPost2010Prop54
  1
strokes_ogs.tif
102
RTVSPost2010PropOp54
 70
     1
102
RTVSPost2010Prop55
280
     0
102
RTVSPost2010PropOp55
 70
     1
102
RTVSPost2010Prop56
140
1.0
102
RTVSPost2010PropOp56
 70
     1
102
RTVSPost2010Prop57
140
1.0
102
RTVSPost2010PropOp57
 70
     1
102
RTVSPropertyOp0
 70
     1
102
RTVSPropertyOp1
 70
     1
102
RTVSPropertyOp2
 70
     1
102
RTVSPropertyOp3
 70
     1
102
RTVSPropertyOp4
 70
     1
102
RTVSPropertyOp5
 70
     1
102
RTVSPropertyOp6
 70
     1
102
RTVSPropertyOp7
 70
     1
102
RTVSPropertyOp8
 70
     1
102
RTVSPropertyOp9
 70
     1
102
RTVSPropertyOp10
 70
     1
102
RTVSPropertyOp11
 70
     1
102
RTVSPropertyOp12
 70
     1
102
RTVSPropertyOp13
 70
     1
102
RTVSPropertyOp14
 70
     1
102
RTVSPropertyOp15
 70
     1
102
RTVSPropertyOp16
 70
     1
102
RTVSPropertyOp17
 70
     1
102
RTVSPropertyOp18
 70
     1
102
RTVSPropertyOp19
 70
     1
102
RTVSPropertyOp20
 70
     1
102
RTVSPropertyOp21
 70
     1
102
RTVSPropertyOp22
 70
     1
102
RTVSPropertyOp23
 70
     1
102
RTVSPropertyOp24
 70
     1
102
RTVSPropertyOp25
 70
     1
102
RTVSPropertyOp26
 70
     1
102
RTVSPropertyOp27
 70
     1
102
RTVSPropertyOp28
 70
     1
102
RTVSPropertyOp29
 70
     1
102
RTVSPropertyOp30
 70
     1
102
RTVSPropertyOp31
 70
     1
102
RTVSPropertyOp32
 70
     1
102
RTVSPropertyOp33
 70
     1
102
RTVSPropertyOp34
 70
     1
102
RTVSPropertyOp35
 70
     1
102
RTVSPropertyOp36
 70
     1
102
RTVSPropertyOp37
 70
     1
102
RTVSPropertyOp38
 70
     1
102
RTVSPropertyOp39
 70
     1
102
RTVSPropertyOp40
 70
     1
102
RTVSPropertyOp41
 70
     1
102
RTVSPropertyOp42
 70
     1
102
RTVSPropertyOp43
 70
     1
102
RTVSPropertyOp44
 70
     1
102
RTVSPropertyOp45
 70
     1
102
RTVSPropertyOp46
 70
     1
102
RTVSPropertyOp47
 70
     1
102
RTVSPropertyOp48
 70
     1
102
RTVSPropertyOp49
 70
     1
102
RTVSPropertyOp50
 70
     1
102
RTVSPropertyOp51
 70
     0
102
RTVSPropertyOp52
 70
     0
102
RTVSPropertyOp53
 70
     1
102
RTVSPropertyOp54
 70
     1
102
RTVSPropertyOp55
 70
     1
102
RTVSPropertyOp56
 70
     1
102
RTVSPropertyOp57
 70
     1
102
RTVSPropertyOp58
 70
     1
102
RTVSPropertyOp59
 70
     1
102
RTVSPropertyOp60
 70
     1
102
RTVSPropertyOp61
 70
     1
102
RTVSPropertyOp62
 70
     1
  0
XRECORD
  5
398
102
{ACAD_REACTORS
330
397
102
}
330
397
100
AcDbXrecord
280
     1
102
RTVSPost2010Prop28
280
     0
102
RTVSPost2010PropOp28
 70
     1
102
RTVSPost2010Prop29
280
     1
102
RTVSPost2010PropOp29
 70
     1
102
RTVSPost2010Prop30
280
     1
102
RTVSPost2010PropOp30
 70
     1
102
RTVSPost2010Prop31
280
     0
102
RTVSPost2010PropOp31
 70
     1
102
RTVSPost2010Prop32
280
     0
102
RTVSPost2010PropOp32
 70
     1
102
RTVSPost2010Prop33
280
     0
102
RTVSPost2010PropOp33
 70
     1
102
RTVSPost2010Prop34
280
     0
102
RTVSPost2010PropOp34
 70
     1
102
RTVSPost2010Prop35
280
     0
102
RTVSPost2010PropOp35
 70
     1
102
RTVSPost2010Prop36
280
     0
102
RTVSPost2010PropOp36
 70
     1
102
RTVSPost2010Prop37
 90
       50
102
RTVSPost2010PropOp37
 70
     1
102
RTVSPost2010Prop38
140
0.0
102
RTVSPost2010PropOp38
 70
     1
102
RTVSPost2010Prop39
140
1.0
102
RTVSPost2010PropOp39
 70
     1
102
RTVSPost2010Prop40
 90
        0
102
RTVSPost2010PropOp40
 70
     1
102
RTVSPost2010Prop41ColorIndex
 90
       18
102
RTVSPost2010Prop41ColorRGB
 90
        0
102
RTVSPost2010PropOp41
 70
     1
102
RTVSPost2010Prop42
 90
       50
102
RTVSPost2010PropOp42
 70
     1
102
RTVSPost2010Prop43
 90
        3
102
RTVSPost2010PropOp43
 70
     1
102
RTVSPost2010Prop44ColorIndex
 90
        5
102
RTVSPost2010Prop44ColorRGB
 90
      255
102
RTVSPost2010PropOp44
 70
     1
102
RTVSPost2010Prop45
280
     0
102
RTVSPost2010PropOp45
 70
     1
102
RTVSPost2010Prop46
 90
       50
102
RTVSPost2010PropOp46
 70
     1
102
RTVSPost2010Prop47
 90
       50
102
RTVSPost2010PropOp47
 70
     1
102
RTVSPost2010Prop48
 90
       50
102
RTVSPost2010PropOp48
 70
     1
102
RTVSPost2010Prop49
280
     0
102
RTVSPost2010PropOp49
 70
     1
102
RTVSPost2010Prop50
 90
       50
102
RTVSPost2010PropOp50
 70
     1
102
RTVSPost2010Prop51ColorIndex
 90
      256
102
RTVSPost2010Prop51ColorRGB
 90
-16777216
102
RTVSPost2010PropOp51
 70
     0
102
RTVSPost2010Prop52
140
1.0
102
RTVSPost2010PropOp52
 70
     0
102
RTVSPost2010Prop53
 90
        2
102
RTVSPost2010PropOp53
 70
     1
102
RTVSPost2010Prop54
  1
strokes_ogs.tif
102
RTVSPost2010PropOp54
 70
     1
102
RTVSPost2010Prop55
280
     0
102
RTVSPost2010PropOp55
 70
     1
102
RTVSPost2010Prop56
140
1.0
102
RTVSPost2010PropOp56
 70
     1
102
RTVSPost2010Prop57
140
1.0
102
RTVSPost2010PropOp57
 70
     1
102
RTVSPropertyOp0
 70
     1
102
RTVSPropertyOp1
 70
     1
102
RTVSPropertyOp2
 70
     1
102
RTVSPropertyOp3
 70
     1
102
RTVSPropertyOp4
 70
     1
102
RTVSPropertyOp5
 70
     1
102
RTVSPropertyOp6
 70
     1
102
RTVSPropertyOp7
 70
     1
102
RTVSPropertyOp8
 70
     1
102
RTVSPropertyOp9
 70
     1
102
RTVSPropertyOp10
 70
     1
102
RTVSPropertyOp11
 70
     1
102
RTVSPropertyOp12
 70
     1
102
RTVSPropertyOp13
 70
     1
102
RTVSPropertyOp14
 70
     1
102
RTVSPropertyOp15
 70
     1
102
RTVSPropertyOp16
 70
     1
102
RTVSPropertyOp17
 70
     1
102
RTVSPropertyOp18
 70
     1
102
RTVSPropertyOp19
 70
     1
102
RTVSPropertyOp20
 70
     1
102
RTVSPropertyOp21
 70
     1
102
RTVSPropertyOp22
 70
     1
102
RTVSPropertyOp23
 70
     1
102
RTVSPropertyOp24
 70
     1
102
RTVSPropertyOp25
 70
     1
102
RTVSPropertyOp26
 70
     1
102
RTVSPropertyOp27
 70
     1
102
RTVSPropertyOp28
 70
     1
102
RTVSPropertyOp29
 70
     1
102
RTVSPropertyOp30
 70
     1
102
RTVSPropertyOp31
 70
     1
102
RTVSPropertyOp32
 70
     1
102
RTVSPropertyOp33
 70
     1
102
RTVSPropertyOp34
 70
     1
102
RTVSPropertyOp35
 70
     1
102
RTVSPropertyOp36
 70
     1
102
RTVSPropertyOp37
 70
     1
102
RTVSPropertyOp38
 70
     1
102
RTVSPropertyOp39
 70
     1
102
RTVSPropertyOp40
 70
     1
102
RTVSPropertyOp41
 70
     1
102
RTVSPropertyOp42
 70
     1
102
RTVSPropertyOp43
 70
     1
102
RTVSPropertyOp44
 70
     1
102
RTVSPropertyOp45
 70
     1
102
RTVSPropertyOp46
 70
     1
102
RTVSPropertyOp47
 70
     1
102
RTVSPropertyOp48
 70
     1
102
RTVSPropertyOp49
 70
     1
102
RTVSPropertyOp50
 70
     1
102
RTVSPropertyOp51
 70
     0
102
RTVSPropertyOp52
 70
     0
102
RTVSPropertyOp53
 70
     1
102
RTVSPropertyOp54
 70
     1
102
RTVSPropertyOp55
 70
     1
102
RTVSPropertyOp56
 70
     1
102
RTVSPropertyOp57
 70
     1
102
RTVSPropertyOp58
 70
     1
102
RTVSPropertyOp59
 70
     1
102
RTVSPropertyOp60
 70
     1
102
RTVSPropertyOp61
 70
     1
102
RTVSPropertyOp62
 70
     1
  0
ENDSEC
  0
EOF
