  0
SECTION
  2
HEADER
  9
$ACADVER
  1
AC1018
  9
$ACADMAINTVER
 70
   104
  9
$DWGCODEPAGE
  3
ANSI_1250
  9
$LASTSAVEDBY
  1
wq7085
  9
$INSBASE
 10
0.0
 20
0.0
 30
0.0
  9
$EXTMIN
 10
185.2894053333333
 20
122.034924
 30
0.0
  9
$EXTMAX
 10
421.869286
 20
347.6965206666667
 30
0.0
  9
$LIMMIN
 10
-0.5
 20
-0.5
  9
$LIMMAX
 10
5.0
 20
5.0
  9
$ORTHOMODE
 70
     0
  9
$REGENMODE
 70
     1
  9
$FILLMODE
 70
     1
  9
$QTEXTMODE
 70
     0
  9
$MIRRTEXT
 70
     1
  9
$LTSCALE
 40
1.0
  9
$ATTMODE
 70
     1
  9
$TEXTSIZE
 40
0.2
  9
$TRACEWID
 40
0.05
  9
$TEXTSTYLE
  7
Standard
  9
$CLAYER
  8
0
  9
$CELTYPE
  6
ByLayer
  9
$CECOLOR
 62
   256
  9
$CELTSCALE
 40
1.0
  9
$DISPSILH
 70
     0
  9
$DIMSCALE
 40
1.0
  9
$DIMASZ
 40
0.18
  9
$DIMEXO
 40
0.0625
  9
$DIMDLI
 40
0.38
  9
$DIMRND
 40
0.0
  9
$DIMDLE
 40
0.0
  9
$DIMEXE
 40
0.18
  9
$DIMTP
 40
0.0
  9
$DIMTM
 40
0.0
  9
$DIMTXT
 40
0.18
  9
$DIMCEN
 40
0.09
  9
$DIMTSZ
 40
0.0
  9
$DIMTOL
 70
     0
  9
$DIMLIM
 70
     0
  9
$DIMTIH
 70
     1
  9
$DIMTOH
 70
     1
  9
$DIMSE1
 70
     0
  9
$DIMSE2
 70
     0
  9
$DIMTAD
 70
     0
  9
$DIMZIN
 70
     0
  9
$DIMBLK
  1

  9
$DIMASO
 70
     1
  9
$DIMSHO
 70
     1
  9
$DIMPOST
  1

  9
$DIMAPOST
  1

  9
$DIMALT
 70
     0
  9
$DIMALTD
 70
     2
  9
$DIMALTF
 40
25.4
  9
$DIMLFAC
 40
1.0
  9
$DIMTOFL
 70
     0
  9
$DIMTVP
 40
0.0
  9
$DIMTIX
 70
     0
  9
$DIMSOXD
 70
     0
  9
$DIMSAH
 70
     0
  9
$DIMBLK1
  1

  9
$DIMBLK2
  1

  9
$DIMSTYLE
  2
Standard
  9
$DIMCLRD
 70
     0
  9
$DIMCLRE
 70
     0
  9
$DIMCLRT
 70
     0
  9
$DIMTFAC
 40
1.0
  9
$DIMGAP
 40
0.09
  9
$DIMJUST
 70
     0
  9
$DIMSD1
 70
     0
  9
$DIMSD2
 70
     0
  9
$DIMTOLJ
 70
     1
  9
$DIMTZIN
 70
     0
  9
$DIMALTZ
 70
     0
  9
$DIMALTTZ
 70
     0
  9
$DIMUPT
 70
     0
  9
$DIMDEC
 70
     4
  9
$DIMTDEC
 70
     4
  9
$DIMALTU
 70
     2
  9
$DIMALTTD
 70
     2
  9
$DIMTXSTY
  7
Standard
  9
$DIMAUNIT
 70
     0
  9
$DIMADEC
 70
     0
  9
$DIMALTRND
 40
0.0
  9
$DIMAZIN
 70
     0
  9
$DIMDSEP
 70
    46
  9
$DIMATFIT
 70
     3
  9
$DIMFRAC
 70
     0
  9
$DIMLDRBLK
  1

  9
$DIMLUNIT
 70
     2
  9
$DIMLWD
 70
    -2
  9
$DIMLWE
 70
    -2
  9
$DIMTMOVE
 70
     0
  9
$LUNITS
 70
     2
  9
$LUPREC
 70
     4
  9
$SKETCHINC
 40
0.1
  9
$FILLETRAD
 40
0.5
  9
$AUNITS
 70
     0
  9
$AUPREC
 70
     0
  9
$MENU
  1
.
  9
$ELEVATION
 40
0.0
  9
$PELEVATION
 40
0.0
  9
$THICKNESS
 40
0.0
  9
$LIMCHECK
 70
     0
  9
$CHAMFERA
 40
0.0
  9
$CHAMFERB
 40
0.0
  9
$CHAMFERC
 40
0.0
  9
$CHAMFERD
 40
0.0
  9
$SKPOLY
 70
     0
  9
$TDCREATE
 40
2459094.536851852
  9
$TDUCREATE
 40
2459094.453522581
  9
$TDUPDATE
 40
2459094.537187500
  9
$TDUUPDATE
 40
2459094.453854167
  9
$TDINDWG
 40
0.0001736227
  9
$TDUSRTIMER
 40
0.0001736227
  9
$USRTIMER
 70
     1
  9
$ANGBASE
 50
0.0
  9
$ANGDIR
 70
     0
  9
$PDMODE
 70
     0
  9
$PDSIZE
 40
0.0
  9
$PLINEWID
 40
0.0
  9
$SPLFRAME
 70
     0
  9
$SPLINETYPE
 70
     6
  9
$SPLINESEGS
 70
     8
  9
$HANDSEED
  5
387
  9
$SURFTAB1
 70
     6
  9
$SURFTAB2
 70
     6
  9
$SURFTYPE
 70
     6
  9
$SURFU
 70
     6
  9
$SURFV
 70
     6
  9
$UCSBASE
  2

  9
$UCSNAME
  2

  9
$UCSORG
 10
274.404842
 20
288.907994
 30
0.0
  9
$UCSXDIR
 10
1.0
 20
0.0
 30
0.0
  9
$UCSYDIR
 10
0.0
 20
1.0
 30
0.0
  9
$UCSORTHOREF
  2

  9
$UCSORTHOVIEW
 70
     0
  9
$UCSORGTOP
 10
0.0
 20
0.0
 30
0.0
  9
$UCSORGBOTTOM
 10
0.0
 20
0.0
 30
0.0
  9
$UCSORGLEFT
 10
0.0
 20
0.0
 30
0.0
  9
$UCSORGRIGHT
 10
0.0
 20
0.0
 30
0.0
  9
$UCSORGFRONT
 10
0.0
 20
0.0
 30
0.0
  9
$UCSORGBACK
 10
0.0
 20
0.0
 30
0.0
  9
$PUCSBASE
  2

  9
$PUCSNAME
  2

  9
$PUCSORG
 10
0.0
 20
0.0
 30
0.0
  9
$PUCSXDIR
 10
1.0
 20
0.0
 30
0.0
  9
$PUCSYDIR
 10
0.0
 20
1.0
 30
0.0
  9
$PUCSORTHOREF
  2

  9
$PUCSORTHOVIEW
 70
     0
  9
$PUCSORGTOP
 10
0.0
 20
0.0
 30
0.0
  9
$PUCSORGBOTTOM
 10
0.0
 20
0.0
 30
0.0
  9
$PUCSORGLEFT
 10
0.0
 20
0.0
 30
0.0
  9
$PUCSORGRIGHT
 10
0.0
 20
0.0
 30
0.0
  9
$PUCSORGFRONT
 10
0.0
 20
0.0
 30
0.0
  9
$PUCSORGBACK
 10
0.0
 20
0.0
 30
0.0
  9
$USERI1
 70
     0
  9
$USERI2
 70
     0
  9
$USERI3
 70
     0
  9
$USERI4
 70
     0
  9
$USERI5
 70
     0
  9
$USERR1
 40
0.0
  9
$USERR2
 40
0.0
  9
$USERR3
 40
0.0
  9
$USERR4
 40
0.0
  9
$USERR5
 40
0.0
  9
$WORLDVIEW
 70
     1
  9
$SHADEDGE
 70
     3
  9
$SHADEDIF
 70
    70
  9
$TILEMODE
 70
     1
  9
$MAXACTVP
 70
    64
  9
$PINSBASE
 10
0.0
 20
0.0
 30
0.0
  9
$PLIMCHECK
 70
     0
  9
$PEXTMIN
 10
-0.5
 20
-0.5
 30
-0.5
  9
$PEXTMAX
 10
5.0
 20
5.0
 30
5.0
  9
$PLIMMIN
 10
-0.5
 20
-0.5
  9
$PLIMMAX
 10
5.0
 20
5.0
  9
$UNITMODE
 70
     0
  9
$VISRETAIN
 70
     1
  9
$PLINEGEN
 70
     0
  9
$PSLTSCALE
 70
     1
  9
$TREEDEPTH
 70
  3020
  9
$CMLSTYLE
  2
Standard
  9
$CMLJUST
 70
     0
  9
$CMLSCALE
 40
1.0
  9
$PROXYGRAPHICS
 70
     1
  9
$MEASUREMENT
 70
     1
  9
$CELWEIGHT
370
    13
  9
$ENDCAPS
280
     0
  9
$JOINSTYLE
280
     0
  9
$LWDISPLAY
290
     0
  9
$INSUNITS
 70
     4
  9
$HYPERLINKBASE
  1

  9
$STYLESHEET
  1

  9
$XEDIT
290
     1
  9
$CEPSNTYPE
380
     0
  9
$PSTYLEMODE
290
     1
  9
$FINGERPRINTGUID
  2
{785C4368-8238-4E58-B671-704633EE9DDF}
  9
$VERSIONGUID
  2
{E89AC95B-0916-AE4D-B3C5-51336C41A42D}
  9
$EXTNAMES
290
     1
  9
$PSVPSCALE
 40
0.0
  9
$OLESTARTUP
290
     0
  9
$SORTENTS
280
   127
  9
$INDEXCTL
280
     0
  9
$HIDETEXT
280
     1
  9
$XCLIPFRAME
290
     0
  9
$HALOGAP
280
     0
  9
$OBSCOLOR
 70
   257
  9
$OBSLTYPE
280
     0
  9
$INTERSECTIONDISPLAY
280
     0
  9
$INTERSECTIONCOLOR
 70
   257
  9
$DIMASSOC
280
     2
  9
$PROJECTNAME
  1

  0
ENDSEC
  0
SECTION
  2
CLASSES
  0
CLASS
  1
ACDBDICTIONARYWDFLT
  2
AcDbDictionaryWithDefault
  3
ObjectDBX Classes
 90
        0
 91
        1
280
     0
281
     0
  0
CLASS
  1
VISUALSTYLE
  2
AcDbVisualStyle
  3
ObjectDBX Classes
 90
     4095
 91
       24
280
     0
281
     0
  0
CLASS
  1
MATERIAL
  2
AcDbMaterial
  3
ObjectDBX Classes
 90
     1153
 91
        3
280
     0
281
     0
  0
CLASS
  1
SCALE
  2
AcDbScale
  3
ObjectDBX Classes
 90
     1153
 91
       33
280
     0
281
     0
  0
CLASS
  1
TABLESTYLE
  2
AcDbTableStyle
  3
ObjectDBX Classes
 90
     4095
 91
        1
280
     0
281
     0
  0
CLASS
  1
MLEADERSTYLE
  2
AcDbMLeaderStyle
  3
ACDB_MLEADERSTYLE_CLASS
 90
     4095
 91
        1
280
     0
281
     0
  0
CLASS
  1
SUN
  2
AcDbSun
  3
SCENEOE
 90
     1153
 91
        0
280
     0
281
     0
  0
CLASS
  1
DIMASSOC
  2
AcDbDimAssoc
  3
"AcDbDimAssoc|Product Desc:     AcDim ARX App For Dimension|Company:          Autodesk, Inc.|WEB Address:      www.autodesk.com"
 90
        0
 91
        7
280
     0
281
     0
  0
CLASS
  1
DICTIONARYVAR
  2
AcDbDictionaryVar
  3
ObjectDBX Classes
 90
        0
 91
        8
280
     0
281
     0
  0
CLASS
  1
CELLSTYLEMAP
  2
AcDbCellStyleMap
  3
ObjectDBX Classes
 90
     1152
 91
        2
280
     0
281
     0
  0
CLASS
  1
ACDBSECTIONVIEWSTYLE
  2
AcDbSectionViewStyle
  3
ObjectDBX Classes
 90
     1025
 91
        1
280
     0
281
     0
  0
CLASS
  1
ACDBDETAILVIEWSTYLE
  2
AcDbDetailViewStyle
  3
ObjectDBX Classes
 90
     1025
 91
        1
280
     0
281
     0
  0
CLASS
  1
SORTENTSTABLE
  2
AcDbSortentsTable
  3
ObjectDBX Classes
 90
        0
 91
        1
280
     0
281
     0
  0
ENDSEC
  0
SECTION
  2
TABLES
  0
TABLE
  2
VPORT
  5
8
330
0
100
AcDbSymbolTable
 70
    16
  0
VPORT
  5
29
330
8
100
AcDbSymbolTableRecord
100
AcDbViewportTableRecord
  2
*Active
 70
     0
 10
0.0
 20
0.0
 11
1.0
 21
1.0
 12
352.6595428377059
 22
282.945850280065
 13
0.0
 23
0.0
 14
0.5
 24
0.5
 15
0.5
 25
0.5
 16
0.0
 26
0.0
 36
1.0
 17
0.0
 27
0.0
 37
0.0
 40
320.7440324722701
 41
2.292712066905615
 42
50.0
 43
421.549009
 44
-421.549009
 50
0.0
 51
0.0
 71
     0
 72
   100
 73
     1
 74
     3
 75
     0
 76
     0
 77
     0
 78
     0
281
     0
 65
     1
110
274.404842
120
288.907994
130
0.0
111
1.0
121
0.0
131
0.0
112
0.0
122
1.0
132
0.0
 79
     0
146
0.0
1001
ACAD_NAV_VCDISPLAY
1070
     3
  0
VPORT
  5
28B
330
8
100
AcDbSymbolTableRecord
100
AcDbViewportTableRecord
  2
L1
 70
     0
 10
0.0
 20
0.0
 11
1.0
 21
1.0
 12
303.075142
 22
234.756817
 13
0.0
 23
0.0
 14
0.5
 24
0.5
 15
0.5
 25
0.5
 16
0.0
 26
0.0
 36
1.0
 17
0.0
 27
0.0
 37
0.0
 40
207.433333
 41
0.085602
 42
50.0
 43
421.549009
 44
-421.549009
 50
0.0
 51
0.0
 71
     0
 72
   100
 73
     1
 74
     3
 75
     0
 76
     0
 77
     0
 78
     0
281
     0
 65
     1
110
0.0
120
0.0
130
0.0
111
1.0
121
0.0
131
0.0
112
0.0
122
1.0
132
0.0
 79
     0
146
0.0
  0
VPORT
  5
28C
330
8
100
AcDbSymbolTableRecord
100
AcDbViewportTableRecord
  2
L2
 70
     0
 10
0.0
 20
0.0
 11
0.5
 21
1.0
 12
0.0
 22
0.0
 13
0.0
 23
0.0
 14
0.5
 24
0.5
 15
0.5
 25
0.5
 16
0.0
 26
-1.0
 36
0.0
 17
0.0
 27
0.0
 37
0.0
 40
1316.18997
 41
0.013491
 42
50.0
 43
678.00864
 44
-678.00864
 50
0.0
 51
0.0
 71
     0
 72
   100
 73
     1
 74
     3
 75
     0
 76
     0
 77
     0
 78
     0
281
     0
 65
     1
110
0.0
120
0.0
130
0.0
111
1.0
121
0.0
131
0.0
112
0.0
122
1.0
132
0.0
 79
     0
146
0.0
  0
VPORT
  5
28D
330
8
100
AcDbSymbolTableRecord
100
AcDbViewportTableRecord
  2
L2
 70
     0
 10
0.5
 20
0.0
 11
1.0
 21
1.0
 12
0.0
 22
0.0
 13
0.0
 23
0.0
 14
0.5
 24
0.5
 15
0.5
 25
0.5
 16
1.0
 26
0.0
 36
0.0
 17
0.0
 27
0.0
 37
0.0
 40
1316.18997
 41
0.013491
 42
50.0
 43
666.2177989999999
 44
-666.2177989999999
 50
0.0
 51
0.0
 71
     0
 72
   100
 73
     1
 74
     3
 75
     0
 76
     0
 77
     0
 78
     0
281
     0
 65
     1
110
0.0
120
0.0
130
0.0
111
1.0
121
0.0
131
0.0
112
0.0
122
1.0
132
0.0
 79
     0
146
0.0
  0
VPORT
  5
28E
330
8
100
AcDbSymbolTableRecord
100
AcDbViewportTableRecord
  2
L3
 70
     0
 10
0.0
 20
0.5
 11
1.0
 21
1.0
 12
303.075142
 22
234.756817
 13
0.0
 23
0.0
 14
0.5
 24
0.5
 15
0.5
 25
0.5
 16
0.0
 26
0.0
 36
1.0
 17
0.0
 27
0.0
 37
0.0
 40
207.433333
 41
0.085602
 42
50.0
 43
421.549009
 44
-421.549009
 50
0.0
 51
0.0
 71
     0
 72
   100
 73
     1
 74
     3
 75
     0
 76
     0
 77
     0
 78
     0
281
     0
 65
     1
110
0.0
120
0.0
130
0.0
111
1.0
121
0.0
131
0.0
112
0.0
122
1.0
132
0.0
 79
     0
146
0.0
  0
VPORT
  5
28F
330
8
100
AcDbSymbolTableRecord
100
AcDbViewportTableRecord
  2
L3
 70
     0
 10
0.0
 20
0.0
 11
1.0
 21
0.5
 12
0.0
 22
0.0
 13
0.0
 23
0.0
 14
0.5
 24
0.5
 15
0.5
 25
0.5
 16
0.0
 26
-1.0
 36
0.0
 17
0.0
 27
0.0
 37
0.0
 40
1316.18997
 41
0.013491
 42
50.0
 43
678.00864
 44
-678.00864
 50
0.0
 51
0.0
 71
     0
 72
   100
 73
     1
 74
     3
 75
     0
 76
     0
 77
     0
 78
     0
281
     0
 65
     1
110
0.0
120
0.0
130
0.0
111
1.0
121
0.0
131
0.0
112
0.0
122
1.0
132
0.0
 79
     0
146
0.0
  0
VPORT
  5
290
330
8
100
AcDbSymbolTableRecord
100
AcDbViewportTableRecord
  2
L4
 70
     0
 10
0.0
 20
0.5
 11
0.5
 21
1.0
 12
303.075142
 22
234.756817
 13
0.0
 23
0.0
 14
0.5
 24
0.5
 15
0.5
 25
0.5
 16
0.0
 26
0.0
 36
1.0
 17
0.0
 27
0.0
 37
0.0
 40
207.433333
 41
0.085602
 42
50.0
 43
421.549009
 44
-421.549009
 50
0.0
 51
0.0
 71
     0
 72
   100
 73
     1
 74
     3
 75
     0
 76
     0
 77
     0
 78
     0
281
     0
 65
     1
110
0.0
120
0.0
130
0.0
111
1.0
121
0.0
131
0.0
112
0.0
122
1.0
132
0.0
 79
     0
146
0.0
  0
VPORT
  5
291
330
8
100
AcDbSymbolTableRecord
100
AcDbViewportTableRecord
  2
L4
 70
     0
 10
0.0
 20
0.0
 11
0.5
 21
0.5
 12
0.0
 22
0.0
 13
0.0
 23
0.0
 14
0.5
 24
0.5
 15
0.5
 25
0.5
 16
0.0
 26
-1.0
 36
0.0
 17
0.0
 27
0.0
 37
0.0
 40
1316.18997
 41
0.013491
 42
50.0
 43
678.00864
 44
-678.00864
 50
0.0
 51
0.0
 71
     0
 72
   100
 73
     1
 74
     3
 75
     0
 76
     0
 77
     0
 78
     0
281
     0
 65
     1
110
0.0
120
0.0
130
0.0
111
1.0
121
0.0
131
0.0
112
0.0
122
1.0
132
0.0
 79
     0
146
0.0
  0
VPORT
  5
292
330
8
100
AcDbSymbolTableRecord
100
AcDbViewportTableRecord
  2
L4
 70
     0
 10
0.5
 20
0.0
 11
1.0
 21
0.5
 12
0.0
 22
0.0
 13
0.0
 23
0.0
 14
0.5
 24
0.5
 15
0.5
 25
0.5
 16
1.0
 26
0.0
 36
0.0
 17
0.0
 27
0.0
 37
0.0
 40
1316.18997
 41
0.013491
 42
50.0
 43
666.2177989999999
 44
-666.2177989999999
 50
0.0
 51
0.0
 71
     0
 72
   100
 73
     1
 74
     3
 75
     0
 76
     0
 77
     0
 78
     0
281
     0
 65
     1
110
0.0
120
0.0
130
0.0
111
1.0
121
0.0
131
0.0
112
0.0
122
1.0
132
0.0
 79
     0
146
0.0
  0
VPORT
  5
293
330
8
100
AcDbSymbolTableRecord
100
AcDbViewportTableRecord
  2
L4
 70
     0
 10
0.5
 20
0.5
 11
1.0
 21
1.0
 12
0.0
 22
0.0
 13
0.0
 23
0.0
 14
0.5
 24
0.5
 15
0.5
 25
0.5
 16
0.5773502691896259
 26
-0.5773502691896259
 36
0.5773502691896259
 17
0.0
 27
0.0
 37
0.0
 40
1292.532264
 41
0.013738
 42
50.0
 43
673.245608
 44
-673.245608
 50
0.0
 51
0.0
 71
     0
 72
   100
 73
     1
 74
     3
 75
     0
 76
     0
 77
     0
 78
     0
281
     0
 65
     1
110
0.0
120
0.0
130
0.0
111
1.0
121
0.0
131
0.0
112
0.0
122
1.0
132
0.0
 79
     0
146
0.0
  0
VPORT
  5
294
330
8
100
AcDbSymbolTableRecord
100
AcDbViewportTableRecord
  2
L6
 70
     0
 10
0.0
 20
0.5
 11
0.333333
 21
1.0
 12
0.0
 22
0.0
 13
0.0
 23
0.0
 14
0.5
 24
0.5
 15
0.5
 25
0.5
 16
0.7188730927569434
 26
-0.5850486126764433
 36
0.3754192287502549
 17
0.0
 27
0.0
 37
0.0
 40
1364.064247
 41
0.013018
 42
50.0
 43
706.2613849999999
 44
-706.2613849999999
 50
0.0
 51
0.0
 71
     0
 72
   100
 73
     1
 74
     3
 75
     0
 76
     0
 77
     0
 78
     0
281
     0
 65
     1
110
0.0
120
0.0
130
0.0
111
1.0
121
0.0
131
0.0
112
0.0
122
1.0
132
0.0
 79
     0
146
0.0
  0
VPORT
  5
295
330
8
100
AcDbSymbolTableRecord
100
AcDbViewportTableRecord
  2
L6
 70
     0
 10
0.0
 20
0.0
 11
0.333333
 21
0.5
 12
0.0
 22
0.0
 13
0.0
 23
0.0
 14
0.5
 24
0.5
 15
0.5
 25
0.5
 16
-1.0
 26
0.0
 36
0.0
 17
0.0
 27
0.0
 37
0.0
 40
1316.18997
 41
0.013491
 42
50.0
 43
666.2177989999999
 44
-666.2177989999999
 50
0.0
 51
0.0
 71
     0
 72
   100
 73
     1
 74
     3
 75
     0
 76
     0
 77
     0
 78
     0
281
     0
 65
     1
110
0.0
120
0.0
130
0.0
111
1.0
121
0.0
131
0.0
112
0.0
122
1.0
132
0.0
 79
     0
146
0.0
  0
VPORT
  5
296
330
8
100
AcDbSymbolTableRecord
100
AcDbViewportTableRecord
  2
L6
 70
     0
 10
0.333333
 20
0.5
 11
0.666667
 21
1.0
 12
303.075142
 22
234.756817
 13
0.0
 23
0.0
 14
0.5
 24
0.5
 15
0.5
 25
0.5
 16
0.0
 26
0.0
 36
1.0
 17
0.0
 27
0.0
 37
0.0
 40
207.433333
 41
0.085602
 42
50.0
 43
421.549009
 44
-421.549009
 50
0.0
 51
0.0
 71
     0
 72
   100
 73
     1
 74
     3
 75
     0
 76
     0
 77
     0
 78
     0
281
     0
 65
     1
110
0.0
120
0.0
130
0.0
111
1.0
121
0.0
131
0.0
112
0.0
122
1.0
132
0.0
 79
     0
146
0.0
  0
VPORT
  5
297
330
8
100
AcDbSymbolTableRecord
100
AcDbViewportTableRecord
  2
L6
 70
     0
 10
0.333333
 20
0.0
 11
0.666667
 21
0.5
 12
0.0
 22
0.0
 13
0.0
 23
0.0
 14
0.5
 24
0.5
 15
0.5
 25
0.5
 16
0.0
 26
-1.0
 36
0.0
 17
0.0
 27
0.0
 37
0.0
 40
1316.18997
 41
0.013491
 42
50.0
 43
678.00864
 44
-678.00864
 50
0.0
 51
0.0
 71
     0
 72
   100
 73
     1
 74
     3
 75
     0
 76
     0
 77
     0
 78
     0
281
     0
 65
     1
110
0.0
120
0.0
130
0.0
111
1.0
121
0.0
131
0.0
112
0.0
122
1.0
132
0.0
 79
     0
146
0.0
  0
VPORT
  5
298
330
8
100
AcDbSymbolTableRecord
100
AcDbViewportTableRecord
  2
L6
 70
     0
 10
0.666667
 20
0.5
 11
1.0
 21
1.0
 12
0.0
 22
0.0
 13
0.0
 23
0.0
 14
0.5
 24
0.5
 15
0.5
 25
0.5
 16
0.5773502691896259
 26
-0.5773502691896259
 36
0.5773502691896259
 17
0.0
 27
0.0
 37
0.0
 40
1292.532264
 41
0.013738
 42
50.0
 43
673.245608
 44
-673.245608
 50
0.0
 51
0.0
 71
     0
 72
   100
 73
     1
 74
     3
 75
     0
 76
     0
 77
     0
 78
     0
281
     0
 65
     1
110
0.0
120
0.0
130
0.0
111
1.0
121
0.0
131
0.0
112
0.0
122
1.0
132
0.0
 79
     0
146
0.0
  0
VPORT
  5
299
330
8
100
AcDbSymbolTableRecord
100
AcDbViewportTableRecord
  2
L6
 70
     0
 10
0.666667
 20
0.0
 11
1.0
 21
0.5
 12
0.0
 22
0.0
 13
0.0
 23
0.0
 14
0.5
 24
0.5
 15
0.5
 25
0.5
 16
1.0
 26
0.0
 36
0.0
 17
0.0
 27
0.0
 37
0.0
 40
1316.18997
 41
0.013491
 42
50.0
 43
666.2177989999999
 44
-666.2177989999999
 50
0.0
 51
0.0
 71
     0
 72
   100
 73
     1
 74
     3
 75
     0
 76
     0
 77
     0
 78
     0
281
     0
 65
     1
110
0.0
120
0.0
130
0.0
111
1.0
121
0.0
131
0.0
112
0.0
122
1.0
132
0.0
 79
     0
146
0.0
  0
ENDTAB
  0
TABLE
  2
LTYPE
  5
5
330
0
100
AcDbSymbolTable
 70
     7
  0
LTYPE
  5
14
330
5
100
AcDbSymbolTableRecord
100
AcDbLinetypeTableRecord
  2
ByBlock
 70
     0
  3

 72
    65
 73
     0
 40
0.0
  0
LTYPE
  5
15
330
5
100
AcDbSymbolTableRecord
100
AcDbLinetypeTableRecord
  2
ByLayer
 70
     0
  3

 72
    65
 73
     0
 40
0.0
  0
LTYPE
  5
16
330
5
100
AcDbSymbolTableRecord
100
AcDbLinetypeTableRecord
  2
Continuous
 70
     0
  3
Solid line
 72
    65
 73
     0
 40
0.0
  0
LTYPE
  5
6E
330
5
100
AcDbSymbolTableRecord
100
AcDbLinetypeTableRecord
  2
CENTER
 70
     0
  3
____ _ ____ _ ____ _ ____
 72
    65
 73
     4
 40
47.4
 49
22.0
 74
     4
 75
     0
340
0
 46
0.0
 50
0.0
 44
0.0
 45
0.0
 49
-8.5
 74
     4
 75
     0
340
0
 46
0.0
 50
0.0
 44
0.0
 45
0.0
 49
8.5
 74
     4
 75
     0
340
0
 46
0.0
 50
0.0
 44
0.0
 45
0.0
 49
-8.5
 74
     4
 75
     0
340
0
 46
0.0
 50
0.0
 44
0.0
 45
0.0
  0
LTYPE
  5
6F
330
5
100
AcDbSymbolTableRecord
100
AcDbLinetypeTableRecord
  2
DASHDOT
 70
     0
  3
_._._._._._._._._._._._._._._._.
 72
    65
 73
     4
 40
70.0
 49
31.0
 74
     4
 75
     0
340
0
 46
0.0
 50
0.0
 44
0.0
 45
0.0
 49
-13.0
 74
     4
 75
     0
340
0
 46
0.0
 50
0.0
 44
0.0
 45
0.0
 49
13.0
 74
     4
 75
     0
340
0
 46
0.0
 50
0.0
 44
0.0
 45
0.0
 49
-13.0
 74
     4
 75
     0
340
0
 46
0.0
 50
0.0
 44
0.0
 45
0.0
  0
LTYPE
  5
70
330
5
100
AcDbSymbolTableRecord
100
AcDbLinetypeTableRecord
  2
DASHED
 70
     0
  3
__ __ __ __ __ __ __ __ __
 72
    65
 73
     2
 40
25.72
 49
12.86
 74
     4
 75
     0
340
0
 46
0.0
 50
0.0
 44
0.0
 45
0.0
 49
-12.86
 74
     4
 75
     0
340
0
 46
0.0
 50
0.0
 44
0.0
 45
0.0
  0
LTYPE
  5
71
330
5
100
AcDbSymbolTableRecord
100
AcDbLinetypeTableRecord
  2
DOT
 70
     0
  3
.........................
 72
    65
 73
     2
 40
10.0
 49
0.0
 74
     4
 75
     0
340
0
 46
0.0
 50
0.0
 44
0.0
 45
0.0
 49
-10.0
 74
     4
 75
     0
340
0
 46
0.0
 50
0.0
 44
0.0
 45
0.0
  0
LTYPE
  5
72
330
5
100
AcDbSymbolTableRecord
100
AcDbLinetypeTableRecord
  2
PHANTOM
 70
     0
  3
____ _ _ ____ _ _ _____ _ _ ____
 72
    65
 73
     6
 40
50.5
 49
18.0
 74
     4
 75
     0
340
0
 46
0.0
 50
0.0
 44
0.0
 45
0.0
 49
-6.5
 74
     4
 75
     0
340
0
 46
0.0
 50
0.0
 44
0.0
 45
0.0
 49
6.5
 74
     4
 75
     0
340
0
 46
0.0
 50
0.0
 44
0.0
 45
0.0
 49
-6.5
 74
     4
 75
     0
340
0
 46
0.0
 50
0.0
 44
0.0
 45
0.0
 49
6.5
 74
     4
 75
     0
340
0
 46
0.0
 50
0.0
 44
0.0
 45
0.0
 49
-6.5
 74
     4
 75
     0
340
0
 46
0.0
 50
0.0
 44
0.0
 45
0.0
  0
LTYPE
  5
329
330
5
100
AcDbSymbolTableRecord
100
AcDbLinetypeTableRecord
  2
CENTER2
 70
     0
  3
Center (.5x) ___ _ ___ _ ___ _ ___ _ ___ _ ___
 72
    65
 73
     4
 40
1.125
 49
0.75
 74
     0
 49
-0.125
 74
     0
 49
0.125
 74
     0
 49
-0.125
 74
     0
  0
ENDTAB
  0
TABLE
  2
LAYER
  5
2
330
0
100
AcDbSymbolTable
 70
    22
  0
LAYER
  5
10
102
{ACAD_XDICTIONARY
360
334
102
}
330
2
100
AcDbSymbolTableRecord
100
AcDbLayerTableRecord
  2
0
 70
     0
 62
     7
  6
Continuous
370
    -3
390
F
  0
LAYER
  5
1E5
330
2
100
AcDbSymbolTableRecord
100
AcDbLayerTableRecord
  2
Defpoints
 70
     0
 62
     7
  6
Continuous
290
     0
370
    -3
390
F
  0
LAYER
  5
326
102
{ACAD_XDICTIONARY
360
336
102
}
330
2
100
AcDbSymbolTableRecord
100
AcDbLayerTableRecord
  2
1
 70
     0
 62
     4
  6
Continuous
370
    -3
390
F
  0
LAYER
  5
327
102
{ACAD_XDICTIONARY
360
338
102
}
330
2
100
AcDbSymbolTableRecord
100
AcDbLayerTableRecord
  2
2
 70
     0
 62
     7
  6
Continuous
370
    -3
390
F
  0
LAYER
  5
328
102
{ACAD_XDICTIONARY
360
33A
102
}
330
2
100
AcDbSymbolTableRecord
100
AcDbLayerTableRecord
  2
4
 70
     0
 62
     2
  6
CENTER2
370
    -3
390
F
  0
LAYER
  5
32A
102
{ACAD_XDICTIONARY
360
33C
102
}
330
2
100
AcDbSymbolTableRecord
100
AcDbLayerTableRecord
  2
SK1
 70
     0
 62
     4
  6
Continuous
370
    -3
390
F
  0
LAYER
  5
32B
102
{ACAD_XDICTIONARY
360
33E
102
}
330
2
100
AcDbSymbolTableRecord
100
AcDbLayerTableRecord
  2
SK2
 70
     0
 62
     7
  6
Continuous
370
    -3
390
F
  0
LAYER
  5
32D
102
{ACAD_XDICTIONARY
360
340
102
}
330
2
100
AcDbSymbolTableRecord
100
AcDbLayerTableRecord
  2
SK4
 70
     0
 62
     2
  6
CENTER2
370
    -3
390
F
  0
LAYER
  5
32E
102
{ACAD_XDICTIONARY
360
342
102
}
330
2
100
AcDbSymbolTableRecord
100
AcDbLayerTableRecord
  2
SK6
 70
     0
 62
     5
  6
Continuous
370
    -3
390
F
  0
LAYER
  5
32F
102
{ACAD_XDICTIONARY
360
344
102
}
330
2
100
AcDbSymbolTableRecord
100
AcDbLayerTableRecord
  2
CUT
 70
     0
 62
     1
  6
Continuous
370
    -3
390
F
  0
LAYER
  5
330
102
{ACAD_XDICTIONARY
360
346
102
}
330
2
100
AcDbSymbolTableRecord
100
AcDbLayerTableRecord
  2
NOCUT
 70
     0
 62
     7
  6
Continuous
370
    -3
390
F
  0
LAYER
  5
331
102
{ACAD_XDICTIONARY
360
348
102
}
330
2
100
AcDbSymbolTableRecord
100
AcDbLayerTableRecord
  2
80
 70
     0
 62
     6
  6
Continuous
370
    -3
390
F
  0
LAYER
  5
332
102
{ACAD_XDICTIONARY
360
34A
102
}
330
2
100
AcDbSymbolTableRecord
100
AcDbLayerTableRecord
  2
81
 70
     0
 62
     3
  6
Continuous
370
    -3
390
F
  0
ENDTAB
  0
TABLE
  2
STYLE
  5
3
330
0
100
AcDbSymbolTable
 70
     3
  0
STYLE
  5
11
330
3
100
AcDbSymbolTableRecord
100
AcDbTextStyleTableRecord
  2
Standard
 70
     0
 40
0.0
 41
1.0
 50
0.0
 71
     0
 42
0.2
  3
txt
  4

  0
STYLE
  5
1DE
330
3
100
AcDbSymbolTableRecord
100
AcDbTextStyleTableRecord
  2
cesky
 70
     0
 40
0.0
 41
1.0
 50
0.0
 71
     0
 42
0.2
  3
simplex.shx
  4

  0
STYLE
  5
1DF
330
3
100
AcDbSymbolTableRecord
100
AcDbTextStyleTableRecord
  2
DWGDirectTextStyle
 70
     0
 40
0.0
 41
1.0
 50
0.0
 71
     0
 42
0.2
  3
simplex
  4

  0
ENDTAB
  0
TABLE
  2
VIEW
  5
6
330
0
100
AcDbSymbolTable
 70
     0
  0
ENDTAB
  0
TABLE
  2
UCS
  5
7
330
0
100
AcDbSymbolTable
 70
     0
  0
ENDTAB
  0
TABLE
  2
APPID
  5
9
330
0
100
AcDbSymbolTable
 70
     7
  0
APPID
  5
12
330
9
100
AcDbSymbolTableRecord
100
AcDbRegAppTableRecord
  2
ACAD
 70
     0
  0
APPID
  5
1E1
330
9
100
AcDbSymbolTableRecord
100
AcDbRegAppTableRecord
  2
ACAD_DSTYLE_DIMBREAK
 70
     0
  0
APPID
  5
29A
330
9
100
AcDbSymbolTableRecord
100
AcDbRegAppTableRecord
  2
ACAD_DSTYLE_DIM_LINETYPE
 70
     0
  0
APPID
  5
29B
330
9
100
AcDbSymbolTableRecord
100
AcDbRegAppTableRecord
  2
ACAD_DSTYLE_DIM_EXT1_LINETYPE
 70
     0
  0
APPID
  5
29C
330
9
100
AcDbSymbolTableRecord
100
AcDbRegAppTableRecord
  2
ACAD_DSTYLE_DIM_EXT2_LINETYPE
 70
     0
  0
APPID
  5
2DC
330
9
100
AcDbSymbolTableRecord
100
AcDbRegAppTableRecord
  2
ACAD_MLEADERVER
 70
     0
  0
APPID
  5
34F
330
9
100
AcDbSymbolTableRecord
100
AcDbRegAppTableRecord
  2
ACAD_NAV_VCDISPLAY
 70
     0
  0
ENDTAB
  0
TABLE
  2
DIMSTYLE
  5
A
330
0
100
AcDbSymbolTable
 70
     1
100
AcDbDimStyleTable
 71
     0
  0
DIMSTYLE
105
27
330
A
100
AcDbSymbolTableRecord
100
AcDbDimStyleTableRecord
  2
Standard
 70
     0
340
11
1001
ACAD_DSTYLE_DIMBREAK
1070
   391
1040
6.349999999999999
  0
ENDTAB
  0
TABLE
  2
BLOCK_RECORD
  5
1
330
0
100
AcDbSymbolTable
 70
    16
  0
BLOCK_RECORD
  5
1F
102
{ACAD_XDICTIONARY
360
2EC
102
}
330
1
100
AcDbSymbolTableRecord
100
AcDbBlockTableRecord
  2
*Model_Space
340
22
  0
BLOCK_RECORD
  5
1B
330
1
100
AcDbSymbolTableRecord
100
AcDbBlockTableRecord
  2
*Paper_Space
340
1E
  0
BLOCK_RECORD
  5
23
330
1
100
AcDbSymbolTableRecord
100
AcDbBlockTableRecord
  2
*Paper_Space0
340
26
  0
BLOCK_RECORD
  5
1D8
330
1
100
AcDbSymbolTableRecord
100
AcDbBlockTableRecord
  2
ASSORTED_DRAFT1
340
0
  0
BLOCK_RECORD
  5
1E6
330
1
100
AcDbSymbolTableRecord
100
AcDbBlockTableRecord
  2
*D2
340
0
  0
BLOCK_RECORD
  5
1F1
330
1
100
AcDbSymbolTableRecord
100
AcDbBlockTableRecord
  2
_U0
340
0
  0
BLOCK_RECORD
  5
1FC
330
1
100
AcDbSymbolTableRecord
100
AcDbBlockTableRecord
  2
*D4
340
0
  0
BLOCK_RECORD
  5
208
330
1
100
AcDbSymbolTableRecord
100
AcDbBlockTableRecord
  2
_U1
340
0
  0
BLOCK_RECORD
  5
215
330
1
100
AcDbSymbolTableRecord
100
AcDbBlockTableRecord
  2
*D6
340
0
  0
BLOCK_RECORD
  5
221
330
1
100
AcDbSymbolTableRecord
100
AcDbBlockTableRecord
  2
_U2
340
0
  0
BLOCK_RECORD
  5
22E
330
1
100
AcDbSymbolTableRecord
100
AcDbBlockTableRecord
  2
*D8
340
0
  0
BLOCK_RECORD
  5
23A
330
1
100
AcDbSymbolTableRecord
100
AcDbBlockTableRecord
  2
_U3
340
0
  0
BLOCK_RECORD
  5
246
330
1
100
AcDbSymbolTableRecord
100
AcDbBlockTableRecord
  2
*D10
340
0
  0
BLOCK_RECORD
  5
252
330
1
100
AcDbSymbolTableRecord
100
AcDbBlockTableRecord
  2
_U4
340
0
  0
BLOCK_RECORD
  5
25E
330
1
100
AcDbSymbolTableRecord
100
AcDbBlockTableRecord
  2
*D12
340
0
  0
BLOCK_RECORD
  5
26A
330
1
100
AcDbSymbolTableRecord
100
AcDbBlockTableRecord
  2
_U5
340
0
  0
BLOCK_RECORD
  5
276
330
1
100
AcDbSymbolTableRecord
100
AcDbBlockTableRecord
  2
*D14
340
0
  0
BLOCK_RECORD
  5
282
330
1
100
AcDbSymbolTableRecord
100
AcDbBlockTableRecord
  2
_U6
340
0
  0
ENDTAB
  0
ENDSEC
  0
SECTION
  2
BLOCKS
  0
BLOCK
  5
20
330
1F
100
AcDbEntity
  8
0
100
AcDbBlockBegin
  2
*Model_Space
 70
     0
 10
0.0
 20
0.0
 30
0.0
  3
*Model_Space
  1

  0
ENDBLK
  5
21
330
1F
100
AcDbEntity
  8
0
100
AcDbBlockEnd
  0
BLOCK
  5
1C
330
1B
100
AcDbEntity
 67
     1
  8
0
100
AcDbBlockBegin
  2
*Paper_Space
 70
     0
 10
0.0
 20
0.0
 30
0.0
  3
*Paper_Space
  1

  0
ENDBLK
  5
1D
330
1B
100
AcDbEntity
 67
     1
  8
0
100
AcDbBlockEnd
  0
BLOCK
  5
24
330
23
100
AcDbEntity
 67
     1
  8
0
100
AcDbBlockBegin
  2
*Paper_Space0
 70
     0
 10
0.0
 20
0.0
 30
0.0
  3
*Paper_Space0
  1

  0
ENDBLK
  5
25
330
23
100
AcDbEntity
 67
     1
  8
0
100
AcDbBlockEnd
  0
BLOCK
  5
1DB
330
1D8
100
AcDbEntity
  8
0
100
AcDbBlockBegin
  2
ASSORTED_DRAFT1
 70
     0
 10
0.0
 20
0.0
 30
0.0
  3
ASSORTED_DRAFT1
  1

  0
SOLID
  5
1D9
330
1D8
100
AcDbEntity
  8
0
 62
   254
370
    13
100
AcDbTrace
 10
270.185042
 20
161.034924
 30
0.0
 11
265.185046
 21
159.92645
 31
0.0
 12
265.1850379999999
 22
162.143397
 32
0.0
 13
270.185042
 23
161.034924
 33
0.0
  0
ENDBLK
  5
1DC
330
1D8
100
AcDbEntity
  8
0
100
AcDbBlockEnd
  0
BLOCK
  5
1E7
330
1E6
100
AcDbEntity
  8
0
100
AcDbBlockBegin
  2
*D2
 70
     1
 10
0.0
 20
0.0
 30
0.0
  3
*D2
  1

  0
LINE
  5
1E9
330
1E6
100
AcDbEntity
  8
0
 62
   254
370
    -2
100
AcDbLine
 10
293.532259
 20
288.907994
 30
0.0
 11
421.869286
 21
288.907994
 31
0.0
  0
LINE
  5
1EA
330
1E6
100
AcDbEntity
  8
0
 62
   254
370
    -2
100
AcDbLine
 10
330.83929
 20
299.407994
 30
0.0
 11
421.869286
 21
299.407994
 31
0.0
  0
LINE
  5
1EB
330
1E6
100
AcDbEntity
  8
0
 62
   254
370
    -2
100
AcDbLine
 10
420.869286
 20
302.907994
 30
0.0
 11
420.869286
 21
306.407994
 31
0.0
  0
SOLID
  5
1EC
330
1E6
100
AcDbEntity
  8
0
 62
   254
100
AcDbTrace
 10
420.285953
 20
302.907994
 30
0.0
 11
421.4526189999999
 21
302.907994
 31
0.0
 12
420.869286
 22
299.407994
 32
0.0
 13
420.869286
 23
299.407994
 33
0.0
  0
MTEXT
  5
1ED
330
1E6
100
AcDbEntity
  8
0
 62
   254
370
    13
100
AcDbMText
 10
415.6192859999999
 20
276.32466
 30
0.0
 40
3.5
 41
0.0
 71
     5
 72
     1
  1
\A1;21
  7
cesky
 11
0.0
 21
1.0
 31
0.0
 73
     1
 44
1.0
  0
POINT
  5
1EE
330
1E6
100
AcDbEntity
  8
Defpoints
 62
     0
100
AcDbPoint
 10
293.532259
 20
288.907994
 30
0.0
  0
POINT
  5
1EF
330
1E6
100
AcDbEntity
  8
Defpoints
 62
     0
100
AcDbPoint
 10
330.83929
 20
299.407994
 30
0.0
  0
POINT
  5
1F0
330
1E6
100
AcDbEntity
  8
Defpoints
 62
     0
100
AcDbPoint
 10
420.869286
 20
299.407994
 30
0.0
  0
ENDBLK
  5
1E8
330
1E6
100
AcDbEntity
  8
0
100
AcDbBlockEnd
  0
BLOCK
  5
1F7
330
1F1
100
AcDbEntity
  8
0
100
AcDbBlockBegin
  2
_U0
 70
     0
 10
0.0
 20
0.0
 30
0.0
  3
_U0
  1

  0
ENDBLK
  5
1F8
330
1F1
100
AcDbEntity
  8
0
100
AcDbBlockEnd
  0
BLOCK
  5
1FD
330
1FC
100
AcDbEntity
  8
0
100
AcDbBlockBegin
  2
*D4
 70
     1
 10
0.0
 20
0.0
 30
0.0
  3
*D4
  1

  0
LINE
  5
1FF
330
1FC
100
AcDbEntity
  8
0
 62
    95
370
    -2
100
AcDbLine
 10
220.404842
 20
301.407994
 30
0.0
 11
204.955296
 21
301.407994
 31
0.0
  0
LINE
  5
200
330
1FC
100
AcDbEntity
  8
0
 62
    95
370
    -2
100
AcDbLine
 10
220.404842
 20
276.407994
 30
0.0
 11
204.955296
 21
276.407994
 31
0.0
  0
LINE
  5
201
330
1FC
100
AcDbEntity
  8
0
 62
    95
370
    -2
100
AcDbLine
 10
205.955296
 20
297.907994
 30
0.0
 11
205.955296
 21
279.907994
 31
0.0
  0
SOLID
  5
202
330
1FC
100
AcDbEntity
  8
0
 62
    95
100
AcDbTrace
 10
206.53863
 20
297.907994
 30
0.0
 11
205.371963
 21
297.907994
 31
0.0
 12
205.955296
 22
301.407994
 32
0.0
 13
205.955296
 23
301.407994
 33
0.0
  0
SOLID
  5
203
330
1FC
100
AcDbEntity
  8
0
 62
    95
100
AcDbTrace
 10
205.371963
 20
279.907994
 30
0.0
 11
206.53863
 21
279.907994
 31
0.0
 12
205.955296
 22
276.407994
 32
0.0
 13
205.955296
 23
276.407994
 33
0.0
  0
MTEXT
  5
204
330
1FC
100
AcDbEntity
  8
0
 62
    95
370
    13
100
AcDbMText
 10
200.705296
 20
288.907994
 30
0.0
 40
3.5
 41
0.0
 71
     5
 72
     1
  1
\A1;25
  7
cesky
 11
0.0
 21
1.0
 31
0.0
 73
     1
 44
1.0
  0
POINT
  5
205
330
1FC
100
AcDbEntity
  8
Defpoints
 62
     0
100
AcDbPoint
 10
220.404842
 20
301.407994
 30
0.0
  0
POINT
  5
206
330
1FC
100
AcDbEntity
  8
Defpoints
 62
     0
100
AcDbPoint
 10
220.404842
 20
276.407994
 30
0.0
  0
POINT
  5
207
330
1FC
100
AcDbEntity
  8
Defpoints
 62
     0
100
AcDbPoint
 10
205.955296
 20
276.407994
 30
0.0
  0
ENDBLK
  5
1FE
330
1FC
100
AcDbEntity
  8
0
100
AcDbBlockEnd
  0
BLOCK
  5
210
330
208
100
AcDbEntity
  8
0
100
AcDbBlockBegin
  2
_U1
 70
     0
 10
0.0
 20
0.0
 30
0.0
  3
_U1
  1

  0
ENDBLK
  5
211
330
208
100
AcDbEntity
  8
0
100
AcDbBlockEnd
  0
BLOCK
  5
216
330
215
100
AcDbEntity
  8
0
100
AcDbBlockBegin
  2
*D6
 70
     1
 10
0.0
 20
0.0
 30
0.0
  3
*D6
  1

  0
LINE
  5
218
330
215
100
AcDbEntity
  8
0
 62
    95
370
    -2
100
AcDbLine
 10
277.154842
 20
306.407994
 30
0.0
 11
189.143489
 21
306.407994
 31
0.0
  0
LINE
  5
219
330
215
100
AcDbEntity
  8
0
 62
    95
370
    -2
100
AcDbLine
 10
277.154842
 20
271.407994
 30
0.0
 11
189.143489
 21
271.407994
 31
0.0
  0
LINE
  5
21A
330
215
100
AcDbEntity
  8
0
 62
    95
370
    -2
100
AcDbLine
 10
190.143489
 20
302.907994
 30
0.0
 11
190.143489
 21
274.907994
 31
0.0
  0
SOLID
  5
21B
330
215
100
AcDbEntity
  8
0
 62
    95
100
AcDbTrace
 10
190.726823
 20
302.907994
 30
0.0
 11
189.560156
 21
302.907994
 31
0.0
 12
190.143489
 22
306.407994
 32
0.0
 13
190.143489
 23
306.407994
 33
0.0
  0
SOLID
  5
21C
330
215
100
AcDbEntity
  8
0
 62
    95
100
AcDbTrace
 10
189.560156
 20
274.907994
 30
0.0
 11
190.726823
 21
274.907994
 31
0.0
 12
190.143489
 22
271.407994
 32
0.0
 13
190.143489
 23
271.407994
 33
0.0
  0
MTEXT
  5
21D
330
215
100
AcDbEntity
  8
0
 62
    95
370
    13
100
AcDbMText
 10
184.893489
 20
288.907994
 30
0.0
 40
3.5
 41
0.0
 71
     5
 72
     1
  1
\A1;35
  7
cesky
 11
0.0
 21
1.0
 31
0.0
 73
     1
 44
1.0
  0
POINT
  5
21E
330
215
100
AcDbEntity
  8
Defpoints
 62
     0
100
AcDbPoint
 10
277.154842
 20
306.407994
 30
0.0
  0
POINT
  5
21F
330
215
100
AcDbEntity
  8
Defpoints
 62
     0
100
AcDbPoint
 10
277.154842
 20
271.407994
 30
0.0
  0
POINT
  5
220
330
215
100
AcDbEntity
  8
Defpoints
 62
     0
100
AcDbPoint
 10
190.143489
 20
271.407994
 30
0.0
  0
ENDBLK
  5
217
330
215
100
AcDbEntity
  8
0
100
AcDbBlockEnd
  0
BLOCK
  5
229
330
221
100
AcDbEntity
  8
0
100
AcDbBlockBegin
  2
_U2
 70
     0
 10
0.0
 20
0.0
 30
0.0
  3
_U2
  1

  0
ENDBLK
  5
22A
330
221
100
AcDbEntity
  8
0
100
AcDbBlockEnd
  0
BLOCK
  5
22F
330
22E
100
AcDbEntity
  8
0
100
AcDbBlockBegin
  2
*D8
 70
     1
 10
0.0
 20
0.0
 30
0.0
  3
*D8
  1

  0
LINE
  5
231
330
22E
100
AcDbEntity
  8
0
 62
   254
370
    -2
100
AcDbLine
 10
404.404842
 20
301.407994
 30
0.0
 11
404.404842
 21
344.155687
 31
0.0
  0
LINE
  5
232
330
22E
100
AcDbEntity
  8
0
 62
   254
370
    -2
100
AcDbLine
 10
218.404842
 20
299.407994
 30
0.0
 11
218.404842
 21
344.155687
 31
0.0
  0
LINE
  5
233
330
22E
100
AcDbEntity
  8
0
 62
   254
370
    -2
100
AcDbLine
 10
400.904842
 20
343.155687
 30
0.0
 11
221.904842
 21
343.155687
 31
0.0
  0
SOLID
  5
234
330
22E
100
AcDbEntity
  8
0
 62
   254
100
AcDbTrace
 10
400.904842
 20
342.572354
 30
0.0
 11
400.904842
 21
343.739021
 31
0.0
 12
404.404842
 22
343.155687
 32
0.0
 13
404.404842
 23
343.155687
 33
0.0
  0
SOLID
  5
235
330
22E
100
AcDbEntity
  8
0
 62
   254
100
AcDbTrace
 10
221.904842
 20
343.739021
 30
0.0
 11
221.904842
 21
342.572354
 31
0.0
 12
218.404842
 22
343.155687
 32
0.0
 13
218.404842
 23
343.155687
 33
0.0
  0
MTEXT
  5
236
330
22E
100
AcDbEntity
  8
0
 62
   254
370
    13
100
AcDbMText
 10
311.404842
 20
348.405687
 30
0.0
 40
3.5
 41
0.0
 71
     5
 72
     1
  1
\A1;186
  7
cesky
 73
     1
 44
1.0
  0
POINT
  5
237
330
22E
100
AcDbEntity
  8
Defpoints
 62
     0
100
AcDbPoint
 10
404.404842
 20
301.407994
 30
0.0
  0
POINT
  5
238
330
22E
100
AcDbEntity
  8
Defpoints
 62
     0
100
AcDbPoint
 10
218.404842
 20
299.407994
 30
0.0
  0
POINT
  5
239
330
22E
100
AcDbEntity
  8
Defpoints
 62
     0
100
AcDbPoint
 10
218.404842
 20
343.155687
 30
0.0
  0
ENDBLK
  5
230
330
22E
100
AcDbEntity
  8
0
100
AcDbBlockEnd
  0
BLOCK
  5
241
330
23A
100
AcDbEntity
  8
0
100
AcDbBlockBegin
  2
_U3
 70
     0
 10
0.0
 20
0.0
 30
0.0
  3
_U3
  1

  0
ENDBLK
  5
242
330
23A
100
AcDbEntity
  8
0
100
AcDbBlockEnd
  0
BLOCK
  5
247
330
246
100
AcDbEntity
  8
0
100
AcDbBlockBegin
  2
*D10
 70
     1
 10
0.0
 20
0.0
 30
0.0
  3
*D10
  1

  0
LINE
  5
249
330
246
100
AcDbEntity
  8
0
 62
   254
370
    -2
100
AcDbLine
 10
274.404842
 20
288.907994
 30
0.0
 11
274.404842
 21
330.17035
 31
0.0
  0
LINE
  5
24A
330
246
100
AcDbEntity
  8
0
 62
   254
370
    -2
100
AcDbLine
 10
218.404842
 20
294.157994
 30
0.0
 11
218.404842
 21
330.17035
 31
0.0
  0
LINE
  5
24B
330
246
100
AcDbEntity
  8
0
 62
   254
370
    -2
100
AcDbLine
 10
270.904842
 20
329.17035
 30
0.0
 11
221.904842
 21
329.17035
 31
0.0
  0
SOLID
  5
24C
330
246
100
AcDbEntity
  8
0
 62
   254
100
AcDbTrace
 10
270.904842
 20
328.587017
 30
0.0
 11
270.904842
 21
329.753684
 31
0.0
 12
274.404842
 22
329.17035
 32
0.0
 13
274.404842
 23
329.17035
 33
0.0
  0
SOLID
  5
24D
330
246
100
AcDbEntity
  8
0
 62
   254
100
AcDbTrace
 10
221.904842
 20
329.753684
 30
0.0
 11
221.904842
 21
328.587017
 31
0.0
 12
218.404842
 22
329.17035
 32
0.0
 13
218.404842
 23
329.17035
 33
0.0
  0
MTEXT
  5
24E
330
246
100
AcDbEntity
  8
0
 62
   254
370
    13
100
AcDbMText
 10
246.404842
 20
334.42035
 30
0.0
 40
3.5
 41
0.0
 71
     5
 72
     1
  1
\A1;56
  7
cesky
 73
     1
 44
1.0
  0
POINT
  5
24F
330
246
100
AcDbEntity
  8
Defpoints
 62
     0
100
AcDbPoint
 10
274.404842
 20
288.907994
 30
0.0
  0
POINT
  5
250
330
246
100
AcDbEntity
  8
Defpoints
 62
     0
100
AcDbPoint
 10
218.404842
 20
294.157994
 30
0.0
  0
POINT
  5
251
330
246
100
AcDbEntity
  8
Defpoints
 62
     0
100
AcDbPoint
 10
218.404842
 20
329.17035
 30
0.0
  0
ENDBLK
  5
248
330
246
100
AcDbEntity
  8
0
100
AcDbBlockEnd
  0
BLOCK
  5
259
330
252
100
AcDbEntity
  8
0
100
AcDbBlockBegin
  2
_U4
 70
     0
 10
0.0
 20
0.0
 30
0.0
  3
_U4
  1

  0
ENDBLK
  5
25A
330
252
100
AcDbEntity
  8
0
100
AcDbBlockEnd
  0
BLOCK
  5
25F
330
25E
100
AcDbEntity
  8
0
100
AcDbBlockBegin
  2
*D12
 70
     1
 10
0.0
 20
0.0
 30
0.0
  3
*D12
  1

  0
LINE
  5
261
330
25E
100
AcDbEntity
  8
0
 62
   254
370
    -2
100
AcDbLine
 10
404.404842
 20
299.407994
 30
0.0
 11
404.404842
 21
315.595905
 31
0.0
  0
LINE
  5
262
330
25E
100
AcDbEntity
  8
0
 62
   254
370
    -2
100
AcDbLine
 10
293.929091
 20
299.060236
 30
0.0
 11
293.929091
 21
315.595905
 31
0.0
  0
LINE
  5
263
330
25E
100
AcDbEntity
  8
0
 62
   254
370
    -2
100
AcDbLine
 10
400.904842
 20
314.595905
 30
0.0
 11
297.429091
 21
314.595905
 31
0.0
  0
SOLID
  5
264
330
25E
100
AcDbEntity
  8
0
 62
   254
100
AcDbTrace
 10
400.904842
 20
314.012571
 30
0.0
 11
400.904842
 21
315.179238
 31
0.0
 12
404.404842
 22
314.595905
 32
0.0
 13
404.404842
 23
314.595905
 33
0.0
  0
SOLID
  5
265
330
25E
100
AcDbEntity
  8
0
 62
   254
100
AcDbTrace
 10
297.429091
 20
315.179238
 30
0.0
 11
297.429091
 21
314.012571
 31
0.0
 12
293.929091
 22
314.595905
 32
0.0
 13
293.929091
 23
314.595905
 33
0.0
  0
MTEXT
  5
266
330
25E
100
AcDbEntity
  8
0
 62
   254
370
    13
100
AcDbMText
 10
349.166966
 20
319.845905
 30
0.0
 40
3.5
 41
0.0
 71
     5
 72
     1
  1
\A1;110.5
  7
cesky
 73
     1
 44
1.0
  0
POINT
  5
267
330
25E
100
AcDbEntity
  8
Defpoints
 62
     0
100
AcDbPoint
 10
404.404842
 20
299.407994
 30
0.0
  0
POINT
  5
268
330
25E
100
AcDbEntity
  8
Defpoints
 62
     0
100
AcDbPoint
 10
293.929091
 20
299.060236
 30
0.0
  0
POINT
  5
269
330
25E
100
AcDbEntity
  8
Defpoints
 62
     0
100
AcDbPoint
 10
293.929091
 20
314.595905
 30
0.0
  0
ENDBLK
  5
260
330
25E
100
AcDbEntity
  8
0
100
AcDbBlockEnd
  0
BLOCK
  5
271
330
26A
100
AcDbEntity
  8
0
100
AcDbBlockBegin
  2
_U5
 70
     0
 10
0.0
 20
0.0
 30
0.0
  3
_U5
  1

  0
ENDBLK
  5
272
330
26A
100
AcDbEntity
  8
0
100
AcDbBlockEnd
  0
BLOCK
  5
277
330
276
100
AcDbEntity
  8
0
100
AcDbBlockBegin
  2
*D14
 70
     1
 10
0.0
 20
0.0
 30
0.0
  3
*D14
  1

  0
LINE
  5
279
330
276
100
AcDbEntity
  8
0
 62
   254
370
    -2
100
AcDbLine
 10
404.404842
 20
299.407994
 30
0.0
 11
404.404842
 21
330.17035
 31
0.0
  0
LINE
  5
27A
330
276
100
AcDbEntity
  8
0
 62
   254
370
    -2
100
AcDbLine
 10
274.404842
 20
288.907994
 30
0.0
 11
274.404842
 21
330.17035
 31
0.0
  0
LINE
  5
27B
330
276
100
AcDbEntity
  8
0
 62
   254
370
    -2
100
AcDbLine
 10
400.904842
 20
329.17035
 30
0.0
 11
277.904842
 21
329.17035
 31
0.0
  0
SOLID
  5
27C
330
276
100
AcDbEntity
  8
0
 62
   254
100
AcDbTrace
 10
400.904842
 20
328.587017
 30
0.0
 11
400.904842
 21
329.753684
 31
0.0
 12
404.404842
 22
329.17035
 32
0.0
 13
404.404842
 23
329.17035
 33
0.0
  0
SOLID
  5
27D
330
276
100
AcDbEntity
  8
0
 62
   254
100
AcDbTrace
 10
277.904842
 20
329.753684
 30
0.0
 11
277.904842
 21
328.587017
 31
0.0
 12
274.404842
 22
329.17035
 32
0.0
 13
274.404842
 23
329.17035
 33
0.0
  0
MTEXT
  5
27E
330
276
100
AcDbEntity
  8
0
 62
   254
370
    13
100
AcDbMText
 10
339.404842
 20
334.42035
 30
0.0
 40
3.5
 41
0.0
 71
     5
 72
     1
  1
\A1;130
  7
cesky
 73
     1
 44
1.0
  0
POINT
  5
27F
330
276
100
AcDbEntity
  8
Defpoints
 62
     0
100
AcDbPoint
 10
404.404842
 20
299.407994
 30
0.0
  0
POINT
  5
280
330
276
100
AcDbEntity
  8
Defpoints
 62
     0
100
AcDbPoint
 10
274.404842
 20
288.907994
 30
0.0
  0
POINT
  5
281
330
276
100
AcDbEntity
  8
Defpoints
 62
     0
100
AcDbPoint
 10
274.404842
 20
329.17035
 30
0.0
  0
ENDBLK
  5
278
330
276
100
AcDbEntity
  8
0
100
AcDbBlockEnd
  0
BLOCK
  5
289
330
282
100
AcDbEntity
  8
0
100
AcDbBlockBegin
  2
_U6
 70
     0
 10
0.0
 20
0.0
 30
0.0
  3
_U6
  1

  0
ENDBLK
  5
28A
330
282
100
AcDbEntity
  8
0
100
AcDbBlockEnd
  0
ENDSEC
  0
SECTION
  2
ENTITIES
  0
POINT
  5
73
102
{ACAD_REACTORS
330
333
102
}
330
1F
100
AcDbEntity
  8
80
100
AcDbPoint
 10
274.404842
 20
288.907994
 30
0.0
  0
POINT
  5
76
330
1F
100
AcDbEntity
  8
SK4
 60
     1
100
AcDbPoint
 10
220.404842
 20
288.907994
 30
0.0
  0
POINT
  5
78
330
1F
100
AcDbEntity
  8
SK4
 60
     1
100
AcDbPoint
 10
274.404842
 20
288.907994
 30
0.0
  0
POINT
  5
79
330
1F
100
AcDbEntity
  8
4
 60
     1
100
AcDbPoint
 10
293.532259
 20
288.907994
 30
0.0
  0
POINT
  5
7A
330
1F
100
AcDbEntity
  8
4
 60
     1
100
AcDbPoint
 10
403.687445
 20
288.907994
 30
0.0
  0
POINT
  5
7B
330
1F
100
AcDbEntity
  8
SK6
 60
     1
100
AcDbPoint
 10
274.404842
 20
288.907994
 30
0.0
  0
POINT
  5
7C
330
1F
100
AcDbEntity
  8
SK6
 60
     1
100
AcDbPoint
 10
293.929091
 20
299.060236
 30
0.0
  0
LINE
  5
7D
330
1F
100
AcDbEntity
  8
1
100
AcDbLine
 10
274.404842
 20
305.907994
 30
0.0
 11
274.404842
 21
288.907994
 31
0.0
  0
LINE
  5
7F
330
1F
100
AcDbEntity
  8
1
100
AcDbLine
 10
274.404842
 20
288.907994
 30
0.0
 11
274.404842
 21
271.907994
 31
0.0
  0
LINE
  5
80
330
1F
100
AcDbEntity
  8
1
100
AcDbLine
 10
397.586458
 20
298.907994
 30
0.0
 11
382.130891
 21
298.907994
 31
0.0
  0
LINE
  5
81
330
1F
100
AcDbEntity
  8
1
100
AcDbLine
 10
402.696566
 20
298.083364
 30
0.0
 11
402.874477
 21
294.09209
 31
0.0
  0
LINE
  5
83
330
1F
100
AcDbEntity
  8
1
100
AcDbLine
 10
403.447733
 20
288.087939
 30
0.0
 11
403.4062999999999
 21
288.162686
 31
0.0
  0
LINE
  5
84
330
1F
100
AcDbEntity
  8
1
100
AcDbLine
 10
403.9152109999999
 20
283.53604
 30
0.0
 11
403.3110939999999
 21
283.201173
 31
0.0
  0
LINE
  5
85
330
1F
100
AcDbEntity
  8
1
100
AcDbLine
 10
403.9979739999999
 20
289.060225
 30
0.0
 11
404.404667
 21
288.32653
 31
0.0
  0
LINE
  5
86
330
1F
100
AcDbEntity
  8
1
100
AcDbLine
 10
403.7230779999999
 20
288.794761
 30
0.0
 11
403.9979739999999
 21
289.060225
 31
0.0
  0
LINE
  5
87
330
1F
100
AcDbEntity
  8
1
100
AcDbLine
 10
403.610015
 20
289.2933339999999
 30
0.0
 11
403.9979739999999
 21
289.060225
 31
0.0
  0
LINE
  5
88
330
1F
100
AcDbEntity
  8
1
100
AcDbLine
 10
403.649747
 20
283.810936
 30
0.0
 11
403.9152109999999
 21
283.53604
 31
0.0
  0
LINE
  5
89
330
1F
100
AcDbEntity
  8
1
100
AcDbLine
 10
404.333191
 20
284.231676
 30
0.0
 11
403.9152109999999
 21
283.53604
 31
0.0
  0
LINE
  5
8A
330
1F
100
AcDbEntity
  8
1
100
AcDbLine
 10
404.0338689999999
 20
288.23408
 30
0.0
 11
404.404667
 21
288.32653
 31
0.0
  0
LINE
  5
8B
330
1F
100
AcDbEntity
  8
1
100
AcDbLine
 10
403.965845
 20
284.337011
 30
0.0
 11
404.333191
 21
284.231676
 31
0.0
  0
LINE
  5
8C
330
1F
100
AcDbEntity
  8
1
100
AcDbLine
 10
404.404667
 20
288.32653
 30
0.0
 11
404.333191
 21
284.231676
 31
0.0
  0
LINE
  5
8D
330
1F
100
AcDbEntity
  8
1
100
AcDbLine
 10
403.252348
 20
284.282472
 30
0.0
 11
403.385166
 21
284.503518
 31
0.0
  0
LINE
  5
8E
330
1F
100
AcDbEntity
  8
1
100
AcDbLine
 10
403.965845
 20
284.337011
 30
0.0
 11
403.649747
 21
283.810936
 31
0.0
  0
LINE
  5
8F
330
1F
100
AcDbEntity
  8
1
100
AcDbLine
 10
403.649747
 20
283.810936
 30
0.0
 11
403.2466079999999
 21
284.228399
 31
0.0
  0
LINE
  5
90
330
1F
100
AcDbEntity
  8
1
100
AcDbLine
 10
403.649747
 20
283.810936
 30
0.0
 11
403.174333
 21
283.54741
 31
0.0
  0
LINE
  5
91
330
1F
100
AcDbEntity
  8
1
100
AcDbLine
 10
403.385166
 20
284.503518
 30
0.0
 11
403.447733
 21
288.087939
 31
0.0
  0
LINE
  5
92
330
1F
100
AcDbEntity
  8
1
100
AcDbLine
 10
403.965845
 20
284.337011
 30
0.0
 11
403.385166
 21
284.503518
 31
0.0
  0
LINE
  5
93
330
1F
100
AcDbEntity
  8
1
100
AcDbLine
 10
404.0338689999999
 20
288.23408
 30
0.0
 11
403.965845
 21
284.337011
 31
0.0
  0
LINE
  5
94
330
1F
100
AcDbEntity
  8
1
100
AcDbLine
 10
404.0338689999999
 20
288.23408
 30
0.0
 11
403.447733
 21
288.087939
 31
0.0
  0
LINE
  5
95
330
1F
100
AcDbEntity
  8
1
100
AcDbLine
 10
403.7230779999999
 20
288.794761
 30
0.0
 11
404.0338689999999
 21
288.23408
 31
0.0
  0
LINE
  5
96
330
1F
100
AcDbEntity
  8
1
100
AcDbLine
 10
403.7230779999999
 20
288.794761
 30
0.0
 11
403.406306
 21
288.488858
 31
0.0
  0
LINE
  5
97
330
1F
100
AcDbEntity
  8
1
100
AcDbLine
 10
403.407186
 20
288.984568
 30
0.0
 11
403.7230779999999
 21
288.794761
 31
0.0
  0
LINE
  5
9C
330
1F
100
AcDbEntity
  8
80
100
AcDbLine
 10
275.404416
 20
288.907994
 30
0.0
 11
273.405268
 21
288.907994
 31
0.0
  0
LINE
  5
9D
330
1F
100
AcDbEntity
  8
1
100
AcDbLine
 10
399.119445
 20
292.556087
 30
0.0
 11
403.575246
 21
292.750429
 31
0.0
  0
LINE
  5
9E
330
1F
100
AcDbEntity
  8
1
100
AcDbLine
 10
403.754842
 20
289.670337
 30
0.0
 11
403.754842
 21
289.770352
 31
0.0
  0
LINE
  5
9F
330
1F
100
AcDbEntity
  8
1
100
AcDbLine
 10
403.575539
 20
292.708293
 30
0.0
 11
403.575246
 21
292.750429
 31
0.0
  0
LINE
  5
A0
330
1F
100
AcDbEntity
  8
1
100
AcDbLine
 10
399.845267
 20
296.411864
 30
0.0
 11
399.8275
 21
296.361321
 31
0.0
  0
LINE
  5
A2
330
1F
100
AcDbEntity
  8
1
100
AcDbLine
 10
399.91259
 20
296.342959
 30
0.0
 11
399.89425
 21
296.2907859999999
 31
0.0
  0
LINE
  5
A3
330
1F
100
AcDbEntity
  8
1
100
AcDbLine
 10
401.575869
 20
295.9160759999999
 30
0.0
 11
401.5942359999999
 21
295.968326
 31
0.0
  0
LINE
  5
A4
330
1F
100
AcDbEntity
  8
1
100
AcDbLine
 10
399.94663
 20
295.4501009999999
 30
0.0
 11
399.928362
 21
295.39813
 31
0.0
  0
LINE
  5
A5
330
1F
100
AcDbEntity
  8
1
100
AcDbLine
 10
399.906023
 20
295.430671
 30
0.0
 11
399.88803
 21
295.379484
 31
0.0
  0
LINE
  5
A6
330
1F
100
AcDbEntity
  8
1
100
AcDbLine
 10
401.1697569999999
 20
295.1249279999999
 30
0.0
 11
401.188052
 21
295.176971
 31
0.0
  0
LINE
  5
A7
330
1F
100
AcDbEntity
  8
1
100
AcDbLine
 10
401.208378
 20
295.083041
 30
0.0
 11
401.2263139999999
 21
295.134065
 31
0.0
  0
LINE
  5
A8
330
1F
100
AcDbEntity
  8
1
100
AcDbLine
 10
402.028867
 20
292.1409549999999
 30
0.0
 11
398.692767
 21
291.995449
 31
0.0
  0
LINE
  5
A9
330
1F
100
AcDbEntity
  8
1
100
AcDbLine
 10
286.904842
 20
298.844953
 30
0.0
 11
286.904842
 21
286.216018
 31
0.0
  0
LINE
  5
AA
330
1F
100
AcDbEntity
  8
1
100
AcDbLine
 10
403.441219
 20
282.7781129999999
 30
0.0
 11
403.399129
 21
282.778787
 31
0.0
  0
LINE
  5
AB
330
1F
100
AcDbEntity
  8
1
100
AcDbLine
 10
403.4244109999999
 20
283.016987
 30
0.0
 11
403.399129
 21
282.778787
 31
0.0
  0
LINE
  5
AC
330
1F
100
AcDbEntity
  8
1
100
AcDbLine
 10
403.4244109999999
 20
283.016987
 30
0.0
 11
403.2913419999999
 21
283.233264
 31
0.0
  0
LINE
  5
AD
330
1F
100
AcDbEntity
  8
1
100
AcDbLine
 10
402.422152
 20
285.732994
 30
0.0
 11
403.4063009999999
 21
285.732994
 31
0.0
  0
LINE
  5
AE
330
1F
100
AcDbEntity
  8
SK1
100
AcDbLine
 10
220.404842
 20
301.407994
 30
0.0
 11
220.404842
 21
276.407994
 31
0.0
  0
LINE
  5
AF
330
1F
100
AcDbEntity
  8
SK1
100
AcDbLine
 10
218.404842
 20
299.407994
 30
0.0
 11
218.404842
 21
278.407994
 31
0.0
  0
LINE
  5
B0
330
1F
100
AcDbEntity
  8
1
100
AcDbLine
 10
397.497344
 20
294.04709
 30
0.0
 11
397.492113
 21
294.03221
 31
0.0
  0
LINE
  5
B1
330
1F
100
AcDbEntity
  8
1
100
AcDbLine
 10
397.497344
 20
294.04709
 30
0.0
 11
397.290719
 21
298.839291
 31
0.0
  0
LINE
  5
B2
330
1F
100
AcDbEntity
  8
1
100
AcDbLine
 10
397.286559
 20
298.799573
 30
0.0
 11
397.492113
 21
294.03221
 31
0.0
  0
LINE
  5
B3
330
1F
100
AcDbEntity
  8
1
100
AcDbLine
 10
403.030456
 20
278.907994
 30
0.0
 11
387.077078
 21
278.907994
 31
0.0
  0
LINE
  5
B4
330
1F
100
AcDbEntity
  8
1
100
AcDbLine
 10
274.904842
 20
271.407994
 30
0.0
 11
274.904842
 21
288.907994
 31
0.0
  0
LINE
  5
B5
330
1F
100
AcDbEntity
  8
1
100
AcDbLine
 10
274.904842
 20
288.907994
 30
0.0
 11
274.904842
 21
306.407994
 31
0.0
  0
LINE
  5
B6
330
1F
100
AcDbEntity
  8
1
100
AcDbLine
 10
402.3440019999999
 20
295.318007
 30
0.0
 11
402.35142
 21
295.339108
 31
0.0
  0
LINE
  5
B7
330
1F
100
AcDbEntity
  8
1
100
AcDbLine
 10
400.267659
 20
295.078143
 30
0.0
 11
400.2858819999999
 21
295.129983
 31
0.0
  0
LINE
  5
B8
330
1F
100
AcDbEntity
  8
1
100
AcDbLine
 10
400.7523029999999
 20
295.047763
 30
0.0
 11
400.733957
 21
294.995574
 31
0.0
  0
LINE
  5
B9
330
1F
100
AcDbEntity
  8
1
100
AcDbLine
 10
399.901547
 20
296.005896
 30
0.0
 11
399.920474
 21
296.059739
 31
0.0
  0
LINE
  5
BA
330
1F
100
AcDbEntity
  8
1
100
AcDbLine
 10
401.493869
 20
295.817408
 30
0.0
 11
401.474942
 21
295.763564
 31
0.0
  0
LINE
  5
BB
330
1F
100
AcDbEntity
  8
1
100
AcDbLine
 10
400.6425319999999
 20
296.773886
 30
0.0
 11
400.660877
 21
296.826075
 31
0.0
  0
LINE
  5
BC
330
1F
100
AcDbEntity
  8
1
100
AcDbLine
 10
401.1222469999999
 20
296.729485
 30
0.0
 11
401.1088299999999
 21
296.691317
 31
0.0
  0
LINE
  5
BD
330
1F
100
AcDbEntity
  8
1
100
AcDbLine
 10
279.404842
 20
271.407994
 30
0.0
 11
282.21855
 21
274.221702
 31
0.0
  0
LINE
  5
BE
330
1F
100
AcDbEntity
  8
1
100
AcDbLine
 10
282.21855
 20
303.594285
 30
0.0
 11
279.404842
 21
306.407994
 31
0.0
  0
LINE
  5
BF
330
1F
100
AcDbEntity
  8
SK1
100
AcDbLine
 10
218.404842
 20
278.407994
 30
0.0
 11
220.404842
 21
276.407994
 31
0.0
  0
LINE
  5
C0
330
1F
100
AcDbEntity
  8
SK1
100
AcDbLine
 10
220.404842
 20
301.407994
 30
0.0
 11
218.404842
 21
299.407994
 31
0.0
  0
LINE
  5
C1
330
1F
100
AcDbEntity
  8
SK1
100
AcDbLine
 10
274.404842
 20
301.407994
 30
0.0
 11
220.404842
 21
301.407994
 31
0.0
  0
LINE
  5
C2
330
1F
100
AcDbEntity
  8
1
100
AcDbLine
 10
274.904842
 20
271.407994
 30
0.0
 11
274.404842
 21
271.907994
 31
0.0
  0
LINE
  5
C3
330
1F
100
AcDbEntity
  8
1
100
AcDbLine
 10
274.404842
 20
305.907994
 30
0.0
 11
274.904842
 21
306.407994
 31
0.0
  0
LINE
  5
C4
330
1F
100
AcDbEntity
  8
1
100
AcDbLine
 10
279.404842
 20
306.407994
 30
0.0
 11
274.904842
 21
306.407994
 31
0.0
  0
LINE
  5
C5
330
1F
100
AcDbEntity
  8
80
100
AcDbLine
 10
274.404842
 20
287.90842
 30
0.0
 11
274.404842
 21
289.907567
 31
0.0
  0
LINE
  5
C6
330
1F
100
AcDbEntity
  8
81
100
AcDbLine
 10
404.404842
 20
301.407994
 30
0.0
 11
404.404842
 21
297.407994
 31
0.0
  0
LINE
  5
C7
330
1F
100
AcDbEntity
  8
SK1
100
AcDbLine
 10
220.404842
 20
276.407994
 30
0.0
 11
274.404842
 21
276.407994
 31
0.0
  0
LINE
  5
C8
330
1F
100
AcDbEntity
  8
81
100
AcDbLine
 10
402.4048419999999
 20
299.407994
 30
0.0
 11
406.4048419999999
 21
299.407994
 31
0.0
  0
LINE
  5
C9
330
1F
100
AcDbEntity
  8
1
100
AcDbLine
 10
274.904842
 20
271.407994
 30
0.0
 11
279.404842
 21
271.407994
 31
0.0
  0
LINE
  5
CA
330
1F
100
AcDbEntity
  8
1
100
AcDbLine
 10
403.837836
 20
298.927268
 30
0.0
 11
404.085755
 21
293.365446
 31
0.0
  0
LINE
  5
CB
330
1F
100
AcDbEntity
  8
1
100
AcDbLine
 10
397.865395
 20
299.0546930000001
 30
0.0
 11
403.4330119999999
 21
299.297527
 31
0.0
  0
LINE
  5
CC
330
1F
100
AcDbEntity
  8
1
100
AcDbLine
 10
397.743005
 20
293.088804
 30
0.0
 11
397.495086
 21
298.650626
 31
0.0
  0
LINE
  5
CD
330
1F
100
AcDbEntity
  8
1
100
AcDbLine
 10
403.715446
 20
292.96138
 30
0.0
 11
398.147829
 21
292.718545
 31
0.0
  0
LINE
  5
CE
330
1F
100
AcDbEntity
  8
1
100
AcDbLine
 10
398.879044
 20
293.917828
 30
0.0
 11
398.7011330000001
 21
297.909101
 31
0.0
  0
LINE
  5
CF
330
1F
100
AcDbEntity
  8
1
100
AcDbLine
 10
402.874477
 20
294.09209
 30
0.0
 11
398.879044
 21
293.917828
 31
0.0
  0
LINE
  5
D0
330
1F
100
AcDbEntity
  8
1
100
AcDbLine
 10
398.7011330000001
 20
297.909101
 30
0.0
 11
402.696566
 21
298.083364
 31
0.0
  0
LINE
  5
D1
330
1F
100
AcDbEntity
  8
1
100
AcDbLine
 10
279.404842
 20
306.407994
 30
0.0
 11
279.404842
 21
279.046905
 31
0.0
  0
LINE
  5
D2
330
1F
100
AcDbEntity
  8
1
100
AcDbLine
 10
279.404842
 20
271.407994
 30
0.0
 11
279.404842
 21
273.1873109999999
 31
0.0
  0
LINE
  5
D3
330
1F
100
AcDbEntity
  8
1
100
AcDbLine
 10
397.517649
 20
298.781258
 30
0.0
 11
397.515166
 21
298.838831
 31
0.0
  0
LINE
  5
D4
330
1F
100
AcDbEntity
  8
1
100
AcDbLine
 10
403.499635
 20
292.17741
 30
0.0
 11
398.699883
 21
291.968067
 31
0.0
  0
LINE
  5
D5
330
1F
100
AcDbEntity
  8
1
100
AcDbLine
 10
403.499635
 20
292.17741
 30
0.0
 11
402.362789
 21
290.283321
 31
0.0
  0
LINE
  5
D6
330
1F
100
AcDbEntity
  8
1
100
AcDbLine
 10
403.2913419999999
 20
283.233264
 30
0.0
 11
403.183332
 21
283.234992
 31
0.0
  0
LINE
  5
D7
330
1F
100
AcDbEntity
  8
1
100
AcDbLine
 10
403.173033
 20
283.5351950000001
 30
0.0
 11
403.4063009999999
 21
285.732994
 31
0.0
  0
LINE
  5
D8
330
1F
100
AcDbEntity
  8
1
100
AcDbLine
 10
403.4063009999999
 20
285.732994
 30
0.0
 11
403.4063009999999
 21
288.923612
 31
0.0
  0
LINE
  5
D9
330
1F
100
AcDbEntity
  8
1
100
AcDbLine
 10
403.4484629999999
 20
289.222922
 30
0.0
 11
403.556656
 21
289.2210330000001
 31
0.0
  0
LINE
  5
DA
330
1F
100
AcDbEntity
  8
1
100
AcDbLine
 10
403.499635
 20
292.17741
 30
0.0
 11
403.509015
 21
292.1810910000001
 31
0.0
  0
LINE
  5
DB
330
1F
100
AcDbEntity
  8
1
100
AcDbLine
 10
403.617248
 20
292.766913
 30
0.0
 11
399.124676
 21
292.570968
 31
0.0
  0
LINE
  5
DC
330
1F
100
AcDbEntity
  8
1
100
AcDbLine
 10
399.119445
 20
292.556087
 30
0.0
 11
399.124676
 21
292.570968
 31
0.0
  0
LINE
  5
DD
330
1F
100
AcDbEntity
  8
1
100
AcDbLine
 10
403.556656
 20
289.2210330000001
 30
0.0
 11
403.71268
 21
289.432462
 31
0.0
  0
LINE
  5
DE
330
1F
100
AcDbEntity
  8
1
100
AcDbLine
 10
403.71268
 20
289.671073
 30
0.0
 11
403.71268
 21
289.432462
 31
0.0
  0
LINE
  5
DF
330
1F
100
AcDbEntity
  8
1
100
AcDbLine
 10
403.71268
 20
289.671073
 30
0.0
 11
403.754842
 21
289.670337
 31
0.0
  0
LINE
  5
E0
330
1F
100
AcDbEntity
  8
1
100
AcDbLine
 10
403.754842
 20
292.969841
 30
0.0
 11
403.754842
 21
289.770352
 31
0.0
  0
LINE
  5
E1
330
1F
100
AcDbEntity
  8
1
100
AcDbLine
 10
403.617248
 20
292.766913
 30
0.0
 11
403.6159239999999
 21
292.9570359999999
 31
0.0
  0
LINE
  5
E2
330
1F
100
AcDbEntity
  8
1
100
AcDbLine
 10
403.617248
 20
292.766913
 30
0.0
 11
403.575246
 21
292.750429
 31
0.0
  0
LINE
  5
E3
330
1F
100
AcDbEntity
  8
1
100
AcDbLine
 10
403.030456
 20
278.907994
 30
0.0
 11
403.441219
 21
282.7781129999999
 31
0.0
  0
LINE
  5
110
330
1F
100
AcDbEntity
  8
NOCUT
100
AcDbLine
 10
279.404842
 20
306.407994
 30
0.0
 11
282.21855
 21
303.594285
 31
0.0
  0
LINE
  5
111
330
1F
100
AcDbEntity
  8
NOCUT
100
AcDbLine
 10
293.532259
 20
298.907994
 30
0.0
 11
403.502643
 21
298.907994
 31
0.0
  0
LINE
  5
112
330
1F
100
AcDbEntity
  8
NOCUT
100
AcDbLine
 10
403.502643
 20
298.907994
 30
0.0
 11
403.754842
 21
293.18132
 31
0.0
  0
LINE
  5
113
330
1F
100
AcDbEntity
  8
NOCUT
100
AcDbLine
 10
403.754842
 20
293.18132
 30
0.0
 11
403.754842
 21
288.907994
 31
0.0
  0
LINE
  5
114
330
1F
100
AcDbEntity
  8
NOCUT
100
AcDbLine
 10
403.754842
 20
288.907994
 30
0.0
 11
218.404842
 21
288.907994
 31
0.0
  0
LINE
  5
115
330
1F
100
AcDbEntity
  8
NOCUT
100
AcDbLine
 10
218.404842
 20
299.407994
 30
0.0
 11
220.404842
 21
301.407994
 31
0.0
  0
LINE
  5
116
330
1F
100
AcDbEntity
  8
NOCUT
100
AcDbLine
 10
274.404842
 20
301.407994
 30
0.0
 11
274.404842
 21
305.907994
 31
0.0
  0
LINE
  5
117
330
1F
100
AcDbEntity
  8
NOCUT
100
AcDbLine
 10
274.404842
 20
305.907994
 30
0.0
 11
274.904842
 21
306.407994
 31
0.0
  0
LINE
  5
118
330
1F
100
AcDbEntity
  8
NOCUT
100
AcDbLine
 10
274.404842
 20
301.407994
 30
0.0
 11
220.404842
 21
301.407994
 31
0.0
  0
LINE
  5
119
330
1F
100
AcDbEntity
  8
NOCUT
100
AcDbLine
 10
218.404842
 20
299.407994
 30
0.0
 11
218.404842
 21
288.907994
 31
0.0
  0
LINE
  5
11A
330
1F
100
AcDbEntity
  8
NOCUT
100
AcDbLine
 10
279.404842
 20
306.407994
 30
0.0
 11
274.904842
 21
306.407994
 31
0.0
  0
ARC
  5
123
330
1F
100
AcDbEntity
  8
1
100
AcDbCircle
 10
293.532259
 20
262.907994
 30
0.0
 40
16.0
100
AcDbArc
 50
103.19107
 51
135.0
  0
ARC
  5
124
330
1F
100
AcDbEntity
  8
1
100
AcDbCircle
 10
293.532259
 20
314.907994
 30
0.0
 40
16.0
100
AcDbArc
 50
225.0
 51
262.123174
  0
ARC
  5
125
330
1F
100
AcDbEntity
  8
1
100
AcDbCircle
 10
401.0962609999999
 20
286.441244
 30
0.0
 40
1.1
100
AcDbArc
 50
75.0
 51
345.0
  0
CIRCLE
  5
126
330
1F
100
AcDbEntity
  8
1
100
AcDbCircle
 10
401.0962609999999
 20
286.441244
 30
0.0
 40
0.7000000000000009
  0
ARC
  5
135
330
1F
100
AcDbEntity
  8
NOCUT
100
AcDbCircle
 10
293.532259
 20
314.907994
 30
0.0
 40
16.0
100
AcDbArc
 50
225.0
 51
270.0
  0
ELLIPSE
  5
136
330
1F
100
AcDbEntity
  8
1
100
AcDbEllipse
 10
400.6930319999999
 20
295.89835
 30
0.0
 11
1.65097004114347
 21
-0.5803429358980168
 31
0.0
210
0.0
220
0.0
230
1.0
 40
0.9986169999999999
 41
2.73828625294496
 42
3.141686341718187
  0
ELLIPSE
  5
137
330
1F
100
AcDbEntity
  8
1
100
AcDbEllipse
 10
400.6930319999999
 20
295.89835
 30
0.0
 11
1.65097004114347
 21
-0.5803429358980168
 31
0.0
210
0.0
220
0.0
230
1.0
 40
0.9986169999999999
 41
0.0
 42
2.738285992692068
  0
ELLIPSE
  5
138
330
1F
100
AcDbEntity
  8
1
100
AcDbEllipse
 10
399.830675
 20
296.235677
 30
0.0
 11
-0.0794580284109328
 21
0.0279307948294024
 31
0.0
210
0.0
220
0.0
230
1.0
 40
0.9986169999999997
 41
3.731853534953812
 42
4.570881727131563
  0
ELLIPSE
  5
139
330
1F
100
AcDbEntity
  8
1
100
AcDbEllipse
 10
399.908314
 20
296.384909
 30
0.0
 11
-0.0794580284109329
 21
0.0279307948294024
 31
0.0
210
0.0
220
0.0
230
0.9999999999999998
 40
0.9986169999999997
 41
0.0666621057659458
 42
1.429289073541639
  0
ELLIPSE
  5
13A
330
1F
100
AcDbEntity
  8
1
100
AcDbEllipse
 10
400.2433159999999
 20
296.291669
 30
0.0
 11
-0.4075175559138357
 21
0.143249077169938
 31
0.0
210
0.0
220
0.0
230
0.9999999999999998
 40
0.9986169999999999
 41
5.409909919309376
 42
6.349847412945462
  0
ELLIPSE
  5
13B
330
1F
100
AcDbEntity
  8
1
100
AcDbEllipse
 10
400.120859
 20
296.61683
 30
0.0
 11
-0.0794580284109327
 21
0.0279307948294023
 31
0.0
210
0.0
220
0.0
230
0.9999999999999998
 40
0.9986169999999997
 41
4.047282951533318
 42
5.409909919309706
  0
ELLIPSE
  5
13C
330
1F
100
AcDbEntity
  8
1
100
AcDbEllipse
 10
400.262827
 20
296.707225
 30
0.0
 11
-0.0794580284109327
 21
0.0279307948294023
 31
0.0
210
0.0
220
0.0
230
0.9999999999999998
 40
0.9986169999999997
 41
0.9056902979438675
 42
1.744718490121568
  0
ELLIPSE
  5
13D
330
1F
100
AcDbEntity
  8
1
100
AcDbEllipse
 10
400.319479
 20
297.049844
 30
0.0
 11
-0.4075175559138355
 21
0.1432490771699379
 31
0.0
210
0.0
220
0.0
230
0.9999999999999998
 40
0.9986169999999999
 41
1.744718490121349
 42
2.684655983757376
  0
ELLIPSE
  5
13E
330
1F
100
AcDbEntity
  8
1
100
AcDbEllipse
 10
400.5630739999999
 20
296.801817
 30
0.0
 11
-0.0794580284109328
 21
0.0279307948294024
 31
0.0
210
0.0
220
0.0
230
1.0
 40
0.9986169999999997
 41
2.684655983757584
 42
3.523684175935136
  0
ELLIPSE
  5
13F
330
1F
100
AcDbEntity
  8
1
100
AcDbEllipse
 10
400.7313299999999
 20
296.809155
 30
0.0
 11
-0.0794580284109329
 21
0.0279307948294024
 31
0.0
210
0.0
220
0.0
230
0.9999999999999998
 40
0.9986169999999997
 41
5.302649861748763
 42
6.665276829524724
  0
ELLIPSE
  5
140
330
1F
100
AcDbEntity
  8
1
100
AcDbEllipse
 10
400.818247
 20
296.472798
 30
0.0
 11
-0.4075175559138357
 21
0.143249077169938
 31
0.0
210
0.0
220
0.0
230
0.9999999999999998
 40
0.9986169999999999
 41
4.362712368112716
 42
5.302649861748773
  0
ELLIPSE
  5
141
330
1F
100
AcDbEntity
  8
1
100
AcDbEllipse
 10
401.0388279999999
 20
296.741071
 30
0.0
 11
-0.0794580284109327
 21
0.0279307948294023
 31
0.0
210
0.0
220
0.0
230
0.9999999999999998
 40
0.9986169999999997
 41
3.000085400336756
 42
4.362712368112767
  0
ELLIPSE
  5
142
330
1F
100
AcDbEntity
  8
1
100
AcDbEllipse
 10
401.1882879999999
 20
296.663386
 30
0.0
 11
-0.0794580284109327
 21
0.0279307948294023
 31
0.0
210
0.0
220
0.0
230
0.9999999999999998
 40
0.9986169999999997
 41
6.141678053926431
 42
6.980706246104322
  0
ELLIPSE
  5
143
330
1F
100
AcDbEntity
  8
1
100
AcDbEllipse
 10
401.5136939999999
 20
296.785429
 30
0.0
 11
-0.4075175559138355
 21
0.1432490771699379
 31
0.0
210
0.0
220
0.0
230
0.9999999999999998
 40
0.9986169999999999
 41
0.6975209389246843
 42
1.637458432560769
  0
ELLIPSE
  5
144
330
1F
100
AcDbEntity
  8
1
100
AcDbEllipse
 10
401.4206439999999
 20
296.45087
 30
0.0
 11
-0.0794580284109328
 21
0.0279307948294024
 31
0.0
210
0.0
220
0.0
230
1.0
 40
0.9986169999999997
 41
1.637458432560633
 42
2.476486624738455
  0
ELLIPSE
  5
145
330
1F
100
AcDbEntity
  8
1
100
AcDbEllipse
 10
401.51126
 20
296.308977
 30
0.0
 11
-0.0794580284109329
 21
0.0279307948294024
 31
0.0
210
0.0
220
0.0
230
0.9999999999999998
 40
0.9986169999999997
 41
4.255452310552202
 42
5.618079278328077
  0
ELLIPSE
  5
146
330
1F
100
AcDbEntity
  8
1
100
AcDbEllipse
 10
401.2631759999999
 20
296.065859
 30
0.0
 11
-0.4075175559138357
 21
0.143249077169938
 31
0.0
210
0.0
220
0.0
230
0.9999999999999998
 40
0.9986169999999999
 41
3.31551481691614
 42
4.255452310552202
  0
ELLIPSE
  5
147
330
1F
100
AcDbEntity
  8
1
100
AcDbEllipse
 10
401.606214
 20
296.008972
 30
0.0
 11
-0.0794580284109327
 21
0.0279307948294023
 31
0.0
210
0.0
220
0.0
230
0.9999999999999998
 40
0.9986169999999997
 41
1.952887849139889
 42
3.315514816916124
  0
ELLIPSE
  5
148
330
1F
100
AcDbEntity
  8
1
100
AcDbEllipse
 10
401.613706
 20
295.840891
 30
0.0
 11
-0.0794580284109327
 21
0.0279307948294023
 31
0.0
210
0.0
220
0.0
230
0.9999999999999998
 40
0.9986169999999997
 41
5.09448050272987
 42
5.93350869490766
  0
ELLIPSE
  5
149
330
1F
100
AcDbEntity
  8
1
100
AcDbEllipse
 10
401.88246
 20
295.620315
 30
0.0
 11
-0.4075175559138355
 21
0.1432490771699379
 31
0.0
210
0.0
220
0.0
230
0.9999999999999998
 40
0.9986169999999999
 41
5.933508694907637
 42
6.873446188543755
  0
ELLIPSE
  5
14A
330
1F
100
AcDbEntity
  8
1
100
AcDbEllipse
 10
401.5458149999999
 20
295.533783
 30
0.0
 11
-0.0794580284109328
 21
0.0279307948294024
 31
0.0
210
0.0
220
0.0
230
1.0
 40
0.9986169999999997
 41
0.5902608813640902
 42
1.429289073541615
  0
ELLIPSE
  5
14B
330
1F
100
AcDbEntity
  8
1
100
AcDbEllipse
 10
401.4681749999999
 20
295.384552
 30
0.0
 11
-0.0794580284109329
 21
0.0279307948294024
 31
0.0
210
0.0
220
0.0
230
0.9999999999999998
 40
0.9986169999999997
 41
3.208254759355761
 42
4.570881727131598
  0
ELLIPSE
  5
14C
330
1F
100
AcDbEntity
  8
1
100
AcDbEllipse
 10
401.133173
 20
295.477791
 30
0.0
 11
-0.4075175559138357
 21
0.143249077169938
 31
0.0
210
0.0
220
0.0
230
0.9999999999999998
 40
0.9986169999999999
 41
2.268317265719543
 42
3.208254759355671
  0
ELLIPSE
  5
14D
330
1F
100
AcDbEntity
  8
1
100
AcDbEllipse
 10
401.2556299999999
 20
295.152631
 30
0.0
 11
-0.0794580284109327
 21
0.0279307948294023
 31
0.0
210
0.0
220
0.0
230
0.9999999999999998
 40
0.9986169999999997
 41
0.9056902979434171
 42
2.268317265719364
  0
ELLIPSE
  5
14E
330
1F
100
AcDbEntity
  8
1
100
AcDbEllipse
 10
403.1844959999999
 20
298.589786
 30
0.0
 11
0.9544181512182682
 21
1.042471548807212
 31
0.0
210
0.0
220
0.0
230
0.9999999999999998
 40
0.014608
 41
1.536574872336705
 42
2.091385905461495
  0
ELLIPSE
  5
14F
330
1F
100
AcDbEntity
  8
1
100
AcDbEllipse
 10
403.4092679999999
 20
293.547245
 30
0.0
 11
1.042970518011963
 21
-0.9548749744845103
 31
0.0
210
0.0
220
0.0
230
1.0
 40
0.034202
 41
1.585389172072345
 42
2.140200205237682
  0
ELLIPSE
  5
150
330
1F
100
AcDbEntity
  8
1
100
AcDbEllipse
 10
398.270813
 20
293.255677
 30
0.0
 11
1.03775259729018
 21
-0.3647869882787533
 31
0.0
210
0.0
220
0.0
230
0.9999999999999998
 40
0.9986169999999999
 41
5.878433066816101
 42
5.931335259946557
  0
ELLIPSE
  5
151
330
1F
100
AcDbEntity
  8
1
100
AcDbEllipse
 10
398.040489
 20
288.907994
 30
0.0
 11
0.3694784675368876
 21
-9.999864428399638
 31
0.0
210
0.0
220
0.0
230
1.0
 40
0.140936
 41
3.231890522152111
 42
3.254065146271793
  0
ELLIPSE
  5
152
330
1F
100
AcDbEntity
  8
1
100
AcDbEllipse
 10
398.233043
 20
291.051403
 30
0.0
 11
-3.239710306496313
 21
-0.1557603175913437
 31
0.0
210
0.0
220
0.0
230
1.0
 40
0.221493
 41
1.72186671931011
 42
4.555186962511381
  0
ELLIPSE
  5
153
330
1F
100
AcDbEntity
  8
1
100
AcDbEllipse
 10
400.7004499999999
 20
295.919451
 30
0.0
 11
-1.650970041143471
 21
0.5803429358980104
 31
0.0
210
0.0
220
0.0
230
0.9999999999999998
 40
0.9986169999999999
 41
3.141587919873803
 42
5.879878490359357
  0
ELLIPSE
  5
154
330
1F
100
AcDbEntity
  8
1
100
AcDbEllipse
 10
404.091827
 20
288.907994
 30
0.0
 11
1.082387694202387
 21
9.998869052107595
 31
0.0
210
0.0
220
0.0
230
0.9999999999999998
 40
0.138944
 41
1.908927975894485
 42
3.156632395651081
  0
ELLIPSE
  5
155
330
1F
100
AcDbEntity
  8
1
100
AcDbEllipse
 10
403.754842
 20
288.907994
 30
0.0
 11
0.0
 21
10.00000000005042
 31
0.0
210
0.0
220
0.0
230
1.0
 40
0.140541
 41
1.432826221439139
 42
1.893888233831862
  0
ELLIPSE
  5
156
330
1F
100
AcDbEntity
  8
1
100
AcDbEllipse
 10
398.315798
 20
293.38365
 30
0.0
 11
-1.037752597290181
 21
0.3647869882787491
 31
0.0
210
0.0
220
0.0
230
1.0
 40
0.9986169999999999
 41
0.061747036045397
 42
1.952887366749441
  0
ELLIPSE
  5
157
330
1F
100
AcDbEntity
  8
1
100
AcDbEllipse
 10
398.315798
 20
293.38365
 30
0.0
 11
-1.037752597290181
 21
0.3647869882787491
 31
0.0
210
0.0
220
0.0
230
1.0
 40
0.9986169999999999
 41
1.952888276015089
 42
2.882603670849413
  0
ELLIPSE
  5
158
330
1F
100
AcDbEntity
  8
1
100
AcDbEllipse
 10
398.276044
 20
293.270558
 30
0.0
 11
-1.037752597290181
 21
0.3647869882787492
 31
0.0
210
0.0
220
0.0
230
1.0
 40
0.9986169999999999
 41
5.608353607745568
 42
5.836666734888793
  0
ELLIPSE
  5
159
330
1F
100
AcDbEntity
  8
1
100
AcDbEllipse
 10
398.270813
 20
293.255677
 30
0.0
 11
1.03775259729018
 21
-0.3647869882787533
 31
0.0
210
0.0
220
0.0
230
0.9999999999999998
 40
0.9986169999999999
 41
2.695074081298999
 42
4.235763652100744
  0
ELLIPSE
  5
15A
330
1F
100
AcDbEntity
  8
1
100
AcDbEllipse
 10
397.732309
 20
288.907996
 30
0.0
 11
0.4217649266578651
 21
-9.999994418196267
 31
0.0
210
0.0
220
0.0
230
0.9999999999999998
 40
0.019519
 41
3.25805691310635
 42
3.288158254359056
  0
ELLIPSE
  5
15B
330
1F
100
AcDbEntity
  8
1
100
AcDbEllipse
 10
341.318151
 20
288.908315
 30
0.0
 11
573.4348733813448
 21
-0.4962662832963595
 31
0.0
210
0.0
220
0.0
230
0.9999999999999998
 40
0.017417
 41
1.473053738716926
 42
1.478932949162946
  0
ELLIPSE
  5
15C
330
1F
100
AcDbEntity
  8
1
100
AcDbEllipse
 10
398.13083
 20
304.543475
 30
0.0
 11
-11.886984296233
 21
4.178469138465674
 31
0.0
210
0.0
220
0.0
230
1.0
 40
0.9986169999999999
 41
1.619660911119114
 42
1.952887849140188
  0
ELLIPSE
  5
15D
330
1F
100
AcDbEntity
  8
1
100
AcDbEllipse
 10
401.113662
 20
295.062235
 30
0.0
 11
-0.0794580284109327
 21
0.0279307948294023
 31
0.0
210
0.0
220
0.0
230
0.9999999999999998
 40
0.9986169999999997
 41
4.047282951533631
 42
4.886311143711028
  0
ELLIPSE
  5
15E
330
1F
100
AcDbEntity
  8
1
100
AcDbEllipse
 10
401.0570109999999
 20
294.719616
 30
0.0
 11
-0.4075175559138355
 21
0.1432490771699379
 31
0.0
210
0.0
220
0.0
230
0.9999999999999998
 40
0.9986169999999999
 41
4.886311143711075
 42
5.826248637347214
  0
ELLIPSE
  5
15F
330
1F
100
AcDbEntity
  8
1
100
AcDbEllipse
 10
400.813415
 20
294.967644
 30
0.0
 11
-0.0794580284109328
 21
0.0279307948294024
 31
0.0
210
0.0
220
0.0
230
1.0
 40
0.9986169999999997
 41
5.826248637347076
 42
6.66527682952507
  0
ELLIPSE
  5
160
330
1F
100
AcDbEntity
  8
1
100
AcDbEllipse
 10
400.645159
 20
294.960305
 30
0.0
 11
-0.0794580284109329
 21
0.0279307948294024
 31
0.0
210
0.0
220
0.0
230
0.9999999999999998
 40
0.9986169999999997
 41
2.161057208159065
 42
3.523684175934978
  0
ELLIPSE
  5
161
330
1F
100
AcDbEntity
  8
1
100
AcDbEllipse
 10
400.558242
 20
295.296662
 30
0.0
 11
-0.4075175559138357
 21
0.143249077169938
 31
0.0
210
0.0
220
0.0
230
0.9999999999999998
 40
0.9986169999999999
 41
1.221119714522972
 42
2.161057208159034
  0
ELLIPSE
  5
162
330
1F
100
AcDbEntity
  8
1
100
AcDbEllipse
 10
400.337661
 20
295.028389
 30
0.0
 11
-0.0794580284109327
 21
0.0279307948294023
 31
0.0
210
0.0
220
0.0
230
0.9999999999999998
 40
0.9986169999999997
 41
6.141678053926633
 42
7.504305021702791
  0
ELLIPSE
  5
163
330
1F
100
AcDbEntity
  8
1
100
AcDbEllipse
 10
400.188201
 20
295.106074
 30
0.0
 11
-0.0794580284109327
 21
0.0279307948294023
 31
0.0
210
0.0
220
0.0
230
0.9999999999999998
 40
0.9986169999999997
 41
3.000085400336637
 42
3.839113592514616
  0
ELLIPSE
  5
164
330
1F
100
AcDbEntity
  8
1
100
AcDbEllipse
 10
399.862796
 20
294.984031
 30
0.0
 11
-0.4075175559138355
 21
0.1432490771699379
 31
0.0
210
0.0
220
0.0
230
0.9999999999999998
 40
0.9986169999999999
 41
3.839113592514476
 42
4.779051086150559
  0
ELLIPSE
  5
165
330
1F
100
AcDbEntity
  8
1
100
AcDbEllipse
 10
399.955846
 20
295.318591
 30
0.0
 11
-0.0794580284109328
 21
0.0279307948294024
 31
0.0
210
0.0
220
0.0
230
1.0
 40
0.9986169999999997
 41
4.779051086150252
 42
5.618079278328076
  0
ELLIPSE
  5
166
330
1F
100
AcDbEntity
  8
1
100
AcDbEllipse
 10
399.865229
 20
295.460484
 30
0.0
 11
-0.0794580284109329
 21
0.0279307948294024
 31
0.0
210
0.0
220
0.0
230
0.9999999999999998
 40
0.9986169999999997
 41
1.113859656962297
 42
2.476486624738218
  0
ELLIPSE
  5
167
330
1F
100
AcDbEntity
  8
1
100
AcDbEllipse
 10
400.113314
 20
295.703601
 30
0.0
 11
-0.4075175559138357
 21
0.143249077169938
 31
0.0
210
0.0
220
0.0
230
0.9999999999999998
 40
0.9986169999999999
 41
0.1739221633263533
 42
1.11385965696246
  0
ELLIPSE
  5
168
330
1F
100
AcDbEntity
  8
1
100
AcDbEllipse
 10
399.770276
 20
295.760489
 30
0.0
 11
-0.0794580284109327
 21
0.0279307948294023
 31
0.0
210
0.0
220
0.0
230
0.9999999999999998
 40
0.9986169999999997
 41
5.094480502729652
 42
6.457107470505973
  0
ELLIPSE
  5
169
330
1F
100
AcDbEntity
  8
1
100
AcDbEllipse
 10
399.762783
 20
295.928569
 30
0.0
 11
-0.0794580284109327
 21
0.0279307948294023
 31
0.0
210
0.0
220
0.0
230
0.9999999999999998
 40
0.9986169999999997
 41
1.952887849140109
 42
2.791916041318163
  0
ELLIPSE
  5
16A
330
1F
100
AcDbEntity
  8
1
100
AcDbEllipse
 10
399.49403
 20
296.149145
 30
0.0
 11
-0.4075175559138355
 21
0.1432490771699379
 31
0.0
210
0.0
220
0.0
230
0.9999999999999998
 40
0.9986169999999999
 41
2.791916041317833
 42
3.731853534953962
  0
ELLIPSE
  5
16B
330
1F
100
AcDbEntity
  8
1
100
AcDbEllipse
 10
400.6882449999999
 20
295.88473
 30
0.0
 11
1.08492316989428
 21
-0.3813682150186966
 31
0.0
210
0.0
220
0.0
230
0.9999999999999998
 40
0.9986169999999997
 41
0.0
 42
6.283185307179585
  0
ELLIPSE
  5
16C
330
1F
100
AcDbEntity
  8
1
100
AcDbEllipse
 10
400.80001
 20
296.035317
 30
0.0
 11
1.652572938396771
 21
-0.5809063804637824
 31
0.0
210
0.0
220
0.0
230
1.0
 40
0.9986169999999999
 41
5.899022697473661
 42
6.283185307179585
  0
ELLIPSE
  5
16D
330
1F
100
AcDbEntity
  8
1
100
AcDbEllipse
 10
400.80001
 20
296.035317
 30
0.0
 11
1.652572938396771
 21
-0.5809063804637824
 31
0.0
210
0.0
220
0.0
230
1.0
 40
0.9986169999999999
 41
0.0
 42
1.666708259525901
  0
ELLIPSE
  5
16E
330
1F
100
AcDbEntity
  8
1
100
AcDbEllipse
 10
398.361473
 20
293.327083
 30
0.0
 11
0.9544181515253079
 21
1.042471549142743
 31
0.0
210
0.0
220
0.0
230
1.0
 40
0.014608
 41
0.9817638393859775
 42
1.536574872337032
  0
ELLIPSE
  5
16F
330
1F
100
AcDbEntity
  8
1
100
AcDbEllipse
 10
400.787805
 20
296.000596
 30
0.0
 11
-1.768896472653717
 21
0.6217960027478675
 31
0.0
210
0.0
220
0.0
230
1.0
 40
0.9986169999999999
 41
0.0
 42
6.283185307179585
  0
ELLIPSE
  5
170
330
1F
100
AcDbEntity
  8
1
100
AcDbEllipse
 10
398.1367009999999
 20
298.369624
 30
0.0
 11
1.042970518447954
 21
-0.9548749748900977
 31
0.0
210
0.0
220
0.0
230
1.0
 40
0.034202
 41
1.030578139227324
 42
1.585389172166077
  0
ELLIPSE
  5
171
330
1F
100
AcDbEntity
  8
1
100
AcDbEllipse
 10
326.90937
 20
288.907994
 30
0.0
 11
213.3030595333308
 21
9.752116431663806
 31
0.0
210
0.0
220
0.0
230
0.9999999999999998
 40
0.010374
 41
5.055499559463738
 42
5.073479249731959
  0
ELLIPSE
  5
172
330
1F
100
AcDbEntity
  8
1
100
AcDbEllipse
 10
403.215123
 20
283.534522
 30
0.0
 11
0.0323262014603187
 21
0.299496685501449
 31
0.0
210
0.0
220
0.0
230
0.9999999999999998
 40
0.139171
 41
1.583568179234495
 42
3.154364506043961
  0
ELLIPSE
  5
173
330
1F
100
AcDbEntity
  8
1
100
AcDbEllipse
 10
403.4484629999999
 20
288.922876
 30
0.0
 11
0.0001054973296594
 21
-0.3000466006022707
 31
0.0
210
0.0
220
0.0
230
0.9999999999999998
 40
0.140519
 41
3.139090475970321
 42
4.709886802754909
  0
ELLIPSE
  5
174
330
1F
100
AcDbEntity
  8
1
100
AcDbEllipse
 10
317.842974
 20
288.907994
 30
0.0
 11
47.03494250460336
 21
-6.192181023447491
 31
0.0
210
0.0
220
0.0
230
1.0
 40
0.166944
 41
4.196670998359653
 42
4.324916754484948
  0
ELLIPSE
  5
175
330
1F
100
AcDbEntity
  8
1
100
AcDbEllipse
 10
398.276044
 20
293.270558
 30
0.0
 11
-1.037752597290181
 21
0.3647869882787492
 31
0.0
210
0.0
220
0.0
230
1.0
 40
0.9986169999999999
 41
2.789742606356793
 42
3.00370013874441
  0
ELLIPSE
  5
176
330
1F
100
AcDbEntity
  8
1
100
AcDbEllipse
 10
403.505535
 20
292.680819
 30
0.0
 11
0.0003755628764192
 21
0.5004820718088562
 31
0.0
210
0.0
220
0.0
230
1.0
 40
0.140044
 41
3.196620263476463
 42
4.767416590260913
  0
SPLINE
  5
17C
330
1F
100
AcDbEntity
  8
1
100
AcDbSpline
210
0.0
220
0.0
230
1.0
 70
     8
 71
     3
 72
    19
 73
    15
 74
     0
 42
0.000000001
 43
0.0000000001
 40
0.0
 40
0.0
 40
0.0
 40
0.0
 40
0.2500000000000426
 40
0.2500000000000426
 40
0.3750000000000141
 40
0.3750000000000141
 40
0.4999999999999857
 40
0.6249999999999572
 40
0.6249999999999572
 40
0.6874999999999618
 40
0.6874999999999618
 40
0.7499999999999667
 40
0.7499999999999667
 40
1.0
 40
1.0
 40
1.0
 40
1.0
 10
399.8227528576768
 20
295.4517001351708
 30
0.0
 10
399.7988637114692
 20
295.4757978714037
 30
0.0
 10
399.7781638715988
 20
295.5023567694013
 30
0.0
 10
399.7518760290118
 20
295.5458604318081
 30
0.0
 10
399.7439185115564
 20
295.5610078583265
 30
0.0
 10
399.7300100250026
 20
295.5917928598749
 30
0.0
 10
399.7179886526653
 20
295.6232465223308
 30
0.0
 10
399.7096994441028
 20
295.6560223971863
 30
0.0
 10
399.7049249480647
 20
295.6811153928522
 30
0.0
 10
399.7035755712007
 20
295.6895726841342
 30
0.0
 10
399.7013962895523
 20
295.706429104127
 30
0.0
 10
399.7005602518392
 20
295.7148565697502
 30
0.0
 10
399.697623182184
 20
295.756990214742
 30
0.0
 10
399.6992006659311
 20
295.790685538545
 30
0.0
 10
399.7048010770916
 20
295.8243682277518
 30
0.0
  0
SPLINE
  5
17D
330
1F
100
AcDbEntity
  8
1
100
AcDbSpline
210
0.0
220
0.0
230
1.0
 70
     8
 71
     3
 72
    19
 73
    15
 74
     0
 42
0.000000001
 43
0.0000000001
 40
0.0
 40
0.0
 40
0.0
 40
0.0
 40
0.1015279973885807
 40
0.1015279973885807
 40
0.2512733311570806
 40
0.2512733311570806
 40
0.4010186649255808
 40
0.5507639986940807
 40
0.5507639986940807
 40
0.6256366655783307
 40
0.6256366655783307
 40
0.7005093324625806
 40
0.7005093324625806
 40
1.0
 40
1.0
 40
1.0
 40
1.0
 10
401.5439522775852
 20
295.3489078283698
 30
0.0
 10
401.539204035409
 20
295.3384636375123
 30
0.0
 10
401.5340353157375
 20
295.328200620158
 30
0.0
 10
401.5202043243792
 20
295.3032482114529
 30
0.0
 10
401.5110127762911
 20
295.2887641490969
 30
0.0
 10
401.491230132786
 20
295.2613129919063
 30
0.0
 10
401.4699520717555
 20
295.2351855728961
 30
0.0
 10
401.4457163648091
 20
295.2116760107565
 30
0.0
 10
401.4263965395673
 20
295.1950556590168
 30
0.0
 10
401.4197586117548
 20
295.1896818896246
 30
0.0
 10
401.4062801103236
 20
295.1794188164322
 30
0.0
 10
401.3994180692546
 20
295.1745100871521
 30
0.0
 10
401.3645061509468
 20
295.1510587633414
 30
0.0
 10
401.3346755078164
 20
295.1357482698395
 30
0.0
 10
401.3029014971631
 20
295.1239759697935
 30
0.0
  0
SPLINE
  5
17E
330
1F
100
AcDbEntity
  8
1
100
AcDbSpline
210
0.0
220
0.0
230
1.0
 70
     8
 71
     3
 72
    18
 73
    14
 74
     0
 42
0.000000001
 43
0.0000000001
 40
0.0
 40
0.0
 40
0.0
 40
0.0
 40
0.1990792742710561
 40
0.1990792742710561
 40
0.3981585485421124
 40
0.497698185677649
 40
0.497698185677649
 40
0.5972378228131854
 40
0.5972378228131854
 40
0.7963170970842999
 40
0.9953963713554143
 40
0.9953963713554143
 40
1.0
 40
1.0
 40
1.0
 40
1.0
 10
399.9307555308596
 20
296.3093876330067
 30
0.0
 10
399.9350174666164
 20
296.2933547280348
 30
0.0
 10
399.9383369406328
 20
296.276997772781
 30
0.0
 10
399.9429947454607
 20
296.2440924276706
 30
0.0
 10
399.9450292068697
 20
296.219182343388
 30
0.0
 10
399.9448256865055
 20
296.1939009128547
 30
0.0
 10
399.9441765611002
 20
296.176959965763
 30
0.0
 10
399.9435917338357
 20
296.1684134898732
 30
0.0
 10
399.941073003752
 20
296.1429482832489
 30
0.0
 10
399.9356999982282
 20
296.1094191882395
 30
0.0
 10
399.926406702599
 20
296.076714375176
 30
0.0
 10
399.9206353450252
 20
296.0601981767561
 30
0.0
 10
399.9205043482527
 20
296.0598249661233
 30
0.0
 10
399.9203728015623
 20
296.0594518493705
 30
0.0
  0
SPLINE
  5
17F
330
1F
100
AcDbEntity
  8
1
100
AcDbSpline
210
0.0
220
0.0
230
1.0
 70
     8
 71
     3
 72
    14
 73
    10
 74
     0
 42
0.000000001
 43
0.0000000001
 40
0.0
 40
0.0
 40
0.0
 40
0.0
 40
0.25
 40
0.25
 40
0.5
 40
0.5
 40
0.75
 40
0.75
 40
1.0
 40
1.0
 40
1.0
 40
1.0
 10
399.8876429854661
 20
296.361921698334
 30
0.0
 10
399.8928774563767
 20
296.3593260431044
 30
0.0
 10
399.8978281459256
 20
296.3561859390089
 30
0.0
 10
399.9069187222196
 20
296.3489873400018
 30
0.0
 10
399.9110441488627
 20
296.3449535564405
 30
0.0
 10
399.9184449085277
 20
296.336002569913
 30
0.0
 10
399.9217176473124
 20
296.331057816565
 30
0.0
 10
399.927077921496
 20
296.3206756391167
 30
0.0
 10
399.9292126446654
 20
296.315191790822
 30
0.0
 10
399.9307555308596
 20
296.3093876330061
 30
0.0
  0
SPLINE
  5
180
330
1F
100
AcDbEntity
  8
1
100
AcDbSpline
210
0.0
220
0.0
230
1.0
 70
     8
 71
     3
 72
    20
 73
    16
 74
     0
 42
0.000000001
 43
0.0000000001
 40
0.0
 40
0.0
 40
0.0
 40
0.0
 40
0.249999999999989
 40
0.249999999999989
 40
0.3749999999999909
 40
0.3749999999999909
 40
0.4999999999999928
 40
0.4999999999999928
 40
0.6249999999999945
 40
0.6249999999999945
 40
0.7499999999999964
 40
0.7499999999999964
 40
0.8749999999999982
 40
0.8749999999999982
 40
1.0
 40
1.0
 40
1.0
 40
1.0
 10
399.8876429854661
 20
296.361921698334
 30
0.0
 10
399.8792322495166
 20
296.3660923912513
 30
0.0
 10
399.8717594650273
 20
296.3715085938521
 30
0.0
 10
399.8619582787021
 20
296.3814959741508
 30
0.0
 10
399.8589468516602
 20
296.3851381312561
 30
0.0
 10
399.8536374787059
 20
296.3928127926886
 30
0.0
 10
399.8513087430232
 20
296.3968741340904
 30
0.0
 10
399.8473345541667
 20
296.4054642428706
 30
0.0
 10
399.8457082537277
 20
296.409970937464
 30
0.0
 10
399.8432791142631
 20
296.4191460904782
 30
0.0
 10
399.8424582535878
 20
296.4238500604072
 30
0.0
 10
399.8416515122459
 20
296.4335030913287
 30
0.0
 10
399.841677818498
 20
296.4383736697898
 30
0.0
 10
399.8425831998789
 20
296.4480151883559
 30
0.0
 10
399.8434592116777
 20
296.4528152583469
 30
0.0
 10
399.8447861995647
 20
296.4575928654777
 30
0.0
  0
SPLINE
  5
181
330
1F
100
AcDbEntity
  8
1
100
AcDbSpline
210
0.0
220
0.0
230
1.0
 70
     8
 71
     3
 72
    10
 73
     6
 74
     0
 42
0.000000001
 43
0.0000000001
 40
0.0
 40
0.0
 40
0.0
 40
0.0
 40
0.3281545517381489
 40
0.3281545517381489
 40
1.0
 40
1.0
 40
1.0
 40
1.0
 10
401.4940213497691
 20
295.8178404267841
 30
0.0
 10
401.4995390767838
 20
295.8334904786232
 30
0.0
 10
401.5060190386151
 20
295.848918594675
 30
0.0
 10
401.5280228237518
 20
295.8938146773083
 30
0.0
 10
401.5460135753485
 20
295.9215777772961
 30
0.0
 10
401.5671553256306
 20
295.9470674290358
 30
0.0
  0
SPLINE
  5
182
330
1F
100
AcDbEntity
  8
1
100
AcDbSpline
210
0.0
220
0.0
230
1.0
 70
     8
 71
     3
 72
    14
 73
    10
 74
     0
 42
0.000000001
 43
0.0000000001
 40
0.0
 40
0.0
 40
0.0
 40
0.0
 40
0.25
 40
0.25
 40
0.5
 40
0.5
 40
0.75
 40
0.75
 40
1.0
 40
1.0
 40
1.0
 40
1.0
 10
401.5671553256306
 20
295.9470674290358
 30
0.0
 10
401.5709866210053
 20
295.9516866485192
 30
0.0
 10
401.5753047437901
 20
295.9558439202772
 30
0.0
 10
401.5845381394024
 20
295.9630082709151
 30
0.0
 10
401.5894629549761
 20
295.9660420413333
 30
0.0
 10
401.5999149558983
 20
295.9710453645941
 30
0.0
 10
401.6054380670153
 20
295.9729933603679
 30
0.0
 10
401.6165969782521
 20
295.9756599225199
 30
0.0
 10
401.6222925086305
 20
295.9764105519586
 30
0.0
 10
401.6281082589916
 20
295.9765600434854
 30
0.0
  0
SPLINE
  5
183
330
1F
100
AcDbEntity
  8
1
100
AcDbSpline
210
0.0
220
0.0
230
1.0
 70
     8
 71
     3
 72
    14
 73
    10
 74
     0
 42
0.000000001
 43
0.0000000001
 40
0.0
 40
0.0
 40
0.0
 40
0.0
 40
0.0566475275406442
 40
0.0566475275406442
 40
0.245318022032204
 40
0.245318022032204
 40
0.6226590110161022
 40
0.6226590110161022
 40
1.0
 40
1.0
 40
1.0
 40
1.0
 10
401.6917588699351
 20
296.0094771766185
 30
0.0
 10
401.69091010815
 20
296.0083354250087
 30
0.0
 10
401.6900329384991
 20
296.0072178693394
 30
0.0
 10
401.6861130915593
 20
296.0024815113973
 30
0.0
 10
401.6827528112179
 20
295.9990757521254
 30
0.0
 10
401.6719779124604
 20
295.9899066251604
 30
0.0
 10
401.6639349170964
 20
295.9851792476558
 30
0.0
 10
401.6464847217783
 20
295.9785652079624
 30
0.0
 10
401.6374487972132
 20
295.9768001382684
 30
0.0
 10
401.6281082589917
 20
295.9765600434854
 30
0.0
  0
SPLINE
  5
184
330
1F
100
AcDbEntity
  8
1
100
AcDbSpline
210
0.0
220
0.0
230
1.0
 70
     8
 71
     3
 72
    10
 73
     6
 74
     0
 42
0.000000001
 43
0.0000000001
 40
0.0
 40
0.0
 40
0.0
 40
0.0
 40
0.5439569934540011
 40
0.5439569934540011
 40
1.0
 40
1.0
 40
1.0
 40
1.0
 10
400.6653503497142
 20
296.8571146994722
 30
0.0
 10
400.6656480383263
 20
296.8513759715374
 30
0.0
 10
400.6653316296005
 20
296.8456103601273
 30
0.0
 10
400.663648472261
 20
296.8352311490875
 30
0.0
 10
400.662469890832
 20
296.8305986331365
 30
0.0
 10
400.6608750930923
 20
296.8260674018516
 30
0.0
  0
SPLINE
  5
185
330
1F
100
AcDbEntity
  8
1
100
AcDbSpline
210
0.0
220
0.0
230
1.0
 70
     9
 71
     3
 72
   166
 73
   162
 74
     0
 42
0.000000001
 43
0.0000000001
 40
0.0
 40
0.0
 40
0.0
 40
0.0
 40
0.0156249999999983
 40
0.0156249999999983
 40
0.0234374999999974
 40
0.0234374999999974
 40
0.0312499999999965
 40
0.0312499999999965
 40
0.0468749999999945
 40
0.0468749999999945
 40
0.0624999999999924
 40
0.0624999999999924
 40
0.0781249999999904
 40
0.0781249999999904
 40
0.0859374999999894
 40
0.0859374999999894
 40
0.0937499999999884
 40
0.0937499999999884
 40
0.109374999999988
 40
0.109374999999988
 40
0.1249999999999875
 40
0.1249999999999875
 40
0.140624999999987
 40
0.140624999999987
 40
0.1562499999999865
 40
0.1562499999999865
 40
0.1640624999999872
 40
0.1640624999999872
 40
0.1718749999999879
 40
0.1718749999999879
 40
0.1874999999999894
 40
0.1874999999999894
 40
0.203124999999991
 40
0.203124999999991
 40
0.2109374999999925
 40
0.2109374999999925
 40
0.2187499999999941
 40
0.2187499999999941
 40
0.2500000000000004
 40
0.2500000000000004
 40
0.2656250000000034
 40
0.2656250000000034
 40
0.2812500000000064
 40
0.2812500000000064
 40
0.2890625000000076
 40
0.2890625000000076
 40
0.2968750000000088
 40
0.2968750000000088
 40
0.3125000000000114
 40
0.3125000000000114
 40
0.3203125000000128
 40
0.3203125000000128
 40
0.3281250000000142
 40
0.3281250000000142
 40
0.3437500000000173
 40
0.3437500000000173
 40
0.3593750000000203
 40
0.3593750000000203
 40
0.3750000000000233
 40
0.3750000000000233
 40
0.3906250000000263
 40
0.3906250000000263
 40
0.3984375000000276
 40
0.3984375000000276
 40
0.406250000000029
 40
0.4140625000000302
 40
0.4140625000000302
 40
0.4218750000000315
 40
0.4218750000000315
 40
0.4375000000000331
 40
0.4375000000000331
 40
0.4531250000000349
 40
0.4531250000000349
 40
0.4687500000000365
 40
0.4687500000000365
 40
0.4765625000000379
 40
0.4765625000000379
 40
0.4843750000000391
 40
0.4921875000000405
 40
0.4921875000000405
 40
0.5000000000000419
 40
0.5000000000000419
 40
0.5156250000000432
 40
0.5156250000000432
 40
0.5312500000000446
 40
0.5312500000000446
 40
0.5468750000000461
 40
0.5468750000000461
 40
0.5625000000000475
 40
0.5625000000000475
 40
0.570312500000049
 40
0.570312500000049
 40
0.5781250000000506
 40
0.5781250000000506
 40
0.5937500000000532
 40
0.5937500000000532
 40
0.6015625000000546
 40
0.6015625000000546
 40
0.6093750000000558
 40
0.6093750000000558
 40
0.6250000000000582
 40
0.6250000000000582
 40
0.6406250000000608
 40
0.6406250000000608
 40
0.6484375000000611
 40
0.6484375000000611
 40
0.6562500000000614
 40
0.6562500000000614
 40
0.6718750000000605
 40
0.6718750000000605
 40
0.6796875000000595
 40
0.6796875000000595
 40
0.6875000000000582
 40
0.6875000000000582
 40
0.7031250000000541
 40
0.7031250000000541
 40
0.7187500000000501
 40
0.7187500000000501
 40
0.7343750000000459
 40
0.7343750000000459
 40
0.7500000000000419
 40
0.7500000000000419
 40
0.7578125000000405
 40
0.7578125000000405
 40
0.7656250000000389
 40
0.7734375000000373
 40
0.7734375000000373
 40
0.7812500000000357
 40
0.7812500000000357
 40
0.7968750000000328
 40
0.7968750000000328
 40
0.8125000000000296
 40
0.8125000000000296
 40
0.8281250000000266
 40
0.8281250000000266
 40
0.8359375000000252
 40
0.8359375000000252
 40
0.8437500000000238
 40
0.8515625000000223
 40
0.8515625000000223
 40
0.8593750000000209
 40
0.8593750000000209
 40
0.8750000000000179
 40
0.8750000000000179
 40
0.890625000000015
 40
0.890625000000015
 40
0.906250000000012
 40
0.906250000000012
 40
0.9218750000000092
 40
0.9218750000000092
 40
0.9296875000000078
 40
0.9296875000000078
 40
0.9375000000000067
 40
0.9375000000000067
 40
0.9531250000000044
 40
0.9531250000000044
 40
0.9609375000000035
 40
0.9609375000000035
 40
0.9687500000000028
 40
0.9687500000000028
 40
1.0
 40
1.0
 40
1.0
 40
1.0
 10
402.646031659894
 20
282.9671037318957
 30
0.0
 10
402.6521361617492
 20
282.9663815796645
 30
0.0
 10
402.6584402764755
 20
282.9677657448946
 30
0.0
 10
402.6681929602731
 20
282.9729707879167
 30
0.0
 10
402.6714933616096
 20
282.9752281979547
 30
0.0
 10
402.678193749876
 20
282.9807938464363
 30
0.0
 10
402.6815969008413
 20
282.9841066315328
 30
0.0
 10
402.6919048482559
 20
282.9955767052707
 30
0.0
 10
402.6989221056066
 20
283.0052704294599
 30
0.0
 10
402.7132470743941
 20
283.0287500527468
 30
0.0
 10
402.7205686787505
 20
283.0425731274978
 30
0.0
 10
402.7353569783353
 20
283.0740695017929
 30
0.0
 10
402.7428389254903
 20
283.09176127305
 30
0.0
 10
402.7541946988732
 20
283.1212399100527
 30
0.0
 10
402.7580042838591
 20
283.131564422468
 30
0.0
 10
402.7656277567169
 20
283.1530906382397
 30
0.0
 10
402.7694464447526
 20
283.1643042175281
 30
0.0
 10
402.7809233259461
 20
283.1992939244485
 30
0.0
 10
402.7886111047256
 20
283.224446726538
 30
0.0
 10
402.8040053933166
 20
283.2782755071611
 30
0.0
 10
402.8116682175358
 20
283.3067946608112
 30
0.0
 10
402.8269253533426
 20
283.3670365320746
 30
0.0
 10
402.8345397759463
 20
283.3988521026233
 30
0.0
 10
402.8495636366449
 20
283.4651635944711
 30
0.0
 10
402.8569791494462
 20
283.4996725735276
 30
0.0
 10
402.8679567711952
 20
283.5534802235258
 30
0.0
 10
402.8715964070793
 20
283.5717825275186
 30
0.0
 10
402.8787929531089
 20
283.608905044243
 30
0.0
 10
402.8823517923258
 20
283.6277333383039
 30
0.0
 10
402.8929103663718
 20
283.6850169047188
 30
0.0
 10
402.8997961055209
 20
283.7242908400847
 30
0.0
 10
402.9132336026722
 20
283.8049084304428
 30
0.0
 10
402.9197369478477
 20
283.8459594310502
 30
0.0
 10
402.9291703933221
 20
283.9086439585681
 30
0.0
 10
402.9322611817446
 20
283.9297238099208
 30
0.0
 10
402.9383344375074
 20
283.9722567495163
 30
0.0
 10
402.9413123742753
 20
283.9936807220937
 30
0.0
 10
402.9558097505533
 20
284.100839246773
 30
0.0
 10
402.9662590752251
 20
284.1873512443196
 30
0.0
 10
402.9802363018539
 20
284.3182791622993
 30
0.0
 10
402.9846124207804
 20
284.3621364179098
 30
0.0
 10
402.9927665215958
 20
284.4501739043206
 30
0.0
 10
402.9964960820815
 20
284.4938287434128
 30
0.0
 10
403.0015748112908
 20
284.5587710348733
 30
0.0
 10
403.0031816260163
 20
284.5803283035263
 30
0.0
 10
403.0062220898881
 20
284.6232614955258
 30
0.0
 10
403.0076542783653
 20
284.6446203636798
 30
0.0
 10
403.0116679895461
 20
284.7080737001527
 30
0.0
 10
403.0139755331695
 20
284.7496596727827
 30
0.0
 10
403.0168856003623
 20
284.8109664860265
 30
0.0
 10
403.0177643380165
 20
284.8312463162029
 30
0.0
 10
403.0193286862385
 20
284.8712450173555
 30
0.0
 10
403.0200153604718
 20
284.8909820794782
 30
0.0
 10
403.0217910198613
 20
284.9494122678507
 30
0.0
 10
403.0225968116812
 20
284.9873718182942
 30
0.0
 10
403.0234440858539
 20
285.0610015975276
 30
0.0
 10
403.0234842399964
 20
285.0964729018003
 30
0.0
 10
403.0228071989466
 20
285.1647620325749
 30
0.0
 10
403.0220862036657
 20
285.1976498201386
 30
0.0
 10
403.019899864545
 20
285.2601506108857
 30
0.0
 10
403.0184358479251
 20
285.2898219671318
 30
0.0
 10
403.0156848946607
 20
285.3319661580283
 30
0.0
 10
403.0146744902279
 20
285.3456246003212
 30
0.0
 10
403.0124790335267
 20
285.3720123359463
 30
0.0
 10
403.0101068344241
 20
285.3975074828459
 30
0.0
 10
403.007383491787
 20
285.421229276222
 30
0.0
 10
403.0044844837449
 20
285.4440639199445
 30
0.0
 10
403.0029449989878
 20
285.4550508015678
 30
0.0
 10
402.9980795229226
 20
285.4865552221946
 30
0.0
 10
402.9945091174209
 20
285.5056204723208
 30
0.0
 10
402.9867208049035
 20
285.5399112072602
 30
0.0
 10
402.9824935750936
 20
285.5551523176385
 30
0.0
 10
402.9734711293581
 20
285.5814973821027
 30
0.0
 10
402.9686691034042
 20
285.592643053989
 30
0.0
 10
402.9610288234127
 20
285.6063140475131
 30
0.0
 10
402.9584105357261
 20
285.6103577582238
 30
0.0
 10
402.9530539564067
 20
285.617389110167
 30
0.0
 10
402.9475713894077
 20
285.6233757076383
 30
0.0
 10
402.941837737461
 20
285.6272801799118
 30
0.0
 10
402.9359780963829
 20
285.6301398856723
 30
0.0
 10
402.9329819242081
 20
285.6310469363068
 30
0.0
 10
402.9238442622443
 20
285.6321839845052
 30
0.0
 10
402.9175454877532
 20
285.6308425750461
 30
0.0
 10
402.9045348497675
 20
285.6239701093914
 30
0.0
 10
402.8978147394392
 20
285.61842027056
 30
0.0
 10
402.8840905875064
 20
285.6032141958317
 30
0.0
 10
402.8770716028224
 20
285.5935551133367
 30
0.0
 10
402.8627167377618
 20
285.5700845223116
 30
0.0
 10
402.8554232253404
 20
285.5563394021524
 30
0.0
 10
402.844335516969
 20
285.5327691590947
 30
0.0
 10
402.8406136146974
 20
285.5244172019936
 30
0.0
 10
402.833117434429
 20
285.5067156927871
 30
0.0
 10
402.8293414343576
 20
285.4973604727495
 30
0.0
 10
402.8179916493486
 20
285.4679341341811
 30
0.0
 10
402.8103778002732
 20
285.4464643848725
 30
0.0
 10
402.798885720277
 20
285.4114690385828
 30
0.0
 10
402.7950381331184
 20
285.3993213324306
 30
0.0
 10
402.7873478651247
 20
285.3741780638683
 30
0.0
 10
402.7835056772318
 20
285.3611855602738
 30
0.0
 10
402.7719879249452
 20
285.3209492873427
 30
0.0
 10
402.7643192692663
 20
285.2924424095781
 30
0.0
 10
402.7490133954415
 20
285.2320557028944
 30
0.0
 10
402.7414328991423
 20
285.2004004859259
 30
0.0
 10
402.7301704993075
 20
285.1507312481464
 30
0.0
 10
402.7264344559511
 20
285.133809777916
 30
0.0
 10
402.7189988922122
 20
285.0992297977752
 30
0.0
 10
402.7153020872977
 20
285.0815825218453
 30
0.0
 10
402.7043253662411
 20
285.0278129137286
 30
0.0
 10
402.6971399112784
 20
284.9907776012837
 30
0.0
 10
402.6865616609576
 20
284.9334287549353
 30
0.0
 10
402.6830649563152
 20
284.91398893971
 30
0.0
 10
402.6761732536096
 20
284.8746978954598
 30
0.0
 10
402.6727751974512
 20
284.8548312458285
 30
0.0
 10
402.6627240147416
 20
284.794569764196
 30
0.0
 10
402.6562056530411
 20
284.7534625655245
 30
0.0
 10
402.6435896157506
 20
284.6696835861197
 30
0.0
 10
402.6375270614066
 20
284.6272506738102
 30
0.0
 10
402.6258909007593
 20
284.5413023886561
 30
0.0
 10
402.6203048115688
 20
284.4976753049401
 30
0.0
 10
402.6097365609889
 20
284.4101925730381
 30
0.0
 10
402.6047439810514
 20
284.3662722115502
 30
0.0
 10
402.5976944474452
 20
284.3001219368856
 30
0.0
 10
402.5954170613166
 20
284.278015389222
 30
0.0
 10
402.5910345720281
 20
284.2339576723969
 30
0.0
 10
402.5868177894911
 20
284.189995608549
 30
0.0
 10
402.5829309362668
 20
284.1462239939185
 30
0.0
 10
402.5792095239053
 20
284.102547878783
 30
0.0
 10
402.5774292390013
 20
284.0807272400936
 30
0.0
 10
402.5723592015868
 20
284.0156729196938
 30
0.0
 10
402.5693395061772
 20
283.9728593589396
 30
0.0
 10
402.5640152421973
 20
283.8883356735964
 30
0.0
 10
402.5617084823864
 20
283.8465480289766
 30
0.0
 10
402.5578601112396
 20
283.7649530357525
 30
0.0
 10
402.5563111678984
 20
283.7250490986308
 30
0.0
 10
402.5545513197914
 20
283.6665352075534
 30
0.0
 10
402.5540595124707
 20
283.6472691245664
 30
0.0
 10
402.553268864138
 20
283.6093913687334
 30
0.0
 10
402.5526695520899
 20
283.5721169237601
 30
0.0
 10
402.5524507608418
 20
283.5360423156679
 30
0.0
 10
402.5524225426602
 20
283.5005686118996
 30
0.0
 10
402.5525040858038
 20
283.4831129652861
 30
0.0
 10
402.5530335917459
 20
283.431901474446
 30
0.0
 10
402.5537647977634
 20
283.3992367539554
 30
0.0
 10
402.5559771163299
 20
283.3368344971333
 30
0.0
 10
402.5574623141423
 20
283.3070741640649
 30
0.0
 10
402.5611512981047
 20
283.2510924687193
 30
0.0
 10
402.5633568882907
 20
283.2247886974305
 30
0.0
 10
402.5684916087914
 20
283.1755615855724
 30
0.0
 10
402.5714055951211
 20
283.1527916854527
 30
0.0
 10
402.576279091903
 20
283.1214482008062
 30
0.0
 10
402.5779880005938
 20
283.1114649035016
 30
0.0
 10
402.5815751135184
 20
283.0924299903687
 30
0.0
 10
402.5834543760161
 20
283.0833760958839
 30
0.0
 10
402.5893175633926
 20
283.0577477172628
 30
0.0
 10
402.5935348226581
 20
283.0426536803658
 30
0.0
 10
402.6003213978351
 20
283.0229869373476
 30
0.0
 10
402.6026645506456
 20
283.0169193481278
 30
0.0
 10
402.6074824069052
 20
283.0058373727494
 30
0.0
 10
402.6099565417181
 20
283.0008213650976
 30
0.0
 10
402.6226487530427
 20
282.9783300283901
 30
0.0
 10
402.6338226561835
 20
282.9685480363581
 30
0.0
 10
402.646031659894
 20
282.9671037318957
 30
0.0
  0
SPLINE
  5
186
330
1F
100
AcDbEntity
  8
1
100
AcDbSpline
210
0.0
220
0.0
230
1.0
 70
     8
 71
     3
 72
    14
 73
    10
 74
     0
 42
0.000000001
 43
0.0000000001
 40
0.0
 40
0.0
 40
0.0
 40
0.0
 40
0.25
 40
0.25
 40
0.5
 40
0.5
 40
0.75
 40
0.75
 40
1.0
 40
1.0
 40
1.0
 40
1.0
 10
296.8837691816695
 20
298.7645839395882
 30
0.0
 10
296.603190438576
 20
298.7770940759803
 30
0.0
 10
296.3231640937223
 20
298.7891344337149
 30
0.0
 10
295.7638237335173
 20
298.8118130053798
 30
0.0
 10
295.4845085103782
 20
298.8224513227078
 30
0.0
 10
294.9262716623995
 20
298.8420187896122
 30
0.0
 10
294.6473491680073
 20
298.8509489911672
 30
0.0
 10
294.0896876053876
 20
298.8669328617766
 30
0.0
 10
293.8109482299769
 20
298.8739882667076
 30
0.0
 10
293.5322589432865
 20
298.880070016831
 30
0.0
  0
SPLINE
  5
18D
330
1F
100
AcDbEntity
  8
1
100
AcDbSpline
210
0.0
220
0.0
230
1.0
 70
     8
 71
     3
 72
     8
 73
     4
 74
     0
 42
0.000000001
 43
0.0000000001
 40
0.0
 40
0.0
 40
0.0
 40
0.0
 40
1.0
 40
1.0
 40
1.0
 40
1.0
 10
293.7479454454665
 20
285.1308012607137
 30
0.0
 10
293.6761360406629
 20
285.1472559809096
 30
0.0
 10
293.6042423932489
 20
285.1634575012766
 30
0.0
 10
293.5322589432653
 20
285.179385545204
 30
0.0
  0
SPLINE
  5
18E
330
1F
100
AcDbEntity
  8
1
100
AcDbSpline
210
0.0
220
0.0
230
1.0
 70
     8
 71
     3
 72
    14
 73
    10
 74
     0
 42
0.000000001
 43
0.0000000001
 40
0.0
 40
0.0
 40
0.0
 40
0.0
 40
0.2499999999999925
 40
0.2499999999999925
 40
0.3749999999999887
 40
0.3749999999999887
 40
0.4999999999999849
 40
0.4999999999999849
 40
1.0
 40
1.0
 40
1.0
 40
1.0
 10
297.9048419453178
 20
298.7412165213104
 30
0.0
 10
297.8193667783062
 20
298.7412165213103
 30
0.0
 10
297.733644005802
 20
298.7417209296491
 30
0.0
 10
297.6046801975011
 20
298.7432405003311
 30
0.0
 10
297.5615871259911
 20
298.7438750720747
 30
0.0
 10
297.4757425846174
 20
298.7453880827694
 30
0.0
 10
297.4329409349594
 20
298.7462668639301
 30
0.0
 10
297.2195303669835
 20
298.751251590631
 30
0.0
 10
297.0507092039292
 20
298.7571406014908
 30
0.0
 10
296.8837691816695
 20
298.7645839395882
 30
0.0
  0
SPLINE
  5
18F
330
1F
100
AcDbEntity
  8
1
100
AcDbSpline
210
0.0
220
0.0
230
1.0
 70
     8
 71
     3
 72
     8
 73
     4
 74
     0
 42
0.000000001
 43
0.0000000001
 40
0.0
 40
0.0
 40
0.0
 40
0.0
 40
1.0
 40
1.0
 40
1.0
 40
1.0
 10
398.7061627049993
 20
291.7845119415664
 30
0.0
 10
398.4903406615234
 20
291.7817175172698
 30
0.0
 10
398.2732290774391
 20
291.7810106532635
 30
0.0
 10
398.0548419452951
 20
291.7826415068614
 30
0.0
  0
SPLINE
  5
190
330
1F
100
AcDbEntity
  8
1
100
AcDbSpline
210
0.0
220
0.0
230
1.0
 70
     8
 71
     3
 72
     9
 73
     5
 74
     0
 42
0.000000001
 43
0.0000000001
 40
0.0
 40
0.0
 40
0.0
 40
0.0
 40
0.5
 40
1.0
 40
1.0
 40
1.0
 40
1.0
 10
398.0548419452957
 20
290.3394396565572
 30
0.0
 10
398.1723076801313
 20
290.338590367156
 30
0.0
 10
398.4064169985192
 20
290.3421182356274
 30
0.0
 10
398.6388928226561
 20
290.3559551065064
 30
0.0
 10
398.7547147798722
 20
290.3654443051413
 30
0.0
  0
SPLINE
  5
191
330
1F
100
AcDbEntity
  8
1
100
AcDbSpline
210
0.0
220
0.0
230
1.0
 70
    24
 71
     3
 72
    12
 73
     8
 74
     0
 42
0.000000001
 43
0.0000000001
 40
0.0
 40
0.0
 40
0.0
 40
0.0
 40
0.3944577806680343
 40
0.3944577806680343
 40
0.7889155613360691
 40
0.7889155613360691
 40
1.0
 40
1.0
 40
1.0
 40
1.0
 10
398.0548419452957
 20
291.7826415068614
 30
0.0
 10
398.0548419452958
 20
291.5447834226143
 30
0.0
 10
398.0548419452958
 20
291.3226063016003
 30
0.0
 10
398.0548419452957
 20
290.9165868133533
 30
0.0
 10
398.0548419452957
 20
290.7327511644472
 30
0.0
 10
398.0548419452958
 20
290.4844034704757
 30
0.0
 10
398.0548419452957
 20
290.4041508647246
 30
0.0
 10
398.0548419452957
 20
290.3305525068489
 30
0.0
  0
SPLINE
  5
192
330
1F
100
AcDbEntity
  8
1
100
AcDbSpline
210
0.0
220
0.0
230
1.0
 70
     8
 71
     3
 72
    14
 73
    10
 74
     0
 42
0.000000001
 43
0.0000000001
 40
0.0
 40
0.0
 40
0.0
 40
0.0
 40
0.25
 40
0.25
 40
0.5
 40
0.5
 40
0.75
 40
0.75
 40
1.0
 40
1.0
 40
1.0
 40
1.0
 10
395.2636192717924
 20
292.2815275231429
 30
0.0
 10
395.4883336914889
 20
292.2116039170113
 30
0.0
 10
395.7145930186479
 20
292.1483349081734
 30
0.0
 10
396.170815611186
 20
292.0356064502117
 30
0.0
 10
396.4007795683945
 20
291.9861470290265
 30
0.0
 10
396.8650815080204
 20
291.9018051959871
 30
0.0
 10
397.0994211149167
 20
291.8669233822275
 30
0.0
 10
397.5731666215532
 20
291.8127638772461
 30
0.0
 10
397.8125752030046
 20
291.7934877615346
 30
0.0
 10
398.0548419452924
 20
291.7826415068615
 30
0.0
  0
SPLINE
  5
193
330
1F
100
AcDbEntity
  8
1
100
AcDbSpline
210
0.0
220
0.0
230
1.0
 70
     8
 71
     3
 72
     8
 73
     4
 74
     0
 42
0.000000001
 43
0.0000000001
 40
0.0
 40
0.0
 40
0.0
 40
0.0
 40
1.0
 40
1.0
 40
1.0
 40
1.0
 10
395.2636192717924
 20
292.2815275231428
 30
0.0
 10
395.0212584929792
 20
292.3415531870717
 30
0.0
 10
394.7813880223243
 20
292.4087330156597
 30
0.0
 10
394.5437425214014
 20
292.4830030019958
 30
0.0
  0
SPLINE
  5
194
330
1F
100
AcDbEntity
  8
1
100
AcDbSpline
210
0.0
220
0.0
230
1.0
 70
     8
 71
     3
 72
    46
 73
    42
 74
     0
 42
0.000000001
 43
0.0000000001
 40
0.0
 40
0.0
 40
0.0
 40
0.0
 40
0.2499999999999971
 40
0.2499999999999971
 40
0.3750000000000064
 40
0.3750000000000064
 40
0.5000000000000158
 40
0.5000000000000158
 40
0.5625000000000205
 40
0.5625000000000205
 40
0.6250000000000253
 40
0.6250000000000253
 40
0.6875000000000299
 40
0.6875000000000299
 40
0.7187500000000324
 40
0.7187500000000324
 40
0.7500000000000348
 40
0.7500000000000348
 40
0.7812500000000373
 40
0.7812500000000373
 40
0.8125000000000394
 40
0.8125000000000394
 40
0.8281250000000362
 40
0.8281250000000362
 40
0.843750000000033
 40
0.843750000000033
 40
0.8593750000000298
 40
0.8593750000000298
 40
0.8750000000000264
 40
0.8750000000000264
 40
0.890625000000023
 40
0.890625000000023
 40
0.9062500000000198
 40
0.9062500000000198
 40
0.9218750000000163
 40
0.9218750000000163
 40
0.9375000000000131
 40
0.9375000000000131
 40
0.9687500000000067
 40
0.9687500000000067
 40
1.0
 40
1.0
 40
1.0
 40
1.0
 10
394.5437425214012
 20
292.4830030019955
 30
0.0
 10
394.4125528303916
 20
292.5240029642119
 30
0.0
 10
394.2845100667652
 20
292.5704256081882
 30
0.0
 10
394.0983260220926
 20
292.6505415662021
 30
0.0
 10
394.0372512048331
 20
292.6790066105601
 30
0.0
 10
393.9174686836581
 20
292.740223203216
 30
0.0
 10
393.8587492870752
 20
292.7729536484638
 30
0.0
 10
393.773002922623
 20
292.8263197184764
 30
0.0
 10
393.7448129017449
 20
292.8448262090164
 30
0.0
 10
393.6893982380797
 20
292.8836107497355
 30
0.0
 10
393.6620860135164
 20
292.9039565706775
 30
0.0
 10
393.6093740873596
 20
292.9464489877597
 30
0.0
 10
393.5839238231953
 20
292.9686068836152
 30
0.0
 10
393.5476376707368
 20
293.0037377507104
 30
0.0
 10
393.5358602121998
 20
293.0157666957632
 30
0.0
 10
393.5131016947143
 20
293.0406200086146
 30
0.0
 10
393.5020910365187
 20
293.0534772784729
 30
0.0
 10
393.4812548348991
 20
293.0800788981055
 30
0.0
 10
393.471468548803
 20
293.0937613276624
 30
0.0
 10
393.4536187356335
 20
293.1221597745087
 30
0.0
 10
393.4455406696063
 20
293.1368673058284
 30
0.0
 10
393.4353815364222
 20
293.1600944793432
 30
0.0
 10
393.4323277960046
 20
293.1680447352253
 30
0.0
 10
393.4271799272942
 20
293.1841501211213
 30
0.0
 10
393.4250692138131
 20
293.1923355435118
 30
0.0
 10
393.4220381733483
 20
293.2090450219393
 30
0.0
 10
393.421128642638
 20
293.2175981191723
 30
0.0
 10
393.4208771504653
 20
293.2345465592797
 30
0.0
 10
393.4215179450139
 20
293.2430036150272
 30
0.0
 10
393.4246605280568
 20
293.2598728132371
 30
0.0
 10
393.42721925398
 20
293.2683539389568
 30
0.0
 10
393.4341634893502
 20
293.2843367059289
 30
0.0
 10
393.4385637250762
 20
293.2919609700517
 30
0.0
 10
393.4491191924133
 20
293.3063881459644
 30
0.0
 10
393.4551063689481
 20
293.3129769868489
 30
0.0
 10
393.4682368474198
 20
293.3251350080128
 30
0.0
 10
393.4754221070777
 20
293.3307205645322
 30
0.0
 10
393.497735771586
 20
293.3457788940896
 30
0.0
 10
393.5137881855161
 20
293.353799534184
 30
0.0
 10
393.5473222068975
 20
293.3673868545405
 30
0.0
 10
393.5645651261822
 20
293.3728322440205
 30
0.0
 10
393.5820655555703
 20
293.3774052806052
 30
0.0
  0
SPLINE
  5
195
330
1F
100
AcDbEntity
  8
1
100
AcDbSpline
210
0.0
220
0.0
230
1.0
 70
     8
 71
     3
 72
    12
 73
     8
 74
     0
 42
0.000000001
 43
0.0000000001
 40
0.0
 40
0.0
 40
0.0
 40
0.0
 40
0.2655833933576464
 40
0.2655833933576464
 40
0.6327916966788232
 40
0.6327916966788232
 40
1.0
 40
1.0
 40
1.0
 40
1.0
 10
291.3385158274108
 20
299.0590962257199
 30
0.0
 10
291.528095266633
 20
299.0328333452141
 30
0.0
 10
291.7188097540607
 20
299.0090929146252
 30
0.0
 10
292.1760776115383
 20
298.9589466899894
 30
0.0
 10
292.4437258239803
 20
298.9349959396592
 30
0.0
 10
292.984067043167
 20
298.8985643276607
 30
0.0
 10
293.2567593558657
 20
298.8860821591332
 30
0.0
 10
293.5322589432865
 20
298.880070016831
 30
0.0
  0
SPLINE
  5
196
330
1F
100
AcDbEntity
  8
1
100
AcDbSpline
210
0.0
220
0.0
230
1.0
 70
     8
 71
     3
 72
    19
 73
    15
 74
     0
 42
0.000000001
 43
0.0000000001
 40
0.0
 40
0.0
 40
0.0
 40
0.0
 40
0.2500000000002333
 40
0.2500000000002333
 40
0.3750000000003499
 40
0.3750000000003499
 40
0.5000000000004665
 40
0.6250000000005831
 40
0.6250000000005831
 40
0.6875000000005464
 40
0.6875000000005464
 40
0.7500000000005098
 40
0.7500000000005098
 40
1.0
 40
1.0
 40
1.0
 40
1.0
 10
400.6838227249131
 20
294.9289384816091
 30
0.0
 10
400.6508310296551
 20
294.9203067496318
 30
0.0
 10
400.6173420945847
 20
294.9156746300662
 30
0.0
 10
400.5663704469017
 20
294.9146931607428
 30
0.0
 10
400.5492326406295
 20
294.915388086045
 30
0.0
 10
400.5155563352659
 20
294.9187633937801
 30
0.0
 10
400.4822641862096
 20
294.9241101445668
 30
0.0
 10
400.4497317739773
 20
294.9333558192176
 30
0.0
 10
400.4256261125154
 20
294.941797039142
 30
0.0
 10
400.4176342094961
 20
294.9448672518284
 30
0.0
 10
400.401965453916
 20
294.9514289034254
 30
0.0
 10
400.3942609722481
 20
294.9549292487239
 30
0.0
 10
400.3563754509376
 20
294.9735070448215
 30
0.0
 10
400.3280788374251
 20
294.9917686868054
 30
0.0
 10
400.3018465074537
 20
295.0135129856293
 30
0.0
  0
SPLINE
  5
197
330
1F
100
AcDbEntity
  8
1
100
AcDbSpline
210
0.0
220
0.0
230
1.0
 70
     8
 71
     3
 72
    18
 73
    14
 74
     0
 42
0.000000001
 43
0.0000000001
 40
0.0
 40
0.0
 40
0.0
 40
0.0
 40
0.1595697195027546
 40
0.1595697195027546
 40
0.319139439005509
 40
0.319139439005509
 40
0.4787091585082636
 40
0.4787091585082636
 40
0.6382788780110181
 40
0.6382788780110181
 40
0.9574183170167099
 40
0.9574183170167099
 40
1.0
 40
1.0
 40
1.0
 40
1.0
 10
400.3018465074537
 20
295.0135129856294
 30
0.0
 10
400.2979969628518
 20
295.0167039201843
 30
0.0
 10
400.2944938316288
 20
295.0201879092479
 30
0.0
 10
400.2881448285243
 20
295.0277112892555
 30
0.0
 10
400.2852767512259
 20
295.0317949634879
 30
0.0
 10
400.2803629454281
 20
295.0402780951359
 30
0.0
 10
400.2783070788842
 20
295.044672493911
 30
0.0
 10
400.2749606492901
 20
295.0537517705429
 30
0.0
 10
400.2736633364416
 20
295.0584825873246
 30
0.0
 10
400.2710238287995
 20
295.0727654862583
 30
0.0
 10
400.2708896950379
 20
295.0823647253461
 30
0.0
 10
400.2725148995666
 20
295.0931255093816
 30
0.0
 10
400.272732750539
 20
295.0943834616572
 30
0.0
 10
400.2729770942002
 20
295.0956326182723
 30
0.0
  0
SPLINE
  5
198
330
1F
100
AcDbEntity
  8
1
100
AcDbSpline
210
0.0
220
0.0
230
1.0
 70
     8
 71
     3
 72
    16
 73
    12
 74
     0
 42
0.000000001
 43
0.0000000001
 40
0.0
 40
0.0
 40
0.0
 40
0.0
 40
0.0474155536262387
 40
0.0474155536262387
 40
0.2855616652196791
 40
0.2855616652196791
 40
0.5237077768131194
 40
0.5237077768131194
 40
0.7618538884065597
 40
0.7618538884065597
 40
1.0
 40
1.0
 40
1.0
 40
1.0
 10
400.7329235998876
 20
294.9641059859152
 30
0.0
 10
400.7323903850528
 20
294.9633059890151
 30
0.0
 10
400.7318426615771
 20
294.9625131669683
 30
0.0
 10
400.7284558306978
 20
294.9577819974233
 30
0.0
 10
400.7252721121123
 20
294.9540470009103
 30
0.0
 10
400.7183674825093
 20
294.947221989183
 30
0.0
 10
400.7146239386773
 20
294.9440978632469
 30
0.0
 10
400.7065203823363
 20
294.9384616705883
 30
0.0
 10
400.7022231014326
 20
294.9360001318709
 30
0.0
 10
400.6933066965196
 20
294.9318806015067
 30
0.0
 10
400.6886632584361
 20
294.9302049272302
 30
0.0
 10
400.6838227249131
 20
294.9289384816091
 30
0.0
  0
SPLINE
  5
199
330
1F
100
AcDbEntity
  8
1
100
AcDbSpline
210
0.0
220
0.0
230
1.0
 70
     8
 71
     3
 72
    14
 73
    10
 74
     0
 42
0.000000001
 43
0.0000000001
 40
0.0
 40
0.0
 40
0.0
 40
0.0
 40
0.3011499971023652
 40
0.3011499971023652
 40
0.6022999942047304
 40
0.6022999942047304
 40
0.9034499913070956
 40
0.9034499913070956
 40
1.0
 40
1.0
 40
1.0
 40
1.0
 10
400.2855595953019
 20
295.1883858704246
 30
0.0
 10
400.2876754809017
 20
295.1826309853283
 30
0.0
 10
400.2891510379374
 20
295.1766692240388
 30
0.0
 10
400.2908106546575
 20
295.1647858398116
 30
0.0
 10
400.2910133023371
 20
295.1588413695255
 30
0.0
 10
400.2901985269218
 20
295.1469441344232
 30
0.0
 10
400.2891646833125
 20
295.1410076823705
 30
0.0
 10
400.2870586878057
 20
295.1335078655055
 30
0.0
 10
400.2864895844066
 20
295.1317064340598
 30
0.0
 10
400.2858620462736
 20
295.1299244986145
 30
0.0
  0
SPLINE
  5
19A
330
1F
100
AcDbEntity
  8
1
100
AcDbSpline
210
0.0
220
0.0
230
1.0
 70
     8
 71
     3
 72
    12
 73
     8
 74
     0
 42
0.000000001
 43
0.0000000001
 40
0.0
 40
0.0
 40
0.0
 40
0.0
 40
0.0747699892228001
 40
0.0747699892228001
 40
0.5373849946114
 40
0.5373849946114
 40
1.0
 40
1.0
 40
1.0
 40
1.0
 10
400.7523095810112
 20
295.0477841318393
 30
0.0
 10
400.7526281139616
 20
295.0486892086103
 30
0.0
 10
400.7529620540719
 20
295.0495903462833
 30
0.0
 10
400.7554731384673
 20
295.0560386336471
 30
0.0
 10
400.7582511588417
 20
295.0614497573875
 30
0.0
 10
400.7648055378833
 20
295.07147384234
 30
0.0
 10
400.7686002249716
 20
295.0761522668379
 30
0.0
 10
400.7729583847261
 20
295.0804694374335
 30
0.0
  0
SPLINE
  5
19B
330
1F
100
AcDbEntity
  8
1
100
AcDbSpline
210
0.0
220
0.0
230
1.0
 70
     8
 71
     3
 72
    20
 73
    16
 74
     0
 42
0.000000001
 43
0.0000000001
 40
0.0
 40
0.0
 40
0.0
 40
0.0
 40
0.2500000000004836
 40
0.2500000000004836
 40
0.3750000000004029
 40
0.3750000000004029
 40
0.5000000000003224
 40
0.5000000000003224
 40
0.6250000000002418
 40
0.6250000000002418
 40
0.7500000000001612
 40
0.7500000000001612
 40
0.8750000000000806
 40
0.8750000000000806
 40
1.0
 40
1.0
 40
1.0
 40
1.0
 10
399.9286857382037
 20
295.4411659794734
 30
0.0
 10
399.9206936765382
 20
295.4359452722779
 30
0.0
 10
399.9120948280025
 20
295.43216044988
 30
0.0
 10
399.8982907177822
 20
295.4286355632172
 30
0.0
 10
399.8935475311138
 20
295.4278388878038
 30
0.0
 10
399.8840866660722
 20
295.4270596034438
 30
0.0
 10
399.8793279416712
 20
295.4270647025547
 30
0.0
 10
399.8697527762169
 20
295.4279013746722
 30
0.0
 10
399.8649661399041
 20
295.4287384651742
 30
0.0
 10
399.8556746108782
 20
295.4312081740532
 30
0.0
 10
399.8511294591716
 20
295.4328428741106
 30
0.0
 10
399.8422537836717
 20
295.4369594631385
 30
0.0
 10
399.8379990156314
 20
295.439412371421
 30
0.0
 10
399.830014526413
 20
295.4450089629247
 30
0.0
 10
399.8262579893654
 20
295.4481643981395
 30
0.0
 10
399.8227528576768
 20
295.4517001351708
 30
0.0
  0
SPLINE
  5
19C
330
1F
100
AcDbEntity
  8
1
100
AcDbSpline
210
0.0
220
0.0
230
1.0
 70
     8
 71
     3
 72
    14
 73
    10
 74
     0
 42
0.000000001
 43
0.0000000001
 40
0.0
 40
0.0
 40
0.0
 40
0.0
 40
0.25
 40
0.25
 40
0.5
 40
0.5
 40
0.75
 40
0.75
 40
1.0
 40
1.0
 40
1.0
 40
1.0
 10
399.9286857382037
 20
295.4411659794734
 30
0.0
 10
399.9336596727827
 20
295.4444151355902
 30
0.0
 10
399.9389640436786
 20
295.4471461993982
 30
0.0
 10
399.9499580880526
 20
295.4514458023088
 30
0.0
 10
399.9556189611807
 20
295.4530142618462
 30
0.0
 10
399.9672753383947
 20
295.4549720813527
 30
0.0
 10
399.9732933234498
 20
295.455345403421
 30
0.0
 10
399.9851481173077
 20
295.4548169585403
 30
0.0
 10
399.9910499823253
 20
295.4539329733074
 30
0.0
 10
399.9969260310555
 20
295.4523750066572
 30
0.0
  0
SPLINE
  5
19D
330
1F
100
AcDbEntity
  8
1
100
AcDbSpline
210
0.0
220
0.0
230
1.0
 70
     8
 71
     3
 72
    20
 73
    16
 74
     0
 42
0.000000001
 43
0.0000000001
 40
0.0
 40
0.0
 40
0.0
 40
0.0
 40
0.1250000000000141
 40
0.1250000000000141
 40
0.250000000000028
 40
0.312500000000035
 40
0.312500000000035
 40
0.375000000000042
 40
0.375000000000042
 40
0.5000000000000561
 40
0.62500000000007
 40
0.62500000000007
 40
0.7500000000000841
 40
0.7500000000000841
 40
1.0
 40
1.0
 40
1.0
 40
1.0
 10
399.9969260310551
 20
295.4523750066576
 30
0.0
 10
400.0131570645129
 20
295.4480715350586
 30
0.0
 10
400.0291797609283
 20
295.4427869164888
 30
0.0
 10
400.0603546041729
 20
295.4303991151342
 30
0.0
 10
400.0831733420691
 20
295.419724081068
 30
0.0
 10
400.1051396432496
 20
295.4069164531558
 30
0.0
 10
400.1195891692957
 20
295.3978879690877
 30
0.0
 10
400.1267432635001
 20
295.3931092835509
 30
0.0
 10
400.1476509102159
 20
295.3781949069657
 30
0.0
 10
400.1740948934902
 20
295.3567677872319
 30
0.0
 10
400.1977503106842
 20
295.3323403876101
 30
0.0
 10
400.2199915286167
 20
295.3063918018717
 30
0.0
 10
400.2304243962006
 20
295.292599249928
 30
0.0
 10
400.2586899174946
 20
295.2501723752508
 30
0.0
 10
400.2738836651432
 20
295.2201426140133
 30
0.0
 10
400.2855595953019
 20
295.1883858704246
 30
0.0
  0
SPLINE
  5
19E
330
1F
100
AcDbEntity
  8
1
100
AcDbSpline
210
0.0
220
0.0
230
1.0
 70
     8
 71
     3
 72
    18
 73
    14
 74
     0
 42
0.000000001
 43
0.0000000001
 40
0.0
 40
0.0
 40
0.0
 40
0.0
 40
0.1250000000000018
 40
0.1250000000000018
 40
0.2500000000000036
 40
0.2500000000000036
 40
0.3750000000000053
 40
0.3750000000000053
 40
0.5000000000000071
 40
0.5000000000000071
 40
0.7500000000000036
 40
0.7500000000000036
 40
1.0
 40
1.0
 40
1.0
 40
1.0
 10
401.3029014971631
 20
295.1239759697935
 30
0.0
 10
401.2982388657508
 20
295.1222484605852
 30
0.0
 10
401.2935019620218
 20
295.1209686108917
 30
0.0
 10
401.2838879582576
 20
295.1192580637443
 30
0.0
 10
401.2789619191059
 20
295.1188304360404
 30
0.0
 10
401.2692574431818
 20
295.1188467633768
 30
0.0
 10
401.2644781928807
 20
295.1192793822416
 30
0.0
 10
401.2550602730088
 20
295.12095407562
 30
0.0
 10
401.2503791107138
 20
295.122213445475
 30
0.0
 10
401.2368935378786
 20
295.1271224071619
 30
0.0
 10
401.2286614489338
 20
295.1318425803771
 30
0.0
 10
401.213967963184
 20
295.1438947900955
 30
0.0
 10
401.2077982692876
 20
295.1509633820314
 30
0.0
 10
401.2027947472336
 20
295.1590616688354
 30
0.0
  0
SPLINE
  5
19F
330
1F
100
AcDbEntity
  8
1
100
AcDbSpline
210
0.0
220
0.0
230
1.0
 70
     8
 71
     3
 72
    20
 73
    16
 74
     0
 42
0.000000001
 43
0.0000000001
 40
0.0
 40
0.0
 40
0.0
 40
0.0
 40
0.1249999999998725
 40
0.1249999999998725
 40
0.2499999999997451
 40
0.3124999999997664
 40
0.3124999999997664
 40
0.3749999999997877
 40
0.3749999999997877
 40
0.4999999999998302
 40
0.6249999999998729
 40
0.6249999999998729
 40
0.7499999999999155
 40
0.7499999999999155
 40
1.0
 40
1.0
 40
1.0
 40
1.0
 10
400.7729583847258
 20
295.0804694374333
 30
0.0
 10
400.7849960254159
 20
295.0923938622718
 30
0.0
 10
400.7977614538651
 20
295.1036432469028
 30
0.0
 10
400.8243869665933
 20
295.1244693648334
 30
0.0
 10
400.8452410280797
 20
295.1389028477939
 30
0.0
 10
400.8674613578707
 20
295.151520306806
 30
0.0
 10
400.8825891242499
 20
295.1595156134001
 30
0.0
 10
400.8903403616028
 20
295.1633184745895
 30
0.0
 10
400.9137964094629
 20
295.1739535642787
 30
0.0
 10
400.9456330713324
 20
295.1861112452967
 30
0.0
 10
400.9785619774138
 20
295.1943323152763
 30
0.0
 10
401.0120454831715
 20
295.2005573728343
 30
0.0
 10
401.029123548205
 20
295.2026596405602
 30
0.0
 10
401.0796784400823
 20
295.2058031466996
 30
0.0
 10
401.1129727120998
 20
295.2038487222687
 30
0.0
 10
401.1459270364023
 20
295.1979712356782
 30
0.0
  0
SPLINE
  5
1A0
330
1F
100
AcDbEntity
  8
1
100
AcDbSpline
210
0.0
220
0.0
230
1.0
 70
     8
 71
     3
 72
    14
 73
    10
 74
     0
 42
0.000000001
 43
0.0000000001
 40
0.0
 40
0.0
 40
0.0
 40
0.0
 40
0.25
 40
0.25
 40
0.5
 40
0.5
 40
0.75
 40
0.75
 40
1.0
 40
1.0
 40
1.0
 40
1.0
 10
401.1459270364023
 20
295.1979712356782
 30
0.0
 10
401.1518989158678
 20
295.1969061359614
 30
0.0
 10
401.1577207036395
 20
295.195181653139
 30
0.0
 10
401.1686731300967
 20
295.1906333534607
 30
0.0
 10
401.1738326679636
 20
295.187814142935
 30
0.0
 10
401.1835387637283
 20
295.1811140283126
 30
0.0
 10
401.1880631064197
 20
295.1772271079431
 30
0.0
 10
401.1961042522893
 20
295.1687403749277
 30
0.0
 10
401.1996793307816
 20
295.1641040241338
 30
0.0
 10
401.2027947472336
 20
295.1590616688354
 30
0.0
  0
SPLINE
  5
1A1
330
1F
100
AcDbEntity
  8
1
100
AcDbSpline
210
0.0
220
0.0
230
1.0
 70
     9
 71
     3
 72
   120
 73
   116
 74
     0
 42
0.000000001
 43
0.0000000001
 40
0.0
 40
0.0
 40
0.0
 40
0.0
 40
0.0312500000000855
 40
0.0312500000000855
 40
0.046875000000121
 40
0.046875000000121
 40
0.0546875000001317
 40
0.0546875000001317
 40
0.0625000000001423
 40
0.0625000000001423
 40
0.0937500000001578
 40
0.0937500000001578
 40
0.1015625000001616
 40
0.1015625000001616
 40
0.1093750000001653
 40
0.1093750000001653
 40
0.1250000000001728
 40
0.1250000000001728
 40
0.1562500000001775
 40
0.1562500000001775
 40
0.1718750000001798
 40
0.1718750000001798
 40
0.187500000000182
 40
0.2031250000001844
 40
0.2031250000001844
 40
0.2187500000001866
 40
0.2187500000001866
 40
0.250000000000191
 40
0.250000000000191
 40
0.2578125000001918
 40
0.2578125000001918
 40
0.2656250000001926
 40
0.2656250000001926
 40
0.2812500000001963
 40
0.2812500000001963
 40
0.3125000000002036
 40
0.3125000000002036
 40
0.3281250000002045
 40
0.3281250000002045
 40
0.3437500000002054
 40
0.3437500000002054
 40
0.375000000000199
 40
0.375000000000199
 40
0.3828125000002025
 40
0.3828125000002025
 40
0.3906250000002059
 40
0.4062500000002128
 40
0.4218750000002198
 40
0.4218750000002198
 40
0.4296875000002232
 40
0.4296875000002232
 40
0.4375000000002267
 40
0.4375000000002267
 40
0.4687500000002
 40
0.4687500000002
 40
0.4843750000001791
 40
0.4843750000001791
 40
0.4921875000001689
 40
0.4921875000001689
 40
0.5000000000001583
 40
0.5000000000001583
 40
0.5312500000001467
 40
0.5312500000001467
 40
0.539062500000151
 40
0.539062500000151
 40
0.5468750000001553
 40
0.5625000000001636
 40
0.5781250000001722
 40
0.5781250000001722
 40
0.5937500000001805
 40
0.5937500000001805
 40
0.6250000000001976
 40
0.6250000000001976
 40
0.6328125000001942
 40
0.6328125000001942
 40
0.6406250000001908
 40
0.6406250000001908
 40
0.6562500000001835
 40
0.6562500000001835
 40
0.6875000000001766
 40
0.6875000000001766
 40
0.6953125000001723
 40
0.6953125000001723
 40
0.703125000000168
 40
0.7187500000001631
 40
0.7343750000001582
 40
0.7343750000001582
 40
0.7421875000001559
 40
0.7421875000001559
 40
0.7500000000001537
 40
0.7500000000001537
 40
0.7812500000001429
 40
0.7812500000001429
 40
0.7968750000001361
 40
0.7968750000001361
 40
0.8125000000001293
 40
0.8125000000001293
 40
0.8437500000001209
 40
0.8437500000001209
 40
0.8593750000001126
 40
0.8593750000001126
 40
0.8750000000001044
 40
0.8750000000001044
 40
0.9062500000000875
 40
0.9062500000000875
 40
0.9218750000000728
 40
0.9218750000000728
 40
0.9375000000000584
 40
0.953125000000044
 40
0.953125000000044
 40
0.9609375000000364
 40
0.9609375000000364
 40
0.9687500000000291
 40
0.9687500000000291
 40
1.0
 40
1.0
 40
1.0
 40
1.0
 10
401.1115316100779
 20
287.3161106208128
 30
0.0
 10
401.1703029428082
 20
287.315084763384
 30
0.0
 10
401.2279566074853
 20
287.3082145779503
 30
0.0
 10
401.3128299279135
 20
287.2895139135644
 30
0.0
 10
401.3408510884353
 20
287.2818703774553
 30
0.0
 10
401.3824679621266
 20
287.26824057196
 30
0.0
 10
401.3963101477893
 20
287.2633201752446
 30
0.0
 10
401.4236265224023
 20
287.2528291974254
 30
0.0
 10
401.4370966034489
 20
287.2472631235103
 30
0.0
 10
401.5035253308636
 20
287.2178634340705
 30
0.0
 10
401.5537457277148
 20
287.1893669869697
 30
0.0
 10
401.6128906727973
 20
287.1475924254585
 30
0.0
 10
401.6245364702635
 20
287.1389270123117
 30
0.0
 10
401.6474554514176
 20
287.1209654338687
 30
0.0
 10
401.658734223136
 20
287.1116612087377
 30
0.0
 10
401.6916324909323
 20
287.0831166518158
 30
0.0
 10
401.7124471469716
 20
287.0631477771131
 30
0.0
 10
401.7716395255683
 20
287.0005193011577
 30
0.0
 10
401.8067959564636
 20
286.955163141059
 30
0.0
 10
401.8529119220041
 20
286.8816313064676
 30
0.0
 10
401.8669564541704
 20
286.8565363990271
 30
0.0
 10
401.8923837779609
 20
286.8054249731269
 30
0.0
 10
401.9151888872793
 20
286.7533277836584
 30
0.0
 10
401.9328278350541
 20
286.6993004410929
 30
0.0
 10
401.9478507941922
 20
286.6443007007538
 30
0.0
 10
401.9540542805231
 20
286.6162320079545
 30
0.0
 10
401.9683600104344
 20
286.5322943700139
 30
0.0
 10
401.9723746887549
 20
286.4761660328543
 30
0.0
 10
401.9706561637341
 20
286.4058065541692
 30
0.0
 10
401.9699726532429
 20
286.3917245507217
 30
0.0
 10
401.9679182324232
 20
286.3635400401184
 30
0.0
 10
401.966543613971
 20
286.3494084720311
 30
0.0
 10
401.96139557883
 20
286.3071889281139
 30
0.0
 10
401.9566270940496
 20
286.2794404531443
 30
0.0
 10
401.9384484721054
 20
286.1973438935741
 30
0.0
 10
401.9212013261459
 20
286.1441348730762
 30
0.0
 10
401.88750597317
 20
286.0666108241741
 30
0.0
 10
401.8749003453818
 20
286.0410687985118
 30
0.0
 10
401.8475266936357
 20
285.9917784238346
 30
0.0
 10
401.8327182383997
 20
285.9679127813445
 30
0.0
 10
401.7849708363244
 20
285.8986102448256
 30
0.0
 10
401.7487448477146
 20
285.8554443623538
 30
0.0
 10
401.6976119417199
 20
285.8054717404383
 30
0.0
 10
401.687114681632
 20
285.7957052458504
 30
0.0
 10
401.6657578186406
 20
285.7767871940382
 30
0.0
 10
401.6331021324211
 20
285.7492615972038
 30
0.0
 10
401.5756143205382
 20
285.7075761397468
 30
0.0
 10
401.5263428006983
 20
285.6786951764064
 30
0.0
 10
401.4881156461663
 20
285.6587598495803
 30
0.0
 10
401.4751606130976
 20
285.6524028478992
 30
0.0
 10
401.4488128569221
 20
285.6402805277369
 30
0.0
 10
401.4354119886748
 20
285.6345148865648
 30
0.0
 10
401.3681230278521
 20
285.6075294546177
 30
0.0
 10
401.3127535814867
 20
285.5914759626362
 30
0.0
 10
401.2273952058984
 20
285.5756422625318
 30
0.0
 10
401.1985557026426
 20
285.5717486795027
 30
0.0
 10
401.1546907495823
 20
285.5680736699073
 30
0.0
 10
401.1400211466341
 20
285.5672167926787
 30
0.0
 10
401.1108254261266
 20
285.5662431990746
 30
0.0
 10
401.096263441432
 20
285.5661232773398
 30
0.0
 10
401.0236300700518
 20
285.5673290733629
 30
0.0
 10
400.9660832881708
 20
285.574017601788
 30
0.0
 10
400.8948560029059
 20
285.5896138101272
 30
0.0
 10
400.8806045636686
 20
285.5931103513668
 30
0.0
 10
400.8524335249508
 20
285.6007752485073
 30
0.0
 10
400.8106607562798
 20
285.6132789647599
 30
0.0
 10
400.7433881257013
 20
285.6390106781942
 30
0.0
 10
400.6920079243998
 20
285.6646918488688
 30
0.0
 10
400.6418491633066
 20
285.6929367813304
 30
0.0
 10
400.6172840532482
 20
285.7084218435792
 30
0.0
 10
400.5468738878536
 20
285.757806703533
 30
0.0
 10
400.5038655287833
 20
285.7947867868666
 30
0.0
 10
400.4548249298836
 20
285.8459406447662
 30
0.0
 10
400.4452550472926
 20
285.8564201800218
 30
0.0
 10
400.4265958037266
 20
285.8778824996192
 30
0.0
 10
400.417484706537
 20
285.8888941620011
 30
0.0
 10
400.3911042791013
 20
285.9224106625202
 30
0.0
 10
400.3747521190332
 20
285.9454214504603
 30
0.0
 10
400.3292626890466
 20
286.016394069309
 30
0.0
 10
400.3036588961636
 20
286.0662783016796
 30
0.0
 10
400.2776344432385
 20
286.1319293936753
 30
0.0
 10
400.2727218833319
 20
286.1452567846626
 30
0.0
 10
400.2635940889893
 20
286.1720007193991
 30
0.0
 10
400.2509236238593
 20
286.2123091356742
 30
0.0
 10
400.2348023575857
 20
286.2804369648275
 30
0.0
 10
400.2271648850236
 20
286.3359439573626
 30
0.0
 10
400.2234391160238
 20
286.3779583134507
 30
0.0
 10
400.2225314955651
 20
286.3920272151144
 30
0.0
 10
400.2213971806947
 20
286.4202957135703
 30
0.0
 10
400.2211711360051
 20
286.4345316376483
 30
0.0
 10
400.2217797822192
 20
286.5055738402669
 30
0.0
 10
400.227746403245
 20
286.5616290167073
 30
0.0
 10
400.2447412949043
 20
286.6445559615006
 30
0.0
 10
400.2517563306221
 20
286.6720041366496
 30
0.0
 10
400.2685714809475
 20
286.7264954974636
 30
0.0
 10
400.2784298761556
 20
286.7536467302187
 30
0.0
 10
400.3116472056261
 20
286.8327513656054
 30
0.0
 10
400.3387182102068
 20
286.8828676446075
 30
0.0
 10
400.3867168761114
 20
286.9540711459928
 30
0.0
 10
400.4039566758421
 20
286.977139352068
 30
0.0
 10
400.4410250732126
 20
287.0218772384533
 30
0.0
 10
400.4605794126968
 20
287.043210091095
 30
0.0
 10
400.5220048992176
 20
287.1039440660344
 30
0.0
 10
400.566701412881
 20
287.1402195171183
 30
0.0
 10
400.6394940925956
 20
287.1881260558776
 30
0.0
 10
400.664835961845
 20
287.2030466137123
 30
0.0
 10
400.7163710763624
 20
287.2300116466175
 30
0.0
 10
400.7689754334936
 20
287.2542716532703
 30
0.0
 10
400.8236794658865
 20
287.2732101494548
 30
0.0
 10
400.8655038783215
 20
287.2853926416673
 30
0.0
 10
400.8795783233671
 20
287.2891159668869
 30
0.0
 10
400.9079977306915
 20
287.2958756051595
 30
0.0
 10
400.9223765216165
 20
287.2989177827973
 30
0.0
 10
400.9945029351863
 20
287.3122858718646
 30
0.0
 10
401.0527602773475
 20
287.3171364782414
 30
0.0
 10
401.1115316100777
 20
287.3161106208127
 30
0.0
  0
SPLINE
  5
1A2
330
1F
100
AcDbEntity
  8
1
100
AcDbSpline
210
0.0
220
0.0
230
1.0
 70
    12
 71
     2
 72
     6
 73
     3
 74
     0
 42
0.000000001
 43
0.0000000001
 40
0.0
 40
0.0
 40
0.0
 40
1.0
 40
1.0
 40
1.0
 10
397.2907191006131
 20
298.8392905298507
 30
0.0
 41
0.5000014880647117
 10
397.4029441316377
 20
298.8390609948796
 30
0.0
 41
0.4999985119352884
 10
397.5151661705536
 20
298.8388306956992
 30
0.0
 41
0.5000014880647117
  0
SPLINE
  5
1A3
330
1F
100
AcDbEntity
  8
1
100
AcDbSpline
210
0.0
220
0.0
230
1.0
 70
     8
 71
     3
 72
    29
 73
    25
 74
     0
 42
0.000000001
 43
0.0000000001
 40
0.0
 40
0.0
 40
0.0
 40
0.0
 40
0.1250000000000581
 40
0.1250000000000581
 40
0.187500000000108
 40
0.187500000000108
 40
0.2500000000001578
 40
0.2500000000001578
 40
0.3750000000001991
 40
0.3750000000001991
 40
0.4375000000002198
 40
0.4375000000002198
 40
0.5000000000002403
 40
0.5000000000002403
 40
0.6250000000001802
 40
0.6250000000001802
 40
0.6875000000001501
 40
0.6875000000001501
 40
0.7500000000001201
 40
0.8125000000000902
 40
0.8125000000000902
 40
0.87500000000006
 40
0.87500000000006
 40
1.0
 40
1.0
 40
1.0
 40
1.0
 10
403.8378359809416
 20
298.9272681238573
 30
0.0
 10
403.8366978385891
 20
298.9528012816048
 30
0.0
 10
403.8329983679225
 20
298.977782215346
 30
0.0
 10
403.8238294289734
 20
299.0144731992415
 30
0.0
 10
403.8201649183453
 20
299.0265723994093
 30
0.0
 10
403.8116000289118
 20
299.0505043457831
 30
0.0
 10
403.8066848742113
 20
299.0623496103076
 30
0.0
 10
403.7904061803089
 20
299.0967181762552
 30
0.0
 10
403.7774411908182
 20
299.1183509832923
 30
0.0
 10
403.7548686086821
 20
299.1489073032263
 30
0.0
 10
403.746776059252
 20
299.1588217686371
 30
0.0
 10
403.7297238356703
 20
299.1777499196251
 30
0.0
 10
403.7207992506652
 20
299.186735569855
 30
0.0
 10
403.6928639299811
 20
299.2122978913915
 30
0.0
 10
403.6727030876308
 20
299.2274936917434
 30
0.0
 10
403.6400813449735
 20
299.2474292795649
 30
0.0
 10
403.6288476239323
 20
299.2535616934122
 30
0.0
 10
403.6060594267757
 20
299.2646046016465
 30
0.0
 10
403.5828420541421
 20
299.2744940787332
 30
0.0
 10
403.5587730876447
 20
299.2820948535536
 30
0.0
 10
403.5342689228514
 20
299.2885260105915
 30
0.0
 10
403.5217400802647
 20
299.2911649819271
 30
0.0
 10
403.4839442869942
 20
299.2971649283171
 30
0.0
 10
403.4585693943218
 20
299.2986416782624
 30
0.0
 10
403.4330119991116
 20
299.2975269798175
 30
0.0
  0
SPLINE
  5
1A4
330
1F
100
AcDbEntity
  8
1
100
AcDbSpline
210
0.0
220
0.0
230
1.0
 70
     8
 71
     3
 72
    29
 73
    25
 74
     0
 42
0.000000001
 43
0.0000000001
 40
0.0
 40
0.0
 40
0.0
 40
0.0
 40
0.1249999999999459
 40
0.1249999999999459
 40
0.1874999999999522
 40
0.1874999999999522
 40
0.2499999999999585
 40
0.2499999999999585
 40
0.3749999999999711
 40
0.3749999999999711
 40
0.4374999999999775
 40
0.4374999999999775
 40
0.4999999999999837
 40
0.4999999999999837
 40
0.6249999999999899
 40
0.6249999999999899
 40
0.6874999999999929
 40
0.6874999999999929
 40
0.749999999999996
 40
0.8124999999999989
 40
0.8124999999999989
 40
0.8750000000000021
 40
0.8750000000000021
 40
1.0
 40
1.0
 40
1.0
 40
1.0
 10
397.8653947443902
 20
299.0546925968451
 30
0.0
 10
397.8398349808088
 20
299.0535777951024
 30
0.0
 10
397.8148302562045
 20
299.0499039496977
 30
0.0
 10
397.7781075642004
 20
299.0407766773685
 30
0.0
 10
397.7659984630891
 20
299.0371265981136
 30
0.0
 10
397.7420480730815
 20
299.0285916737948
 30
0.0
 10
397.7301942651359
 20
299.0236920796166
 30
0.0
 10
397.6958026580967
 20
299.0074607103017
 30
0.0
 10
397.674157702601
 20
298.9945284411504
 30
0.0
 10
397.6435879119448
 20
298.9720066712342
 30
0.0
 10
397.6336697413346
 20
298.963931437619
 30
0.0
 10
397.6147359043143
 20
298.9469140009168
 30
0.0
 10
397.605748273158
 20
298.9380068248457
 30
0.0
 10
397.5801825218697
 20
298.9101237761311
 30
0.0
 10
397.5649877609278
 20
298.8899978415373
 30
0.0
 10
397.5450588823465
 20
298.8574285530787
 30
0.0
 10
397.5389295706421
 20
298.8462122608008
 30
0.0
 10
397.527894464907
 20
298.8234582089303
 30
0.0
 10
397.518014448563
 20
298.8002744306751
 30
0.0
 10
397.5104262649265
 20
298.7762380249164
 30
0.0
 10
397.5040093800237
 20
298.7517658624325
 30
0.0
 10
397.501378407533
 20
298.7392528201731
 30
0.0
 10
397.4954047104162
 20
298.7015029934364
 30
0.0
 10
397.4939483405038
 20
298.6761567515813
 30
0.0
 10
397.495086377396
 20
298.6506259597396
 30
0.0
  0
SPLINE
  5
1A5
330
1F
100
AcDbEntity
  8
1
100
AcDbSpline
210
0.0
220
0.0
230
1.0
 70
     8
 71
     3
 72
    29
 73
    25
 74
     0
 42
0.000000001
 43
0.0000000001
 40
0.0
 40
0.0
 40
0.0
 40
0.0
 40
0.1250000000000251
 40
0.1250000000000251
 40
0.1875000000000376
 40
0.1875000000000376
 40
0.2500000000000502
 40
0.2500000000000502
 40
0.3750000000000713
 40
0.3750000000000713
 40
0.4375000000000819
 40
0.4375000000000819
 40
0.5000000000000925
 40
0.5000000000000925
 40
0.6250000000001121
 40
0.6250000000001121
 40
0.6875000000000935
 40
0.6875000000000935
 40
0.7500000000000748
 40
0.8125000000000563
 40
0.8125000000000563
 40
0.8750000000000376
 40
0.8750000000000376
 40
1.0
 40
1.0
 40
1.0
 40
1.0
 10
397.7430049851144
 20
293.0888041850431
 30
0.0
 10
397.7441431274669
 20
293.0632710272955
 30
0.0
 10
397.7478425981336
 20
293.0382900935544
 30
0.0
 10
397.7570115370827
 20
293.0015991096589
 30
0.0
 10
397.7606760477107
 20
292.9894999094912
 30
0.0
 10
397.7692409371443
 20
292.9655679631173
 30
0.0
 10
397.7741560918448
 20
292.9537226985928
 30
0.0
 10
397.7904347857472
 20
292.9193541326453
 30
0.0
 10
397.8033997752379
 20
292.8977213256081
 30
0.0
 10
397.8259723573741
 20
292.8671650056741
 30
0.0
 10
397.8340649068042
 20
292.8572505402634
 30
0.0
 10
397.8511171303858
 20
292.8383223892753
 30
0.0
 10
397.860041715391
 20
292.8293367390454
 30
0.0
 10
397.8879770360752
 20
292.8037744175089
 30
0.0
 10
397.9081378784254
 20
292.788578617157
 30
0.0
 10
397.9407596210826
 20
292.7686430293355
 30
0.0
 10
397.9519933421238
 20
292.7625106154882
 30
0.0
 10
397.9747815392804
 20
292.7514677072539
 30
0.0
 10
397.9979989268295
 20
292.7415782702535
 30
0.0
 10
398.0220678784113
 20
292.7339774553468
 30
0.0
 10
398.0465720432047
 20
292.7275462983089
 30
0.0
 10
398.0591008857914
 20
292.7249073269733
 30
0.0
 10
398.096896679062
 20
292.7189073805833
 30
0.0
 10
398.1222715717344
 20
292.717430630638
 30
0.0
 10
398.1478289669445
 20
292.718545329083
 30
0.0
  0
SPLINE
  5
1A6
330
1F
100
AcDbEntity
  8
1
100
AcDbSpline
210
0.0
220
0.0
230
1.0
 70
     8
 71
     3
 72
    29
 73
    25
 74
     0
 42
0.000000001
 43
0.0000000001
 40
0.0
 40
0.0
 40
0.0
 40
0.0
 40
0.1249999999999509
 40
0.1249999999999509
 40
0.1874999999999935
 40
0.1874999999999935
 40
0.2500000000000362
 40
0.2500000000000362
 40
0.3750000000001232
 40
0.3750000000001232
 40
0.4375000000001105
 40
0.4375000000001105
 40
0.5000000000000977
 40
0.5000000000000977
 40
0.6250000000000723
 40
0.6250000000000723
 40
0.6875000000000595
 40
0.6875000000000595
 40
0.7500000000000467
 40
0.8125000000000339
 40
0.8125000000000339
 40
0.8750000000000211
 40
0.8750000000000211
 40
1.0
 40
1.0
 40
1.0
 40
1.0
 10
403.715446221666
 20
292.9613797120553
 30
0.0
 10
403.7410059852473
 20
292.962494513798
 30
0.0
 10
403.7660107098516
 20
292.9661683592028
 30
0.0
 10
403.8027334018556
 20
292.9752956315319
 30
0.0
 10
403.8148425029669
 20
292.9789457107868
 30
0.0
 10
403.8387928929746
 20
292.9874806351056
 30
0.0
 10
403.8506467009201
 20
292.9923802292839
 30
0.0
 10
403.8850383079592
 20
293.0086115985988
 30
0.0
 10
403.9066832634551
 20
293.0215438677501
 30
0.0
 10
403.9372530541113
 20
293.0440656376662
 30
0.0
 10
403.9471712247214
 20
293.0521408712815
 30
0.0
 10
403.9661050617418
 20
293.0691583079837
 30
0.0
 10
403.9750926928981
 20
293.0780654840546
 30
0.0
 10
404.0006584441866
 20
293.1059485327693
 30
0.0
 10
404.0158532051283
 20
293.126074467363
 30
0.0
 10
404.0357820837096
 20
293.1586437558217
 30
0.0
 10
404.041911395414
 20
293.1698600480996
 30
0.0
 10
404.0529465011491
 20
293.1926140999701
 30
0.0
 10
404.0628265576353
 20
293.2157978632912
 30
0.0
 10
404.0704147011296
 20
293.239834283984
 30
0.0
 10
404.0768315860324
 20
293.2643064464679
 30
0.0
 10
404.0794625585231
 20
293.2768194887273
 30
0.0
 10
404.0854362556398
 20
293.314569315464
 30
0.0
 10
404.0868926255523
 20
293.339915557319
 30
0.0
 10
404.08575458866
 20
293.3654463491608
 30
0.0
  0
SPLINE
  5
1A7
330
1F
100
AcDbEntity
  8
1
100
AcDbSpline
210
0.0
220
0.0
230
1.0
 70
     8
 71
     3
 72
    14
 73
    10
 74
     0
 42
0.000000001
 43
0.0000000001
 40
0.0
 40
0.0
 40
0.0
 40
0.0
 40
0.25
 40
0.25
 40
0.5
 40
0.5
 40
0.75
 40
0.75
 40
1.0
 40
1.0
 40
1.0
 40
1.0
 10
279.4048419452874
 20
273.1873114112265
 30
0.0
 10
279.6327789627388
 20
273.3132219316448
 30
0.0
 10
279.8631328346376
 20
273.4493142075183
 30
0.0
 10
280.3273888816804
 20
273.7367583669292
 30
0.0
 10
280.5612947485898
 20
273.8881353680763
 30
0.0
 10
281.0315862562827
 20
274.2026313974622
 30
0.0
 10
281.2679727531387
 20
274.3657612454644
 30
0.0
 10
281.7422963651634
 20
274.7012366610135
 30
0.0
 10
281.9802327901238
 20
274.8735866356842
 30
0.0
 10
282.2185504442911
 20
275.0496753628727
 30
0.0
  0
SPLINE
  5
1A8
330
1F
100
AcDbEntity
  8
1
100
AcDbSpline
210
0.0
220
0.0
230
1.0
 70
     8
 71
     3
 72
    14
 73
    10
 74
     0
 42
0.000000001
 43
0.0000000001
 40
0.0
 40
0.0
 40
0.0
 40
0.0
 40
0.2499999999999997
 40
0.2499999999999997
 40
0.4999999999999999
 40
0.4999999999999999
 40
0.75
 40
0.75
 40
1.0
 40
1.0
 40
1.0
 40
1.0
 10
282.2185504442804
 20
281.9380378460702
 30
0.0
 10
281.9760115043392
 20
281.7215186726214
 30
0.0
 10
281.7352641231772
 20
281.4999193410159
 30
0.0
 10
281.2576414013356
 20
281.0452836247572
 30
0.0
 10
281.0207657091906
 20
280.8122513153884
 30
0.0
 10
280.5512528366821
 20
280.3330681372084
 30
0.0
 10
280.3186142770239
 20
280.0869260422587
 30
0.0
 10
279.8580431744415
 20
279.5792516772094
 30
0.0
 10
279.6301072269588
 20
279.317738257201
 30
0.0
 10
279.4048419452957
 20
279.046905061989
 30
0.0
  0
SPLINE
  5
1A9
330
1F
100
AcDbEntity
  8
1
100
AcDbSpline
210
0.0
220
0.0
230
1.0
 70
     8
 71
     3
 72
    10
 73
     6
 74
     0
 42
0.000000001
 43
0.0000000001
 40
0.0
 40
0.0
 40
0.0
 40
0.0
 40
0.5
 40
0.5
 40
1.0
 40
1.0
 40
1.0
 40
1.0
 10
296.6812220672176
 20
279.1616061399767
 30
0.0
 10
296.8825548864086
 20
279.173593148521
 30
0.0
 10
297.0851953909244
 20
279.1829678105413
 30
0.0
 10
297.4930638635819
 20
279.1956183216317
 30
0.0
 10
297.698291753773
 20
279.198895119962
 30
0.0
 10
297.9048419452957
 20
279.198895119962
 30
0.0
  0
SPLINE
  5
1AA
330
1F
100
AcDbEntity
  8
1
100
AcDbSpline
210
0.0
220
0.0
230
1.0
 70
     8
 71
     3
 72
    26
 73
    22
 74
     0
 42
0.000000001
 43
0.0000000001
 40
0.0
 40
0.0
 40
0.0
 40
0.0
 40
0.0123805142225653
 40
0.0123805142225653
 40
0.0829247632066679
 40
0.0829247632066679
 40
0.1534690121907706
 40
0.1534690121907706
 40
0.2240132611748733
 40
0.2240132611748733
 40
0.294557510158976
 40
0.294557510158976
 40
0.4356460081271809
 40
0.4356460081271809
 40
0.5767345060953857
 40
0.5767345060953857
 40
0.7178230040635906
 40
0.7178230040635906
 40
0.8589115020317954
 40
0.8589115020317954
 40
1.0
 40
1.0
 40
1.0
 40
1.0
 10
334.9784384431908
 20
280.9694417345194
 30
0.0
 10
334.8260246311042
 20
280.9563347598695
 30
0.0
 10
334.6735935233847
 20
280.943359095651
 30
0.0
 10
333.6524953731727
 20
280.8573037878593
 30
0.0
 10
332.7833048985265
 20
280.7881987417618
 30
0.0
 10
331.0440231619349
 20
280.656832658851
 30
0.0
 10
330.1739320393277
 20
280.5945724788168
 30
0.0
 10
328.4330097625984
 20
280.4757909092021
 30
0.0
 10
327.5621650631177
 20
280.4192698196516
 30
0.0
 10
325.8200913259476
 20
280.3111000842744
 30
0.0
 10
324.948833787244
 20
280.2594503950885
 30
0.0
 10
322.3345328618372
 20
280.1107735276979
 30
0.0
 10
320.5909700105436
 20
280.0199512492082
 30
0.0
 10
317.1029538170537
 20
279.8513028428261
 30
0.0
 10
315.3584772406197
 20
279.7735019991133
 30
0.0
 10
311.869168780974
 20
279.6292143002243
 30
0.0
 10
310.1242969066686
 20
279.5627485304521
 30
0.0
 10
306.6340876832911
 20
279.4405389492269
 30
0.0
 10
304.8887486942109
 20
279.3848158089504
 30
0.0
 10
301.3973910644078
 20
279.2839580598087
 30
0.0
 10
299.6513699017574
 20
279.2388394912837
 30
0.0
 10
297.9048419452957
 20
279.198895119962
 30
0.0
  0
SPLINE
  5
1AB
330
1F
100
AcDbEntity
  8
1
100
AcDbSpline
210
0.0
220
0.0
230
1.0
 70
     8
 71
     3
 72
    14
 73
    10
 74
     0
 42
0.000000001
 43
0.0000000001
 40
0.0
 40
0.0
 40
0.0
 40
0.0
 40
0.25
 40
0.25
 40
0.5
 40
0.5
 40
0.75
 40
0.75
 40
1.0
 40
1.0
 40
1.0
 40
1.0
 10
293.5322589432653
 20
279.0000335444636
 30
0.0
 10
293.7939605607196
 20
279.0105667700875
 30
0.0
 10
294.0557583216966
 20
279.0219415958493
 30
0.0
 10
294.5796210614162
 20
279.0462643738587
 30
0.0
 10
294.8416862543689
 20
279.0592134132077
 30
0.0
 10
295.3662468838185
 20
279.0864868038839
 30
0.0
 10
295.6287428617848
 20
279.1008117360413
 30
0.0
 10
296.1544049323173
 20
279.1305227870038
 30
0.0
 10
296.4175717781111
 20
279.1459088568366
 30
0.0
 10
296.6812220672175
 20
279.1616061399767
 30
0.0
  0
SPLINE
  5
1AC
330
1F
100
AcDbEntity
  8
1
100
AcDbSpline
210
0.0
220
0.0
230
1.0
 70
     8
 71
     3
 72
    34
 73
    30
 74
     0
 42
0.000000001
 43
0.0000000001
 40
0.0
 40
0.0
 40
0.0
 40
0.0
 40
0.125
 40
0.125
 40
0.2499999999999999
 40
0.2499999999999999
 40
0.3124999999999997
 40
0.3124999999999997
 40
0.3749999999999994
 40
0.3749999999999994
 40
0.4062499999999993
 40
0.4218749999999993
 40
0.4218749999999993
 40
0.4374999999999993
 40
0.4374999999999993
 40
0.4999999999999992
 40
0.5624999999999988
 40
0.5624999999999988
 40
0.6249999999999984
 40
0.6249999999999984
 40
0.6874999999999982
 40
0.6874999999999982
 40
0.7187499999999982
 40
0.7187499999999982
 40
0.7499999999999986
 40
0.7499999999999986
 40
0.8749999999999992
 40
0.8749999999999992
 40
1.0
 40
1.0
 40
1.0
 40
1.0
 10
282.2185504442805
 20
281.93803784607
 30
0.0
 10
282.5792559001963
 20
282.2600465395701
 30
0.0
 10
282.9555061772233
 20
282.5629541625419
 30
0.0
 10
283.7393675929973
 20
283.1306708366744
 30
0.0
 10
284.1469707194028
 20
283.3954919168542
 30
0.0
 10
284.7831005071287
 20
283.7630236773865
 30
0.0
 10
284.9992757846172
 20
283.8805706548266
 30
0.0
 10
285.4402480965759
 20
284.1053517300423
 30
0.0
 10
285.6650443014888
 20
284.212587101367
 30
0.0
 10
286.0090686076117
 20
284.3652916780296
 30
0.0
 10
286.1827898807381
 20
284.4396047014361
 30
0.0
 10
286.3591594875326
 20
284.5107590049827
 30
0.0
 10
286.4773384098723
 20
284.557480447941
 30
0.0
 10
286.536776184151
 20
284.5805019981655
 30
0.0
 10
286.8346612038574
 20
284.6934785736996
 30
0.0
 10
287.3161992783475
 20
284.8608309229495
 30
0.0
 10
287.80777651839
 20
285.0007307566975
 30
0.0
 10
288.304520732126
 20
285.1263782825635
 30
0.0
 10
288.5554763754885
 20
285.1820767813322
 30
0.0
 10
289.0627508178906
 20
285.2784648122638
 30
0.0
 10
289.3190697200758
 20
285.3191554089796
 30
0.0
 10
289.7077525377757
 20
285.3681712208553
 30
0.0
 10
289.8380145763348
 20
285.3825043344553
 30
0.0
 10
290.0999751996705
 20
285.4070049328837
 30
0.0
 10
290.2317257344849
 20
285.4171755556837
 30
0.0
 10
290.8936274197478
 20
285.4571475247554
 30
0.0
 10
291.4227677620747
 20
285.4537639816244
 30
0.0
 10
292.4792424819539
 20
285.3730800939288
 30
0.0
 10
293.0065744905783
 20
285.295705686241
 30
0.0
 10
293.5322589432653
 20
285.1793855452049
 30
0.0
  0
SPLINE
  5
1AD
330
1F
100
AcDbEntity
  8
1
100
AcDbSpline
210
0.0
220
0.0
230
1.0
 70
     8
 71
     3
 72
    16
 73
    12
 74
     0
 42
0.000000001
 43
0.0000000001
 40
0.0
 40
0.0
 40
0.0
 40
0.0
 40
0.2500000000000197
 40
0.2500000000000197
 40
0.5000000000000395
 40
0.5000000000000395
 40
0.6250000000000484
 40
0.6250000000000484
 40
0.7500000000000573
 40
0.7500000000000573
 40
1.0
 40
1.0
 40
1.0
 40
1.0
 10
399.0812642102484
 20
292.5122726526531
 30
0.0
 10
399.0535708038427
 20
292.4821422880826
 30
0.0
 10
399.0245003651618
 20
292.453804231843
 30
0.0
 10
398.9636630511803
 20
292.400509274811
 30
0.0
 10
398.9318961721523
 20
292.3755535698264
 30
0.0
 10
398.8821723274669
 20
292.3406388658161
 30
0.0
 10
398.8653007313922
 20
292.3294589080659
 30
0.0
 10
398.8311435099139
 20
292.3081162228592
 30
0.0
 10
398.8138292529647
 20
292.2979331884628
 30
0.0
 10
398.7611537751017
 20
292.268820364808
 30
0.0
 10
398.7250641463896
 20
292.2513198256764
 30
0.0
 10
398.687886746376
 20
292.2357363481606
 30
0.0
  0
SPLINE
  5
1AE
330
1F
100
AcDbEntity
  8
1
100
AcDbSpline
210
0.0
220
0.0
230
1.0
 70
     8
 71
     3
 72
    15
 73
    11
 74
     0
 42
0.000000001
 43
0.0000000001
 40
0.0
 40
0.0
 40
0.0
 40
0.0
 40
0.1250000000000133
 40
0.1250000000000133
 40
0.18750000000002
 40
0.18750000000002
 40
0.2500000000000267
 40
0.5000000000000178
 40
0.7500000000000089
 40
1.0
 40
1.0
 40
1.0
 40
1.0
 10
395.2636192717926
 20
292.2815275231428
 30
0.0
 10
395.4038454442975
 20
292.2492259843409
 30
0.0
 10
395.5447712994766
 20
292.2192557671604
 30
0.0
 10
395.7572172810713
 20
292.1778272420952
 30
0.0
 10
395.8281438713501
 20
292.1646188670152
 30
0.0
 10
395.970037186794
 20
292.1394335972502
 30
0.0
 10
396.3250105174102
 20
292.0795243657978
 30
0.0
 10
396.9661081787259
 20
291.9989994448144
 30
0.0
 10
397.8254352893538
 20
291.9493771164103
 30
0.0
 10
398.4013520299271
 20
291.9549802982225
 30
0.0
 10
398.6900824348879
 20
291.9676382017531
 30
0.0
  0
SPLINE
  5
1AF
330
1F
100
AcDbEntity
  8
1
100
AcDbSpline
210
0.0
220
0.0
230
1.0
 70
     8
 71
     3
 72
    24
 73
    20
 74
     0
 42
0.000000001
 43
0.0000000001
 40
0.0
 40
0.0
 40
0.0
 40
0.0
 40
0.1249999999999993
 40
0.1249999999999993
 40
0.2499999999999986
 40
0.2499999999999986
 40
0.3749999999999979
 40
0.3749999999999979
 40
0.4375000000000007
 40
0.4687500000000019
 40
0.4687500000000019
 40
0.5000000000000032
 40
0.5000000000000032
 40
0.6250000000000025
 40
0.6250000000000025
 40
0.7500000000000016
 40
0.8750000000000007
 40
0.8750000000000007
 40
1.0
 40
1.0
 40
1.0
 40
1.0
 10
392.4458374241729
 20
291.6100745273264
 30
0.0
 10
392.6824558947702
 20
291.4745788425583
 30
0.0
 10
392.9234458955667
 20
291.3478644136717
 30
0.0
 10
393.4139035806444
 20
291.1119436762255
 30
0.0
 10
393.6633712527158
 20
291.0027365386566
 30
0.0
 10
394.1706425717507
 20
290.8019496618812
 30
0.0
 10
394.4284459078521
 20
290.710368734509
 30
0.0
 10
394.821392519325
 20
290.5864607447222
 30
0.0
 10
395.0194277699173
 20
290.5278751613122
 30
0.0
 10
395.2198188967987
 20
290.4744135763254
 30
0.0
 10
395.3539390543013
 20
290.4399210896563
 30
0.0
 10
395.4211551965376
 20
290.4232773832732
 30
0.0
 10
395.7573516404797
 20
290.3432150291416
 30
0.0
 10
396.0273313234298
 20
290.2890825783495
 30
0.0
 10
396.5692722957604
 20
290.2001657644154
 30
0.0
 10
397.1131950459288
 20
290.1305983164541
 30
0.0
 10
397.6610315697197
 20
290.0994094319731
 30
0.0
 10
398.2108378951053
 20
290.0875741840262
 30
0.0
 10
398.4867258391565
 20
290.0913322762582
 30
0.0
 10
398.7636249389702
 20
290.1050204521059
 30
0.0
  0
SPLINE
  5
1B0
330
1F
100
AcDbEntity
  8
1
100
AcDbSpline
210
0.0
220
0.0
230
1.0
 70
     8
 71
     3
 72
     8
 73
     4
 74
     0
 42
0.000000001
 43
0.0000000001
 40
0.0
 40
0.0
 40
0.0
 40
0.0
 40
1.0
 40
1.0
 40
1.0
 40
1.0
 10
398.6900824349093
 20
291.967638201754
 30
0.0
 10
398.6933486271677
 20
291.9677813911992
 30
0.0
 10
398.696615331681
 20
291.9679242367343
 30
0.0
 10
398.6998825489359
 20
291.9680667380324
 30
0.0
  0
SPLINE
  5
1B1
330
1F
100
AcDbEntity
  8
1
100
AcDbSpline
210
0.0
220
0.0
230
1.0
 70
     8
 71
     3
 72
    23
 73
    19
 74
     0
 42
0.000000001
 43
0.0000000001
 40
0.0
 40
0.0
 40
0.0
 40
0.0
 40
0.1250000000000042
 40
0.1250000000000042
 40
0.2500000000000085
 40
0.2500000000000085
 40
0.5000000000000171
 40
0.5000000000000171
 40
0.531250000000019
 40
0.531250000000019
 40
0.5625000000000209
 40
0.6250000000000179
 40
0.6250000000000179
 40
0.7500000000000119
 40
0.7500000000000119
 40
0.875000000000006
 40
0.875000000000006
 40
1.0
 40
1.0
 40
1.0
 40
1.0
 10
398.0548419452957
 20
290.3394396565559
 30
0.0
 10
397.8085578949031
 20
290.3466626552006
 30
0.0
 10
397.5635188587397
 20
290.3592243625998
 30
0.0
 10
397.0758397375822
 20
290.3950715211687
 30
0.0
 10
396.8331993708708
 20
290.4183595357299
 30
0.0
 10
396.108742304238
 20
290.5048532684828
 30
0.0
 10
395.6303795079831
 20
290.584603320052
 30
0.0
 10
395.0970936837269
 20
290.7022795552786
 30
0.0
 10
395.0378626707442
 20
290.7157555531778
 30
0.0
 10
394.9197990427933
 20
290.743439108367
 30
0.0
 10
394.7433094054029
 20
290.7860575412773
 30
0.0
 10
394.5685939679567
 20
290.8319777986633
 30
0.0
 10
394.2214266802042
 20
290.9282928047231
 30
0.0
 10
393.9929959737883
 20
290.9984647928723
 30
0.0
 10
393.5417225568869
 20
291.1512152520381
 30
0.0
 10
393.3188805818169
 20
291.2337931950742
 30
0.0
 10
392.8784638150164
 20
291.4119727853878
 30
0.0
 10
392.6608896290275
 20
291.5075731938737
 30
0.0
 10
392.445837424173
 20
291.6100745273264
 30
0.0
  0
SPLINE
  5
1B2
330
1F
100
AcDbEntity
  8
1
100
AcDbSpline
210
0.0
220
0.0
230
1.0
 70
     8
 71
     3
 72
    33
 73
    29
 74
     0
 42
0.000000001
 43
0.0000000001
 40
0.0
 40
0.0
 40
0.0
 40
0.0
 40
0.1250000000000632
 40
0.1250000000000632
 40
0.2500000000001263
 40
0.2500000000001263
 40
0.2812500000001499
 40
0.2812500000001499
 40
0.3125000000001734
 40
0.3125000000001734
 40
0.3750000000001892
 40
0.3750000000001892
 40
0.5000000000001898
 40
0.5000000000001898
 40
0.5312500000001974
 40
0.5312500000001974
 40
0.562500000000205
 40
0.6250000000001914
 40
0.6250000000001914
 40
0.7500000000001355
 40
0.7500000000001355
 40
0.7812500000001215
 40
0.7812500000001215
 40
0.8125000000001074
 40
0.8125000000001074
 40
0.8750000000000795
 40
0.8750000000000795
 40
1.0
 40
1.0
 40
1.0
 40
1.0
 10
398.687886746376
 20
292.2357363481606
 30
0.0
 10
398.6367419495039
 20
292.2142982219921
 30
0.0
 10
398.5845581900232
 20
292.1968943324813
 30
0.0
 10
398.4778129842023
 20
292.1700418223753
 30
0.0
 10
398.4232494206184
 20
292.1605927999451
 30
0.0
 10
398.3532779172418
 20
292.1541614319608
 30
0.0
 10
398.3391834934817
 20
292.1531474992928
 30
0.0
 10
398.3111578653554
 20
292.1516897208297
 30
0.0
 10
398.2971845415966
 20
292.1512412637439
 30
0.0
 10
398.2553814719852
 20
292.1507217798163
 30
0.0
 10
398.2276688194072
 20
292.1514755812192
 30
0.0
 10
398.144978945541
 20
292.1569528145141
 30
0.0
 10
398.0904508979044
 20
292.1648732016455
 30
0.0
 10
398.0229391719565
 20
292.1800944877597
 30
0.0
 10
398.0094391401139
 20
292.1834149055544
 30
0.0
 10
397.9827125388205
 20
292.1905378412699
 30
0.0
 10
397.94299546551
 20
292.2019504575276
 30
0.0
 10
397.9043296047834
 20
292.2154938872608
 30
0.0
 10
397.8282595604373
 20
292.2453535577135
 30
0.0
 10
397.7792186481047
 20
292.2689330111201
 30
0.0
 10
397.7197178003689
 20
292.3031428268353
 30
0.0
 10
397.7079084262063
 20
292.3102234979995
 30
0.0
 10
397.6844669134958
 20
292.3248739990663
 30
0.0
 10
397.6728107210544
 20
292.3324604969457
 30
0.0
 10
397.6383116354157
 20
292.3558333366092
 30
0.0
 10
397.6159477727989
 20
292.372218356988
 30
0.0
 10
397.5507004281399
 20
292.4237697773449
 30
0.0
 10
397.5096501243992
 20
292.4613125066736
 30
0.0
 10
397.4710271815081
 20
292.5022175917347
 30
0.0
  0
SPLINE
  5
1B3
330
1F
100
AcDbEntity
  8
1
100
AcDbSpline
210
0.0
220
0.0
230
1.0
 70
     8
 71
     3
 72
    10
 73
     6
 74
     0
 42
0.000000001
 43
0.0000000001
 40
0.0
 40
0.0
 40
0.0
 40
0.0
 40
0.5000000000000004
 40
0.5000000000000004
 40
1.0
 40
1.0
 40
1.0
 40
1.0
 10
396.1816447168776
 20
295.4386683470519
 30
0.0
 10
395.7863185507878
 20
295.9868501042518
 30
0.0
 10
395.3988426438386
 20
296.5402540555884
 30
0.0
 10
394.6464552284694
 20
297.6620723760809
 30
0.0
 10
394.2815575092779
 20
298.230495918186
 30
0.0
 10
393.9303634203179
 20
298.8080354673123
 30
0.0
  0
SPLINE
  5
1B4
330
1F
100
AcDbEntity
  8
1
100
AcDbSpline
210
0.0
220
0.0
230
1.0
 70
     8
 71
     3
 72
    41
 73
    37
 74
     0
 42
0.000000001
 43
0.0000000001
 40
0.0
 40
0.0
 40
0.0
 40
0.0
 40
0.0471175819911295
 40
0.0471175819911295
 40
0.0942351639822591
 40
0.0942351639822591
 40
0.1413527459733886
 40
0.1413527459733886
 40
0.1884703279645182
 40
0.1884703279645182
 40
0.2355879099556477
 40
0.2355879099556477
 40
0.2827054919467772
 40
0.3298230739379067
 40
0.3298230739379067
 40
0.3769406559290363
 40
0.3769406559290363
 40
0.471175819911296
 40
0.471175819911296
 40
0.5654109838935558
 40
0.5654109838935558
 40
0.6596461478758156
 40
0.6596461478758156
 40
0.7067637298669451
 40
0.7067637298669451
 40
0.7538813118580747
 40
0.7538813118580747
 40
0.8009988938492041
 40
0.8009988938492041
 40
0.8481164758403336
 40
0.8481164758403336
 40
0.8952340578314633
 40
0.8952340578314633
 40
0.9423516398225928
 40
0.9423516398225928
 40
1.0
 40
1.0
 40
1.0
 40
1.0
 10
393.9303634203179
 20
298.8080354673124
 30
0.0
 10
392.9431014771598
 20
298.8272252705476
 30
0.0
 10
391.9551914842597
 20
298.8429574199562
 30
0.0
 10
389.9782244207393
 20
298.8687646885832
 30
0.0
 10
388.9891667888252
 20
298.8788370423488
 30
0.0
 10
387.0100338494217
 20
298.8943095061732
 30
0.0
 10
386.0199581146579
 20
298.8997082005585
 30
0.0
 10
384.0389148601671
 20
298.9066143549646
 30
0.0
 10
383.0479359557482
 20
298.9081210992529
 30
0.0
 10
381.0655524449767
 20
298.9078491531287
 30
0.0
 10
380.0741023344416
 20
298.9060707192696
 30
0.0
 10
378.0907926672623
 20
298.8996665657686
 30
0.0
 10
376.1070731785694
 20
298.8904160952185
 30
0.0
 10
374.1227918588057
 20
298.8759908353287
 30
0.0
 10
372.1383846939601
 20
298.8590391319293
 30
0.0
 10
371.1461171633102
 20
298.8492971680425
 30
0.0
 10
368.1692543509883
 20
298.8162339326727
 30
0.0
 10
366.1846069348153
 20
298.7891099936035
 30
0.0
 10
362.2157710637884
 20
298.7234080612454
 30
0.0
 10
360.231660081954
 20
298.684815527208
 30
0.0
 10
356.2646439491749
 20
298.5939771435198
 30
0.0
 10
354.2817019207495
 20
298.541762055699
 30
0.0
 10
351.3084540592342
 20
298.4508322898325
 30
0.0
 10
350.3175666514057
 20
298.4184111971035
 30
0.0
 10
348.3362719357479
 20
298.3487001785079
 30
0.0
 10
347.3458811958544
 20
298.3113527843437
 30
0.0
 10
345.3655504329042
 20
298.2314128395017
 30
0.0
 10
344.3756064353195
 20
298.188831182006
 30
0.0
 10
342.3960571217269
 20
298.0983989626929
 30
0.0
 10
341.4065224563266
 20
298.0505468707
 30
0.0
 10
339.4278239920855
 20
297.9497823357358
 30
0.0
 10
338.4386535388411
 20
297.8968655305525
 30
0.0
 10
336.4604559117201
 20
297.7865575914
 30
0.0
 10
335.4714141620975
 20
297.7292226754789
 30
0.0
 10
333.2722353818885
 20
297.5975265511861
 30
0.0
 10
332.0621006469063
 20
297.5221673152152
 30
0.0
 10
330.8518725368667
 20
297.4443018476478
 30
0.0
  0
SPLINE
  5
1B5
330
1F
100
AcDbEntity
  8
1
100
AcDbSpline
210
0.0
220
0.0
230
1.0
 70
    28
 71
     4
 72
    13
 73
     8
 74
     0
 42
0.000000001
 43
0.0000000001
 40
0.0
 40
0.0
 40
0.0
 40
0.0
 40
0.0
 40
0.0426602823627411
 40
0.0426602823627411
 40
0.0426602823627411
 40
1.0
 40
1.0
 40
1.0
 40
1.0
 40
1.0
 10
297.9048419452957
 20
284.2313421199543
 30
0.0
 41
1.001480622672892
 10
297.9048419452957
 20
284.1831576635814
 30
0.0
 41
1.001520426981971
 10
297.9048419452957
 20
284.1348468670756
 30
0.0
 41
1.001548448912247
 10
297.9048419452957
 20
284.086428918371
 30
0.0
 41
1.00156323924462
 10
297.9048419452957
 20
282.9494129404652
 30
0.0
 41
1.00156323924462
 10
297.9048419452957
 20
281.6450461820849
 30
0.0
 41
0.9941148453306883
 10
297.9048419452957
 20
280.3277685787041
 30
0.0
 41
0.9968337286521366
 10
297.9048419452957
 20
279.1988951199629
 30
0.0
 41
0.9995611726959667
  0
SPLINE
  5
1B6
330
1F
100
AcDbEntity
  8
1
100
AcDbSpline
210
0.0
220
0.0
230
1.0
 70
     8
 71
     3
 72
    60
 73
    56
 74
     0
 42
0.000000001
 43
0.0000000001
 40
0.0
 40
0.0
 40
0.0
 40
0.0
 40
0.0624999999999993
 40
0.0624999999999993
 40
0.1249999999999987
 40
0.1249999999999987
 40
0.1874999999999981
 40
0.1874999999999981
 40
0.2499999999999974
 40
0.2499999999999974
 40
0.2812499999999971
 40
0.2812499999999971
 40
0.3124999999999967
 40
0.3124999999999967
 40
0.3437499999999964
 40
0.3437499999999964
 40
0.3749999999999961
 40
0.3749999999999961
 40
0.4062499999999958
 40
0.4062499999999958
 40
0.4218749999999958
 40
0.4218749999999958
 40
0.4374999999999958
 40
0.4374999999999958
 40
0.4687499999999961
 40
0.4687499999999961
 40
0.4999999999999963
 40
0.4999999999999963
 40
0.5312499999999967
 40
0.5312499999999967
 40
0.5624999999999972
 40
0.5624999999999972
 40
0.5937499999999974
 40
0.5937499999999974
 40
0.6249999999999977
 40
0.6249999999999977
 40
0.6562499999999979
 40
0.6562499999999979
 40
0.6874999999999984
 40
0.6874999999999984
 40
0.7187499999999987
 40
0.7187499999999987
 40
0.7499999999999991
 40
0.7499999999999991
 40
0.8124999999999992
 40
0.8124999999999992
 40
0.8437499999999994
 40
0.8437499999999994
 40
0.8749999999999996
 40
0.8749999999999996
 40
0.9062499999999996
 40
0.9062499999999996
 40
0.9374999999999998
 40
0.96875
 40
1.0
 40
1.0
 40
1.0
 40
1.0
 10
299.1137447868645
 20
283.9776193884774
 30
0.0
 10
300.9488241670421
 20
283.8018154590744
 30
0.0
 10
302.7847569720718
 20
283.6364900242638
 30
0.0
 10
306.4577588120419
 20
283.3207381629628
 30
0.0
 10
308.2948254671545
 20
283.1702845633017
 30
0.0
 10
311.9692625984892
 20
282.8770190659296
 30
0.0
 10
313.8066045795289
 20
282.7341729924042
 30
0.0
 10
317.4801361298946
 20
282.4486827110596
 30
0.0
 10
319.3163544237075
 20
282.3059879501445
 30
0.0
 10
322.0689130792844
 20
282.0872776512991
 30
0.0
 10
322.9861375281241
 20
282.0136088945746
 30
0.0
 10
324.8198443790383
 20
281.8641758166791
 30
0.0
 10
325.7363264780718
 20
281.7884095123046
 30
0.0
 10
327.5684107256144
 20
281.6344369488244
 30
0.0
 10
328.4840125190878
 20
281.5562287068509
 30
0.0
 10
330.3142225575196
 20
281.3973121548461
 30
0.0
 10
331.2288303962811
 20
281.316602056057
 30
0.0
 10
333.0569746620097
 20
281.1529633764282
 30
0.0
 10
333.9705106420029
 20
281.0700334918724
 30
0.0
 10
335.3399890951378
 20
280.9444779933463
 30
0.0
 10
335.7963447488035
 20
280.9024358828991
 30
0.0
 10
336.708783833119
 20
280.8180940905432
 30
0.0
 10
337.1648678189919
 20
280.7757990274717
 30
0.0
 10
338.5328414371869
 20
280.6493235651171
 30
0.0
 10
339.4443351826802
 20
280.5656036168743
 30
0.0
 10
341.2666437901742
 20
280.4026236502985
 30
0.0
 10
342.1775201985527
 20
280.3233536982797
 30
0.0
 10
343.9992720867761
 20
280.1712863702958
 30
0.0
 10
344.9101470786903
 20
280.0984798280912
 30
0.0
 10
346.7323011125939
 20
279.9603622284623
 30
0.0
 10
347.6435780763369
 20
279.8950391986169
 30
0.0
 10
349.4668269042333
 20
279.7722365980189
 30
0.0
 10
350.3787913698848
 20
279.7147217634529
 30
0.0
 10
352.203363261947
 20
279.6068407122754
 30
0.0
 10
353.1159721069455
 20
279.5564826991599
 30
0.0
 10
354.9419002345273
 20
279.4625913569706
 30
0.0
 10
355.855220765738
 20
279.4190634508562
 30
0.0
 10
357.6827008199652
 20
279.3385826268456
 30
0.0
 10
358.5968613079988
 20
279.3016326827031
 30
0.0
 10
360.4261773675017
 20
279.234007990089
 30
0.0
 10
361.3413336003007
 20
279.2033343300686
 30
0.0
 10
363.1728003620838
 20
279.1478536859909
 30
0.0
 10
364.0891731184439
 20
279.1230450378991
 30
0.0
 10
366.8398314019754
 20
279.0566364328713
 30
0.0
 10
368.6749477669764
 20
279.0230977571036
 30
0.0
 10
371.4302156432018
 20
278.9848747511921
 30
0.0
 10
372.3490688965841
 20
278.9741391416651
 30
0.0
 10
374.187717102836
 20
278.9559583810325
 30
0.0
 10
375.1075120976847
 20
278.9484982434094
 30
0.0
 10
376.9477795197147
 20
278.9359070841294
 30
0.0
 10
377.8682520040136
 20
278.9307785038437
 30
0.0
 10
379.7096111143811
 20
278.9222487838091
 30
0.0
 10
381.551384422059
 20
278.9154488339749
 30
0.0
 10
384.3144959712801
 20
278.9094249818312
 30
0.0
 10
386.1563430746505
 20
278.9079935137005
 30
0.0
 10
387.0770779352462
 20
278.9079935137005
 30
0.0
  0
SPLINE
  5
1B7
330
1F
100
AcDbEntity
  8
1
100
AcDbSpline
210
0.0
220
0.0
230
1.0
 70
     8
 71
     3
 72
    54
 73
    50
 74
     0
 42
0.000000001
 43
0.0000000001
 40
0.0
 40
0.0
 40
0.0
 40
0.0
 40
0.0625000000000002
 40
0.0625000000000002
 40
0.1250000000000003
 40
0.1250000000000003
 40
0.1875000000000004
 40
0.1875000000000004
 40
0.2500000000000006
 40
0.2500000000000006
 40
0.3125000000000007
 40
0.3125000000000007
 40
0.3750000000000008
 40
0.3750000000000008
 40
0.4062500000000008
 40
0.4062500000000008
 40
0.4375000000000007
 40
0.4375000000000007
 40
0.4687500000000006
 40
0.4687500000000006
 40
0.5000000000000004
 40
0.5000000000000004
 40
0.5312500000000002
 40
0.5312500000000002
 40
0.5625000000000001
 40
0.5625000000000001
 40
0.59375
 40
0.59375
 40
0.625
 40
0.625
 40
0.6874999999999996
 40
0.6874999999999996
 40
0.7499999999999992
 40
0.7499999999999992
 40
0.7812499999999993
 40
0.7812499999999993
 40
0.8124999999999994
 40
0.8124999999999994
 40
0.8437499999999996
 40
0.8437499999999996
 40
0.8749999999999996
 40
0.8749999999999996
 40
0.9062499999999998
 40
0.9062499999999998
 40
0.9375
 40
0.9375
 40
0.96875
 40
0.96875
 40
1.0
 40
1.0
 40
1.0
 40
1.0
 10
297.9048419452959
 20
298.7412165213104
 30
0.0
 10
299.8806733163316
 20
298.7096499952638
 30
0.0
 10
301.8553110083664
 20
298.6714160621228
 30
0.0
 10
305.8026098452866
 20
298.5788706074563
 30
0.0
 10
307.7753498818011
 20
298.5245385723226
 30
0.0
 10
311.7187557262441
 20
298.3978570558974
 30
0.0
 10
313.6894640752514
 20
298.3254908535552
 30
0.0
 10
317.6295789272705
 20
298.1621408501964
 30
0.0
 10
319.5989886470426
 20
298.0711545559275
 30
0.0
 10
323.5373017729483
 20
297.8716528666895
 30
0.0
 10
325.5062804636698
 20
297.7631560963617
 30
0.0
 10
329.4441246292187
 20
297.531158704085
 30
0.0
 10
331.4129625113789
 20
297.4077010640036
 30
0.0
 10
334.3665252963199
 20
297.213456616712
 30
0.0
 10
335.3510953118807
 20
297.1471984045804
 30
0.0
 10
337.3203768638111
 20
297.0119541193268
 30
0.0
 10
338.3050788182063
 20
296.942930233044
 30
0.0
 10
340.2744421599784
 20
296.8012939621928
 30
0.0
 10
341.2591039115866
 20
296.7286793914419
 30
0.0
 10
343.2283260807333
 20
296.5794634683376
 30
0.0
 10
344.2129036672371
 20
296.5028613537237
 30
0.0
 10
346.1819006854233
 20
296.3456970955005
 30
0.0
 10
347.1663044044374
 20
296.2651385531487
 30
0.0
 10
349.1350033087806
 20
296.1004595101977
 30
0.0
 10
350.1192998235879
 20
296.0163447415587
 30
0.0
 10
352.0879232835838
 20
295.845349994994
 30
0.0
 10
353.072250263849
 20
295.758472060422
 30
0.0
 10
355.0410174992117
 20
295.5825012843435
 30
0.0
 10
356.0254573603967
 20
295.493407497177
 30
0.0
 10
358.9790046502998
 20
295.223277482015
 30
0.0
 10
360.9483502475845
 20
295.0394717944281
 30
0.0
 10
364.8876281184044
 20
294.6647034909021
 30
0.0
 10
366.8574241095301
 20
294.4737321955352
 30
0.0
 10
369.8120575347508
 20
294.1804394806477
 30
0.0
 10
370.7969276583377
 20
294.0815214803183
 30
0.0
 10
372.7665923903813
 20
293.8809137992704
 30
0.0
 10
373.7513862911821
 20
293.779251400648
 30
0.0
 10
375.7207152729577
 20
293.5723285510343
 30
0.0
 10
376.7052526839283
 20
293.4670179826265
 30
0.0
 10
378.6739733361524
 20
293.2518526593547
 30
0.0
 10
379.6581556633754
 20
293.1419893326943
 30
0.0
 10
381.6261532493312
 20
292.9174680710086
 30
0.0
 10
382.6099734521234
 20
292.8027995556462
 30
0.0
 10
384.577243639384
 20
292.5693193606288
 30
0.0
 10
385.5607057091718
 20
292.4504974305323
 30
0.0
 10
387.5275461335321
 20
292.2105243320852
 30
0.0
 10
388.5109244465895
 20
292.0893698995184
 30
0.0
 10
390.4780286265978
 20
291.8479281811748
 30
0.0
 10
391.4617379535724
 20
291.7276530827249
 30
0.0
 10
392.4458374241729
 20
291.6100745273264
 30
0.0
  0
SPLINE
  5
1B8
330
1F
100
AcDbEntity
  8
1
100
AcDbSpline
210
0.0
220
0.0
230
1.0
 70
     8
 71
     3
 72
    55
 73
    51
 74
     0
 42
0.000000001
 43
0.0000000001
 40
0.0
 40
0.0
 40
0.0
 40
0.0
 40
0.1250000000000073
 40
0.1250000000000073
 40
0.2500000000000147
 40
0.2500000000000147
 40
0.3125000000000184
 40
0.3125000000000184
 40
0.3750000000000222
 40
0.3750000000000222
 40
0.437500000000026
 40
0.437500000000026
 40
0.5000000000000298
 40
0.5000000000000298
 40
0.5625000000000336
 40
0.5625000000000336
 40
0.5937500000000357
 40
0.5937500000000357
 40
0.6250000000000377
 40
0.6250000000000377
 40
0.6875000000000508
 40
0.6875000000000508
 40
0.7031250000000561
 40
0.7031250000000561
 40
0.7187500000000613
 40
0.7187500000000613
 40
0.7500000000000641
 40
0.7500000000000641
 40
0.7812500000000667
 40
0.7812500000000667
 40
0.7968750000000654
 40
0.7968750000000654
 40
0.8125000000000641
 40
0.8125000000000641
 40
0.8437500000000566
 40
0.8437500000000566
 40
0.8593750000000516
 40
0.8593750000000516
 40
0.8750000000000465
 40
0.9062500000000369
 40
0.9062500000000369
 40
0.9140625000000341
 40
0.9140625000000341
 40
0.9218750000000307
 40
0.9375000000000245
 40
0.9531250000000181
 40
0.9531250000000181
 40
0.968750000000012
 40
0.968750000000012
 40
1.0
 40
1.0
 40
1.0
 40
1.0
 10
393.5820655555703
 20
293.3774052806052
 30
0.0
 10
393.7352862344198
 20
293.4174433707786
 30
0.0
 10
393.8879969894099
 20
293.4597497941721
 30
0.0
 10
394.1915192912812
 20
293.5498586344824
 30
0.0
 10
394.3424025605963
 20
293.5976656748678
 30
0.0
 10
394.5670051425431
 20
293.6747766201235
 30
0.0
 10
394.6415838387709
 20
293.7013859057897
 30
0.0
 10
394.7900644488238
 20
293.7567265456232
 30
0.0
 10
394.8638681926375
 20
293.7854209161059
 30
0.0
 10
395.0103231791533
 20
293.8451887705756
 30
0.0
 10
395.0829924284851
 20
293.8762664750588
 30
0.0
 10
395.2269758571657
 20
293.9413196347051
 30
0.0
 10
395.2982918801179
 20
293.9752911474126
 30
0.0
 10
395.4392274716571
 20
294.0468619572598
 30
0.0
 10
395.5088508774644
 20
294.0844530486925
 30
0.0
 10
395.6116193794949
 20
294.1444036424642
 30
0.0
 10
395.6456031902538
 20
294.164991982441
 30
0.0
 10
395.7126019072291
 20
294.2073644217543
 30
0.0
 10
395.7456539571553
 20
294.2291687241452
 30
0.0
 10
395.8432412354319
 20
294.2967494690707
 30
0.0
 10
395.9062481780637
 20
294.3446376686716
 30
0.0
 10
395.9812471096498
 20
294.4096930669391
 30
0.0
 10
395.9960713089845
 20
294.4229839127114
 30
0.0
 10
396.0251375871877
 20
294.4500105456769
 30
0.0
 10
396.0393948445396
 20
294.463758496658
 30
0.0
 10
396.0812566120921
 20
294.5057762987678
 30
0.0
 10
396.1079579353565
 20
294.5348143007944
 30
0.0
 10
396.1583746440492
 20
294.5954298132685
 30
0.0
 10
396.1820953173143
 20
294.6270028264669
 30
0.0
 10
396.2148032834737
 20
294.6768058394539
 30
0.0
 10
396.2252594119
 20
294.6938819131009
 30
0.0
 10
396.2448426917135
 20
294.7285847573129
 30
0.0
 10
396.2539750155486
 20
294.7462085055138
 30
0.0
 10
396.2792130221469
 20
294.7999714961352
 30
0.0
 10
396.2931738698586
 20
294.8369966483323
 30
0.0
 10
396.3088848470048
 20
294.894694714766
 30
0.0
 10
396.3132411451521
 20
294.9143325788014
 30
0.0
 10
396.3198922075844
 20
294.9534739218811
 30
0.0
 10
396.3268779917958
 20
295.0123012539506
 30
0.0
 10
396.3248349405284
 20
295.071476713276
 30
0.0
 10
396.3180265468315
 20
295.1209864637267
 30
0.0
 10
396.316407127173
 20
295.1309008713066
 30
0.0
 10
396.3127049019518
 20
295.1505228675334
 30
0.0
 10
396.3064457966968
 20
295.1797326510788
 30
0.0
 10
396.2926449754503
 20
295.2273501274432
 30
0.0
 10
396.2783058418973
 20
295.2644009099541
 30
0.0
 10
396.262443883081
 20
295.3009700734125
 30
0.0
 10
396.2537300102373
 20
295.3190476208721
 30
0.0
 10
396.2257842684652
 20
295.3720534378019
 30
0.0
 10
396.2046963657296
 20
295.4059403633159
 30
0.0
 10
396.1816447168776
 20
295.4386683470519
 30
0.0
  0
SPLINE
  5
1B9
330
1F
100
AcDbEntity
  8
1
100
AcDbSpline
210
0.0
220
0.0
230
1.0
 70
    12
 71
     3
 72
    10
 73
     6
 74
     0
 42
0.000000001
 43
0.0000000001
 40
0.0
 40
0.0
 40
0.0
 40
0.0
 40
0.0000605595957709
 40
0.5199928924272382
 40
1.0
 40
1.0
 40
1.0
 40
1.0
 10
348.5855269847443
 20
296.1487379776182
 30
0.0
 41
1.001641506070654
 10
348.5864924878403
 20
296.1487585727277
 30
0.0
 41
1.001641278471669
 10
356.8929449525031
 20
296.3258845773367
 30
0.0
 41
0.999687499953516
 10
372.5795457376039
 20
295.6965052768487
 30
0.0
 41
1.004064854203394
 10
388.6455206806198
 20
295.3942788731817
 30
0.0
 41
1.000159828247038
 10
396.1816447168776
 20
295.4386683470519
 30
0.0
 41
1.001180472599835
  0
SPLINE
  5
1BA
330
1F
100
AcDbEntity
  8
1
100
AcDbSpline
210
0.0
220
0.0
230
1.0
 70
     8
 71
     3
 72
    33
 73
    29
 74
     0
 42
0.000000001
 43
0.0000000001
 40
0.0
 40
0.0
 40
0.0
 40
0.0
 40
0.0625000000000002
 40
0.0625000000000002
 40
0.1250000000000004
 40
0.1250000000000004
 40
0.1875000000000007
 40
0.1875000000000007
 40
0.2500000000000009
 40
0.2500000000000009
 40
0.3125000000000004
 40
0.3125000000000004
 40
0.375
 40
0.375
 40
0.40625
 40
0.421875
 40
0.421875
 40
0.4375
 40
0.4375
 40
0.5
 40
0.5
 40
0.625
 40
0.625
 40
0.75
 40
0.75
 40
0.875
 40
0.875
 40
1.0
 40
1.0
 40
1.0
 40
1.0
 10
293.5322589432653
 20
279.0000335444636
 30
0.0
 10
293.2554254225985
 20
278.9888912750277
 30
0.0
 10
292.9815266272783
 20
278.9709673604409
 30
0.0
 10
292.4389839599381
 20
278.9231768041137
 30
0.0
 10
292.1703407236054
 20
278.8933087493997
 30
0.0
 10
291.6378219232133
 20
278.8229193123846
 30
0.0
 10
291.3739467885762
 20
278.7823966692
 30
0.0
 10
290.8505868174019
 20
278.6916992576273
 30
0.0
 10
290.591102309938
 20
278.6415232959433
 30
0.0
 10
290.07624508212
 20
278.5322688281109
 30
0.0
 10
289.8208726479616
 20
278.4731891918368
 30
0.0
 10
289.3140508779942
 20
278.3466602172385
 30
0.0
 10
289.0626018087224
 20
278.2792098455053
 30
0.0
 10
288.6882902098047
 20
278.1720185406488
 30
0.0
 10
288.5018508304603
 20
278.116916939141
 30
0.0
 10
288.3164788931697
 20
278.0595888689962
 30
0.0
 10
288.1931345329684
 20
278.0208779273114
 30
0.0
 10
288.1315709820875
 20
278.0012729424861
 30
0.0
 10
287.8248955269951
 20
277.902203858831
 30
0.0
 10
287.5827726806795
 20
277.8194779585971
 30
0.0
 10
286.8658071390301
 20
277.5613159108237
 30
0.0
 10
286.400331061577
 20
277.3759314757615
 30
0.0
 10
285.4941616471128
 20
276.9797431212822
 30
0.0
 10
285.053482144994
 20
276.7689249208992
 30
0.0
 10
284.197731622828
 20
276.321961847643
 30
0.0
 10
283.7826657419368
 20
276.085813085629
 30
0.0
 10
282.9796887603507
 20
275.5875532975269
 30
0.0
 10
282.5917761443879
 20
275.3254452747308
 30
0.0
 10
282.2185504442911
 20
275.0496753628728
 30
0.0
  0
SPLINE
  5
1BB
330
1F
100
AcDbEntity
  8
1
100
AcDbSpline
210
0.0
220
0.0
230
1.0
 70
     8
 71
     3
 72
    57
 73
    53
 74
     0
 42
0.000000001
 43
0.0000000001
 40
0.0
 40
0.0
 40
0.0
 40
0.0
 40
0.0625000000000012
 40
0.0625000000000012
 40
0.1250000000000025
 40
0.1250000000000025
 40
0.1875000000000037
 40
0.1875000000000037
 40
0.2031250000000042
 40
0.2031250000000042
 40
0.2187500000000047
 40
0.2500000000000056
 40
0.2500000000000056
 40
0.3125000000000069
 40
0.3125000000000069
 40
0.3750000000000081
 40
0.3750000000000081
 40
0.3906250000000086
 40
0.3906250000000086
 40
0.3984375000000088
 40
0.3984375000000088
 40
0.4062500000000091
 40
0.4375000000000091
 40
0.4375000000000091
 40
0.5000000000000094
 40
0.5000000000000094
 40
0.5625000000000096
 40
0.5625000000000096
 40
0.5781250000000097
 40
0.5781250000000097
 40
0.5937500000000098
 40
0.6250000000000094
 40
0.6250000000000094
 40
0.6875000000000089
 40
0.6875000000000089
 40
0.7187500000000085
 40
0.7187500000000085
 40
0.7343750000000082
 40
0.7343750000000082
 40
0.7500000000000079
 40
0.7500000000000079
 40
0.8125000000000067
 40
0.8125000000000067
 40
0.8750000000000053
 40
0.8750000000000053
 40
0.8906250000000047
 40
0.8906250000000047
 40
0.9062500000000042
 40
0.9062500000000042
 40
0.9375000000000028
 40
0.9375000000000028
 40
1.0
 40
1.0
 40
1.0
 40
1.0
 10
279.4048419452957
 20
279.046905061989
 30
0.0
 10
279.2334572032281
 20
278.9328179018262
 30
0.0
 10
279.0700636376133
 20
278.8137138631178
 30
0.0
 10
278.7592151661534
 20
278.5661478580839
 30
0.0
 10
278.6117588184142
 20
278.4376853898826
 30
0.0
 10
278.3332957712526
 20
278.1717484976556
 30
0.0
 10
278.2022837910675
 20
278.0342755659757
 30
0.0
 10
278.049524268029
 20
277.8568063391
 30
0.0
 10
278.0194815501211
 20
277.8209757289827
 30
0.0
 10
277.9608646593935
 20
277.7491674597973
 30
0.0
 10
277.8750586153337
 20
277.6411451115115
 30
0.0
 10
277.7955833335325
 20
277.5322432194629
 30
0.0
 10
277.6450715173891
 20
277.3133815023861
 30
0.0
 10
277.5559557111458
 20
277.1660690233137
 30
0.0
 10
277.4007749362302
 20
276.8690953142201
 30
0.0
 10
277.3347033369323
 20
276.7194341621532
 30
0.0
 10
277.2674652632522
 20
276.5310580800801
 30
0.0
 10
277.2547878033097
 20
276.4933174013398
 30
0.0
 10
277.2369530263135
 20
276.4366098529546
 30
0.0
 10
277.2312020862539
 20
276.4176798994793
 30
0.0
 10
277.2201408905025
 20
276.3799362018715
 30
0.0
 10
277.1935627969582
 20
276.2857842135846
 30
0.0
 10
277.1723234912567
 20
276.1926704599361
 30
0.0
 10
277.1314414690965
 20
275.9712053098768
 30
0.0
 10
277.1176131151917
 20
275.8262389455867
 30
0.0
 10
277.1167162911031
 20
275.5417366317664
 30
0.0
 10
277.1296457085949
 20
275.4022005237145
 30
0.0
 10
277.163093909011
 20
275.2312244536879
 30
0.0
 10
277.1706671277209
 20
275.1971417075314
 30
0.0
 10
277.1874557170754
 20
275.1297601044209
 30
0.0
 10
277.2151094338506
 20
275.0297760180561
 30
0.0
 10
277.250040301581
 20
274.9329776672914
 30
0.0
 10
277.3293400681445
 20
274.7434452903966
 30
0.0
 10
277.3947631958725
 20
274.6225025478244
 30
0.0
 10
277.5112191694574
 20
274.4486218581758
 30
0.0
 10
277.5530984547554
 20
274.3919190526173
 30
0.0
 10
277.620505265223
 20
274.3086926162012
 30
0.0
 10
277.6437392610104
 20
274.28125519158
 30
0.0
 10
277.691741810375
 20
274.2269811078903
 30
0.0
 10
277.716407476177
 20
274.2002610798926
 30
0.0
 10
277.8429220983841
 20
274.0687417536608
 30
0.0
 10
277.9543641387339
 20
273.9700894950691
 30
0.0
 10
278.1964182050147
 20
273.7843147025382
 30
0.0
 10
278.3270358229537
 20
273.6971970781246
 30
0.0
 10
278.5019421823072
 20
273.5947718614352
 30
0.0
 10
278.5375067445934
 20
273.574611233107
 30
0.0
 10
278.6097997531268
 20
273.5349234083575
 30
0.0
 10
278.6465516014489
 20
273.5153842266259
 30
0.0
 10
278.7583938241225
 20
273.4577767110947
 30
0.0
 10
278.8348511605047
 20
273.4208265586216
 30
0.0
 10
279.0697569697199
 20
273.3140479572883
 30
0.0
 10
279.2337242668061
 20
273.2482796958028
 30
0.0
 10
279.4048419452818
 20
273.1873114112363
 30
0.0
  0
LINE
  5
1D6
330
1F
100
AcDbEntity
  8
SK4
100
AcDbLine
 10
214.904842
 20
288.907994
 30
0.0
 11
277.404842
 21
288.907994
 31
0.0
  0
LINE
  5
1D7
330
1F
100
AcDbEntity
  8
4
100
AcDbLine
 10
270.532259
 20
288.907994
 30
0.0
 11
408.487445
 21
288.907994
 31
0.0
  0
MTEXT
  5
1DD
330
1F
100
AcDbEntity
  8
SK6
100
AcDbMText
 10
299.563793
 20
249.353545
 30
0.0
 40
3.5
 41
0.0
 71
     7
 72
     5
  1
\W0.7240;805D-21-105-S25
  7
cesky
 73
     2
 44
0.8433729999999998
  0
MTEXT
  5
2EE
330
1F
100
AcDbEntity
  8
2
100
AcDbMText
 10
420.681869
 20
285.402835
 30
0.0
 40
3.5
 41
0.0
 71
     7
 72
     5
  1
\W0.9581;21
  7
cesky
 11
0.0000000000000001
 21
1.0
 31
0.0
 73
     2
 44
0.8433729999999998
  0
MTEXT
  5
2EF
330
1F
100
AcDbEntity
  8
2
100
AcDbMText
 10
420.681869
 20
278.665335
 30
0.0
 40
3.5
 41
0.0
 71
     7
 72
     5
  1
\W3.0115;\H2.63;%%c\H3.50;
  7
cesky
 11
0.0000000000000001
 21
1.0
 31
0.0
 73
     2
 44
0.8433729999999998
  0
LINE
  5
2F0
330
1F
100
AcDbEntity
  8
2
100
AcDbLine
 10
406.4048419999999
 20
299.407994
 30
0.0
 11
421.869286
 21
299.407994
 31
0.0
  0
LINE
  5
2F1
330
1F
100
AcDbEntity
  8
2
100
AcDbLine
 10
420.869286
 20
299.407994
 30
0.0
 11
420.869286
 21
278.507835
 31
0.0
  0
SOLID
  5
2F2
330
1F
100
AcDbEntity
  8
2
100
AcDbTrace
 10
420.869286
 20
299.407994
 30
0.0
 11
421.48643
 21
295.907996
 31
0.0
 12
420.252141
 22
295.907991
 32
0.0
 13
420.252141
 23
295.907991
 33
0.0
  0
MTEXT
  5
2F3
330
1F
100
AcDbEntity
  8
2
100
AcDbMText
 10
308.327842
 20
343.029854
 30
0.0
 40
3.5
 41
0.0
 71
     7
 72
     5
  1
\W0.7969;186
  7
cesky
 73
     2
 44
0.8433729999999998
  0
LINE
  5
2F4
330
1F
100
AcDbEntity
  8
2
100
AcDbLine
 10
404.404842
 20
301.407994
 30
0.0
 11
404.404842
 21
344.155687
 31
0.0
  0
LINE
  5
2F5
330
1F
100
AcDbEntity
  8
2
100
AcDbLine
 10
218.404842
 20
299.407994
 30
0.0
 11
218.404842
 21
344.155687
 31
0.0
  0
LINE
  5
2F6
330
1F
100
AcDbEntity
  8
2
100
AcDbLine
 10
404.404842
 20
343.155687
 30
0.0
 11
218.404842
 21
343.155687
 31
0.0
  0
SOLID
  5
2F7
330
1F
100
AcDbEntity
  8
2
100
AcDbTrace
 10
404.404842
 20
343.155687
 30
0.0
 11
400.9048439999999
 21
342.538543
 31
0.0
 12
400.90484
 22
343.772832
 32
0.0
 13
400.90484
 23
343.772832
 33
0.0
  0
SOLID
  5
2F8
330
1F
100
AcDbEntity
  8
2
100
AcDbTrace
 10
218.404842
 20
343.155687
 30
0.0
 11
221.90484
 21
343.772832
 31
0.0
 12
221.904844
 22
342.538543
 32
0.0
 13
221.904844
 23
342.538543
 33
0.0
  0
MTEXT
  5
2F9
330
1F
100
AcDbEntity
  8
2
100
AcDbMText
 10
244.590342
 20
329.044517
 30
0.0
 40
3.5
 41
0.0
 71
     7
 72
     5
  1
\W0.7259;56
  7
cesky
 73
     2
 44
0.8433729999999998
  0
LINE
  5
2FA
330
1F
100
AcDbEntity
  8
2
100
AcDbLine
 10
274.404842
 20
288.907994
 30
0.0
 11
274.404842
 21
330.17035
 31
0.0
  0
LINE
  5
2FB
330
1F
100
AcDbEntity
  8
2
100
AcDbLine
 10
218.404842
 20
299.407994
 30
0.0
 11
218.404842
 21
330.17035
 31
0.0
  0
LINE
  5
2FC
330
1F
100
AcDbEntity
  8
2
100
AcDbLine
 10
274.404842
 20
329.17035
 30
0.0
 11
218.404842
 21
329.17035
 31
0.0
  0
SOLID
  5
2FD
330
1F
100
AcDbEntity
  8
2
100
AcDbTrace
 10
274.404842
 20
329.17035
 30
0.0
 11
270.904844
 21
328.553206
 31
0.0
 12
270.90484
 22
329.7874950000001
 32
0.0
 13
270.90484
 23
329.7874950000001
 33
0.0
  0
SOLID
  5
2FE
330
1F
100
AcDbEntity
  8
2
100
AcDbTrace
 10
218.404842
 20
329.17035
 30
0.0
 11
221.90484
 21
329.7874950000001
 31
0.0
 12
221.904844
 22
328.553206
 32
0.0
 13
221.904844
 23
328.553206
 33
0.0
  0
MTEXT
  5
2FF
330
1F
100
AcDbEntity
  8
2
100
AcDbMText
 10
343.564966
 20
314.470071
 30
0.0
 40
3.5
 41
0.0
 71
     7
 72
     5
  1
\W0.9110;110,5
  7
cesky
 73
     2
 44
0.8433729999999998
  0
LINE
  5
300
330
1F
100
AcDbEntity
  8
2
100
AcDbLine
 10
404.404842
 20
301.407994
 30
0.0
 11
404.404842
 21
315.595905
 31
0.0
  0
LINE
  5
301
330
1F
100
AcDbEntity
  8
2
100
AcDbLine
 10
293.929091
 20
299.060236
 30
0.0
 11
293.929091
 21
315.595905
 31
0.0
  0
LINE
  5
302
330
1F
100
AcDbEntity
  8
2
100
AcDbLine
 10
404.404842
 20
314.595905
 30
0.0
 11
293.929091
 21
314.595905
 31
0.0
  0
SOLID
  5
303
330
1F
100
AcDbEntity
  8
2
100
AcDbTrace
 10
404.404842
 20
314.595905
 30
0.0
 11
400.9048439999999
 21
313.97876
 31
0.0
 12
400.90484
 22
315.213049
 32
0.0
 13
400.90484
 23
315.213049
 33
0.0
  0
SOLID
  5
304
330
1F
100
AcDbEntity
  8
2
100
AcDbTrace
 10
293.929091
 20
314.595905
 30
0.0
 11
297.429088
 21
315.213049
 31
0.0
 12
297.429093
 22
313.97876
 32
0.0
 13
297.429093
 23
313.97876
 33
0.0
  0
MTEXT
  5
305
330
1F
100
AcDbEntity
  8
2
100
AcDbMText
 10
336.327842
 20
329.044517
 30
0.0
 40
3.5
 41
0.0
 71
     7
 72
     5
  1
\W0.7809;130
  7
cesky
 73
     2
 44
0.8433729999999998
  0
LINE
  5
306
330
1F
100
AcDbEntity
  8
2
100
AcDbLine
 10
404.404842
 20
299.407994
 30
0.0
 11
404.404842
 21
330.17035
 31
0.0
  0
LINE
  5
307
330
1F
100
AcDbEntity
  8
2
100
AcDbLine
 10
274.404842
 20
289.907567
 30
0.0
 11
274.404842
 21
330.17035
 31
0.0
  0
LINE
  5
308
330
1F
100
AcDbEntity
  8
2
100
AcDbLine
 10
404.404842
 20
329.17035
 30
0.0
 11
274.404842
 21
329.17035
 31
0.0
  0
SOLID
  5
309
330
1F
100
AcDbEntity
  8
2
100
AcDbTrace
 10
404.404842
 20
329.17035
 30
0.0
 11
400.9048439999999
 21
328.553206
 31
0.0
 12
400.90484
 22
329.7874950000001
 32
0.0
 13
400.90484
 23
329.7874950000001
 33
0.0
  0
SOLID
  5
30A
330
1F
100
AcDbEntity
  8
2
100
AcDbTrace
 10
274.404842
 20
329.17035
 30
0.0
 11
277.90484
 21
329.7874950000001
 31
0.0
 12
277.904844
 22
328.553206
 32
0.0
 13
277.904844
 23
328.553206
 33
0.0
  0
MTEXT
  5
30B
330
1F
100
AcDbEntity
  8
SK2
100
AcDbMText
 10
205.76788
 20
290.434244
 30
0.0
 40
3.5
 41
0.0
 71
     7
 72
     5
  1
\W0.7045;25
  7
cesky
 11
0.0000000000000001
 21
1.0
 31
0.0
 73
     2
 44
0.8433729999999998
  0
MTEXT
  5
30C
330
1F
100
AcDbEntity
  8
SK2
100
AcDbMText
 10
205.76788
 20
283.696744
 30
0.0
 40
3.5
 41
0.0
 71
     7
 72
     5
  1
\W3.0115;\H2.63;%%c\H3.50;
  7
cesky
 11
0.0000000000000001
 21
1.0
 31
0.0
 73
     2
 44
0.8433729999999998
  0
LINE
  5
30D
330
1F
100
AcDbEntity
  8
SK2
100
AcDbLine
 10
220.404842
 20
301.407994
 30
0.0
 11
204.955296
 21
301.407994
 31
0.0
  0
LINE
  5
30E
330
1F
100
AcDbEntity
  8
SK2
100
AcDbLine
 10
220.404842
 20
276.407994
 30
0.0
 11
204.955296
 21
276.407994
 31
0.0
  0
LINE
  5
30F
330
1F
100
AcDbEntity
  8
SK2
100
AcDbLine
 10
205.955296
 20
301.407994
 30
0.0
 11
205.955296
 21
276.407994
 31
0.0
  0
SOLID
  5
310
330
1F
100
AcDbEntity
  8
SK2
100
AcDbTrace
 10
205.955296
 20
301.407994
 30
0.0
 11
206.572441
 21
297.9079959999999
 31
0.0
 12
205.338152
 22
297.907991
 32
0.0
 13
205.338152
 23
297.907991
 33
0.0
  0
SOLID
  5
311
330
1F
100
AcDbEntity
  8
SK2
100
AcDbTrace
 10
205.955296
 20
276.407994
 30
0.0
 11
205.338152
 21
279.9079910000001
 31
0.0
 12
206.572441
 22
279.907996
 32
0.0
 13
206.572441
 23
279.907996
 33
0.0
  0
MTEXT
  5
312
330
1F
100
AcDbEntity
  8
SK2
100
AcDbMText
 10
189.956072
 20
290.434244
 30
0.0
 40
3.5
 41
0.0
 71
     7
 72
     5
  1
\W0.7045;35
  7
cesky
 11
0.0000000000000001
 21
1.0
 31
0.0
 73
     2
 44
0.8433729999999998
  0
MTEXT
  5
313
330
1F
100
AcDbEntity
  8
SK2
100
AcDbMText
 10
189.956072
 20
283.696744
 30
0.0
 40
3.5
 41
0.0
 71
     7
 72
     5
  1
\W3.0115;\H2.63;%%c\H3.50;
  7
cesky
 11
0.0000000000000001
 21
1.0
 31
0.0
 73
     2
 44
0.8433729999999998
  0
LINE
  5
314
330
1F
100
AcDbEntity
  8
SK2
100
AcDbLine
 10
274.904842
 20
306.407994
 30
0.0
 11
189.143489
 21
306.407994
 31
0.0
  0
LINE
  5
315
330
1F
100
AcDbEntity
  8
SK2
100
AcDbLine
 10
274.904842
 20
271.407994
 30
0.0
 11
189.143489
 21
271.407994
 31
0.0
  0
LINE
  5
316
330
1F
100
AcDbEntity
  8
SK2
100
AcDbLine
 10
190.143489
 20
306.407994
 30
0.0
 11
190.143489
 21
271.407994
 31
0.0
  0
SOLID
  5
317
330
1F
100
AcDbEntity
  8
SK2
100
AcDbTrace
 10
190.143489
 20
306.407994
 30
0.0
 11
190.760634
 21
302.907996
 31
0.0
 12
189.526345
 22
302.907991
 32
0.0
 13
189.526345
 23
302.907991
 33
0.0
  0
SOLID
  5
318
330
1F
100
AcDbEntity
  8
SK2
100
AcDbTrace
 10
190.143489
 20
271.407994
 30
0.0
 11
189.526345
 21
274.907991
 31
0.0
 12
190.760634
 22
274.9079959999999
 32
0.0
 13
190.760634
 23
274.9079959999999
 33
0.0
  0
LINE
  5
31A
330
1F
100
AcDbEntity
  8
CUT
100
AcDbLine
 10
404.3331914855817
 20
293.5853796796542
 30
0.0
 11
404.4046674212314
 21
289.4979933061184
 31
0.0
  0
LINE
  5
31C
330
1F
100
AcDbEntity
  8
CUT
100
AcDbLine
 10
404.0627007918997
 20
294.0354579296258
 30
0.0
 11
404.3331914855816
 21
293.5853796796542
 31
0.0
  0
LINE
  5
31D
330
1F
100
AcDbEntity
  8
CUT
100
AcDbLine
 10
397.8653947443902
 20
299.1496210015422
 30
0.0
 11
403.4330119991116
 21
299.4053177392462
 31
0.0
  0
LINE
  5
31E
330
1F
100
AcDbEntity
  8
CUT
100
AcDbLine
 10
403.8378359809416
 20
299.0373283084515
 30
0.0
 11
404.0627007918997
 21
294.0354579296258
 31
0.0
  0
LINE
  5
31F
330
1F
100
AcDbEntity
  8
CUT
100
AcDbLine
 10
397.495086
 20
288.907994
 30
0.0
 11
397.495086
 21
298.745737
 31
0.0
  0
LINE
  5
320
330
1F
100
AcDbEntity
  8
CUT
100
AcDbLine
 10
404.404667
 20
288.907994
 30
0.0
 11
397.495086
 21
288.907994
 31
0.0
  0
LINE
  5
321
330
1F
100
AcDbEntity
  8
CUT
100
AcDbLine
 10
404.404667
 20
289.497993
 30
0.0
 11
404.404667
 21
288.907994
 31
0.0
  0
ARC
  5
322
330
1F
100
AcDbEntity
  8
CUT
100
AcDbCircle
 10
403.4483605365168
 20
299.01525417602
 30
0.0
 40
0.3903654197763843
100
AcDbArc
 50
7.413258554891262
 51
92.25335829575151
  0
ARC
  5
323
330
1F
100
AcDbEntity
  8
CUT
100
AcDbCircle
 10
403.4715087384649
 20
299.0208497938859
 30
0.0
 40
0.3666976820528767
100
AcDbArc
 50
2.575602301037092
 51
7.012924866831683
  0
LINE
  5
324
330
1F
100
AcDbEntity
  8
CUT
100
AcDbLine
 10
397.4950863773961
 20
298.7457366214709
 30
0.0
 11
397.4950863773961
 21
298.7457366214709
 31
0.0
  0
ARC
  5
325
330
1F
100
AcDbEntity
  8
CUT
100
AcDbCircle
 10
397.8860461501633
 20
298.7589824037192
 30
0.0
 40
0.3911840930681383
100
AcDbArc
 50
93.02616777454856
 51
181.9404483264015
  0
ENDSEC
  0
SECTION
  2
OBJECTS
  0
DICTIONARY
  5
C
330
0
100
AcDbDictionary
281
     1
  3
ACAD_CIP_PREVIOUS_PRODUCT_INFO
350
2EB
  3
ACAD_COLOR
350
2E6
  3
ACAD_DETAILVIEWSTYLE
350
2E2
  3
ACAD_GROUP
350
D
  3
ACAD_LAYOUT
350
1A
  3
ACAD_MATERIAL
350
43
  3
ACAD_MLEADERSTYLE
350
6B
  3
ACAD_MLINESTYLE
350
17
  3
ACAD_PLOTSETTINGS
350
19
  3
ACAD_PLOTSTYLENAME
350
E
  3
ACAD_SCALELIST
350
47
  3
ACAD_SECTIONVIEWSTYLE
350
2E3
  3
ACAD_TABLESTYLE
350
69
  3
ACAD_VISUALSTYLE
350
2A
  3
ACDB_RECOMPOSE_DATA
350
351
  3
AcDbVariableDictionary
350
29F
  0
DICTIONARY
  5
334
330
10
100
AcDbDictionary
280
     1
281
     1
  3
ADSK_XREC_LAYER_RECONCILED
360
335
  0
DICTIONARY
  5
336
330
326
100
AcDbDictionary
280
     1
281
     1
  3
ADSK_XREC_LAYER_RECONCILED
360
337
  0
DICTIONARY
  5
338
330
327
100
AcDbDictionary
280
     1
281
     1
  3
ADSK_XREC_LAYER_RECONCILED
360
339
  0
DICTIONARY
  5
33A
330
328
100
AcDbDictionary
280
     1
281
     1
  3
ADSK_XREC_LAYER_RECONCILED
360
33B
  0
DICTIONARY
  5
33C
330
32A
100
AcDbDictionary
280
     1
281
     1
  3
ADSK_XREC_LAYER_RECONCILED
360
33D
  0
DICTIONARY
  5
33E
330
32B
100
AcDbDictionary
280
     1
281
     1
  3
ADSK_XREC_LAYER_RECONCILED
360
33F
  0
DICTIONARY
  5
340
330
32D
100
AcDbDictionary
280
     1
281
     1
  3
ADSK_XREC_LAYER_RECONCILED
360
341
  0
DICTIONARY
  5
342
330
32E
100
AcDbDictionary
280
     1
281
     1
  3
ADSK_XREC_LAYER_RECONCILED
360
343
  0
DICTIONARY
  5
344
330
32F
100
AcDbDictionary
280
     1
281
     1
  3
ADSK_XREC_LAYER_RECONCILED
360
345
  0
DICTIONARY
  5
346
330
330
100
AcDbDictionary
280
     1
281
     1
  3
ADSK_XREC_LAYER_RECONCILED
360
347
  0
DICTIONARY
  5
348
330
331
100
AcDbDictionary
280
     1
281
     1
  3
ADSK_XREC_LAYER_RECONCILED
360
349
  0
DICTIONARY
  5
34A
330
332
100
AcDbDictionary
280
     1
281
     1
  3
ADSK_XREC_LAYER_RECONCILED
360
34B
  0
DICTIONARY
  5
2EC
330
1F
100
AcDbDictionary
280
     1
281
     1
  3
ACAD_SORTENTS
360
2ED
  0
XRECORD
  5
2EB
102
{ACAD_REACTORS
330
C
102
}
330
C
100
AcDbXrecord
280
     1
300
ACD
300
2019
300
87084ACD_2019_0F
  0
DICTIONARY
  5
2E6
102
{ACAD_REACTORS
330
C
102
}
330
C
100
AcDbDictionary
281
     1
  0
DICTIONARY
  5
2E2
102
{ACAD_REACTORS
330
C
102
}
330
C
100
AcDbDictionary
281
     1
  3
Metric50
350
2E8
  0
DICTIONARY
  5
D
102
{ACAD_REACTORS
330
C
102
}
330
C
100
AcDbDictionary
281
     1
  3
NULOVY_BOD
350
333
  0
DICTIONARY
  5
1A
102
{ACAD_REACTORS
330
C
102
}
330
C
100
AcDbDictionary
281
     1
  3
Layout1
350
1E
  3
Layout2
350
26
  3
Model
350
22
  0
DICTIONARY
  5
43
102
{ACAD_REACTORS
330
C
102
}
330
C
100
AcDbDictionary
281
     1
  3
ByBlock
350
45
  3
ByLayer
350
44
  3
Global
350
46
  0
DICTIONARY
  5
6B
102
{ACAD_REACTORS
330
C
102
}
330
C
100
AcDbDictionary
281
     1
  3
Standard
350
6C
  0
DICTIONARY
  5
17
102
{ACAD_REACTORS
330
C
102
}
330
C
100
AcDbDictionary
281
     1
  3
Standard
350
18
  0
DICTIONARY
  5
19
102
{ACAD_REACTORS
330
C
102
}
330
C
100
AcDbDictionary
281
     1
  0
ACDBDICTIONARYWDFLT
  5
E
102
{ACAD_REACTORS
330
C
102
}
330
C
100
AcDbDictionary
281
     1
  3
Normal
350
F
100
AcDbDictionaryWithDefault
340
F
  0
DICTIONARY
  5
47
102
{ACAD_REACTORS
330
C
102
}
330
C
100
AcDbDictionary
281
     1
  3
A0
350
48
  3
A1
350
49
  3
A2
350
4A
  3
A3
350
4B
  3
A4
350
4C
  3
A5
350
4D
  3
A6
350
4E
  3
A7
350
4F
  3
A8
350
50
  3
A9
350
51
  3
B0
350
52
  3
B1
350
53
  3
B2
350
54
  3
B3
350
55
  3
B4
350
56
  3
B5
350
57
  3
B6
350
58
  3
B7
350
59
  3
B8
350
5A
  3
B9
350
5B
  3
C0
350
5C
  3
C1
350
5D
  3
C2
350
5E
  3
C3
350
5F
  3
C4
350
60
  3
C5
350
61
  3
C6
350
62
  3
C7
350
63
  3
C8
350
64
  3
C9
350
65
  3
D0
350
66
  3
D1
350
67
  3
D2
350
68
  0
DICTIONARY
  5
2E3
102
{ACAD_REACTORS
330
C
102
}
330
C
100
AcDbDictionary
281
     1
  3
Metric50
350
2E7
  0
DICTIONARY
  5
69
102
{ACAD_REACTORS
330
C
102
}
330
C
100
AcDbDictionary
281
     1
  3
Standard
350
6A
  0
DICTIONARY
  5
2A
102
{ACAD_REACTORS
330
C
102
}
330
C
100
AcDbDictionary
281
     1
  3
2dWireframe
350
2F
  3
Basic
350
32
  3
Brighten
350
36
  3
ColorChange
350
3A
  3
Conceptual
350
34
  3
Dim
350
35
  3
EdgeColorOff
350
3D
  3
Facepattern
350
39
  3
Flat
350
2B
  3
FlatWithEdges
350
2C
  3
Gouraud
350
2D
  3
GouraudWithEdges
350
2E
  3
Hidden
350
31
  3
JitterOff
350
3B
  3
Linepattern
350
38
  3
OverhangOff
350
3C
  3
Realistic
350
33
  3
Shaded
350
42
  3
Shaded with edges
350
41
  3
Shades of Gray
350
3E
  3
Sketchy
350
3F
  3
Thicken
350
37
  3
Wireframe
350
30
  3
X-Ray
350
40
  0
XRECORD
  5
351
102
{ACAD_REACTORS
330
C
102
}
330
C
100
AcDbXrecord
280
     1
 90
        1
330
6A
  0
DICTIONARY
  5
29F
102
{ACAD_REACTORS
330
C
102
}
330
C
100
AcDbDictionary
281
     1
  3
CANNOSCALE
350
2A0
  3
CMLEADERSTYLE
350
2E1
  3
CTABLESTYLE
350
2E0
  3
CVIEWDETAILSTYLE
350
34C
  3
CVIEWSECTIONSTYLE
350
34D
  3
MSLTSCALE
350
2A1
  3
XCLIPFRAME
350
34E
  0
XRECORD
  5
335
102
{ACAD_REACTORS
330
334
102
}
330
334
100
AcDbXrecord
280
     1
290
     1
  0
XRECORD
  5
337
102
{ACAD_REACTORS
330
336
102
}
330
336
100
AcDbXrecord
280
     1
290
     1
  0
XRECORD
  5
339
102
{ACAD_REACTORS
330
338
102
}
330
338
100
AcDbXrecord
280
     1
290
     1
  0
XRECORD
  5
33B
102
{ACAD_REACTORS
330
33A
102
}
330
33A
100
AcDbXrecord
280
     1
290
     1
  0
XRECORD
  5
33D
102
{ACAD_REACTORS
330
33C
102
}
330
33C
100
AcDbXrecord
280
     1
290
     1
  0
XRECORD
  5
33F
102
{ACAD_REACTORS
330
33E
102
}
330
33E
100
AcDbXrecord
280
     1
290
     1
  0
XRECORD
  5
341
102
{ACAD_REACTORS
330
340
102
}
330
340
100
AcDbXrecord
280
     1
290
     1
  0
XRECORD
  5
343
102
{ACAD_REACTORS
330
342
102
}
330
342
100
AcDbXrecord
280
     1
290
     1
  0
XRECORD
  5
345
102
{ACAD_REACTORS
330
344
102
}
330
344
100
AcDbXrecord
280
     1
290
     1
  0
XRECORD
  5
347
102
{ACAD_REACTORS
330
346
102
}
330
346
100
AcDbXrecord
280
     1
290
     1
  0
XRECORD
  5
349
102
{ACAD_REACTORS
330
348
102
}
330
348
100
AcDbXrecord
280
     1
290
     1
  0
XRECORD
  5
34B
102
{ACAD_REACTORS
330
34A
102
}
330
34A
100
AcDbXrecord
280
     1
290
     1
  0
SORTENTSTABLE
  5
2ED
102
{ACAD_REACTORS
330
2EC
102
}
330
2EC
100
AcDbSortentsTable
330
1F
331
2EE
  5
1F9
331
2EF
  5
212
331
2F0
  5
2EE
331
2F1
  5
2EF
331
2F2
  5
2F0
331
2F3
  5
301
331
2F4
  5
302
331
2F5
  5
303
331
2F6
  5
304
331
2F7
  5
305
331
2F8
  5
306
331
2F9
  5
307
331
2FA
  5
308
331
2FB
  5
309
331
2FC
  5
30A
331
2FD
  5
30B
331
2FE
  5
30C
331
2FF
  5
30D
331
300
  5
30E
331
301
  5
30F
331
302
  5
310
331
303
  5
311
331
304
  5
312
331
305
  5
313
331
306
  5
314
331
307
  5
315
331
308
  5
316
331
309
  5
317
331
30A
  5
318
331
30B
  5
2F3
331
30C
  5
2F4
331
30D
  5
2F5
331
30E
  5
2F6
331
30F
  5
2F7
331
310
  5
2F8
331
311
  5
2F9
331
312
  5
2FA
331
313
  5
2FB
331
314
  5
2FC
331
315
  5
2FD
331
316
  5
2FE
331
317
  5
2FF
331
318
  5
300
331
31A
  5
31D
331
31C
  5
320
331
31D
  5
321
331
31E
  5
322
331
31F
  5
323
331
320
  5
324
331
321
  5
325
331
322
  5
31A
331
323
  5
31C
331
324
  5
31E
331
325
  5
31F
  0
ACDBDETAILVIEWSTYLE
  5
2E8
102
{ACAD_XDICTIONARY
360
385
102
}
102
{ACAD_REACTORS
330
2E2
102
}
330
2E2
100
AcDbModelDocViewStyle
 70
     0
  3
Metric50
290
     0
100
AcDbDetailViewStyle
 70
     0
 71
     0
 90
        3
 71
     1
340
11
 62
   256
 40
5.0
340
0
 62
   256
 40
5.0
300

 40
0.0
280
     1
 71
     2
340
16
 90
       25
 62
   256
 71
     3
340
11
 62
   256
 40
5.0
 90
        0
 40
15.0
 90
        1
300
%<\AcVar ViewDetailId>% (%<\AcVar ViewScale \f "%sn">%)
 71
     4
340
16
 90
       25
 62
   256
340
16
 90
       25
 62
   256
280
     0
  0
GROUP
  5
333
102
{ACAD_REACTORS
330
D
102
}
330
D
100
AcDbGroup
300

 70
     0
 71
     1
340
73
  0
LAYOUT
  5
1E
102
{ACAD_REACTORS
330
1A
102
}
330
1A
100
AcDbPlotSettings
  1

  2
none_device
  4

  6

 40
0.0
 41
0.0
 42
0.0
 43
0.0
 44
0.0
 45
0.0
 46
0.0
 47
0.0
 48
0.0
 49
0.0
140
0.0
141
0.0
142
1.0
143
1.0
 70
   688
 72
     0
 73
     0
 74
     5
  7

 75
    16
147
1.0
 76
     0
 77
     2
 78
   300
148
0.0
149
0.0
100
AcDbLayout
  1
Layout1
 70
     1
 71
     1
 10
-0.5
 20
-0.5
 11
5.0
 21
5.0
 12
0.0
 22
0.0
 32
0.0
 14
-0.5
 24
-0.5
 34
-0.5
 15
5.0
 25
5.0
 35
5.0
146
0.0
 13
0.0
 23
0.0
 33
0.0
 16
1.0
 26
0.0
 36
0.0
 17
0.0
 27
1.0
 37
0.0
 76
     0
330
1B
  0
LAYOUT
  5
26
102
{ACAD_REACTORS
330
1A
102
}
330
1A
100
AcDbPlotSettings
  1

  2
none_device
  4

  6

 40
0.0
 41
0.0
 42
0.0
 43
0.0
 44
0.0
 45
0.0
 46
0.0
 47
0.0
 48
0.0
 49
0.0
140
0.0
141
0.0
142
1.0
143
1.0
 70
   688
 72
     0
 73
     0
 74
     5
  7

 75
    16
147
1.0
 76
     0
 77
     2
 78
   300
148
0.0
149
0.0
100
AcDbLayout
  1
Layout2
 70
     1
 71
     2
 10
0.0
 20
0.0
 11
0.0
 21
0.0
 12
0.0
 22
0.0
 32
0.0
 14
0.0
 24
0.0
 34
0.0
 15
0.0
 25
0.0
 35
0.0
146
0.0
 13
0.0
 23
0.0
 33
0.0
 16
1.0
 26
0.0
 36
0.0
 17
0.0
 27
1.0
 37
0.0
 76
     0
330
23
  0
LAYOUT
  5
22
102
{ACAD_REACTORS
330
1A
102
}
330
1A
100
AcDbPlotSettings
  1

  2
none_device
  4
Letter_(8.50_x_11.00_Inches)
  6

 40
6.349999999999999
 41
6.349999999999999
 42
6.350005
 43
6.350005
 44
215.9
 45
279.4
 46
0.0
 47
0.0
 48
0.0
 49
0.0
140
0.0
141
0.0
142
1.0
143
1.0
 70
  1712
 72
     0
 73
     0
 74
     0
  7

 75
     0
147
1.0
 76
     0
 77
     2
 78
   300
148
0.0
149
0.0
100
AcDbLayout
  1
Model
 70
     1
 71
     0
 10
-0.5
 20
-0.5
 11
5.0
 21
5.0
 12
0.0
 22
0.0
 32
0.0
 14
-0.5
 24
-0.5
 34
-0.5
 15
5.0
 25
5.0
 35
5.0
146
0.0
 13
0.0
 23
0.0
 33
0.0
 16
1.0
 26
0.0
 36
0.0
 17
0.0
 27
1.0
 37
0.0
 76
     0
330
1F
331
29
  0
MATERIAL
  5
45
102
{ACAD_XDICTIONARY
360
2D5
102
}
102
{ACAD_REACTORS
330
43
102
}
330
43
100
AcDbMaterial
  1
ByBlock
  0
MATERIAL
  5
44
102
{ACAD_XDICTIONARY
360
2D3
102
}
102
{ACAD_REACTORS
330
43
102
}
330
43
100
AcDbMaterial
  1
ByLayer
  0
MATERIAL
  5
46
102
{ACAD_XDICTIONARY
360
2D7
102
}
102
{ACAD_REACTORS
330
43
102
}
330
43
100
AcDbMaterial
  1
Global
  0
MLEADERSTYLE
  5
6C
102
{ACAD_REACTORS
330
6B
102
}
330
6B
100
AcDbMLeaderStyle
170
     2
171
     1
172
     0
 90
        2
 40
0.0
 41
0.0
173
     1
 91
-1056964608
340
14
 92
       -2
290
     1
 42
0.09
291
     1
 43
0.36
  3
Standard
 44
0.18
300

342
11
174
     1
178
     6
175
     1
176
     0
 93
-1056964608
 45
0.18
292
     0
297
     0
 46
0.18
 94
-1056964608
 47
1.0
 49
1.0
140
1.0
293
     1
141
0.0
294
     1
177
     0
142
1.0
295
     0
296
     0
143
0.125
1001
ACAD_MLEADERVER
1070
     2
  0
MLINESTYLE
  5
18
102
{ACAD_REACTORS
330
17
102
}
330
17
100
AcDbMlineStyle
  2
STANDARD
 70
     0
  3

 62
   256
 51
90.0
 52
90.0
 71
     2
 49
0.5
 62
   256
  6
BYLAYER
 49
-0.5
 62
   256
  6
BYLAYER
  0
ACDBPLACEHOLDER
  5
F
102
{ACAD_REACTORS
330
E
102
}
330
E
  0
SCALE
  5
48
102
{ACAD_REACTORS
330
47
102
}
330
47
100
AcDbScale
 70
     0
300
1:1
140
1.0
141
1.0
290
     1
  0
SCALE
  5
49
102
{ACAD_REACTORS
330
47
102
}
330
47
100
AcDbScale
 70
     0
300
1:2
140
1.0
141
2.0
290
     0
  0
SCALE
  5
4A
102
{ACAD_REACTORS
330
47
102
}
330
47
100
AcDbScale
 70
     0
300
1:4
140
1.0
141
4.0
290
     0
  0
SCALE
  5
4B
102
{ACAD_REACTORS
330
47
102
}
330
47
100
AcDbScale
 70
     0
300
1:5
140
1.0
141
5.0
290
     0
  0
SCALE
  5
4C
102
{ACAD_REACTORS
330
47
102
}
330
47
100
AcDbScale
 70
     0
300
1:8
140
1.0
141
8.0
290
     0
  0
SCALE
  5
4D
102
{ACAD_REACTORS
330
47
102
}
330
47
100
AcDbScale
 70
     0
300
1:10
140
1.0
141
10.0
290
     0
  0
SCALE
  5
4E
102
{ACAD_REACTORS
330
47
102
}
330
47
100
AcDbScale
 70
     0
300
1:16
140
1.0
141
16.0
290
     0
  0
SCALE
  5
4F
102
{ACAD_REACTORS
330
47
102
}
330
47
100
AcDbScale
 70
     0
300
1:20
140
1.0
141
20.0
290
     0
  0
SCALE
  5
50
102
{ACAD_REACTORS
330
47
102
}
330
47
100
AcDbScale
 70
     0
300
1:30
140
1.0
141
30.0
290
     0
  0
SCALE
  5
51
102
{ACAD_REACTORS
330
47
102
}
330
47
100
AcDbScale
 70
     0
300
1:40
140
1.0
141
40.0
290
     0
  0
SCALE
  5
52
102
{ACAD_REACTORS
330
47
102
}
330
47
100
AcDbScale
 70
     0
300
1:50
140
1.0
141
50.0
290
     0
  0
SCALE
  5
53
102
{ACAD_REACTORS
330
47
102
}
330
47
100
AcDbScale
 70
     0
300
1:100
140
1.0
141
100.0
290
     0
  0
SCALE
  5
54
102
{ACAD_REACTORS
330
47
102
}
330
47
100
AcDbScale
 70
     0
300
2:1
140
2.0
141
1.0
290
     0
  0
SCALE
  5
55
102
{ACAD_REACTORS
330
47
102
}
330
47
100
AcDbScale
 70
     0
300
4:1
140
4.0
141
1.0
290
     0
  0
SCALE
  5
56
102
{ACAD_REACTORS
330
47
102
}
330
47
100
AcDbScale
 70
     0
300
8:1
140
8.0
141
1.0
290
     0
  0
SCALE
  5
57
102
{ACAD_REACTORS
330
47
102
}
330
47
100
AcDbScale
 70
     0
300
10:1
140
10.0
141
1.0
290
     0
  0
SCALE
  5
58
102
{ACAD_REACTORS
330
47
102
}
330
47
100
AcDbScale
 70
     0
300
100:1
140
100.0
141
1.0
290
     0
  0
SCALE
  5
59
102
{ACAD_REACTORS
330
47
102
}
330
47
100
AcDbScale
 70
     0
300
1/128" = 1'-0"
140
0.007812
141
12.0
290
     0
  0
SCALE
  5
5A
102
{ACAD_REACTORS
330
47
102
}
330
47
100
AcDbScale
 70
     0
300
1/64" = 1'-0"
140
0.015625
141
12.0
290
     0
  0
SCALE
  5
5B
102
{ACAD_REACTORS
330
47
102
}
330
47
100
AcDbScale
 70
     0
300
1/32" = 1'-0"
140
0.03125
141
12.0
290
     0
  0
SCALE
  5
5C
102
{ACAD_REACTORS
330
47
102
}
330
47
100
AcDbScale
 70
     0
300
1/16" = 1'-0"
140
0.0625
141
12.0
290
     0
  0
SCALE
  5
5D
102
{ACAD_REACTORS
330
47
102
}
330
47
100
AcDbScale
 70
     0
300
3/32" = 1'-0"
140
0.09375
141
12.0
290
     0
  0
SCALE
  5
5E
102
{ACAD_REACTORS
330
47
102
}
330
47
100
AcDbScale
 70
     0
300
1/8" = 1'-0"
140
0.125
141
12.0
290
     0
  0
SCALE
  5
5F
102
{ACAD_REACTORS
330
47
102
}
330
47
100
AcDbScale
 70
     0
300
3/16" = 1'-0"
140
0.1875
141
12.0
290
     0
  0
SCALE
  5
60
102
{ACAD_REACTORS
330
47
102
}
330
47
100
AcDbScale
 70
     0
300
1/4" = 1'-0"
140
0.25
141
12.0
290
     0
  0
SCALE
  5
61
102
{ACAD_REACTORS
330
47
102
}
330
47
100
AcDbScale
 70
     0
300
3/8" = 1'-0"
140
0.375
141
12.0
290
     0
  0
SCALE
  5
62
102
{ACAD_REACTORS
330
47
102
}
330
47
100
AcDbScale
 70
     0
300
1/2" = 1'-0"
140
0.5
141
12.0
290
     0
  0
SCALE
  5
63
102
{ACAD_REACTORS
330
47
102
}
330
47
100
AcDbScale
 70
     0
300
3/4" = 1'-0"
140
0.75
141
12.0
290
     0
  0
SCALE
  5
64
102
{ACAD_REACTORS
330
47
102
}
330
47
100
AcDbScale
 70
     0
300
1" = 1'-0"
140
1.0
141
12.0
290
     0
  0
SCALE
  5
65
102
{ACAD_REACTORS
330
47
102
}
330
47
100
AcDbScale
 70
     0
300
1-1/2" = 1'-0"
140
1.5
141
12.0
290
     0
  0
SCALE
  5
66
102
{ACAD_REACTORS
330
47
102
}
330
47
100
AcDbScale
 70
     0
300
3" = 1'-0"
140
3.0
141
12.0
290
     0
  0
SCALE
  5
67
102
{ACAD_REACTORS
330
47
102
}
330
47
100
AcDbScale
 70
     0
300
6" = 1'-0"
140
6.0
141
12.0
290
     0
  0
SCALE
  5
68
102
{ACAD_REACTORS
330
47
102
}
330
47
100
AcDbScale
 70
     0
300
1'-0" = 1'-0"
140
12.0
141
12.0
290
     0
  0
ACDBSECTIONVIEWSTYLE
  5
2E7
102
{ACAD_XDICTIONARY
360
383
102
}
102
{ACAD_REACTORS
330
2E3
102
}
330
2E3
100
AcDbModelDocViewStyle
 70
     0
  3
Metric50
290
     0
100
AcDbSectionViewStyle
 70
     0
 71
     0
 90
      102
 71
     1
340
11
 62
   256
 40
5.0
340
0
340
0
 62
   256
 40
5.0
300
I, O, Q, S, X, Z
 40
10.0
 90
        0
 40
2.5
 90
        0
 71
     2
340
16
 90
       25
 62
   256
340
16
 90
       50
 62
   256
 40
5.0
 40
2.5
 40
5.0
 71
     3
340
11
 62
   256
 40
5.0
 90
        0
 40
15.0
 90
        1
300
%<\AcVar ViewSectionStartId>%-%<\AcVar ViewSectionEndId>% (%<\AcVar ViewScale \f "%sn">%)
 71
     4
 62
   256
 62
   257
300
ANSI31
 40
1.0
 90
        0
290
     0
290
     0
 90
        6
 40
0.0
 40
1.570796326794896
 40
0.2617993877991494
 40
1.308996938995747
 40
-0.2617993877991494
 40
1.832595714594046
  0
TABLESTYLE
  5
6A
102
{ACAD_XDICTIONARY
360
2D9
102
}
102
{ACAD_REACTORS
330
69
102
}
330
69
100
AcDbTableStyle
  3
Standard
 70
     0
 71
     0
 40
0.06
 41
0.06
280
     0
281
     0
  7
Standard
140
0.18
170
     2
 62
     0
 63
     7
283
     0
274
    -2
284
     1
 64
     0
275
    -2
285
     1
 65
     0
276
    -2
286
     1
 66
     0
277
    -2
287
     1
 67
     0
278
    -2
288
     1
 68
     0
279
    -2
289
     1
 69
     0
  7
Standard
140
0.25
170
     5
 62
     0
 63
     7
283
     0
274
    -2
284
     1
 64
     0
275
    -2
285
     1
 65
     0
276
    -2
286
     1
 66
     0
277
    -2
287
     1
 67
     0
278
    -2
288
     1
 68
     0
279
    -2
289
     1
 69
     0
  7
Standard
140
0.18
170
     5
 62
     0
 63
     7
283
     0
274
    -2
284
     1
 64
     0
275
    -2
285
     1
 65
     0
276
    -2
286
     1
 66
     0
277
    -2
287
     1
 67
     0
278
    -2
288
     1
 68
     0
279
    -2
289
     1
 69
     0
  0
VISUALSTYLE
  5
2F
102
{ACAD_XDICTIONARY
360
35A
102
}
102
{ACAD_REACTORS
330
2A
102
}
330
2A
100
AcDbVisualStyle
  2

 70
     4
 71
     0
 72
     2
 73
     0
 90
        0
 40
-0.6
 41
-30.0
 62
     5
 63
     7
421
 16777215
 74
     1
 91
        4
 64
     7
 65
   257
 75
     1
175
     1
 42
1.0
 92
        0
 66
   257
 43
1.0
 76
     1
 77
     6
 78
     2
 67
     7
 79
     5
170
     0
171
     0
290
     0
174
     0
 93
        1
 44
0.0
173
     0
291
     0
 45
0.0
1001
ACAD
1000
AcDbSavedByObjectVersion
1070
     0
  0
VISUALSTYLE
  5
32
102
{ACAD_XDICTIONARY
360
360
102
}
102
{ACAD_REACTORS
330
2A
102
}
330
2A
100
AcDbVisualStyle
  2

 70
     7
 71
     1
 72
     0
 73
     1
 90
        0
 40
-0.6
 41
-30.0
 62
     5
 63
     7
421
 16777215
 74
     0
 91
        4
 64
     7
 65
   257
 75
     1
175
     1
 42
1.0
 92
        8
 66
     7
 43
1.0
 76
     1
 77
     6
 78
     2
 67
     7
 79
     5
170
     0
171
     0
290
     0
174
     0
 93
        1
 44
0.0
173
     0
291
     1
 45
0.0
1001
ACAD
1000
AcDbSavedByObjectVersion
1070
     0
  0
VISUALSTYLE
  5
36
102
{ACAD_XDICTIONARY
360
368
102
}
102
{ACAD_REACTORS
330
2A
102
}
330
2A
100
AcDbVisualStyle
  2

 70
    12
 71
     2
 72
     2
 73
     0
 90
        0
 40
-0.6
 41
-30.0
 62
     5
 63
     7
421
 16777215
 74
     1
 91
        4
 64
     7
 65
   257
 75
     1
175
     1
 42
1.0
 92
        8
 66
     7
 43
1.0
 76
     1
 77
     6
 78
     2
 67
     7
 79
     5
170
     0
171
     0
290
     0
174
     0
 93
        1
 44
50.0
173
     0
291
     1
 45
0.0
1001
ACAD
1000
AcDbSavedByObjectVersion
1070
     0
  0
VISUALSTYLE
  5
3A
102
{ACAD_XDICTIONARY
360
370
102
}
102
{ACAD_REACTORS
330
2A
102
}
330
2A
100
AcDbVisualStyle
  2

 70
    16
 71
     2
 72
     2
 73
     3
 90
        0
 40
-0.6
 41
-30.0
 62
     5
 63
     8
421
  8421504
 74
     1
 91
        4
 64
     7
 65
   257
 75
     1
175
     1
 42
1.0
 92
        8
 66
     8
424
  8421504
 43
1.0
 76
     1
 77
     6
 78
     2
 67
     7
 79
     5
170
     0
171
     0
290
     0
174
     0
 93
        1
 44
0.0
173
     0
291
     1
 45
0.0
1001
ACAD
1000
AcDbSavedByObjectVersion
1070
     0
  0
VISUALSTYLE
  5
34
102
{ACAD_XDICTIONARY
360
364
102
}
102
{ACAD_REACTORS
330
2A
102
}
330
2A
100
AcDbVisualStyle
  2

 70
     9
 71
     3
 72
     2
 73
     0
 90
        0
 40
-0.6
 41
-30.0
 62
     5
 63
     7
421
 16777215
 74
     2
 91
        2
 64
     7
 65
   257
 75
     1
175
     1
 42
179.0
 92
        8
 66
     7
 43
1.0
 76
     1
 77
     6
 78
     2
 67
     7
 79
     3
170
     0
171
     0
290
     0
174
     0
 93
        1
 44
0.0
173
     0
291
     0
 45
0.0
1001
ACAD
1000
AcDbSavedByObjectVersion
1070
     0
  0
VISUALSTYLE
  5
35
102
{ACAD_XDICTIONARY
360
366
102
}
102
{ACAD_REACTORS
330
2A
102
}
330
2A
100
AcDbVisualStyle
  2

 70
    11
 71
     2
 72
     2
 73
     0
 90
        0
 40
-0.6
 41
-30.0
 62
     5
 63
     7
421
 16777215
 74
     1
 91
        4
 64
     7
 65
   257
 75
     1
175
     1
 42
1.0
 92
        8
 66
     7
 43
1.0
 76
     1
 77
     6
 78
     2
 67
     7
 79
     5
170
     0
171
     0
290
     0
174
     0
 93
        1
 44
-50.0
173
     0
291
     1
 45
0.0
1001
ACAD
1000
AcDbSavedByObjectVersion
1070
     0
  0
VISUALSTYLE
  5
3D
102
{ACAD_XDICTIONARY
360
376
102
}
102
{ACAD_REACTORS
330
2A
102
}
330
2A
100
AcDbVisualStyle
  2

 70
    22
 71
     2
 72
     2
 73
     0
 90
        0
 40
-0.6
 41
-30.0
 62
     5
 63
     7
421
 16777215
 74
     1
 91
        4
 64
     7
 65
   257
 75
     1
175
     1
 42
1.0
 92
        8
 66
     7
 43
1.0
 76
     1
 77
     6
 78
     2
 67
     7
 79
     5
170
     0
171
     0
290
     0
174
     0
 93
        1
 44
0.0
173
     0
291
     1
 45
0.0
1001
ACAD
1000
AcDbSavedByObjectVersion
1070
     0
  0
VISUALSTYLE
  5
39
102
{ACAD_XDICTIONARY
360
36E
102
}
102
{ACAD_REACTORS
330
2A
102
}
330
2A
100
AcDbVisualStyle
  2

 70
    15
 71
     2
 72
     2
 73
     0
 90
        0
 40
-0.6
 41
-30.0
 62
     5
 63
     7
421
 16777215
 74
     1
 91
        4
 64
     7
 65
   257
 75
     1
175
     1
 42
1.0
 92
        8
 66
     7
 43
1.0
 76
     1
 77
     6
 78
     2
 67
     7
 79
     5
170
     0
171
     0
290
     0
174
     0
 93
        1
 44
0.0
173
     0
291
     1
 45
0.0
1001
ACAD
1000
AcDbSavedByObjectVersion
1070
     0
  0
VISUALSTYLE
  5
2B
102
{ACAD_XDICTIONARY
360
352
102
}
102
{ACAD_REACTORS
330
2A
102
}
330
2A
100
AcDbVisualStyle
  2

 70
     0
 71
     2
 72
     1
 73
     1
 90
        2
 40
-0.6
 41
30.0
 62
     5
 63
     7
421
 16777215
 74
     0
 91
        0
 64
     7
 65
   257
 75
     1
175
     1
 42
1.0
 92
        8
 66
     7
 43
1.0
 76
     1
 77
     6
 78
     2
 67
     7
 79
     5
170
     0
171
     0
290
     0
174
     0
 93
       13
 44
0.0
173
     0
291
     1
 45
0.0
1001
ACAD
1000
AcDbSavedByObjectVersion
1070
     0
  0
VISUALSTYLE
  5
2C
102
{ACAD_XDICTIONARY
360
354
102
}
102
{ACAD_REACTORS
330
2A
102
}
330
2A
100
AcDbVisualStyle
  2

 70
     1
 71
     2
 72
     1
 73
     1
 90
        2
 40
-0.6
 41
30.0
 62
     5
 63
     7
421
 16777215
 74
     1
 91
        0
 64
     7
 65
   257
 75
     1
175
     1
 42
1.0
 92
        0
 66
   257
 43
1.0
 76
     1
 77
     6
 78
     2
 67
     7
 79
     5
170
     0
171
     0
290
     0
174
     0
 93
       13
 44
0.0
173
     0
291
     1
 45
0.0
1001
ACAD
1000
AcDbSavedByObjectVersion
1070
     0
  0
VISUALSTYLE
  5
2D
102
{ACAD_XDICTIONARY
360
356
102
}
102
{ACAD_REACTORS
330
2A
102
}
330
2A
100
AcDbVisualStyle
  2

 70
     2
 71
     2
 72
     2
 73
     1
 90
        2
 40
-0.6
 41
30.0
 62
     5
 63
     7
421
 16777215
 74
     0
 91
        0
 64
     7
 65
   257
 75
     1
175
     1
 42
1.0
 92
        0
 66
     7
 43
1.0
 76
     1
 77
     6
 78
     2
 67
     7
 79
     5
170
     0
171
     0
290
     0
174
     0
 93
       13
 44
0.0
173
     0
291
     1
 45
0.0
1001
ACAD
1000
AcDbSavedByObjectVersion
1070
     0
  0
VISUALSTYLE
  5
2E
102
{ACAD_XDICTIONARY
360
358
102
}
102
{ACAD_REACTORS
330
2A
102
}
330
2A
100
AcDbVisualStyle
  2

 70
     3
 71
     2
 72
     2
 73
     1
 90
        2
 40
-0.6
 41
30.0
 62
     5
 63
     7
421
 16777215
 74
     1
 91
        0
 64
     7
 65
   257
 75
     1
175
     1
 42
1.0
 92
        0
 66
   257
 43
1.0
 76
     1
 77
     6
 78
     2
 67
     7
 79
     5
170
     0
171
     0
290
     0
174
     0
 93
       13
 44
0.0
173
     0
291
     1
 45
0.0
1001
ACAD
1000
AcDbSavedByObjectVersion
1070
     0
  0
VISUALSTYLE
  5
31
102
{ACAD_XDICTIONARY
360
35E
102
}
102
{ACAD_REACTORS
330
2A
102
}
330
2A
100
AcDbVisualStyle
  2

 70
     6
 71
     1
 72
     2
 73
     2
 90
        0
 40
-0.6
 41
-30.0
 62
     5
 63
     7
421
 16777215
 74
     2
 91
        2
 64
     7
 65
   257
 75
     2
175
     1
 42
40.0
 92
        0
 66
   257
 43
1.0
 76
     1
 77
     6
 78
     2
 67
     7
 79
     3
170
     0
171
     0
290
     0
174
     0
 93
        1
 44
0.0
173
     0
291
     0
 45
0.0
1001
ACAD
1000
AcDbSavedByObjectVersion
1070
     0
  0
VISUALSTYLE
  5
3B
102
{ACAD_XDICTIONARY
360
372
102
}
102
{ACAD_REACTORS
330
2A
102
}
330
2A
100
AcDbVisualStyle
  2

 70
    20
 71
     2
 72
     2
 73
     0
 90
        0
 40
-0.6
 41
-30.0
 62
     5
 63
     7
421
 16777215
 74
     1
 91
        4
 64
     7
 65
   257
 75
     1
175
     1
 42
1.0
 92
       10
 66
     7
 43
1.0
 76
     1
 77
     6
 78
     2
 67
     7
 79
     5
170
     0
171
     0
290
     0
174
     0
 93
        1
 44
0.0
173
     0
291
     1
 45
0.0
1001
ACAD
1000
AcDbSavedByObjectVersion
1070
     0
  0
VISUALSTYLE
  5
38
102
{ACAD_XDICTIONARY
360
36C
102
}
102
{ACAD_REACTORS
330
2A
102
}
330
2A
100
AcDbVisualStyle
  2

 70
    14
 71
     2
 72
     2
 73
     0
 90
        0
 40
-0.6
 41
-30.0
 62
     5
 63
     7
421
 16777215
 74
     1
 91
        4
 64
     7
 65
   257
 75
     7
175
     7
 42
1.0
 92
        8
 66
     7
 43
1.0
 76
     1
 77
     6
 78
     2
 67
     7
 79
     5
170
     0
171
     0
290
     0
174
     0
 93
        1
 44
0.0
173
     0
291
     1
 45
0.0
1001
ACAD
1000
AcDbSavedByObjectVersion
1070
     0
  0
VISUALSTYLE
  5
3C
102
{ACAD_XDICTIONARY
360
374
102
}
102
{ACAD_REACTORS
330
2A
102
}
330
2A
100
AcDbVisualStyle
  2

 70
    21
 71
     2
 72
     2
 73
     0
 90
        0
 40
-0.6
 41
-30.0
 62
     5
 63
     7
421
 16777215
 74
     1
 91
        4
 64
     7
 65
   257
 75
     1
175
     1
 42
1.0
 92
        9
 66
     7
 43
1.0
 76
     1
 77
     6
 78
     2
 67
     7
 79
     5
170
     0
171
     0
290
     0
174
     0
 93
        1
 44
0.0
173
     0
291
     1
 45
0.0
1001
ACAD
1000
AcDbSavedByObjectVersion
1070
     0
  0
VISUALSTYLE
  5
33
102
{ACAD_XDICTIONARY
360
362
102
}
102
{ACAD_REACTORS
330
2A
102
}
330
2A
100
AcDbVisualStyle
  2

 70
     8
 71
     2
 72
     3
 73
     0
 90
        2
 40
-0.6
 41
30.0
 62
     5
 63
     7
421
 16777215
 74
     0
 91
        0
 64
     7
 65
   257
 75
     1
175
     1
 42
1.0
 92
        8
 66
   257
 43
1.0
 76
     1
 77
     6
 78
     2
 67
     7
 79
     3
170
     0
171
     0
290
     0
174
     0
 93
       13
 44
0.0
173
     0
291
     0
 45
0.0
1001
ACAD
1000
AcDbSavedByObjectVersion
1070
     0
  0
VISUALSTYLE
  5
42
102
{ACAD_XDICTIONARY
360
380
102
}
102
{ACAD_REACTORS
330
2A
102
}
330
2A
100
AcDbVisualStyle
  2

 70
    27
 71
     2
 72
     2
 73
     1
 90
        2
 40
-0.6
 41
30.0
 62
     5
 63
     7
421
 16777215
 74
     0
 91
        4
 64
     7
 65
   257
 75
     1
175
     1
 42
1.0
 92
        8
 66
   257
 43
1.0
 76
     1
 77
     6
 78
     2
 67
     8
425
  7895160
 79
     3
170
     0
171
     0
290
     0
174
     0
 93
        5
 44
0.0
173
     0
291
     0
 45
0.0
1001
ACAD
1000
AcDbSavedByObjectVersion
1070
     0
  0
VISUALSTYLE
  5
41
102
{ACAD_XDICTIONARY
360
37E
102
}
102
{ACAD_REACTORS
330
2A
102
}
330
2A
100
AcDbVisualStyle
  2

 70
    26
 71
     2
 72
     2
 73
     1
 90
        2
 40
-0.6
 41
30.0
 62
     5
 63
     7
421
 16777215
 74
     1
 91
       10
 64
     7
 65
   257
 75
     2
175
     1
 42
1.0
 92
        8
 66
   257
 43
1.0
 76
     1
 77
     6
 78
     2
 67
     7
 79
     3
170
     0
171
     0
290
     0
174
     0
 93
        5
 44
0.0
173
     0
291
     0
 45
0.0
1001
ACAD
1000
AcDbSavedByObjectVersion
1070
     0
  0
VISUALSTYLE
  5
3E
102
{ACAD_XDICTIONARY
360
378
102
}
102
{ACAD_REACTORS
330
2A
102
}
330
2A
100
AcDbVisualStyle
  2

 70
    23
 71
     2
 72
     2
 73
     3
 90
        0
 40
-0.6
 41
-30.0
 62
     5
 63
     7
421
 16777215
 74
     2
 91
        2
 64
     7
 65
     7
 75
     1
175
     1
 42
40.0
 92
        8
 66
     7
 43
1.0
 76
     1
 77
     6
 78
     2
 67
     7
 79
     3
170
     0
171
     0
290
     0
174
     0
 93
        1
 44
0.0
173
     0
291
     0
 45
0.0
1001
ACAD
1000
AcDbSavedByObjectVersion
1070
     0
  0
VISUALSTYLE
  5
3F
102
{ACAD_XDICTIONARY
360
37A
102
}
102
{ACAD_REACTORS
330
2A
102
}
330
2A
100
AcDbVisualStyle
  2

 70
    24
 71
     1
 72
     2
 73
     2
 90
        0
 40
-0.6
 41
-30.0
 62
     5
 63
     7
421
 16777215
 74
     2
 91
        2
 64
     7
 65
     7
 75
     1
175
     1
 42
40.0
 92
       11
 66
     7
 43
1.0
 76
     1
 77
     6
 78
     2
 67
     7
 79
     6
170
     0
171
     0
290
     0
174
     0
 93
        1
 44
0.0
173
     0
291
     0
 45
0.0
1001
ACAD
1000
AcDbSavedByObjectVersion
1070
     0
  0
VISUALSTYLE
  5
37
102
{ACAD_XDICTIONARY
360
36A
102
}
102
{ACAD_REACTORS
330
2A
102
}
330
2A
100
AcDbVisualStyle
  2

 70
    13
 71
     2
 72
     2
 73
     0
 90
        0
 40
-0.6
 41
-30.0
 62
     5
 63
     7
421
 16777215
 74
     1
 91
        4
 64
     7
 65
   257
 75
     1
175
     1
 42
1.0
 92
       12
 66
     7
 43
1.0
 76
     1
 77
     6
 78
     2
 67
     7
 79
     5
170
     0
171
     0
290
     0
174
     0
 93
        1
 44
0.0
173
     0
291
     1
 45
0.0
1001
ACAD
1000
AcDbSavedByObjectVersion
1070
     0
  0
VISUALSTYLE
  5
30
102
{ACAD_XDICTIONARY
360
35C
102
}
102
{ACAD_REACTORS
330
2A
102
}
330
2A
100
AcDbVisualStyle
  2

 70
     5
 71
     0
 72
     2
 73
     0
 90
        0
 40
-0.6
 41
-30.0
 62
     5
 63
     7
421
 16777215
 74
     1
 91
        4
 64
     7
 65
   257
 75
     1
175
     1
 42
1.0
 92
        0
 66
   257
 43
1.0
 76
     1
 77
     6
 78
     2
 67
     7
 79
     3
170
     0
171
     0
290
     0
174
     0
 93
        1
 44
0.0
173
     0
291
     0
 45
0.0
1001
ACAD
1000
AcDbSavedByObjectVersion
1070
     0
  0
VISUALSTYLE
  5
40
102
{ACAD_XDICTIONARY
360
37C
102
}
102
{ACAD_REACTORS
330
2A
102
}
330
2A
100
AcDbVisualStyle
  2

 70
    25
 71
     2
 72
     2
 73
     1
 90
        1
 40
0.5
 41
-30.0
 62
     5
 63
     7
421
 16777215
 74
     1
 91
        0
 64
     7
 65
   257
 75
     1
175
     1
 42
1.0
 92
        8
 66
     7
 43
1.0
 76
     1
 77
     6
 78
     2
 67
     7
 79
     3
170
     0
171
     0
290
     0
174
     0
 93
       13
 44
0.0
173
     0
291
     0
 45
0.0
1001
ACAD
1000
AcDbSavedByObjectVersion
1070
     0
  0
DICTIONARYVAR
  5
2A0
102
{ACAD_REACTORS
330
29F
102
}
330
29F
100
DictionaryVariables
280
     0
  1
1:1
  0
DICTIONARYVAR
  5
2E1
102
{ACAD_REACTORS
330
29F
102
}
330
29F
100
DictionaryVariables
280
     0
  1
STANDARD
  0
DICTIONARYVAR
  5
2E0
102
{ACAD_REACTORS
330
29F
102
}
330
29F
100
DictionaryVariables
280
     0
  1
STANDARD
  0
DICTIONARYVAR
  5
34C
102
{ACAD_REACTORS
330
29F
102
}
330
29F
100
DictionaryVariables
280
     0
  1
Metric50
  0
DICTIONARYVAR
  5
34D
102
{ACAD_REACTORS
330
29F
102
}
330
29F
100
DictionaryVariables
280
     0
  1
Metric50
  0
DICTIONARYVAR
  5
2A1
102
{ACAD_REACTORS
330
29F
102
}
330
29F
100
DictionaryVariables
280
     0
  1
1
  0
DICTIONARYVAR
  5
34E
102
{ACAD_REACTORS
330
29F
102
}
330
29F
100
DictionaryVariables
280
     0
  1
2
  0
DICTIONARY
  5
385
330
2E8
100
AcDbDictionary
280
     1
281
     1
  3
ACAD_XREC_ROUNDTRIP
360
386
  0
DICTIONARY
  5
2D5
330
45
100
AcDbDictionary
280
     1
281
     1
  3
ACAD_XREC_ROUNDTRIP
360
2D6
  0
DICTIONARY
  5
2D3
330
44
100
AcDbDictionary
280
     1
281
     1
  3
ACAD_XREC_ROUNDTRIP
360
2D4
  0
DICTIONARY
  5
2D7
330
46
100
AcDbDictionary
280
     1
281
     1
  3
ACAD_XREC_ROUNDTRIP
360
2D8
  0
DICTIONARY
  5
383
330
2E7
100
AcDbDictionary
280
     1
281
     1
  3
ACAD_XREC_ROUNDTRIP
360
384
  0
DICTIONARY
  5
2D9
330
6A
100
AcDbDictionary
280
     1
281
     1
  3
ACAD_ROUNDTRIP_2008_TABLESTYLE_CELLSTYLEMAP
360
350
  3
ACAD_XREC_ROUNDTRIP
360
382
  0
DICTIONARY
  5
35A
330
2F
100
AcDbDictionary
280
     1
281
     1
  3
ACAD_XREC_ROUNDTRIP
360
35B
  0
DICTIONARY
  5
360
330
32
100
AcDbDictionary
280
     1
281
     1
  3
ACAD_XREC_ROUNDTRIP
360
361
  0
DICTIONARY
  5
368
330
36
100
AcDbDictionary
280
     1
281
     1
  3
ACAD_XREC_ROUNDTRIP
360
369
  0
DICTIONARY
  5
370
330
3A
100
AcDbDictionary
280
     1
281
     1
  3
ACAD_XREC_ROUNDTRIP
360
371
  0
DICTIONARY
  5
364
330
34
100
AcDbDictionary
280
     1
281
     1
  3
ACAD_XREC_ROUNDTRIP
360
365
  0
DICTIONARY
  5
366
330
35
100
AcDbDictionary
280
     1
281
     1
  3
ACAD_XREC_ROUNDTRIP
360
367
  0
DICTIONARY
  5
376
330
3D
100
AcDbDictionary
280
     1
281
     1
  3
ACAD_XREC_ROUNDTRIP
360
377
  0
DICTIONARY
  5
36E
330
39
100
AcDbDictionary
280
     1
281
     1
  3
ACAD_XREC_ROUNDTRIP
360
36F
  0
DICTIONARY
  5
352
330
2B
100
AcDbDictionary
280
     1
281
     1
  3
ACAD_XREC_ROUNDTRIP
360
353
  0
DICTIONARY
  5
354
330
2C
100
AcDbDictionary
280
     1
281
     1
  3
ACAD_XREC_ROUNDTRIP
360
355
  0
DICTIONARY
  5
356
330
2D
100
AcDbDictionary
280
     1
281
     1
  3
ACAD_XREC_ROUNDTRIP
360
357
  0
DICTIONARY
  5
358
330
2E
100
AcDbDictionary
280
     1
281
     1
  3
ACAD_XREC_ROUNDTRIP
360
359
  0
DICTIONARY
  5
35E
330
31
100
AcDbDictionary
280
     1
281
     1
  3
ACAD_XREC_ROUNDTRIP
360
35F
  0
DICTIONARY
  5
372
330
3B
100
AcDbDictionary
280
     1
281
     1
  3
ACAD_XREC_ROUNDTRIP
360
373
  0
DICTIONARY
  5
36C
330
38
100
AcDbDictionary
280
     1
281
     1
  3
ACAD_XREC_ROUNDTRIP
360
36D
  0
DICTIONARY
  5
374
330
3C
100
AcDbDictionary
280
     1
281
     1
  3
ACAD_XREC_ROUNDTRIP
360
375
  0
DICTIONARY
  5
362
330
33
100
AcDbDictionary
280
     1
281
     1
  3
ACAD_XREC_ROUNDTRIP
360
363
  0
DICTIONARY
  5
380
330
42
100
AcDbDictionary
280
     1
281
     1
  3
ACAD_XREC_ROUNDTRIP
360
381
  0
DICTIONARY
  5
37E
330
41
100
AcDbDictionary
280
     1
281
     1
  3
ACAD_XREC_ROUNDTRIP
360
37F
  0
DICTIONARY
  5
378
330
3E
100
AcDbDictionary
280
     1
281
     1
  3
ACAD_XREC_ROUNDTRIP
360
379
  0
DICTIONARY
  5
37A
330
3F
100
AcDbDictionary
280
     1
281
     1
  3
ACAD_XREC_ROUNDTRIP
360
37B
  0
DICTIONARY
  5
36A
330
37
100
AcDbDictionary
280
     1
281
     1
  3
ACAD_XREC_ROUNDTRIP
360
36B
  0
DICTIONARY
  5
35C
330
30
100
AcDbDictionary
280
     1
281
     1
  3
ACAD_XREC_ROUNDTRIP
360
35D
  0
DICTIONARY
  5
37C
330
40
100
AcDbDictionary
280
     1
281
     1
  3
ACAD_XREC_ROUNDTRIP
360
37D
  0
XRECORD
  5
386
102
{ACAD_REACTORS
330
385
102
}
330
385
100
AcDbXrecord
280
     1
102
DISPLAYNAME
  1
Metric50
102
FLAGS
 90
        0
  0
XRECORD
  5
2D6
102
{ACAD_REACTORS
330
2D5
102
}
330
2D5
100
AcDbXrecord
280
     1
102
MATERIAL
148
0.0
149
0.0
149
0.0
 93
        0
 94
      127
282
     0
 72
     1
 77
     1
171
     1
175
     1
179
     1
273
     0
  0
XRECORD
  5
2D4
102
{ACAD_REACTORS
330
2D3
102
}
330
2D3
100
AcDbXrecord
280
     1
102
MATERIAL
148
0.0
149
0.0
149
0.0
 93
        0
 94
      127
282
     0
 72
     1
 77
     1
171
     1
175
     1
179
     1
273
     0
  0
XRECORD
  5
2D8
102
{ACAD_REACTORS
330
2D7
102
}
330
2D7
100
AcDbXrecord
280
     1
102
MATERIAL
148
0.0
149
0.0
149
0.0
 93
        0
 94
      127
282
     0
 72
     1
 77
     1
171
     1
175
     1
179
     1
273
     0
  0
XRECORD
  5
384
102
{ACAD_REACTORS
330
383
102
}
330
383
100
AcDbXrecord
280
     1
102
DISPLAYNAME
  1
Metric50
102
FLAGS
 90
        0
  0
CELLSTYLEMAP
  5
350
102
{ACAD_REACTORS
330
2D9
102
}
330
2D9
100
AcDbCellStyleMap
 90
        3
300
CELLSTYLE
  1
TABLEFORMAT_BEGIN
 90
        5
170
     1
 91
        0
 92
    32768
 62
   257
 93
        1
300
CONTENTFORMAT
  1
CONTENTFORMAT_BEGIN
 90
        0
 91
        0
 92
        4
 93
        0
300

 40
0.0
140
1.0
 94
        5
 62
     0
340
11
144
0.25
309
CONTENTFORMAT_END
171
     1
301
MARGIN
  1
CELLMARGIN_BEGIN
 40
0.06
 40
0.06
 40
0.06
 40
0.06
 40
0.18
 40
0.18
309
CELLMARGIN_END
 94
        6
 95
        1
302
GRIDFORMAT
  1
GRIDFORMAT_BEGIN
 90
        0
 91
        1
 62
     0
 92
       -2
340
14
 93
        0
 40
0.045
309
GRIDFORMAT_END
 95
        2
302
GRIDFORMAT
  1
GRIDFORMAT_BEGIN
 90
        0
 91
        1
 62
     0
 92
       -2
340
14
 93
        0
 40
0.045
309
GRIDFORMAT_END
 95
        4
302
GRIDFORMAT
  1
GRIDFORMAT_BEGIN
 90
        0
 91
        1
 62
     0
 92
       -2
340
14
 93
        0
 40
0.045
309
GRIDFORMAT_END
 95
        8
302
GRIDFORMAT
  1
GRIDFORMAT_BEGIN
 90
        0
 91
        1
 62
     0
 92
       -2
340
14
 93
        0
 40
0.045
309
GRIDFORMAT_END
 95
       16
302
GRIDFORMAT
  1
GRIDFORMAT_BEGIN
 90
        0
 91
        1
 62
     0
 92
       -2
340
14
 93
        0
 40
0.045
309
GRIDFORMAT_END
 95
       32
302
GRIDFORMAT
  1
GRIDFORMAT_BEGIN
 90
        0
 91
        1
 62
     0
 92
       -2
340
14
 93
        0
 40
0.045
309
GRIDFORMAT_END
309
TABLEFORMAT_END
  1
CELLSTYLE_BEGIN
 90
        1
 91
        1
300
_TITLE
309
CELLSTYLE_END
300
CELLSTYLE
  1
TABLEFORMAT_BEGIN
 90
        5
170
     1
 91
        0
 92
        0
 62
   257
 93
        1
300
CONTENTFORMAT
  1
CONTENTFORMAT_BEGIN
 90
        0
 91
        0
 92
        4
 93
        0
300

 40
0.0
140
1.0
 94
        5
 62
     0
340
11
144
0.18
309
CONTENTFORMAT_END
171
     1
301
MARGIN
  1
CELLMARGIN_BEGIN
 40
0.06
 40
0.06
 40
0.06
 40
0.06
 40
0.18
 40
0.18
309
CELLMARGIN_END
 94
        6
 95
        1
302
GRIDFORMAT
  1
GRIDFORMAT_BEGIN
 90
        0
 91
        1
 62
     0
 92
       -2
340
14
 93
        0
 40
0.045
309
GRIDFORMAT_END
 95
        2
302
GRIDFORMAT
  1
GRIDFORMAT_BEGIN
 90
        0
 91
        1
 62
     0
 92
       -2
340
14
 93
        0
 40
0.045
309
GRIDFORMAT_END
 95
        4
302
GRIDFORMAT
  1
GRIDFORMAT_BEGIN
 90
        0
 91
        1
 62
     0
 92
       -2
340
14
 93
        0
 40
0.045
309
GRIDFORMAT_END
 95
        8
302
GRIDFORMAT
  1
GRIDFORMAT_BEGIN
 90
        0
 91
        1
 62
     0
 92
       -2
340
14
 93
        0
 40
0.045
309
GRIDFORMAT_END
 95
       16
302
GRIDFORMAT
  1
GRIDFORMAT_BEGIN
 90
        0
 91
        1
 62
     0
 92
       -2
340
14
 93
        0
 40
0.045
309
GRIDFORMAT_END
 95
       32
302
GRIDFORMAT
  1
GRIDFORMAT_BEGIN
 90
        0
 91
        1
 62
     0
 92
       -2
340
14
 93
        0
 40
0.045
309
GRIDFORMAT_END
309
TABLEFORMAT_END
  1
CELLSTYLE_BEGIN
 90
        2
 91
        1
300
_HEADER
309
CELLSTYLE_END
300
CELLSTYLE
  1
TABLEFORMAT_BEGIN
 90
        5
170
     1
 91
        0
 92
        0
 62
   257
 93
        1
300
CONTENTFORMAT
  1
CONTENTFORMAT_BEGIN
 90
        0
 91
        0
 92
        4
 93
        0
300

 40
0.0
140
1.0
 94
        2
 62
     0
340
11
144
0.18
309
CONTENTFORMAT_END
171
     1
301
MARGIN
  1
CELLMARGIN_BEGIN
 40
0.06
 40
0.06
 40
0.06
 40
0.06
 40
0.18
 40
0.18
309
CELLMARGIN_END
 94
        6
 95
        1
302
GRIDFORMAT
  1
GRIDFORMAT_BEGIN
 90
        0
 91
        1
 62
     0
 92
       -2
340
14
 93
        0
 40
0.045
309
GRIDFORMAT_END
 95
        2
302
GRIDFORMAT
  1
GRIDFORMAT_BEGIN
 90
        0
 91
        1
 62
     0
 92
       -2
340
14
 93
        0
 40
0.045
309
GRIDFORMAT_END
 95
        4
302
GRIDFORMAT
  1
GRIDFORMAT_BEGIN
 90
        0
 91
        1
 62
     0
 92
       -2
340
14
 93
        0
 40
0.045
309
GRIDFORMAT_END
 95
        8
302
GRIDFORMAT
  1
GRIDFORMAT_BEGIN
 90
        0
 91
        1
 62
     0
 92
       -2
340
14
 93
        0
 40
0.045
309
GRIDFORMAT_END
 95
       16
302
GRIDFORMAT
  1
GRIDFORMAT_BEGIN
 90
        0
 91
        1
 62
     0
 92
       -2
340
14
 93
        0
 40
0.045
309
GRIDFORMAT_END
 95
       32
302
GRIDFORMAT
  1
GRIDFORMAT_BEGIN
 90
        0
 91
        1
 62
     0
 92
       -2
340
14
 93
        0
 40
0.045
309
GRIDFORMAT_END
309
TABLEFORMAT_END
  1
CELLSTYLE_BEGIN
 90
        3
 91
        2
300
_DATA
309
CELLSTYLE_END
  0
XRECORD
  5
382
102
{ACAD_REACTORS
330
2D9
102
}
330
2D9
100
AcDbXrecord
280
     1
102
ACAD_ROUNDTRIP_PRE2007_TABLESTYLE
 90
        4
 91
        0
  1

 92
        4
 93
        0
  2

 94
        4
 95
        0
  3

  0
XRECORD
  5
35B
102
{ACAD_REACTORS
330
35A
102
}
330
35A
100
AcDbXrecord
280
     1
102
RTVSPost2010Prop28
280
     1
102
RTVSPost2010PropOp28
 70
     1
102
RTVSPost2010Prop29
280
     1
102
RTVSPost2010PropOp29
 70
     1
102
RTVSPost2010Prop30
280
     0
102
RTVSPost2010PropOp30
 70
     1
102
RTVSPost2010Prop31
280
     0
102
RTVSPost2010PropOp31
 70
     1
102
RTVSPost2010Prop32
280
     0
102
RTVSPost2010PropOp32
 70
     1
102
RTVSPost2010Prop33
280
     0
102
RTVSPost2010PropOp33
 70
     1
102
RTVSPost2010Prop34
280
     0
102
RTVSPost2010PropOp34
 70
     1
102
RTVSPost2010Prop35
280
     0
102
RTVSPost2010PropOp35
 70
     1
102
RTVSPost2010Prop36
280
     0
102
RTVSPost2010PropOp36
 70
     1
102
RTVSPost2010Prop37
 90
       50
102
RTVSPost2010PropOp37
 70
     1
102
RTVSPost2010Prop38
140
0.0
102
RTVSPost2010PropOp38
 70
     1
102
RTVSPost2010Prop39
140
1.0
102
RTVSPost2010PropOp39
 70
     1
102
RTVSPost2010Prop40
 90
        0
102
RTVSPost2010PropOp40
 70
     1
102
RTVSPost2010Prop41ColorIndex
 90
       18
102
RTVSPost2010Prop41ColorRGB
 90
        0
102
RTVSPost2010PropOp41
 70
     1
102
RTVSPost2010Prop42
 90
       50
102
RTVSPost2010PropOp42
 70
     1
102
RTVSPost2010Prop43
 90
        3
102
RTVSPost2010PropOp43
 70
     1
102
RTVSPost2010Prop44ColorIndex
 90
        5
102
RTVSPost2010Prop44ColorRGB
 90
      255
102
RTVSPost2010PropOp44
 70
     1
102
RTVSPost2010Prop45
280
     0
102
RTVSPost2010PropOp45
 70
     1
102
RTVSPost2010Prop46
 90
       50
102
RTVSPost2010PropOp46
 70
     1
102
RTVSPost2010Prop47
 90
       50
102
RTVSPost2010PropOp47
 70
     1
102
RTVSPost2010Prop48
 90
       50
102
RTVSPost2010PropOp48
 70
     1
102
RTVSPost2010Prop49
280
     0
102
RTVSPost2010PropOp49
 70
     1
102
RTVSPost2010Prop50
 90
       50
102
RTVSPost2010PropOp50
 70
     1
102
RTVSPost2010Prop51ColorIndex
 90
      256
102
RTVSPost2010Prop51ColorRGB
 90
-16777216
102
RTVSPost2010PropOp51
 70
     0
102
RTVSPost2010Prop52
140
1.0
102
RTVSPost2010PropOp52
 70
     0
102
RTVSPost2010Prop53
 90
        2
102
RTVSPost2010PropOp53
 70
     1
102
RTVSPost2010Prop54
  1
strokes_ogs.tif
102
RTVSPost2010PropOp54
 70
     1
102
RTVSPost2010Prop55
280
     0
102
RTVSPost2010PropOp55
 70
     1
102
RTVSPost2010Prop56
140
1.0
102
RTVSPost2010PropOp56
 70
     1
102
RTVSPost2010Prop57
140
1.0
102
RTVSPost2010PropOp57
 70
     1
102
RTVSPropertyOp0
 70
     1
102
RTVSPropertyOp1
 70
     1
102
RTVSPropertyOp2
 70
     1
102
RTVSPropertyOp3
 70
     1
102
RTVSPropertyOp4
 70
     1
102
RTVSPropertyOp5
 70
     1
102
RTVSPropertyOp6
 70
     1
102
RTVSPropertyOp7
 70
     1
102
RTVSPropertyOp8
 70
     1
102
RTVSPropertyOp9
 70
     1
102
RTVSPropertyOp10
 70
     1
102
RTVSPropertyOp11
 70
     1
102
RTVSPropertyOp12
 70
     1
102
RTVSPropertyOp13
 70
     1
102
RTVSPropertyOp14
 70
     1
102
RTVSPropertyOp15
 70
     1
102
RTVSPropertyOp16
 70
     1
102
RTVSPropertyOp17
 70
     1
102
RTVSPropertyOp18
 70
     1
102
RTVSPropertyOp19
 70
     1
102
RTVSPropertyOp20
 70
     1
102
RTVSPropertyOp21
 70
     1
102
RTVSPropertyOp22
 70
     1
102
RTVSPropertyOp23
 70
     1
102
RTVSPropertyOp24
 70
     1
102
RTVSPropertyOp25
 70
     1
102
RTVSPropertyOp26
 70
     1
102
RTVSPropertyOp27
 70
     1
102
RTVSPropertyOp28
 70
     1
102
RTVSPropertyOp29
 70
     1
102
RTVSPropertyOp30
 70
     1
102
RTVSPropertyOp31
 70
     1
102
RTVSPropertyOp32
 70
     1
102
RTVSPropertyOp33
 70
     1
102
RTVSPropertyOp34
 70
     1
102
RTVSPropertyOp35
 70
     1
102
RTVSPropertyOp36
 70
     1
102
RTVSPropertyOp37
 70
     1
102
RTVSPropertyOp38
 70
     1
102
RTVSPropertyOp39
 70
     1
102
RTVSPropertyOp40
 70
     1
102
RTVSPropertyOp41
 70
     1
102
RTVSPropertyOp42
 70
     1
102
RTVSPropertyOp43
 70
     1
102
RTVSPropertyOp44
 70
     1
102
RTVSPropertyOp45
 70
     1
102
RTVSPropertyOp46
 70
     1
102
RTVSPropertyOp47
 70
     1
102
RTVSPropertyOp48
 70
     1
102
RTVSPropertyOp49
 70
     1
102
RTVSPropertyOp50
 70
     1
102
RTVSPropertyOp51
 70
     0
102
RTVSPropertyOp52
 70
     0
102
RTVSPropertyOp53
 70
     1
102
RTVSPropertyOp54
 70
     1
102
RTVSPropertyOp55
 70
     1
102
RTVSPropertyOp56
 70
     1
102
RTVSPropertyOp57
 70
     1
102
RTVSPropertyOp58
 70
     1
102
RTVSPropertyOp59
 70
     1
102
RTVSPropertyOp60
 70
     1
102
RTVSPropertyOp61
 70
     1
102
RTVSPropertyOp62
 70
     1
  0
XRECORD
  5
361
102
{ACAD_REACTORS
330
360
102
}
330
360
100
AcDbXrecord
280
     1
102
RTVSPost2010Prop28
280
     0
102
RTVSPost2010PropOp28
 70
     1
102
RTVSPost2010Prop29
280
     1
102
RTVSPost2010PropOp29
 70
     1
102
RTVSPost2010Prop30
280
     1
102
RTVSPost2010PropOp30
 70
     1
102
RTVSPost2010Prop31
280
     0
102
RTVSPost2010PropOp31
 70
     1
102
RTVSPost2010Prop32
280
     0
102
RTVSPost2010PropOp32
 70
     1
102
RTVSPost2010Prop33
280
     0
102
RTVSPost2010PropOp33
 70
     1
102
RTVSPost2010Prop34
280
     0
102
RTVSPost2010PropOp34
 70
     1
102
RTVSPost2010Prop35
280
     0
102
RTVSPost2010PropOp35
 70
     1
102
RTVSPost2010Prop36
280
     0
102
RTVSPost2010PropOp36
 70
     1
102
RTVSPost2010Prop37
 90
       50
102
RTVSPost2010PropOp37
 70
     1
102
RTVSPost2010Prop38
140
0.0
102
RTVSPost2010PropOp38
 70
     1
102
RTVSPost2010Prop39
140
1.0
102
RTVSPost2010PropOp39
 70
     1
102
RTVSPost2010Prop40
 90
        0
102
RTVSPost2010PropOp40
 70
     1
102
RTVSPost2010Prop41ColorIndex
 90
       18
102
RTVSPost2010Prop41ColorRGB
 90
        0
102
RTVSPost2010PropOp41
 70
     1
102
RTVSPost2010Prop42
 90
       50
102
RTVSPost2010PropOp42
 70
     1
102
RTVSPost2010Prop43
 90
        3
102
RTVSPost2010PropOp43
 70
     1
102
RTVSPost2010Prop44ColorIndex
 90
        5
102
RTVSPost2010Prop44ColorRGB
 90
      255
102
RTVSPost2010PropOp44
 70
     1
102
RTVSPost2010Prop45
280
     0
102
RTVSPost2010PropOp45
 70
     1
102
RTVSPost2010Prop46
 90
       50
102
RTVSPost2010PropOp46
 70
     1
102
RTVSPost2010Prop47
 90
       50
102
RTVSPost2010PropOp47
 70
     1
102
RTVSPost2010Prop48
 90
       50
102
RTVSPost2010PropOp48
 70
     1
102
RTVSPost2010Prop49
280
     0
102
RTVSPost2010PropOp49
 70
     1
102
RTVSPost2010Prop50
 90
       50
102
RTVSPost2010PropOp50
 70
     1
102
RTVSPost2010Prop51ColorIndex
 90
      256
102
RTVSPost2010Prop51ColorRGB
 90
-16777216
102
RTVSPost2010PropOp51
 70
     0
102
RTVSPost2010Prop52
140
1.0
102
RTVSPost2010PropOp52
 70
     0
102
RTVSPost2010Prop53
 90
        2
102
RTVSPost2010PropOp53
 70
     1
102
RTVSPost2010Prop54
  1
strokes_ogs.tif
102
RTVSPost2010PropOp54
 70
     1
102
RTVSPost2010Prop55
280
     0
102
RTVSPost2010PropOp55
 70
     1
102
RTVSPost2010Prop56
140
1.0
102
RTVSPost2010PropOp56
 70
     1
102
RTVSPost2010Prop57
140
1.0
102
RTVSPost2010PropOp57
 70
     1
102
RTVSPropertyOp0
 70
     1
102
RTVSPropertyOp1
 70
     1
102
RTVSPropertyOp2
 70
     1
102
RTVSPropertyOp3
 70
     1
102
RTVSPropertyOp4
 70
     1
102
RTVSPropertyOp5
 70
     1
102
RTVSPropertyOp6
 70
     1
102
RTVSPropertyOp7
 70
     1
102
RTVSPropertyOp8
 70
     1
102
RTVSPropertyOp9
 70
     1
102
RTVSPropertyOp10
 70
     1
102
RTVSPropertyOp11
 70
     1
102
RTVSPropertyOp12
 70
     1
102
RTVSPropertyOp13
 70
     1
102
RTVSPropertyOp14
 70
     1
102
RTVSPropertyOp15
 70
     1
102
RTVSPropertyOp16
 70
     1
102
RTVSPropertyOp17
 70
     1
102
RTVSPropertyOp18
 70
     1
102
RTVSPropertyOp19
 70
     1
102
RTVSPropertyOp20
 70
     1
102
RTVSPropertyOp21
 70
     1
102
RTVSPropertyOp22
 70
     1
102
RTVSPropertyOp23
 70
     1
102
RTVSPropertyOp24
 70
     1
102
RTVSPropertyOp25
 70
     1
102
RTVSPropertyOp26
 70
     1
102
RTVSPropertyOp27
 70
     1
102
RTVSPropertyOp28
 70
     1
102
RTVSPropertyOp29
 70
     1
102
RTVSPropertyOp30
 70
     1
102
RTVSPropertyOp31
 70
     1
102
RTVSPropertyOp32
 70
     1
102
RTVSPropertyOp33
 70
     1
102
RTVSPropertyOp34
 70
     1
102
RTVSPropertyOp35
 70
     1
102
RTVSPropertyOp36
 70
     1
102
RTVSPropertyOp37
 70
     1
102
RTVSPropertyOp38
 70
     1
102
RTVSPropertyOp39
 70
     1
102
RTVSPropertyOp40
 70
     1
102
RTVSPropertyOp41
 70
     1
102
RTVSPropertyOp42
 70
     1
102
RTVSPropertyOp43
 70
     1
102
RTVSPropertyOp44
 70
     1
102
RTVSPropertyOp45
 70
     1
102
RTVSPropertyOp46
 70
     1
102
RTVSPropertyOp47
 70
     1
102
RTVSPropertyOp48
 70
     1
102
RTVSPropertyOp49
 70
     1
102
RTVSPropertyOp50
 70
     1
102
RTVSPropertyOp51
 70
     0
102
RTVSPropertyOp52
 70
     0
102
RTVSPropertyOp53
 70
     1
102
RTVSPropertyOp54
 70
     1
102
RTVSPropertyOp55
 70
     1
102
RTVSPropertyOp56
 70
     1
102
RTVSPropertyOp57
 70
     1
102
RTVSPropertyOp58
 70
     1
102
RTVSPropertyOp59
 70
     1
102
RTVSPropertyOp60
 70
     1
102
RTVSPropertyOp61
 70
     1
102
RTVSPropertyOp62
 70
     1
  0
XRECORD
  5
369
102
{ACAD_REACTORS
330
368
102
}
330
368
100
AcDbXrecord
280
     1
102
RTVSPost2010Prop28
280
     0
102
RTVSPost2010PropOp28
 70
     1
102
RTVSPost2010Prop29
280
     1
102
RTVSPost2010PropOp29
 70
     1
102
RTVSPost2010Prop30
280
     1
102
RTVSPost2010PropOp30
 70
     1
102
RTVSPost2010Prop31
280
     0
102
RTVSPost2010PropOp31
 70
     1
102
RTVSPost2010Prop32
280
     0
102
RTVSPost2010PropOp32
 70
     1
102
RTVSPost2010Prop33
280
     0
102
RTVSPost2010PropOp33
 70
     1
102
RTVSPost2010Prop34
280
     0
102
RTVSPost2010PropOp34
 70
     1
102
RTVSPost2010Prop35
280
     0
102
RTVSPost2010PropOp35
 70
     1
102
RTVSPost2010Prop36
280
     0
102
RTVSPost2010PropOp36
 70
     1
102
RTVSPost2010Prop37
 90
       50
102
RTVSPost2010PropOp37
 70
     1
102
RTVSPost2010Prop38
140
0.0
102
RTVSPost2010PropOp38
 70
     1
102
RTVSPost2010Prop39
140
1.0
102
RTVSPost2010PropOp39
 70
     1
102
RTVSPost2010Prop40
 90
        0
102
RTVSPost2010PropOp40
 70
     1
102
RTVSPost2010Prop41ColorIndex
 90
       18
102
RTVSPost2010Prop41ColorRGB
 90
        0
102
RTVSPost2010PropOp41
 70
     1
102
RTVSPost2010Prop42
 90
       50
102
RTVSPost2010PropOp42
 70
     1
102
RTVSPost2010Prop43
 90
        3
102
RTVSPost2010PropOp43
 70
     1
102
RTVSPost2010Prop44ColorIndex
 90
        5
102
RTVSPost2010Prop44ColorRGB
 90
      255
102
RTVSPost2010PropOp44
 70
     1
102
RTVSPost2010Prop45
280
     0
102
RTVSPost2010PropOp45
 70
     1
102
RTVSPost2010Prop46
 90
       50
102
RTVSPost2010PropOp46
 70
     1
102
RTVSPost2010Prop47
 90
       50
102
RTVSPost2010PropOp47
 70
     1
102
RTVSPost2010Prop48
 90
       50
102
RTVSPost2010PropOp48
 70
     1
102
RTVSPost2010Prop49
280
     0
102
RTVSPost2010PropOp49
 70
     1
102
RTVSPost2010Prop50
 90
       50
102
RTVSPost2010PropOp50
 70
     1
102
RTVSPost2010Prop51ColorIndex
 90
      256
102
RTVSPost2010Prop51ColorRGB
 90
-16777216
102
RTVSPost2010PropOp51
 70
     0
102
RTVSPost2010Prop52
140
1.0
102
RTVSPost2010PropOp52
 70
     0
102
RTVSPost2010Prop53
 90
        2
102
RTVSPost2010PropOp53
 70
     1
102
RTVSPost2010Prop54
  1
strokes_ogs.tif
102
RTVSPost2010PropOp54
 70
     1
102
RTVSPost2010Prop55
280
     0
102
RTVSPost2010PropOp55
 70
     1
102
RTVSPost2010Prop56
140
1.0
102
RTVSPost2010PropOp56
 70
     1
102
RTVSPost2010Prop57
140
1.0
102
RTVSPost2010PropOp57
 70
     1
102
RTVSPropertyOp0
 70
     1
102
RTVSPropertyOp1
 70
     1
102
RTVSPropertyOp2
 70
     1
102
RTVSPropertyOp3
 70
     1
102
RTVSPropertyOp4
 70
     1
102
RTVSPropertyOp5
 70
     1
102
RTVSPropertyOp6
 70
     1
102
RTVSPropertyOp7
 70
     1
102
RTVSPropertyOp8
 70
     1
102
RTVSPropertyOp9
 70
     1
102
RTVSPropertyOp10
 70
     1
102
RTVSPropertyOp11
 70
     1
102
RTVSPropertyOp12
 70
     1
102
RTVSPropertyOp13
 70
     1
102
RTVSPropertyOp14
 70
     1
102
RTVSPropertyOp15
 70
     1
102
RTVSPropertyOp16
 70
     1
102
RTVSPropertyOp17
 70
     1
102
RTVSPropertyOp18
 70
     1
102
RTVSPropertyOp19
 70
     1
102
RTVSPropertyOp20
 70
     1
102
RTVSPropertyOp21
 70
     1
102
RTVSPropertyOp22
 70
     1
102
RTVSPropertyOp23
 70
     1
102
RTVSPropertyOp24
 70
     1
102
RTVSPropertyOp25
 70
     1
102
RTVSPropertyOp26
 70
     1
102
RTVSPropertyOp27
 70
     1
102
RTVSPropertyOp28
 70
     1
102
RTVSPropertyOp29
 70
     1
102
RTVSPropertyOp30
 70
     1
102
RTVSPropertyOp31
 70
     1
102
RTVSPropertyOp32
 70
     1
102
RTVSPropertyOp33
 70
     1
102
RTVSPropertyOp34
 70
     1
102
RTVSPropertyOp35
 70
     1
102
RTVSPropertyOp36
 70
     1
102
RTVSPropertyOp37
 70
     1
102
RTVSPropertyOp38
 70
     1
102
RTVSPropertyOp39
 70
     1
102
RTVSPropertyOp40
 70
     1
102
RTVSPropertyOp41
 70
     1
102
RTVSPropertyOp42
 70
     1
102
RTVSPropertyOp43
 70
     1
102
RTVSPropertyOp44
 70
     1
102
RTVSPropertyOp45
 70
     1
102
RTVSPropertyOp46
 70
     1
102
RTVSPropertyOp47
 70
     1
102
RTVSPropertyOp48
 70
     1
102
RTVSPropertyOp49
 70
     1
102
RTVSPropertyOp50
 70
     1
102
RTVSPropertyOp51
 70
     0
102
RTVSPropertyOp52
 70
     0
102
RTVSPropertyOp53
 70
     1
102
RTVSPropertyOp54
 70
     1
102
RTVSPropertyOp55
 70
     1
102
RTVSPropertyOp56
 70
     1
102
RTVSPropertyOp57
 70
     1
102
RTVSPropertyOp58
 70
     1
102
RTVSPropertyOp59
 70
     1
102
RTVSPropertyOp60
 70
     1
102
RTVSPropertyOp61
 70
     1
102
RTVSPropertyOp62
 70
     1
  0
XRECORD
  5
371
102
{ACAD_REACTORS
330
370
102
}
330
370
100
AcDbXrecord
280
     1
102
RTVSPost2010Prop28
280
     0
102
RTVSPost2010PropOp28
 70
     1
102
RTVSPost2010Prop29
280
     1
102
RTVSPost2010PropOp29
 70
     1
102
RTVSPost2010Prop30
280
     1
102
RTVSPost2010PropOp30
 70
     1
102
RTVSPost2010Prop31
280
     0
102
RTVSPost2010PropOp31
 70
     1
102
RTVSPost2010Prop32
280
     0
102
RTVSPost2010PropOp32
 70
     1
102
RTVSPost2010Prop33
280
     0
102
RTVSPost2010PropOp33
 70
     1
102
RTVSPost2010Prop34
280
     0
102
RTVSPost2010PropOp34
 70
     1
102
RTVSPost2010Prop35
280
     0
102
RTVSPost2010PropOp35
 70
     1
102
RTVSPost2010Prop36
280
     0
102
RTVSPost2010PropOp36
 70
     1
102
RTVSPost2010Prop37
 90
       50
102
RTVSPost2010PropOp37
 70
     1
102
RTVSPost2010Prop38
140
0.0
102
RTVSPost2010PropOp38
 70
     1
102
RTVSPost2010Prop39
140
1.0
102
RTVSPost2010PropOp39
 70
     1
102
RTVSPost2010Prop40
 90
        0
102
RTVSPost2010PropOp40
 70
     1
102
RTVSPost2010Prop41ColorIndex
 90
       18
102
RTVSPost2010Prop41ColorRGB
 90
        0
102
RTVSPost2010PropOp41
 70
     1
102
RTVSPost2010Prop42
 90
       50
102
RTVSPost2010PropOp42
 70
     1
102
RTVSPost2010Prop43
 90
        3
102
RTVSPost2010PropOp43
 70
     1
102
RTVSPost2010Prop44ColorIndex
 90
        5
102
RTVSPost2010Prop44ColorRGB
 90
      255
102
RTVSPost2010PropOp44
 70
     1
102
RTVSPost2010Prop45
280
     0
102
RTVSPost2010PropOp45
 70
     1
102
RTVSPost2010Prop46
 90
       50
102
RTVSPost2010PropOp46
 70
     1
102
RTVSPost2010Prop47
 90
       50
102
RTVSPost2010PropOp47
 70
     1
102
RTVSPost2010Prop48
 90
       50
102
RTVSPost2010PropOp48
 70
     1
102
RTVSPost2010Prop49
280
     0
102
RTVSPost2010PropOp49
 70
     1
102
RTVSPost2010Prop50
 90
       50
102
RTVSPost2010PropOp50
 70
     1
102
RTVSPost2010Prop51ColorIndex
 90
      256
102
RTVSPost2010Prop51ColorRGB
 90
-16777216
102
RTVSPost2010PropOp51
 70
     0
102
RTVSPost2010Prop52
140
1.0
102
RTVSPost2010PropOp52
 70
     0
102
RTVSPost2010Prop53
 90
        2
102
RTVSPost2010PropOp53
 70
     1
102
RTVSPost2010Prop54
  1
strokes_ogs.tif
102
RTVSPost2010PropOp54
 70
     1
102
RTVSPost2010Prop55
280
     0
102
RTVSPost2010PropOp55
 70
     1
102
RTVSPost2010Prop56
140
1.0
102
RTVSPost2010PropOp56
 70
     1
102
RTVSPost2010Prop57
140
1.0
102
RTVSPost2010PropOp57
 70
     1
102
RTVSPropertyOp0
 70
     1
102
RTVSPropertyOp1
 70
     1
102
RTVSPropertyOp2
 70
     1
102
RTVSPropertyOp3
 70
     1
102
RTVSPropertyOp4
 70
     1
102
RTVSPropertyOp5
 70
     1
102
RTVSPropertyOp6
 70
     1
102
RTVSPropertyOp7
 70
     1
102
RTVSPropertyOp8
 70
     1
102
RTVSPropertyOp9
 70
     1
102
RTVSPropertyOp10
 70
     1
102
RTVSPropertyOp11
 70
     1
102
RTVSPropertyOp12
 70
     1
102
RTVSPropertyOp13
 70
     1
102
RTVSPropertyOp14
 70
     1
102
RTVSPropertyOp15
 70
     1
102
RTVSPropertyOp16
 70
     1
102
RTVSPropertyOp17
 70
     1
102
RTVSPropertyOp18
 70
     1
102
RTVSPropertyOp19
 70
     1
102
RTVSPropertyOp20
 70
     1
102
RTVSPropertyOp21
 70
     1
102
RTVSPropertyOp22
 70
     1
102
RTVSPropertyOp23
 70
     1
102
RTVSPropertyOp24
 70
     1
102
RTVSPropertyOp25
 70
     1
102
RTVSPropertyOp26
 70
     1
102
RTVSPropertyOp27
 70
     1
102
RTVSPropertyOp28
 70
     1
102
RTVSPropertyOp29
 70
     1
102
RTVSPropertyOp30
 70
     1
102
RTVSPropertyOp31
 70
     1
102
RTVSPropertyOp32
 70
     1
102
RTVSPropertyOp33
 70
     1
102
RTVSPropertyOp34
 70
     1
102
RTVSPropertyOp35
 70
     1
102
RTVSPropertyOp36
 70
     1
102
RTVSPropertyOp37
 70
     1
102
RTVSPropertyOp38
 70
     1
102
RTVSPropertyOp39
 70
     1
102
RTVSPropertyOp40
 70
     1
102
RTVSPropertyOp41
 70
     1
102
RTVSPropertyOp42
 70
     1
102
RTVSPropertyOp43
 70
     1
102
RTVSPropertyOp44
 70
     1
102
RTVSPropertyOp45
 70
     1
102
RTVSPropertyOp46
 70
     1
102
RTVSPropertyOp47
 70
     1
102
RTVSPropertyOp48
 70
     1
102
RTVSPropertyOp49
 70
     1
102
RTVSPropertyOp50
 70
     1
102
RTVSPropertyOp51
 70
     0
102
RTVSPropertyOp52
 70
     0
102
RTVSPropertyOp53
 70
     1
102
RTVSPropertyOp54
 70
     1
102
RTVSPropertyOp55
 70
     1
102
RTVSPropertyOp56
 70
     1
102
RTVSPropertyOp57
 70
     1
102
RTVSPropertyOp58
 70
     1
102
RTVSPropertyOp59
 70
     1
102
RTVSPropertyOp60
 70
     1
102
RTVSPropertyOp61
 70
     1
102
RTVSPropertyOp62
 70
     1
  0
XRECORD
  5
365
102
{ACAD_REACTORS
330
364
102
}
330
364
100
AcDbXrecord
280
     1
102
RTVSPost2010Prop28
280
     0
102
RTVSPost2010PropOp28
 70
     1
102
RTVSPost2010Prop29
280
     1
102
RTVSPost2010PropOp29
 70
     1
102
RTVSPost2010Prop30
280
     1
102
RTVSPost2010PropOp30
 70
     1
102
RTVSPost2010Prop31
280
     0
102
RTVSPost2010PropOp31
 70
     1
102
RTVSPost2010Prop32
280
     0
102
RTVSPost2010PropOp32
 70
     1
102
RTVSPost2010Prop33
280
     0
102
RTVSPost2010PropOp33
 70
     1
102
RTVSPost2010Prop34
280
     0
102
RTVSPost2010PropOp34
 70
     1
102
RTVSPost2010Prop35
280
     0
102
RTVSPost2010PropOp35
 70
     1
102
RTVSPost2010Prop36
280
     0
102
RTVSPost2010PropOp36
 70
     1
102
RTVSPost2010Prop37
 90
       50
102
RTVSPost2010PropOp37
 70
     1
102
RTVSPost2010Prop38
140
0.0
102
RTVSPost2010PropOp38
 70
     1
102
RTVSPost2010Prop39
140
1.0
102
RTVSPost2010PropOp39
 70
     1
102
RTVSPost2010Prop40
 90
        0
102
RTVSPost2010PropOp40
 70
     1
102
RTVSPost2010Prop41ColorIndex
 90
       18
102
RTVSPost2010Prop41ColorRGB
 90
        0
102
RTVSPost2010PropOp41
 70
     1
102
RTVSPost2010Prop42
 90
       50
102
RTVSPost2010PropOp42
 70
     1
102
RTVSPost2010Prop43
 90
        3
102
RTVSPost2010PropOp43
 70
     1
102
RTVSPost2010Prop44ColorIndex
 90
        5
102
RTVSPost2010Prop44ColorRGB
 90
      255
102
RTVSPost2010PropOp44
 70
     1
102
RTVSPost2010Prop45
280
     0
102
RTVSPost2010PropOp45
 70
     1
102
RTVSPost2010Prop46
 90
       50
102
RTVSPost2010PropOp46
 70
     1
102
RTVSPost2010Prop47
 90
       50
102
RTVSPost2010PropOp47
 70
     1
102
RTVSPost2010Prop48
 90
       50
102
RTVSPost2010PropOp48
 70
     1
102
RTVSPost2010Prop49
280
     0
102
RTVSPost2010PropOp49
 70
     1
102
RTVSPost2010Prop50
 90
       50
102
RTVSPost2010PropOp50
 70
     1
102
RTVSPost2010Prop51ColorIndex
 90
      256
102
RTVSPost2010Prop51ColorRGB
 90
-16777216
102
RTVSPost2010PropOp51
 70
     0
102
RTVSPost2010Prop52
140
1.0
102
RTVSPost2010PropOp52
 70
     0
102
RTVSPost2010Prop53
 90
        2
102
RTVSPost2010PropOp53
 70
     1
102
RTVSPost2010Prop54
  1
strokes_ogs.tif
102
RTVSPost2010PropOp54
 70
     1
102
RTVSPost2010Prop55
280
     0
102
RTVSPost2010PropOp55
 70
     1
102
RTVSPost2010Prop56
140
1.0
102
RTVSPost2010PropOp56
 70
     1
102
RTVSPost2010Prop57
140
1.0
102
RTVSPost2010PropOp57
 70
     1
102
RTVSPropertyOp0
 70
     1
102
RTVSPropertyOp1
 70
     1
102
RTVSPropertyOp2
 70
     1
102
RTVSPropertyOp3
 70
     1
102
RTVSPropertyOp4
 70
     1
102
RTVSPropertyOp5
 70
     1
102
RTVSPropertyOp6
 70
     1
102
RTVSPropertyOp7
 70
     1
102
RTVSPropertyOp8
 70
     1
102
RTVSPropertyOp9
 70
     1
102
RTVSPropertyOp10
 70
     1
102
RTVSPropertyOp11
 70
     1
102
RTVSPropertyOp12
 70
     1
102
RTVSPropertyOp13
 70
     1
102
RTVSPropertyOp14
 70
     1
102
RTVSPropertyOp15
 70
     1
102
RTVSPropertyOp16
 70
     1
102
RTVSPropertyOp17
 70
     1
102
RTVSPropertyOp18
 70
     1
102
RTVSPropertyOp19
 70
     1
102
RTVSPropertyOp20
 70
     1
102
RTVSPropertyOp21
 70
     1
102
RTVSPropertyOp22
 70
     1
102
RTVSPropertyOp23
 70
     1
102
RTVSPropertyOp24
 70
     1
102
RTVSPropertyOp25
 70
     1
102
RTVSPropertyOp26
 70
     1
102
RTVSPropertyOp27
 70
     1
102
RTVSPropertyOp28
 70
     1
102
RTVSPropertyOp29
 70
     1
102
RTVSPropertyOp30
 70
     1
102
RTVSPropertyOp31
 70
     1
102
RTVSPropertyOp32
 70
     1
102
RTVSPropertyOp33
 70
     1
102
RTVSPropertyOp34
 70
     1
102
RTVSPropertyOp35
 70
     1
102
RTVSPropertyOp36
 70
     1
102
RTVSPropertyOp37
 70
     1
102
RTVSPropertyOp38
 70
     1
102
RTVSPropertyOp39
 70
     1
102
RTVSPropertyOp40
 70
     1
102
RTVSPropertyOp41
 70
     1
102
RTVSPropertyOp42
 70
     1
102
RTVSPropertyOp43
 70
     1
102
RTVSPropertyOp44
 70
     1
102
RTVSPropertyOp45
 70
     1
102
RTVSPropertyOp46
 70
     1
102
RTVSPropertyOp47
 70
     1
102
RTVSPropertyOp48
 70
     1
102
RTVSPropertyOp49
 70
     1
102
RTVSPropertyOp50
 70
     1
102
RTVSPropertyOp51
 70
     0
102
RTVSPropertyOp52
 70
     0
102
RTVSPropertyOp53
 70
     1
102
RTVSPropertyOp54
 70
     1
102
RTVSPropertyOp55
 70
     1
102
RTVSPropertyOp56
 70
     1
102
RTVSPropertyOp57
 70
     1
102
RTVSPropertyOp58
 70
     1
102
RTVSPropertyOp59
 70
     1
102
RTVSPropertyOp60
 70
     1
102
RTVSPropertyOp61
 70
     1
102
RTVSPropertyOp62
 70
     1
  0
XRECORD
  5
367
102
{ACAD_REACTORS
330
366
102
}
330
366
100
AcDbXrecord
280
     1
102
RTVSPost2010Prop28
280
     0
102
RTVSPost2010PropOp28
 70
     1
102
RTVSPost2010Prop29
280
     1
102
RTVSPost2010PropOp29
 70
     1
102
RTVSPost2010Prop30
280
     1
102
RTVSPost2010PropOp30
 70
     1
102
RTVSPost2010Prop31
280
     0
102
RTVSPost2010PropOp31
 70
     1
102
RTVSPost2010Prop32
280
     0
102
RTVSPost2010PropOp32
 70
     1
102
RTVSPost2010Prop33
280
     0
102
RTVSPost2010PropOp33
 70
     1
102
RTVSPost2010Prop34
280
     0
102
RTVSPost2010PropOp34
 70
     1
102
RTVSPost2010Prop35
280
     0
102
RTVSPost2010PropOp35
 70
     1
102
RTVSPost2010Prop36
280
     0
102
RTVSPost2010PropOp36
 70
     1
102
RTVSPost2010Prop37
 90
       50
102
RTVSPost2010PropOp37
 70
     1
102
RTVSPost2010Prop38
140
0.0
102
RTVSPost2010PropOp38
 70
     1
102
RTVSPost2010Prop39
140
1.0
102
RTVSPost2010PropOp39
 70
     1
102
RTVSPost2010Prop40
 90
        0
102
RTVSPost2010PropOp40
 70
     1
102
RTVSPost2010Prop41ColorIndex
 90
       18
102
RTVSPost2010Prop41ColorRGB
 90
        0
102
RTVSPost2010PropOp41
 70
     1
102
RTVSPost2010Prop42
 90
       50
102
RTVSPost2010PropOp42
 70
     1
102
RTVSPost2010Prop43
 90
        3
102
RTVSPost2010PropOp43
 70
     1
102
RTVSPost2010Prop44ColorIndex
 90
        5
102
RTVSPost2010Prop44ColorRGB
 90
      255
102
RTVSPost2010PropOp44
 70
     1
102
RTVSPost2010Prop45
280
     0
102
RTVSPost2010PropOp45
 70
     1
102
RTVSPost2010Prop46
 90
       50
102
RTVSPost2010PropOp46
 70
     1
102
RTVSPost2010Prop47
 90
       50
102
RTVSPost2010PropOp47
 70
     1
102
RTVSPost2010Prop48
 90
       50
102
RTVSPost2010PropOp48
 70
     1
102
RTVSPost2010Prop49
280
     0
102
RTVSPost2010PropOp49
 70
     1
102
RTVSPost2010Prop50
 90
       50
102
RTVSPost2010PropOp50
 70
     1
102
RTVSPost2010Prop51ColorIndex
 90
      256
102
RTVSPost2010Prop51ColorRGB
 90
-16777216
102
RTVSPost2010PropOp51
 70
     0
102
RTVSPost2010Prop52
140
1.0
102
RTVSPost2010PropOp52
 70
     0
102
RTVSPost2010Prop53
 90
        2
102
RTVSPost2010PropOp53
 70
     1
102
RTVSPost2010Prop54
  1
strokes_ogs.tif
102
RTVSPost2010PropOp54
 70
     1
102
RTVSPost2010Prop55
280
     0
102
RTVSPost2010PropOp55
 70
     1
102
RTVSPost2010Prop56
140
1.0
102
RTVSPost2010PropOp56
 70
     1
102
RTVSPost2010Prop57
140
1.0
102
RTVSPost2010PropOp57
 70
     1
102
RTVSPropertyOp0
 70
     1
102
RTVSPropertyOp1
 70
     1
102
RTVSPropertyOp2
 70
     1
102
RTVSPropertyOp3
 70
     1
102
RTVSPropertyOp4
 70
     1
102
RTVSPropertyOp5
 70
     1
102
RTVSPropertyOp6
 70
     1
102
RTVSPropertyOp7
 70
     1
102
RTVSPropertyOp8
 70
     1
102
RTVSPropertyOp9
 70
     1
102
RTVSPropertyOp10
 70
     1
102
RTVSPropertyOp11
 70
     1
102
RTVSPropertyOp12
 70
     1
102
RTVSPropertyOp13
 70
     1
102
RTVSPropertyOp14
 70
     1
102
RTVSPropertyOp15
 70
     1
102
RTVSPropertyOp16
 70
     1
102
RTVSPropertyOp17
 70
     1
102
RTVSPropertyOp18
 70
     1
102
RTVSPropertyOp19
 70
     1
102
RTVSPropertyOp20
 70
     1
102
RTVSPropertyOp21
 70
     1
102
RTVSPropertyOp22
 70
     1
102
RTVSPropertyOp23
 70
     1
102
RTVSPropertyOp24
 70
     1
102
RTVSPropertyOp25
 70
     1
102
RTVSPropertyOp26
 70
     1
102
RTVSPropertyOp27
 70
     1
102
RTVSPropertyOp28
 70
     1
102
RTVSPropertyOp29
 70
     1
102
RTVSPropertyOp30
 70
     1
102
RTVSPropertyOp31
 70
     1
102
RTVSPropertyOp32
 70
     1
102
RTVSPropertyOp33
 70
     1
102
RTVSPropertyOp34
 70
     1
102
RTVSPropertyOp35
 70
     1
102
RTVSPropertyOp36
 70
     1
102
RTVSPropertyOp37
 70
     1
102
RTVSPropertyOp38
 70
     1
102
RTVSPropertyOp39
 70
     1
102
RTVSPropertyOp40
 70
     1
102
RTVSPropertyOp41
 70
     1
102
RTVSPropertyOp42
 70
     1
102
RTVSPropertyOp43
 70
     1
102
RTVSPropertyOp44
 70
     1
102
RTVSPropertyOp45
 70
     1
102
RTVSPropertyOp46
 70
     1
102
RTVSPropertyOp47
 70
     1
102
RTVSPropertyOp48
 70
     1
102
RTVSPropertyOp49
 70
     1
102
RTVSPropertyOp50
 70
     1
102
RTVSPropertyOp51
 70
     0
102
RTVSPropertyOp52
 70
     0
102
RTVSPropertyOp53
 70
     1
102
RTVSPropertyOp54
 70
     1
102
RTVSPropertyOp55
 70
     1
102
RTVSPropertyOp56
 70
     1
102
RTVSPropertyOp57
 70
     1
102
RTVSPropertyOp58
 70
     1
102
RTVSPropertyOp59
 70
     1
102
RTVSPropertyOp60
 70
     1
102
RTVSPropertyOp61
 70
     1
102
RTVSPropertyOp62
 70
     1
  0
XRECORD
  5
377
102
{ACAD_REACTORS
330
376
102
}
330
376
100
AcDbXrecord
280
     1
102
RTVSPost2010Prop28
280
     0
102
RTVSPost2010PropOp28
 70
     0
102
RTVSPost2010Prop29
280
     1
102
RTVSPost2010PropOp29
 70
     0
102
RTVSPost2010Prop30
280
     1
102
RTVSPost2010PropOp30
 70
     0
102
RTVSPost2010Prop31
280
     0
102
RTVSPost2010PropOp31
 70
     0
102
RTVSPost2010Prop32
280
     0
102
RTVSPost2010PropOp32
 70
     0
102
RTVSPost2010Prop33
280
     0
102
RTVSPost2010PropOp33
 70
     0
102
RTVSPost2010Prop34
280
     0
102
RTVSPost2010PropOp34
 70
     0
102
RTVSPost2010Prop35
280
     0
102
RTVSPost2010PropOp35
 70
     0
102
RTVSPost2010Prop36
280
     0
102
RTVSPost2010PropOp36
 70
     0
102
RTVSPost2010Prop37
 90
       50
102
RTVSPost2010PropOp37
 70
     0
102
RTVSPost2010Prop38
140
0.0
102
RTVSPost2010PropOp38
 70
     0
102
RTVSPost2010Prop39
140
1.0
102
RTVSPost2010PropOp39
 70
     0
102
RTVSPost2010Prop40
 90
        0
102
RTVSPost2010PropOp40
 70
     0
102
RTVSPost2010Prop41ColorIndex
 90
       18
102
RTVSPost2010Prop41ColorRGB
 90
        0
102
RTVSPost2010PropOp41
 70
     0
102
RTVSPost2010Prop42
 90
       50
102
RTVSPost2010PropOp42
 70
     0
102
RTVSPost2010Prop43
 90
        3
102
RTVSPost2010PropOp43
 70
     0
102
RTVSPost2010Prop44ColorIndex
 90
        5
102
RTVSPost2010Prop44ColorRGB
 90
      255
102
RTVSPost2010PropOp44
 70
     0
102
RTVSPost2010Prop45
280
     0
102
RTVSPost2010PropOp45
 70
     0
102
RTVSPost2010Prop46
 90
       50
102
RTVSPost2010PropOp46
 70
     0
102
RTVSPost2010Prop47
 90
       50
102
RTVSPost2010PropOp47
 70
     0
102
RTVSPost2010Prop48
 90
       50
102
RTVSPost2010PropOp48
 70
     0
102
RTVSPost2010Prop49
280
     0
102
RTVSPost2010PropOp49
 70
     0
102
RTVSPost2010Prop50
 90
       50
102
RTVSPost2010PropOp50
 70
     0
102
RTVSPost2010Prop51ColorIndex
 90
      256
102
RTVSPost2010Prop51ColorRGB
 90
-16777216
102
RTVSPost2010PropOp51
 70
     0
102
RTVSPost2010Prop52
140
1.0
102
RTVSPost2010PropOp52
 70
     0
102
RTVSPost2010Prop53
 90
        2
102
RTVSPost2010PropOp53
 70
     0
102
RTVSPost2010Prop54
  1
strokes_ogs.tif
102
RTVSPost2010PropOp54
 70
     0
102
RTVSPost2010Prop55
280
     0
102
RTVSPost2010PropOp55
 70
     0
102
RTVSPost2010Prop56
140
1.0
102
RTVSPost2010PropOp56
 70
     0
102
RTVSPost2010Prop57
140
1.0
102
RTVSPost2010PropOp57
 70
     0
102
RTVSPropertyOp0
 70
     0
102
RTVSPropertyOp1
 70
     0
102
RTVSPropertyOp2
 70
     0
102
RTVSPropertyOp3
 70
     0
102
RTVSPropertyOp4
 70
     0
102
RTVSPropertyOp5
 70
     0
102
RTVSPropertyOp6
 70
     0
102
RTVSPropertyOp7
 70
     0
102
RTVSPropertyOp8
 70
     0
102
RTVSPropertyOp9
 70
     0
102
RTVSPropertyOp10
 70
     0
102
RTVSPropertyOp11
 70
     0
102
RTVSPropertyOp12
 70
     0
102
RTVSPropertyOp13
 70
     0
102
RTVSPropertyOp14
 70
     2
102
RTVSPropertyOp15
 70
     0
102
RTVSPropertyOp16
 70
     0
102
RTVSPropertyOp17
 70
     0
102
RTVSPropertyOp18
 70
     0
102
RTVSPropertyOp19
 70
     0
102
RTVSPropertyOp20
 70
     0
102
RTVSPropertyOp21
 70
     0
102
RTVSPropertyOp22
 70
     0
102
RTVSPropertyOp23
 70
     0
102
RTVSPropertyOp24
 70
     0
102
RTVSPropertyOp25
 70
     0
102
RTVSPropertyOp26
 70
     0
102
RTVSPropertyOp27
 70
     0
102
RTVSPropertyOp28
 70
     0
102
RTVSPropertyOp29
 70
     0
102
RTVSPropertyOp30
 70
     0
102
RTVSPropertyOp31
 70
     0
102
RTVSPropertyOp32
 70
     0
102
RTVSPropertyOp33
 70
     0
102
RTVSPropertyOp34
 70
     0
102
RTVSPropertyOp35
 70
     0
102
RTVSPropertyOp36
 70
     0
102
RTVSPropertyOp37
 70
     0
102
RTVSPropertyOp38
 70
     0
102
RTVSPropertyOp39
 70
     0
102
RTVSPropertyOp40
 70
     0
102
RTVSPropertyOp41
 70
     0
102
RTVSPropertyOp42
 70
     0
102
RTVSPropertyOp43
 70
     0
102
RTVSPropertyOp44
 70
     0
102
RTVSPropertyOp45
 70
     0
102
RTVSPropertyOp46
 70
     0
102
RTVSPropertyOp47
 70
     0
102
RTVSPropertyOp48
 70
     0
102
RTVSPropertyOp49
 70
     0
102
RTVSPropertyOp50
 70
     0
102
RTVSPropertyOp51
 70
     0
102
RTVSPropertyOp52
 70
     0
102
RTVSPropertyOp53
 70
     0
102
RTVSPropertyOp54
 70
     0
102
RTVSPropertyOp55
 70
     0
102
RTVSPropertyOp56
 70
     0
102
RTVSPropertyOp57
 70
     0
102
RTVSPropertyOp58
 70
     1
102
RTVSPropertyOp59
 70
     1
102
RTVSPropertyOp60
 70
     1
102
RTVSPropertyOp61
 70
     1
102
RTVSPropertyOp62
 70
     1
  0
XRECORD
  5
36F
102
{ACAD_REACTORS
330
36E
102
}
330
36E
100
AcDbXrecord
280
     1
102
RTVSPost2010Prop28
280
     0
102
RTVSPost2010PropOp28
 70
     1
102
RTVSPost2010Prop29
280
     1
102
RTVSPost2010PropOp29
 70
     1
102
RTVSPost2010Prop30
280
     1
102
RTVSPost2010PropOp30
 70
     1
102
RTVSPost2010Prop31
280
     0
102
RTVSPost2010PropOp31
 70
     1
102
RTVSPost2010Prop32
280
     0
102
RTVSPost2010PropOp32
 70
     1
102
RTVSPost2010Prop33
280
     0
102
RTVSPost2010PropOp33
 70
     1
102
RTVSPost2010Prop34
280
     0
102
RTVSPost2010PropOp34
 70
     1
102
RTVSPost2010Prop35
280
     0
102
RTVSPost2010PropOp35
 70
     1
102
RTVSPost2010Prop36
280
     0
102
RTVSPost2010PropOp36
 70
     1
102
RTVSPost2010Prop37
 90
       50
102
RTVSPost2010PropOp37
 70
     1
102
RTVSPost2010Prop38
140
0.0
102
RTVSPost2010PropOp38
 70
     1
102
RTVSPost2010Prop39
140
1.0
102
RTVSPost2010PropOp39
 70
     1
102
RTVSPost2010Prop40
 90
        0
102
RTVSPost2010PropOp40
 70
     1
102
RTVSPost2010Prop41ColorIndex
 90
       18
102
RTVSPost2010Prop41ColorRGB
 90
        0
102
RTVSPost2010PropOp41
 70
     1
102
RTVSPost2010Prop42
 90
       50
102
RTVSPost2010PropOp42
 70
     1
102
RTVSPost2010Prop43
 90
        3
102
RTVSPost2010PropOp43
 70
     1
102
RTVSPost2010Prop44ColorIndex
 90
        5
102
RTVSPost2010Prop44ColorRGB
 90
      255
102
RTVSPost2010PropOp44
 70
     1
102
RTVSPost2010Prop45
280
     0
102
RTVSPost2010PropOp45
 70
     1
102
RTVSPost2010Prop46
 90
       50
102
RTVSPost2010PropOp46
 70
     1
102
RTVSPost2010Prop47
 90
       50
102
RTVSPost2010PropOp47
 70
     1
102
RTVSPost2010Prop48
 90
       50
102
RTVSPost2010PropOp48
 70
     1
102
RTVSPost2010Prop49
280
     0
102
RTVSPost2010PropOp49
 70
     1
102
RTVSPost2010Prop50
 90
       50
102
RTVSPost2010PropOp50
 70
     1
102
RTVSPost2010Prop51ColorIndex
 90
      256
102
RTVSPost2010Prop51ColorRGB
 90
-16777216
102
RTVSPost2010PropOp51
 70
     0
102
RTVSPost2010Prop52
140
1.0
102
RTVSPost2010PropOp52
 70
     0
102
RTVSPost2010Prop53
 90
        2
102
RTVSPost2010PropOp53
 70
     1
102
RTVSPost2010Prop54
  1
strokes_ogs.tif
102
RTVSPost2010PropOp54
 70
     1
102
RTVSPost2010Prop55
280
     0
102
RTVSPost2010PropOp55
 70
     1
102
RTVSPost2010Prop56
140
1.0
102
RTVSPost2010PropOp56
 70
     1
102
RTVSPost2010Prop57
140
1.0
102
RTVSPost2010PropOp57
 70
     1
102
RTVSPropertyOp0
 70
     1
102
RTVSPropertyOp1
 70
     1
102
RTVSPropertyOp2
 70
     1
102
RTVSPropertyOp3
 70
     1
102
RTVSPropertyOp4
 70
     1
102
RTVSPropertyOp5
 70
     1
102
RTVSPropertyOp6
 70
     1
102
RTVSPropertyOp7
 70
     1
102
RTVSPropertyOp8
 70
     1
102
RTVSPropertyOp9
 70
     1
102
RTVSPropertyOp10
 70
     1
102
RTVSPropertyOp11
 70
     1
102
RTVSPropertyOp12
 70
     1
102
RTVSPropertyOp13
 70
     1
102
RTVSPropertyOp14
 70
     1
102
RTVSPropertyOp15
 70
     1
102
RTVSPropertyOp16
 70
     1
102
RTVSPropertyOp17
 70
     1
102
RTVSPropertyOp18
 70
     1
102
RTVSPropertyOp19
 70
     1
102
RTVSPropertyOp20
 70
     1
102
RTVSPropertyOp21
 70
     1
102
RTVSPropertyOp22
 70
     1
102
RTVSPropertyOp23
 70
     1
102
RTVSPropertyOp24
 70
     1
102
RTVSPropertyOp25
 70
     1
102
RTVSPropertyOp26
 70
     1
102
RTVSPropertyOp27
 70
     1
102
RTVSPropertyOp28
 70
     1
102
RTVSPropertyOp29
 70
     1
102
RTVSPropertyOp30
 70
     1
102
RTVSPropertyOp31
 70
     1
102
RTVSPropertyOp32
 70
     1
102
RTVSPropertyOp33
 70
     1
102
RTVSPropertyOp34
 70
     1
102
RTVSPropertyOp35
 70
     1
102
RTVSPropertyOp36
 70
     1
102
RTVSPropertyOp37
 70
     1
102
RTVSPropertyOp38
 70
     1
102
RTVSPropertyOp39
 70
     1
102
RTVSPropertyOp40
 70
     1
102
RTVSPropertyOp41
 70
     1
102
RTVSPropertyOp42
 70
     1
102
RTVSPropertyOp43
 70
     1
102
RTVSPropertyOp44
 70
     1
102
RTVSPropertyOp45
 70
     1
102
RTVSPropertyOp46
 70
     1
102
RTVSPropertyOp47
 70
     1
102
RTVSPropertyOp48
 70
     1
102
RTVSPropertyOp49
 70
     1
102
RTVSPropertyOp50
 70
     1
102
RTVSPropertyOp51
 70
     0
102
RTVSPropertyOp52
 70
     0
102
RTVSPropertyOp53
 70
     1
102
RTVSPropertyOp54
 70
     1
102
RTVSPropertyOp55
 70
     1
102
RTVSPropertyOp56
 70
     1
102
RTVSPropertyOp57
 70
     1
102
RTVSPropertyOp58
 70
     1
102
RTVSPropertyOp59
 70
     1
102
RTVSPropertyOp60
 70
     1
102
RTVSPropertyOp61
 70
     1
102
RTVSPropertyOp62
 70
     1
  0
XRECORD
  5
353
102
{ACAD_REACTORS
330
352
102
}
330
352
100
AcDbXrecord
280
     1
102
RTVSPost2010Prop28
280
     0
102
RTVSPost2010PropOp28
 70
     1
102
RTVSPost2010Prop29
280
     1
102
RTVSPost2010PropOp29
 70
     1
102
RTVSPost2010Prop30
280
     1
102
RTVSPost2010PropOp30
 70
     1
102
RTVSPost2010Prop31
280
     0
102
RTVSPost2010PropOp31
 70
     1
102
RTVSPost2010Prop32
280
     0
102
RTVSPost2010PropOp32
 70
     1
102
RTVSPost2010Prop33
280
     0
102
RTVSPost2010PropOp33
 70
     1
102
RTVSPost2010Prop34
280
     0
102
RTVSPost2010PropOp34
 70
     1
102
RTVSPost2010Prop35
280
     0
102
RTVSPost2010PropOp35
 70
     1
102
RTVSPost2010Prop36
280
     0
102
RTVSPost2010PropOp36
 70
     1
102
RTVSPost2010Prop37
 90
       50
102
RTVSPost2010PropOp37
 70
     1
102
RTVSPost2010Prop38
140
0.0
102
RTVSPost2010PropOp38
 70
     1
102
RTVSPost2010Prop39
140
1.0
102
RTVSPost2010PropOp39
 70
     1
102
RTVSPost2010Prop40
 90
        0
102
RTVSPost2010PropOp40
 70
     1
102
RTVSPost2010Prop41ColorIndex
 90
       18
102
RTVSPost2010Prop41ColorRGB
 90
        0
102
RTVSPost2010PropOp41
 70
     1
102
RTVSPost2010Prop42
 90
       50
102
RTVSPost2010PropOp42
 70
     1
102
RTVSPost2010Prop43
 90
        3
102
RTVSPost2010PropOp43
 70
     1
102
RTVSPost2010Prop44ColorIndex
 90
        5
102
RTVSPost2010Prop44ColorRGB
 90
      255
102
RTVSPost2010PropOp44
 70
     1
102
RTVSPost2010Prop45
280
     0
102
RTVSPost2010PropOp45
 70
     1
102
RTVSPost2010Prop46
 90
       50
102
RTVSPost2010PropOp46
 70
     1
102
RTVSPost2010Prop47
 90
       50
102
RTVSPost2010PropOp47
 70
     1
102
RTVSPost2010Prop48
 90
       50
102
RTVSPost2010PropOp48
 70
     1
102
RTVSPost2010Prop49
280
     0
102
RTVSPost2010PropOp49
 70
     1
102
RTVSPost2010Prop50
 90
       50
102
RTVSPost2010PropOp50
 70
     1
102
RTVSPost2010Prop51ColorIndex
 90
      256
102
RTVSPost2010Prop51ColorRGB
 90
-16777216
102
RTVSPost2010PropOp51
 70
     0
102
RTVSPost2010Prop52
140
1.0
102
RTVSPost2010PropOp52
 70
     0
102
RTVSPost2010Prop53
 90
        2
102
RTVSPost2010PropOp53
 70
     1
102
RTVSPost2010Prop54
  1
strokes_ogs.tif
102
RTVSPost2010PropOp54
 70
     1
102
RTVSPost2010Prop55
280
     0
102
RTVSPost2010PropOp55
 70
     1
102
RTVSPost2010Prop56
140
1.0
102
RTVSPost2010PropOp56
 70
     1
102
RTVSPost2010Prop57
140
1.0
102
RTVSPost2010PropOp57
 70
     1
102
RTVSPropertyOp0
 70
     1
102
RTVSPropertyOp1
 70
     1
102
RTVSPropertyOp2
 70
     1
102
RTVSPropertyOp3
 70
     1
102
RTVSPropertyOp4
 70
     1
102
RTVSPropertyOp5
 70
     1
102
RTVSPropertyOp6
 70
     1
102
RTVSPropertyOp7
 70
     1
102
RTVSPropertyOp8
 70
     1
102
RTVSPropertyOp9
 70
     1
102
RTVSPropertyOp10
 70
     1
102
RTVSPropertyOp11
 70
     1
102
RTVSPropertyOp12
 70
     1
102
RTVSPropertyOp13
 70
     1
102
RTVSPropertyOp14
 70
     1
102
RTVSPropertyOp15
 70
     1
102
RTVSPropertyOp16
 70
     1
102
RTVSPropertyOp17
 70
     1
102
RTVSPropertyOp18
 70
     1
102
RTVSPropertyOp19
 70
     1
102
RTVSPropertyOp20
 70
     1
102
RTVSPropertyOp21
 70
     1
102
RTVSPropertyOp22
 70
     1
102
RTVSPropertyOp23
 70
     1
102
RTVSPropertyOp24
 70
     1
102
RTVSPropertyOp25
 70
     1
102
RTVSPropertyOp26
 70
     1
102
RTVSPropertyOp27
 70
     1
102
RTVSPropertyOp28
 70
     1
102
RTVSPropertyOp29
 70
     1
102
RTVSPropertyOp30
 70
     1
102
RTVSPropertyOp31
 70
     1
102
RTVSPropertyOp32
 70
     1
102
RTVSPropertyOp33
 70
     1
102
RTVSPropertyOp34
 70
     1
102
RTVSPropertyOp35
 70
     1
102
RTVSPropertyOp36
 70
     1
102
RTVSPropertyOp37
 70
     1
102
RTVSPropertyOp38
 70
     1
102
RTVSPropertyOp39
 70
     1
102
RTVSPropertyOp40
 70
     1
102
RTVSPropertyOp41
 70
     1
102
RTVSPropertyOp42
 70
     1
102
RTVSPropertyOp43
 70
     1
102
RTVSPropertyOp44
 70
     1
102
RTVSPropertyOp45
 70
     1
102
RTVSPropertyOp46
 70
     1
102
RTVSPropertyOp47
 70
     1
102
RTVSPropertyOp48
 70
     1
102
RTVSPropertyOp49
 70
     1
102
RTVSPropertyOp50
 70
     1
102
RTVSPropertyOp51
 70
     0
102
RTVSPropertyOp52
 70
     0
102
RTVSPropertyOp53
 70
     1
102
RTVSPropertyOp54
 70
     1
102
RTVSPropertyOp55
 70
     1
102
RTVSPropertyOp56
 70
     1
102
RTVSPropertyOp57
 70
     1
102
RTVSPropertyOp58
 70
     1
102
RTVSPropertyOp59
 70
     1
102
RTVSPropertyOp60
 70
     1
102
RTVSPropertyOp61
 70
     1
102
RTVSPropertyOp62
 70
     1
  0
XRECORD
  5
355
102
{ACAD_REACTORS
330
354
102
}
330
354
100
AcDbXrecord
280
     1
102
RTVSPost2010Prop28
280
     0
102
RTVSPost2010PropOp28
 70
     1
102
RTVSPost2010Prop29
280
     1
102
RTVSPost2010PropOp29
 70
     1
102
RTVSPost2010Prop30
280
     1
102
RTVSPost2010PropOp30
 70
     1
102
RTVSPost2010Prop31
280
     0
102
RTVSPost2010PropOp31
 70
     1
102
RTVSPost2010Prop32
280
     0
102
RTVSPost2010PropOp32
 70
     1
102
RTVSPost2010Prop33
280
     0
102
RTVSPost2010PropOp33
 70
     1
102
RTVSPost2010Prop34
280
     0
102
RTVSPost2010PropOp34
 70
     1
102
RTVSPost2010Prop35
280
     0
102
RTVSPost2010PropOp35
 70
     1
102
RTVSPost2010Prop36
280
     0
102
RTVSPost2010PropOp36
 70
     1
102
RTVSPost2010Prop37
 90
       50
102
RTVSPost2010PropOp37
 70
     1
102
RTVSPost2010Prop38
140
0.0
102
RTVSPost2010PropOp38
 70
     1
102
RTVSPost2010Prop39
140
1.0
102
RTVSPost2010PropOp39
 70
     1
102
RTVSPost2010Prop40
 90
        0
102
RTVSPost2010PropOp40
 70
     1
102
RTVSPost2010Prop41ColorIndex
 90
       18
102
RTVSPost2010Prop41ColorRGB
 90
        0
102
RTVSPost2010PropOp41
 70
     1
102
RTVSPost2010Prop42
 90
       50
102
RTVSPost2010PropOp42
 70
     1
102
RTVSPost2010Prop43
 90
        3
102
RTVSPost2010PropOp43
 70
     1
102
RTVSPost2010Prop44ColorIndex
 90
        5
102
RTVSPost2010Prop44ColorRGB
 90
      255
102
RTVSPost2010PropOp44
 70
     1
102
RTVSPost2010Prop45
280
     0
102
RTVSPost2010PropOp45
 70
     1
102
RTVSPost2010Prop46
 90
       50
102
RTVSPost2010PropOp46
 70
     1
102
RTVSPost2010Prop47
 90
       50
102
RTVSPost2010PropOp47
 70
     1
102
RTVSPost2010Prop48
 90
       50
102
RTVSPost2010PropOp48
 70
     1
102
RTVSPost2010Prop49
280
     0
102
RTVSPost2010PropOp49
 70
     1
102
RTVSPost2010Prop50
 90
       50
102
RTVSPost2010PropOp50
 70
     1
102
RTVSPost2010Prop51ColorIndex
 90
      256
102
RTVSPost2010Prop51ColorRGB
 90
-16777216
102
RTVSPost2010PropOp51
 70
     0
102
RTVSPost2010Prop52
140
1.0
102
RTVSPost2010PropOp52
 70
     0
102
RTVSPost2010Prop53
 90
        2
102
RTVSPost2010PropOp53
 70
     1
102
RTVSPost2010Prop54
  1
strokes_ogs.tif
102
RTVSPost2010PropOp54
 70
     1
102
RTVSPost2010Prop55
280
     0
102
RTVSPost2010PropOp55
 70
     1
102
RTVSPost2010Prop56
140
1.0
102
RTVSPost2010PropOp56
 70
     1
102
RTVSPost2010Prop57
140
1.0
102
RTVSPost2010PropOp57
 70
     1
102
RTVSPropertyOp0
 70
     1
102
RTVSPropertyOp1
 70
     1
102
RTVSPropertyOp2
 70
     1
102
RTVSPropertyOp3
 70
     1
102
RTVSPropertyOp4
 70
     1
102
RTVSPropertyOp5
 70
     1
102
RTVSPropertyOp6
 70
     1
102
RTVSPropertyOp7
 70
     1
102
RTVSPropertyOp8
 70
     1
102
RTVSPropertyOp9
 70
     1
102
RTVSPropertyOp10
 70
     1
102
RTVSPropertyOp11
 70
     1
102
RTVSPropertyOp12
 70
     1
102
RTVSPropertyOp13
 70
     1
102
RTVSPropertyOp14
 70
     1
102
RTVSPropertyOp15
 70
     1
102
RTVSPropertyOp16
 70
     1
102
RTVSPropertyOp17
 70
     1
102
RTVSPropertyOp18
 70
     1
102
RTVSPropertyOp19
 70
     1
102
RTVSPropertyOp20
 70
     1
102
RTVSPropertyOp21
 70
     1
102
RTVSPropertyOp22
 70
     1
102
RTVSPropertyOp23
 70
     1
102
RTVSPropertyOp24
 70
     1
102
RTVSPropertyOp25
 70
     1
102
RTVSPropertyOp26
 70
     1
102
RTVSPropertyOp27
 70
     1
102
RTVSPropertyOp28
 70
     1
102
RTVSPropertyOp29
 70
     1
102
RTVSPropertyOp30
 70
     1
102
RTVSPropertyOp31
 70
     1
102
RTVSPropertyOp32
 70
     1
102
RTVSPropertyOp33
 70
     1
102
RTVSPropertyOp34
 70
     1
102
RTVSPropertyOp35
 70
     1
102
RTVSPropertyOp36
 70
     1
102
RTVSPropertyOp37
 70
     1
102
RTVSPropertyOp38
 70
     1
102
RTVSPropertyOp39
 70
     1
102
RTVSPropertyOp40
 70
     1
102
RTVSPropertyOp41
 70
     1
102
RTVSPropertyOp42
 70
     1
102
RTVSPropertyOp43
 70
     1
102
RTVSPropertyOp44
 70
     1
102
RTVSPropertyOp45
 70
     1
102
RTVSPropertyOp46
 70
     1
102
RTVSPropertyOp47
 70
     1
102
RTVSPropertyOp48
 70
     1
102
RTVSPropertyOp49
 70
     1
102
RTVSPropertyOp50
 70
     1
102
RTVSPropertyOp51
 70
     0
102
RTVSPropertyOp52
 70
     0
102
RTVSPropertyOp53
 70
     1
102
RTVSPropertyOp54
 70
     1
102
RTVSPropertyOp55
 70
     1
102
RTVSPropertyOp56
 70
     1
102
RTVSPropertyOp57
 70
     1
102
RTVSPropertyOp58
 70
     1
102
RTVSPropertyOp59
 70
     1
102
RTVSPropertyOp60
 70
     1
102
RTVSPropertyOp61
 70
     1
102
RTVSPropertyOp62
 70
     1
  0
XRECORD
  5
357
102
{ACAD_REACTORS
330
356
102
}
330
356
100
AcDbXrecord
280
     1
102
RTVSPost2010Prop28
280
     0
102
RTVSPost2010PropOp28
 70
     1
102
RTVSPost2010Prop29
280
     1
102
RTVSPost2010PropOp29
 70
     1
102
RTVSPost2010Prop30
280
     1
102
RTVSPost2010PropOp30
 70
     1
102
RTVSPost2010Prop31
280
     0
102
RTVSPost2010PropOp31
 70
     1
102
RTVSPost2010Prop32
280
     0
102
RTVSPost2010PropOp32
 70
     1
102
RTVSPost2010Prop33
280
     0
102
RTVSPost2010PropOp33
 70
     1
102
RTVSPost2010Prop34
280
     0
102
RTVSPost2010PropOp34
 70
     1
102
RTVSPost2010Prop35
280
     0
102
RTVSPost2010PropOp35
 70
     1
102
RTVSPost2010Prop36
280
     0
102
RTVSPost2010PropOp36
 70
     1
102
RTVSPost2010Prop37
 90
       50
102
RTVSPost2010PropOp37
 70
     1
102
RTVSPost2010Prop38
140
0.0
102
RTVSPost2010PropOp38
 70
     1
102
RTVSPost2010Prop39
140
1.0
102
RTVSPost2010PropOp39
 70
     1
102
RTVSPost2010Prop40
 90
        0
102
RTVSPost2010PropOp40
 70
     1
102
RTVSPost2010Prop41ColorIndex
 90
       18
102
RTVSPost2010Prop41ColorRGB
 90
        0
102
RTVSPost2010PropOp41
 70
     1
102
RTVSPost2010Prop42
 90
       50
102
RTVSPost2010PropOp42
 70
     1
102
RTVSPost2010Prop43
 90
        3
102
RTVSPost2010PropOp43
 70
     1
102
RTVSPost2010Prop44ColorIndex
 90
        5
102
RTVSPost2010Prop44ColorRGB
 90
      255
102
RTVSPost2010PropOp44
 70
     1
102
RTVSPost2010Prop45
280
     0
102
RTVSPost2010PropOp45
 70
     1
102
RTVSPost2010Prop46
 90
       50
102
RTVSPost2010PropOp46
 70
     1
102
RTVSPost2010Prop47
 90
       50
102
RTVSPost2010PropOp47
 70
     1
102
RTVSPost2010Prop48
 90
       50
102
RTVSPost2010PropOp48
 70
     1
102
RTVSPost2010Prop49
280
     0
102
RTVSPost2010PropOp49
 70
     1
102
RTVSPost2010Prop50
 90
       50
102
RTVSPost2010PropOp50
 70
     1
102
RTVSPost2010Prop51ColorIndex
 90
      256
102
RTVSPost2010Prop51ColorRGB
 90
-16777216
102
RTVSPost2010PropOp51
 70
     0
102
RTVSPost2010Prop52
140
1.0
102
RTVSPost2010PropOp52
 70
     0
102
RTVSPost2010Prop53
 90
        2
102
RTVSPost2010PropOp53
 70
     1
102
RTVSPost2010Prop54
  1
strokes_ogs.tif
102
RTVSPost2010PropOp54
 70
     1
102
RTVSPost2010Prop55
280
     0
102
RTVSPost2010PropOp55
 70
     1
102
RTVSPost2010Prop56
140
1.0
102
RTVSPost2010PropOp56
 70
     1
102
RTVSPost2010Prop57
140
1.0
102
RTVSPost2010PropOp57
 70
     1
102
RTVSPropertyOp0
 70
     1
102
RTVSPropertyOp1
 70
     1
102
RTVSPropertyOp2
 70
     1
102
RTVSPropertyOp3
 70
     1
102
RTVSPropertyOp4
 70
     1
102
RTVSPropertyOp5
 70
     1
102
RTVSPropertyOp6
 70
     1
102
RTVSPropertyOp7
 70
     1
102
RTVSPropertyOp8
 70
     1
102
RTVSPropertyOp9
 70
     1
102
RTVSPropertyOp10
 70
     1
102
RTVSPropertyOp11
 70
     1
102
RTVSPropertyOp12
 70
     1
102
RTVSPropertyOp13
 70
     1
102
RTVSPropertyOp14
 70
     1
102
RTVSPropertyOp15
 70
     1
102
RTVSPropertyOp16
 70
     1
102
RTVSPropertyOp17
 70
     1
102
RTVSPropertyOp18
 70
     1
102
RTVSPropertyOp19
 70
     1
102
RTVSPropertyOp20
 70
     1
102
RTVSPropertyOp21
 70
     1
102
RTVSPropertyOp22
 70
     1
102
RTVSPropertyOp23
 70
     1
102
RTVSPropertyOp24
 70
     1
102
RTVSPropertyOp25
 70
     1
102
RTVSPropertyOp26
 70
     1
102
RTVSPropertyOp27
 70
     1
102
RTVSPropertyOp28
 70
     1
102
RTVSPropertyOp29
 70
     1
102
RTVSPropertyOp30
 70
     1
102
RTVSPropertyOp31
 70
     1
102
RTVSPropertyOp32
 70
     1
102
RTVSPropertyOp33
 70
     1
102
RTVSPropertyOp34
 70
     1
102
RTVSPropertyOp35
 70
     1
102
RTVSPropertyOp36
 70
     1
102
RTVSPropertyOp37
 70
     1
102
RTVSPropertyOp38
 70
     1
102
RTVSPropertyOp39
 70
     1
102
RTVSPropertyOp40
 70
     1
102
RTVSPropertyOp41
 70
     1
102
RTVSPropertyOp42
 70
     1
102
RTVSPropertyOp43
 70
     1
102
RTVSPropertyOp44
 70
     1
102
RTVSPropertyOp45
 70
     1
102
RTVSPropertyOp46
 70
     1
102
RTVSPropertyOp47
 70
     1
102
RTVSPropertyOp48
 70
     1
102
RTVSPropertyOp49
 70
     1
102
RTVSPropertyOp50
 70
     1
102
RTVSPropertyOp51
 70
     0
102
RTVSPropertyOp52
 70
     0
102
RTVSPropertyOp53
 70
     1
102
RTVSPropertyOp54
 70
     1
102
RTVSPropertyOp55
 70
     1
102
RTVSPropertyOp56
 70
     1
102
RTVSPropertyOp57
 70
     1
102
RTVSPropertyOp58
 70
     1
102
RTVSPropertyOp59
 70
     1
102
RTVSPropertyOp60
 70
     1
102
RTVSPropertyOp61
 70
     1
102
RTVSPropertyOp62
 70
     1
  0
XRECORD
  5
359
102
{ACAD_REACTORS
330
358
102
}
330
358
100
AcDbXrecord
280
     1
102
RTVSPost2010Prop28
280
     0
102
RTVSPost2010PropOp28
 70
     1
102
RTVSPost2010Prop29
280
     1
102
RTVSPost2010PropOp29
 70
     1
102
RTVSPost2010Prop30
280
     1
102
RTVSPost2010PropOp30
 70
     1
102
RTVSPost2010Prop31
280
     0
102
RTVSPost2010PropOp31
 70
     1
102
RTVSPost2010Prop32
280
     0
102
RTVSPost2010PropOp32
 70
     1
102
RTVSPost2010Prop33
280
     0
102
RTVSPost2010PropOp33
 70
     1
102
RTVSPost2010Prop34
280
     0
102
RTVSPost2010PropOp34
 70
     1
102
RTVSPost2010Prop35
280
     0
102
RTVSPost2010PropOp35
 70
     1
102
RTVSPost2010Prop36
280
     0
102
RTVSPost2010PropOp36
 70
     1
102
RTVSPost2010Prop37
 90
       50
102
RTVSPost2010PropOp37
 70
     1
102
RTVSPost2010Prop38
140
0.0
102
RTVSPost2010PropOp38
 70
     1
102
RTVSPost2010Prop39
140
1.0
102
RTVSPost2010PropOp39
 70
     1
102
RTVSPost2010Prop40
 90
        0
102
RTVSPost2010PropOp40
 70
     1
102
RTVSPost2010Prop41ColorIndex
 90
       18
102
RTVSPost2010Prop41ColorRGB
 90
        0
102
RTVSPost2010PropOp41
 70
     1
102
RTVSPost2010Prop42
 90
       50
102
RTVSPost2010PropOp42
 70
     1
102
RTVSPost2010Prop43
 90
        3
102
RTVSPost2010PropOp43
 70
     1
102
RTVSPost2010Prop44ColorIndex
 90
        5
102
RTVSPost2010Prop44ColorRGB
 90
      255
102
RTVSPost2010PropOp44
 70
     1
102
RTVSPost2010Prop45
280
     0
102
RTVSPost2010PropOp45
 70
     1
102
RTVSPost2010Prop46
 90
       50
102
RTVSPost2010PropOp46
 70
     1
102
RTVSPost2010Prop47
 90
       50
102
RTVSPost2010PropOp47
 70
     1
102
RTVSPost2010Prop48
 90
       50
102
RTVSPost2010PropOp48
 70
     1
102
RTVSPost2010Prop49
280
     0
102
RTVSPost2010PropOp49
 70
     1
102
RTVSPost2010Prop50
 90
       50
102
RTVSPost2010PropOp50
 70
     1
102
RTVSPost2010Prop51ColorIndex
 90
      256
102
RTVSPost2010Prop51ColorRGB
 90
-16777216
102
RTVSPost2010PropOp51
 70
     0
102
RTVSPost2010Prop52
140
1.0
102
RTVSPost2010PropOp52
 70
     0
102
RTVSPost2010Prop53
 90
        2
102
RTVSPost2010PropOp53
 70
     1
102
RTVSPost2010Prop54
  1
strokes_ogs.tif
102
RTVSPost2010PropOp54
 70
     1
102
RTVSPost2010Prop55
280
     0
102
RTVSPost2010PropOp55
 70
     1
102
RTVSPost2010Prop56
140
1.0
102
RTVSPost2010PropOp56
 70
     1
102
RTVSPost2010Prop57
140
1.0
102
RTVSPost2010PropOp57
 70
     1
102
RTVSPropertyOp0
 70
     1
102
RTVSPropertyOp1
 70
     1
102
RTVSPropertyOp2
 70
     1
102
RTVSPropertyOp3
 70
     1
102
RTVSPropertyOp4
 70
     1
102
RTVSPropertyOp5
 70
     1
102
RTVSPropertyOp6
 70
     1
102
RTVSPropertyOp7
 70
     1
102
RTVSPropertyOp8
 70
     1
102
RTVSPropertyOp9
 70
     1
102
RTVSPropertyOp10
 70
     1
102
RTVSPropertyOp11
 70
     1
102
RTVSPropertyOp12
 70
     1
102
RTVSPropertyOp13
 70
     1
102
RTVSPropertyOp14
 70
     1
102
RTVSPropertyOp15
 70
     1
102
RTVSPropertyOp16
 70
     1
102
RTVSPropertyOp17
 70
     1
102
RTVSPropertyOp18
 70
     1
102
RTVSPropertyOp19
 70
     1
102
RTVSPropertyOp20
 70
     1
102
RTVSPropertyOp21
 70
     1
102
RTVSPropertyOp22
 70
     1
102
RTVSPropertyOp23
 70
     1
102
RTVSPropertyOp24
 70
     1
102
RTVSPropertyOp25
 70
     1
102
RTVSPropertyOp26
 70
     1
102
RTVSPropertyOp27
 70
     1
102
RTVSPropertyOp28
 70
     1
102
RTVSPropertyOp29
 70
     1
102
RTVSPropertyOp30
 70
     1
102
RTVSPropertyOp31
 70
     1
102
RTVSPropertyOp32
 70
     1
102
RTVSPropertyOp33
 70
     1
102
RTVSPropertyOp34
 70
     1
102
RTVSPropertyOp35
 70
     1
102
RTVSPropertyOp36
 70
     1
102
RTVSPropertyOp37
 70
     1
102
RTVSPropertyOp38
 70
     1
102
RTVSPropertyOp39
 70
     1
102
RTVSPropertyOp40
 70
     1
102
RTVSPropertyOp41
 70
     1
102
RTVSPropertyOp42
 70
     1
102
RTVSPropertyOp43
 70
     1
102
RTVSPropertyOp44
 70
     1
102
RTVSPropertyOp45
 70
     1
102
RTVSPropertyOp46
 70
     1
102
RTVSPropertyOp47
 70
     1
102
RTVSPropertyOp48
 70
     1
102
RTVSPropertyOp49
 70
     1
102
RTVSPropertyOp50
 70
     1
102
RTVSPropertyOp51
 70
     0
102
RTVSPropertyOp52
 70
     0
102
RTVSPropertyOp53
 70
     1
102
RTVSPropertyOp54
 70
     1
102
RTVSPropertyOp55
 70
     1
102
RTVSPropertyOp56
 70
     1
102
RTVSPropertyOp57
 70
     1
102
RTVSPropertyOp58
 70
     1
102
RTVSPropertyOp59
 70
     1
102
RTVSPropertyOp60
 70
     1
102
RTVSPropertyOp61
 70
     1
102
RTVSPropertyOp62
 70
     1
  0
XRECORD
  5
35F
102
{ACAD_REACTORS
330
35E
102
}
330
35E
100
AcDbXrecord
280
     1
102
RTVSPost2010Prop28
280
     0
102
RTVSPost2010PropOp28
 70
     1
102
RTVSPost2010Prop29
280
     1
102
RTVSPost2010PropOp29
 70
     1
102
RTVSPost2010Prop30
280
     1
102
RTVSPost2010PropOp30
 70
     1
102
RTVSPost2010Prop31
280
     0
102
RTVSPost2010PropOp31
 70
     1
102
RTVSPost2010Prop32
280
     0
102
RTVSPost2010PropOp32
 70
     1
102
RTVSPost2010Prop33
280
     0
102
RTVSPost2010PropOp33
 70
     1
102
RTVSPost2010Prop34
280
     0
102
RTVSPost2010PropOp34
 70
     1
102
RTVSPost2010Prop35
280
     0
102
RTVSPost2010PropOp35
 70
     1
102
RTVSPost2010Prop36
280
     0
102
RTVSPost2010PropOp36
 70
     1
102
RTVSPost2010Prop37
 90
       50
102
RTVSPost2010PropOp37
 70
     1
102
RTVSPost2010Prop38
140
0.0
102
RTVSPost2010PropOp38
 70
     1
102
RTVSPost2010Prop39
140
1.0
102
RTVSPost2010PropOp39
 70
     1
102
RTVSPost2010Prop40
 90
        0
102
RTVSPost2010PropOp40
 70
     1
102
RTVSPost2010Prop41ColorIndex
 90
       18
102
RTVSPost2010Prop41ColorRGB
 90
        0
102
RTVSPost2010PropOp41
 70
     1
102
RTVSPost2010Prop42
 90
       50
102
RTVSPost2010PropOp42
 70
     1
102
RTVSPost2010Prop43
 90
        3
102
RTVSPost2010PropOp43
 70
     1
102
RTVSPost2010Prop44ColorIndex
 90
        5
102
RTVSPost2010Prop44ColorRGB
 90
      255
102
RTVSPost2010PropOp44
 70
     1
102
RTVSPost2010Prop45
280
     0
102
RTVSPost2010PropOp45
 70
     1
102
RTVSPost2010Prop46
 90
       50
102
RTVSPost2010PropOp46
 70
     1
102
RTVSPost2010Prop47
 90
       50
102
RTVSPost2010PropOp47
 70
     1
102
RTVSPost2010Prop48
 90
       50
102
RTVSPost2010PropOp48
 70
     1
102
RTVSPost2010Prop49
280
     0
102
RTVSPost2010PropOp49
 70
     1
102
RTVSPost2010Prop50
 90
       50
102
RTVSPost2010PropOp50
 70
     1
102
RTVSPost2010Prop51ColorIndex
 90
      256
102
RTVSPost2010Prop51ColorRGB
 90
-16777216
102
RTVSPost2010PropOp51
 70
     0
102
RTVSPost2010Prop52
140
1.0
102
RTVSPost2010PropOp52
 70
     0
102
RTVSPost2010Prop53
 90
        2
102
RTVSPost2010PropOp53
 70
     1
102
RTVSPost2010Prop54
  1
strokes_ogs.tif
102
RTVSPost2010PropOp54
 70
     1
102
RTVSPost2010Prop55
280
     0
102
RTVSPost2010PropOp55
 70
     1
102
RTVSPost2010Prop56
140
1.0
102
RTVSPost2010PropOp56
 70
     1
102
RTVSPost2010Prop57
140
1.0
102
RTVSPost2010PropOp57
 70
     1
102
RTVSPropertyOp0
 70
     1
102
RTVSPropertyOp1
 70
     1
102
RTVSPropertyOp2
 70
     1
102
RTVSPropertyOp3
 70
     1
102
RTVSPropertyOp4
 70
     1
102
RTVSPropertyOp5
 70
     1
102
RTVSPropertyOp6
 70
     1
102
RTVSPropertyOp7
 70
     1
102
RTVSPropertyOp8
 70
     1
102
RTVSPropertyOp9
 70
     1
102
RTVSPropertyOp10
 70
     1
102
RTVSPropertyOp11
 70
     1
102
RTVSPropertyOp12
 70
     1
102
RTVSPropertyOp13
 70
     1
102
RTVSPropertyOp14
 70
     1
102
RTVSPropertyOp15
 70
     1
102
RTVSPropertyOp16
 70
     1
102
RTVSPropertyOp17
 70
     1
102
RTVSPropertyOp18
 70
     1
102
RTVSPropertyOp19
 70
     1
102
RTVSPropertyOp20
 70
     1
102
RTVSPropertyOp21
 70
     1
102
RTVSPropertyOp22
 70
     1
102
RTVSPropertyOp23
 70
     1
102
RTVSPropertyOp24
 70
     1
102
RTVSPropertyOp25
 70
     1
102
RTVSPropertyOp26
 70
     1
102
RTVSPropertyOp27
 70
     1
102
RTVSPropertyOp28
 70
     1
102
RTVSPropertyOp29
 70
     1
102
RTVSPropertyOp30
 70
     1
102
RTVSPropertyOp31
 70
     1
102
RTVSPropertyOp32
 70
     1
102
RTVSPropertyOp33
 70
     1
102
RTVSPropertyOp34
 70
     1
102
RTVSPropertyOp35
 70
     1
102
RTVSPropertyOp36
 70
     1
102
RTVSPropertyOp37
 70
     1
102
RTVSPropertyOp38
 70
     1
102
RTVSPropertyOp39
 70
     1
102
RTVSPropertyOp40
 70
     1
102
RTVSPropertyOp41
 70
     1
102
RTVSPropertyOp42
 70
     1
102
RTVSPropertyOp43
 70
     1
102
RTVSPropertyOp44
 70
     1
102
RTVSPropertyOp45
 70
     1
102
RTVSPropertyOp46
 70
     1
102
RTVSPropertyOp47
 70
     1
102
RTVSPropertyOp48
 70
     1
102
RTVSPropertyOp49
 70
     1
102
RTVSPropertyOp50
 70
     1
102
RTVSPropertyOp51
 70
     0
102
RTVSPropertyOp52
 70
     0
102
RTVSPropertyOp53
 70
     1
102
RTVSPropertyOp54
 70
     1
102
RTVSPropertyOp55
 70
     1
102
RTVSPropertyOp56
 70
     1
102
RTVSPropertyOp57
 70
     1
102
RTVSPropertyOp58
 70
     1
102
RTVSPropertyOp59
 70
     1
102
RTVSPropertyOp60
 70
     1
102
RTVSPropertyOp61
 70
     1
102
RTVSPropertyOp62
 70
     1
  0
XRECORD
  5
373
102
{ACAD_REACTORS
330
372
102
}
330
372
100
AcDbXrecord
280
     1
102
RTVSPost2010Prop28
280
     0
102
RTVSPost2010PropOp28
 70
     0
102
RTVSPost2010Prop29
280
     1
102
RTVSPost2010PropOp29
 70
     0
102
RTVSPost2010Prop30
280
     1
102
RTVSPost2010PropOp30
 70
     0
102
RTVSPost2010Prop31
280
     0
102
RTVSPost2010PropOp31
 70
     0
102
RTVSPost2010Prop32
280
     0
102
RTVSPost2010PropOp32
 70
     0
102
RTVSPost2010Prop33
280
     0
102
RTVSPost2010PropOp33
 70
     0
102
RTVSPost2010Prop34
280
     0
102
RTVSPost2010PropOp34
 70
     0
102
RTVSPost2010Prop35
280
     0
102
RTVSPost2010PropOp35
 70
     0
102
RTVSPost2010Prop36
280
     0
102
RTVSPost2010PropOp36
 70
     0
102
RTVSPost2010Prop37
 90
       50
102
RTVSPost2010PropOp37
 70
     0
102
RTVSPost2010Prop38
140
0.0
102
RTVSPost2010PropOp38
 70
     0
102
RTVSPost2010Prop39
140
1.0
102
RTVSPost2010PropOp39
 70
     0
102
RTVSPost2010Prop40
 90
        0
102
RTVSPost2010PropOp40
 70
     0
102
RTVSPost2010Prop41ColorIndex
 90
       18
102
RTVSPost2010Prop41ColorRGB
 90
        0
102
RTVSPost2010PropOp41
 70
     0
102
RTVSPost2010Prop42
 90
       50
102
RTVSPost2010PropOp42
 70
     0
102
RTVSPost2010Prop43
 90
        3
102
RTVSPost2010PropOp43
 70
     0
102
RTVSPost2010Prop44ColorIndex
 90
        5
102
RTVSPost2010Prop44ColorRGB
 90
      255
102
RTVSPost2010PropOp44
 70
     0
102
RTVSPost2010Prop45
280
     0
102
RTVSPost2010PropOp45
 70
     0
102
RTVSPost2010Prop46
 90
       50
102
RTVSPost2010PropOp46
 70
     0
102
RTVSPost2010Prop47
 90
       50
102
RTVSPost2010PropOp47
 70
     0
102
RTVSPost2010Prop48
 90
       50
102
RTVSPost2010PropOp48
 70
     0
102
RTVSPost2010Prop49
280
     0
102
RTVSPost2010PropOp49
 70
     0
102
RTVSPost2010Prop50
 90
       50
102
RTVSPost2010PropOp50
 70
     0
102
RTVSPost2010Prop51ColorIndex
 90
      256
102
RTVSPost2010Prop51ColorRGB
 90
-16777216
102
RTVSPost2010PropOp51
 70
     0
102
RTVSPost2010Prop52
140
1.0
102
RTVSPost2010PropOp52
 70
     0
102
RTVSPost2010Prop53
 90
        2
102
RTVSPost2010PropOp53
 70
     0
102
RTVSPost2010Prop54
  1
strokes_ogs.tif
102
RTVSPost2010PropOp54
 70
     0
102
RTVSPost2010Prop55
280
     0
102
RTVSPost2010PropOp55
 70
     0
102
RTVSPost2010Prop56
140
1.0
102
RTVSPost2010PropOp56
 70
     0
102
RTVSPost2010Prop57
140
1.0
102
RTVSPost2010PropOp57
 70
     0
102
RTVSPropertyOp0
 70
     0
102
RTVSPropertyOp1
 70
     0
102
RTVSPropertyOp2
 70
     0
102
RTVSPropertyOp3
 70
     0
102
RTVSPropertyOp4
 70
     0
102
RTVSPropertyOp5
 70
     0
102
RTVSPropertyOp6
 70
     0
102
RTVSPropertyOp7
 70
     0
102
RTVSPropertyOp8
 70
     0
102
RTVSPropertyOp9
 70
     0
102
RTVSPropertyOp10
 70
     0
102
RTVSPropertyOp11
 70
     0
102
RTVSPropertyOp12
 70
     0
102
RTVSPropertyOp13
 70
     0
102
RTVSPropertyOp14
 70
     2
102
RTVSPropertyOp15
 70
     0
102
RTVSPropertyOp16
 70
     0
102
RTVSPropertyOp17
 70
     0
102
RTVSPropertyOp18
 70
     0
102
RTVSPropertyOp19
 70
     0
102
RTVSPropertyOp20
 70
     0
102
RTVSPropertyOp21
 70
     0
102
RTVSPropertyOp22
 70
     0
102
RTVSPropertyOp23
 70
     0
102
RTVSPropertyOp24
 70
     0
102
RTVSPropertyOp25
 70
     0
102
RTVSPropertyOp26
 70
     0
102
RTVSPropertyOp27
 70
     0
102
RTVSPropertyOp28
 70
     0
102
RTVSPropertyOp29
 70
     0
102
RTVSPropertyOp30
 70
     0
102
RTVSPropertyOp31
 70
     0
102
RTVSPropertyOp32
 70
     0
102
RTVSPropertyOp33
 70
     0
102
RTVSPropertyOp34
 70
     0
102
RTVSPropertyOp35
 70
     0
102
RTVSPropertyOp36
 70
     0
102
RTVSPropertyOp37
 70
     0
102
RTVSPropertyOp38
 70
     0
102
RTVSPropertyOp39
 70
     0
102
RTVSPropertyOp40
 70
     0
102
RTVSPropertyOp41
 70
     0
102
RTVSPropertyOp42
 70
     0
102
RTVSPropertyOp43
 70
     0
102
RTVSPropertyOp44
 70
     0
102
RTVSPropertyOp45
 70
     0
102
RTVSPropertyOp46
 70
     0
102
RTVSPropertyOp47
 70
     0
102
RTVSPropertyOp48
 70
     0
102
RTVSPropertyOp49
 70
     0
102
RTVSPropertyOp50
 70
     0
102
RTVSPropertyOp51
 70
     0
102
RTVSPropertyOp52
 70
     0
102
RTVSPropertyOp53
 70
     0
102
RTVSPropertyOp54
 70
     0
102
RTVSPropertyOp55
 70
     0
102
RTVSPropertyOp56
 70
     0
102
RTVSPropertyOp57
 70
     0
102
RTVSPropertyOp58
 70
     1
102
RTVSPropertyOp59
 70
     1
102
RTVSPropertyOp60
 70
     1
102
RTVSPropertyOp61
 70
     1
102
RTVSPropertyOp62
 70
     1
  0
XRECORD
  5
36D
102
{ACAD_REACTORS
330
36C
102
}
330
36C
100
AcDbXrecord
280
     1
102
RTVSPost2010Prop28
280
     0
102
RTVSPost2010PropOp28
 70
     1
102
RTVSPost2010Prop29
280
     1
102
RTVSPost2010PropOp29
 70
     1
102
RTVSPost2010Prop30
280
     1
102
RTVSPost2010PropOp30
 70
     1
102
RTVSPost2010Prop31
280
     0
102
RTVSPost2010PropOp31
 70
     1
102
RTVSPost2010Prop32
280
     0
102
RTVSPost2010PropOp32
 70
     1
102
RTVSPost2010Prop33
280
     0
102
RTVSPost2010PropOp33
 70
     1
102
RTVSPost2010Prop34
280
     0
102
RTVSPost2010PropOp34
 70
     1
102
RTVSPost2010Prop35
280
     0
102
RTVSPost2010PropOp35
 70
     1
102
RTVSPost2010Prop36
280
     0
102
RTVSPost2010PropOp36
 70
     1
102
RTVSPost2010Prop37
 90
       50
102
RTVSPost2010PropOp37
 70
     1
102
RTVSPost2010Prop38
140
0.0
102
RTVSPost2010PropOp38
 70
     1
102
RTVSPost2010Prop39
140
1.0
102
RTVSPost2010PropOp39
 70
     1
102
RTVSPost2010Prop40
 90
        0
102
RTVSPost2010PropOp40
 70
     1
102
RTVSPost2010Prop41ColorIndex
 90
       18
102
RTVSPost2010Prop41ColorRGB
 90
        0
102
RTVSPost2010PropOp41
 70
     1
102
RTVSPost2010Prop42
 90
       50
102
RTVSPost2010PropOp42
 70
     1
102
RTVSPost2010Prop43
 90
        3
102
RTVSPost2010PropOp43
 70
     1
102
RTVSPost2010Prop44ColorIndex
 90
        5
102
RTVSPost2010Prop44ColorRGB
 90
      255
102
RTVSPost2010PropOp44
 70
     1
102
RTVSPost2010Prop45
280
     0
102
RTVSPost2010PropOp45
 70
     1
102
RTVSPost2010Prop46
 90
       50
102
RTVSPost2010PropOp46
 70
     1
102
RTVSPost2010Prop47
 90
       50
102
RTVSPost2010PropOp47
 70
     1
102
RTVSPost2010Prop48
 90
       50
102
RTVSPost2010PropOp48
 70
     1
102
RTVSPost2010Prop49
280
     0
102
RTVSPost2010PropOp49
 70
     1
102
RTVSPost2010Prop50
 90
       50
102
RTVSPost2010PropOp50
 70
     1
102
RTVSPost2010Prop51ColorIndex
 90
      256
102
RTVSPost2010Prop51ColorRGB
 90
-16777216
102
RTVSPost2010PropOp51
 70
     0
102
RTVSPost2010Prop52
140
1.0
102
RTVSPost2010PropOp52
 70
     0
102
RTVSPost2010Prop53
 90
        2
102
RTVSPost2010PropOp53
 70
     1
102
RTVSPost2010Prop54
  1
strokes_ogs.tif
102
RTVSPost2010PropOp54
 70
     1
102
RTVSPost2010Prop55
280
     0
102
RTVSPost2010PropOp55
 70
     1
102
RTVSPost2010Prop56
140
1.0
102
RTVSPost2010PropOp56
 70
     1
102
RTVSPost2010Prop57
140
1.0
102
RTVSPost2010PropOp57
 70
     1
102
RTVSPropertyOp0
 70
     1
102
RTVSPropertyOp1
 70
     1
102
RTVSPropertyOp2
 70
     1
102
RTVSPropertyOp3
 70
     1
102
RTVSPropertyOp4
 70
     1
102
RTVSPropertyOp5
 70
     1
102
RTVSPropertyOp6
 70
     1
102
RTVSPropertyOp7
 70
     1
102
RTVSPropertyOp8
 70
     1
102
RTVSPropertyOp9
 70
     1
102
RTVSPropertyOp10
 70
     1
102
RTVSPropertyOp11
 70
     1
102
RTVSPropertyOp12
 70
     1
102
RTVSPropertyOp13
 70
     1
102
RTVSPropertyOp14
 70
     1
102
RTVSPropertyOp15
 70
     1
102
RTVSPropertyOp16
 70
     1
102
RTVSPropertyOp17
 70
     1
102
RTVSPropertyOp18
 70
     1
102
RTVSPropertyOp19
 70
     1
102
RTVSPropertyOp20
 70
     1
102
RTVSPropertyOp21
 70
     1
102
RTVSPropertyOp22
 70
     1
102
RTVSPropertyOp23
 70
     1
102
RTVSPropertyOp24
 70
     1
102
RTVSPropertyOp25
 70
     1
102
RTVSPropertyOp26
 70
     1
102
RTVSPropertyOp27
 70
     1
102
RTVSPropertyOp28
 70
     1
102
RTVSPropertyOp29
 70
     1
102
RTVSPropertyOp30
 70
     1
102
RTVSPropertyOp31
 70
     1
102
RTVSPropertyOp32
 70
     1
102
RTVSPropertyOp33
 70
     1
102
RTVSPropertyOp34
 70
     1
102
RTVSPropertyOp35
 70
     1
102
RTVSPropertyOp36
 70
     1
102
RTVSPropertyOp37
 70
     1
102
RTVSPropertyOp38
 70
     1
102
RTVSPropertyOp39
 70
     1
102
RTVSPropertyOp40
 70
     1
102
RTVSPropertyOp41
 70
     1
102
RTVSPropertyOp42
 70
     1
102
RTVSPropertyOp43
 70
     1
102
RTVSPropertyOp44
 70
     1
102
RTVSPropertyOp45
 70
     1
102
RTVSPropertyOp46
 70
     1
102
RTVSPropertyOp47
 70
     1
102
RTVSPropertyOp48
 70
     1
102
RTVSPropertyOp49
 70
     1
102
RTVSPropertyOp50
 70
     1
102
RTVSPropertyOp51
 70
     0
102
RTVSPropertyOp52
 70
     0
102
RTVSPropertyOp53
 70
     1
102
RTVSPropertyOp54
 70
     1
102
RTVSPropertyOp55
 70
     1
102
RTVSPropertyOp56
 70
     1
102
RTVSPropertyOp57
 70
     1
102
RTVSPropertyOp58
 70
     1
102
RTVSPropertyOp59
 70
     1
102
RTVSPropertyOp60
 70
     1
102
RTVSPropertyOp61
 70
     1
102
RTVSPropertyOp62
 70
     1
  0
XRECORD
  5
375
102
{ACAD_REACTORS
330
374
102
}
330
374
100
AcDbXrecord
280
     1
102
RTVSPost2010Prop28
280
     0
102
RTVSPost2010PropOp28
 70
     0
102
RTVSPost2010Prop29
280
     1
102
RTVSPost2010PropOp29
 70
     0
102
RTVSPost2010Prop30
280
     1
102
RTVSPost2010PropOp30
 70
     0
102
RTVSPost2010Prop31
280
     0
102
RTVSPost2010PropOp31
 70
     0
102
RTVSPost2010Prop32
280
     0
102
RTVSPost2010PropOp32
 70
     0
102
RTVSPost2010Prop33
280
     0
102
RTVSPost2010PropOp33
 70
     0
102
RTVSPost2010Prop34
280
     0
102
RTVSPost2010PropOp34
 70
     0
102
RTVSPost2010Prop35
280
     0
102
RTVSPost2010PropOp35
 70
     0
102
RTVSPost2010Prop36
280
     0
102
RTVSPost2010PropOp36
 70
     0
102
RTVSPost2010Prop37
 90
       50
102
RTVSPost2010PropOp37
 70
     0
102
RTVSPost2010Prop38
140
0.0
102
RTVSPost2010PropOp38
 70
     0
102
RTVSPost2010Prop39
140
1.0
102
RTVSPost2010PropOp39
 70
     0
102
RTVSPost2010Prop40
 90
        0
102
RTVSPost2010PropOp40
 70
     0
102
RTVSPost2010Prop41ColorIndex
 90
       18
102
RTVSPost2010Prop41ColorRGB
 90
        0
102
RTVSPost2010PropOp41
 70
     0
102
RTVSPost2010Prop42
 90
       50
102
RTVSPost2010PropOp42
 70
     0
102
RTVSPost2010Prop43
 90
        3
102
RTVSPost2010PropOp43
 70
     0
102
RTVSPost2010Prop44ColorIndex
 90
        5
102
RTVSPost2010Prop44ColorRGB
 90
      255
102
RTVSPost2010PropOp44
 70
     0
102
RTVSPost2010Prop45
280
     0
102
RTVSPost2010PropOp45
 70
     0
102
RTVSPost2010Prop46
 90
       50
102
RTVSPost2010PropOp46
 70
     0
102
RTVSPost2010Prop47
 90
       50
102
RTVSPost2010PropOp47
 70
     0
102
RTVSPost2010Prop48
 90
       50
102
RTVSPost2010PropOp48
 70
     0
102
RTVSPost2010Prop49
280
     0
102
RTVSPost2010PropOp49
 70
     0
102
RTVSPost2010Prop50
 90
       50
102
RTVSPost2010PropOp50
 70
     0
102
RTVSPost2010Prop51ColorIndex
 90
      256
102
RTVSPost2010Prop51ColorRGB
 90
-16777216
102
RTVSPost2010PropOp51
 70
     0
102
RTVSPost2010Prop52
140
1.0
102
RTVSPost2010PropOp52
 70
     0
102
RTVSPost2010Prop53
 90
        2
102
RTVSPost2010PropOp53
 70
     0
102
RTVSPost2010Prop54
  1
strokes_ogs.tif
102
RTVSPost2010PropOp54
 70
     0
102
RTVSPost2010Prop55
280
     0
102
RTVSPost2010PropOp55
 70
     0
102
RTVSPost2010Prop56
140
1.0
102
RTVSPost2010PropOp56
 70
     0
102
RTVSPost2010Prop57
140
1.0
102
RTVSPost2010PropOp57
 70
     0
102
RTVSPropertyOp0
 70
     0
102
RTVSPropertyOp1
 70
     0
102
RTVSPropertyOp2
 70
     0
102
RTVSPropertyOp3
 70
     0
102
RTVSPropertyOp4
 70
     0
102
RTVSPropertyOp5
 70
     0
102
RTVSPropertyOp6
 70
     0
102
RTVSPropertyOp7
 70
     0
102
RTVSPropertyOp8
 70
     0
102
RTVSPropertyOp9
 70
     0
102
RTVSPropertyOp10
 70
     0
102
RTVSPropertyOp11
 70
     0
102
RTVSPropertyOp12
 70
     0
102
RTVSPropertyOp13
 70
     0
102
RTVSPropertyOp14
 70
     2
102
RTVSPropertyOp15
 70
     0
102
RTVSPropertyOp16
 70
     0
102
RTVSPropertyOp17
 70
     0
102
RTVSPropertyOp18
 70
     0
102
RTVSPropertyOp19
 70
     0
102
RTVSPropertyOp20
 70
     0
102
RTVSPropertyOp21
 70
     0
102
RTVSPropertyOp22
 70
     0
102
RTVSPropertyOp23
 70
     0
102
RTVSPropertyOp24
 70
     0
102
RTVSPropertyOp25
 70
     0
102
RTVSPropertyOp26
 70
     0
102
RTVSPropertyOp27
 70
     0
102
RTVSPropertyOp28
 70
     0
102
RTVSPropertyOp29
 70
     0
102
RTVSPropertyOp30
 70
     0
102
RTVSPropertyOp31
 70
     0
102
RTVSPropertyOp32
 70
     0
102
RTVSPropertyOp33
 70
     0
102
RTVSPropertyOp34
 70
     0
102
RTVSPropertyOp35
 70
     0
102
RTVSPropertyOp36
 70
     0
102
RTVSPropertyOp37
 70
     0
102
RTVSPropertyOp38
 70
     0
102
RTVSPropertyOp39
 70
     0
102
RTVSPropertyOp40
 70
     0
102
RTVSPropertyOp41
 70
     0
102
RTVSPropertyOp42
 70
     0
102
RTVSPropertyOp43
 70
     0
102
RTVSPropertyOp44
 70
     0
102
RTVSPropertyOp45
 70
     0
102
RTVSPropertyOp46
 70
     0
102
RTVSPropertyOp47
 70
     0
102
RTVSPropertyOp48
 70
     0
102
RTVSPropertyOp49
 70
     0
102
RTVSPropertyOp50
 70
     0
102
RTVSPropertyOp51
 70
     0
102
RTVSPropertyOp52
 70
     0
102
RTVSPropertyOp53
 70
     0
102
RTVSPropertyOp54
 70
     0
102
RTVSPropertyOp55
 70
     0
102
RTVSPropertyOp56
 70
     0
102
RTVSPropertyOp57
 70
     0
102
RTVSPropertyOp58
 70
     1
102
RTVSPropertyOp59
 70
     1
102
RTVSPropertyOp60
 70
     1
102
RTVSPropertyOp61
 70
     1
102
RTVSPropertyOp62
 70
     1
  0
XRECORD
  5
363
102
{ACAD_REACTORS
330
362
102
}
330
362
100
AcDbXrecord
280
     1
102
RTVSPost2010Prop28
280
     0
102
RTVSPost2010PropOp28
 70
     1
102
RTVSPost2010Prop29
280
     1
102
RTVSPost2010PropOp29
 70
     1
102
RTVSPost2010Prop30
280
     1
102
RTVSPost2010PropOp30
 70
     1
102
RTVSPost2010Prop31
280
     0
102
RTVSPost2010PropOp31
 70
     1
102
RTVSPost2010Prop32
280
     0
102
RTVSPost2010PropOp32
 70
     1
102
RTVSPost2010Prop33
280
     0
102
RTVSPost2010PropOp33
 70
     1
102
RTVSPost2010Prop34
280
     0
102
RTVSPost2010PropOp34
 70
     1
102
RTVSPost2010Prop35
280
     0
102
RTVSPost2010PropOp35
 70
     1
102
RTVSPost2010Prop36
280
     0
102
RTVSPost2010PropOp36
 70
     1
102
RTVSPost2010Prop37
 90
       50
102
RTVSPost2010PropOp37
 70
     1
102
RTVSPost2010Prop38
140
0.0
102
RTVSPost2010PropOp38
 70
     1
102
RTVSPost2010Prop39
140
1.0
102
RTVSPost2010PropOp39
 70
     1
102
RTVSPost2010Prop40
 90
        0
102
RTVSPost2010PropOp40
 70
     1
102
RTVSPost2010Prop41ColorIndex
 90
       18
102
RTVSPost2010Prop41ColorRGB
 90
        0
102
RTVSPost2010PropOp41
 70
     1
102
RTVSPost2010Prop42
 90
       50
102
RTVSPost2010PropOp42
 70
     1
102
RTVSPost2010Prop43
 90
        3
102
RTVSPost2010PropOp43
 70
     1
102
RTVSPost2010Prop44ColorIndex
 90
        5
102
RTVSPost2010Prop44ColorRGB
 90
      255
102
RTVSPost2010PropOp44
 70
     1
102
RTVSPost2010Prop45
280
     0
102
RTVSPost2010PropOp45
 70
     1
102
RTVSPost2010Prop46
 90
       50
102
RTVSPost2010PropOp46
 70
     1
102
RTVSPost2010Prop47
 90
       50
102
RTVSPost2010PropOp47
 70
     1
102
RTVSPost2010Prop48
 90
       50
102
RTVSPost2010PropOp48
 70
     1
102
RTVSPost2010Prop49
280
     0
102
RTVSPost2010PropOp49
 70
     1
102
RTVSPost2010Prop50
 90
       50
102
RTVSPost2010PropOp50
 70
     1
102
RTVSPost2010Prop51ColorIndex
 90
      256
102
RTVSPost2010Prop51ColorRGB
 90
-16777216
102
RTVSPost2010PropOp51
 70
     0
102
RTVSPost2010Prop52
140
1.0
102
RTVSPost2010PropOp52
 70
     0
102
RTVSPost2010Prop53
 90
        2
102
RTVSPost2010PropOp53
 70
     1
102
RTVSPost2010Prop54
  1
strokes_ogs.tif
102
RTVSPost2010PropOp54
 70
     1
102
RTVSPost2010Prop55
280
     0
102
RTVSPost2010PropOp55
 70
     1
102
RTVSPost2010Prop56
140
1.0
102
RTVSPost2010PropOp56
 70
     1
102
RTVSPost2010Prop57
140
1.0
102
RTVSPost2010PropOp57
 70
     1
102
RTVSPropertyOp0
 70
     1
102
RTVSPropertyOp1
 70
     1
102
RTVSPropertyOp2
 70
     1
102
RTVSPropertyOp3
 70
     1
102
RTVSPropertyOp4
 70
     1
102
RTVSPropertyOp5
 70
     1
102
RTVSPropertyOp6
 70
     1
102
RTVSPropertyOp7
 70
     1
102
RTVSPropertyOp8
 70
     1
102
RTVSPropertyOp9
 70
     1
102
RTVSPropertyOp10
 70
     1
102
RTVSPropertyOp11
 70
     1
102
RTVSPropertyOp12
 70
     1
102
RTVSPropertyOp13
 70
     1
102
RTVSPropertyOp14
 70
     1
102
RTVSPropertyOp15
 70
     1
102
RTVSPropertyOp16
 70
     1
102
RTVSPropertyOp17
 70
     1
102
RTVSPropertyOp18
 70
     1
102
RTVSPropertyOp19
 70
     1
102
RTVSPropertyOp20
 70
     1
102
RTVSPropertyOp21
 70
     1
102
RTVSPropertyOp22
 70
     1
102
RTVSPropertyOp23
 70
     1
102
RTVSPropertyOp24
 70
     1
102
RTVSPropertyOp25
 70
     1
102
RTVSPropertyOp26
 70
     1
102
RTVSPropertyOp27
 70
     1
102
RTVSPropertyOp28
 70
     1
102
RTVSPropertyOp29
 70
     1
102
RTVSPropertyOp30
 70
     1
102
RTVSPropertyOp31
 70
     1
102
RTVSPropertyOp32
 70
     1
102
RTVSPropertyOp33
 70
     1
102
RTVSPropertyOp34
 70
     1
102
RTVSPropertyOp35
 70
     1
102
RTVSPropertyOp36
 70
     1
102
RTVSPropertyOp37
 70
     1
102
RTVSPropertyOp38
 70
     1
102
RTVSPropertyOp39
 70
     1
102
RTVSPropertyOp40
 70
     1
102
RTVSPropertyOp41
 70
     1
102
RTVSPropertyOp42
 70
     1
102
RTVSPropertyOp43
 70
     1
102
RTVSPropertyOp44
 70
     1
102
RTVSPropertyOp45
 70
     1
102
RTVSPropertyOp46
 70
     1
102
RTVSPropertyOp47
 70
     1
102
RTVSPropertyOp48
 70
     1
102
RTVSPropertyOp49
 70
     1
102
RTVSPropertyOp50
 70
     1
102
RTVSPropertyOp51
 70
     0
102
RTVSPropertyOp52
 70
     0
102
RTVSPropertyOp53
 70
     1
102
RTVSPropertyOp54
 70
     1
102
RTVSPropertyOp55
 70
     1
102
RTVSPropertyOp56
 70
     1
102
RTVSPropertyOp57
 70
     1
102
RTVSPropertyOp58
 70
     1
102
RTVSPropertyOp59
 70
     1
102
RTVSPropertyOp60
 70
     1
102
RTVSPropertyOp61
 70
     1
102
RTVSPropertyOp62
 70
     1
  0
XRECORD
  5
381
102
{ACAD_REACTORS
330
380
102
}
330
380
100
AcDbXrecord
280
     1
102
RTVSPost2010Prop28
280
     0
102
RTVSPost2010PropOp28
 70
     1
102
RTVSPost2010Prop29
280
     1
102
RTVSPost2010PropOp29
 70
     1
102
RTVSPost2010Prop30
280
     1
102
RTVSPost2010PropOp30
 70
     1
102
RTVSPost2010Prop31
280
     0
102
RTVSPost2010PropOp31
 70
     1
102
RTVSPost2010Prop32
280
     0
102
RTVSPost2010PropOp32
 70
     1
102
RTVSPost2010Prop33
280
     0
102
RTVSPost2010PropOp33
 70
     1
102
RTVSPost2010Prop34
280
     0
102
RTVSPost2010PropOp34
 70
     1
102
RTVSPost2010Prop35
280
     0
102
RTVSPost2010PropOp35
 70
     1
102
RTVSPost2010Prop36
280
     0
102
RTVSPost2010PropOp36
 70
     1
102
RTVSPost2010Prop37
 90
       50
102
RTVSPost2010PropOp37
 70
     1
102
RTVSPost2010Prop38
140
0.0
102
RTVSPost2010PropOp38
 70
     1
102
RTVSPost2010Prop39
140
1.0
102
RTVSPost2010PropOp39
 70
     1
102
RTVSPost2010Prop40
 90
        0
102
RTVSPost2010PropOp40
 70
     1
102
RTVSPost2010Prop41ColorIndex
 90
       18
102
RTVSPost2010Prop41ColorRGB
 90
        0
102
RTVSPost2010PropOp41
 70
     1
102
RTVSPost2010Prop42
 90
       50
102
RTVSPost2010PropOp42
 70
     1
102
RTVSPost2010Prop43
 90
        3
102
RTVSPost2010PropOp43
 70
     1
102
RTVSPost2010Prop44ColorIndex
 90
        5
102
RTVSPost2010Prop44ColorRGB
 90
      255
102
RTVSPost2010PropOp44
 70
     1
102
RTVSPost2010Prop45
280
     0
102
RTVSPost2010PropOp45
 70
     1
102
RTVSPost2010Prop46
 90
       50
102
RTVSPost2010PropOp46
 70
     1
102
RTVSPost2010Prop47
 90
       50
102
RTVSPost2010PropOp47
 70
     1
102
RTVSPost2010Prop48
 90
       50
102
RTVSPost2010PropOp48
 70
     1
102
RTVSPost2010Prop49
280
     0
102
RTVSPost2010PropOp49
 70
     1
102
RTVSPost2010Prop50
 90
       50
102
RTVSPost2010PropOp50
 70
     1
102
RTVSPost2010Prop51ColorIndex
 90
      256
102
RTVSPost2010Prop51ColorRGB
 90
-16777216
102
RTVSPost2010PropOp51
 70
     0
102
RTVSPost2010Prop52
140
1.0
102
RTVSPost2010PropOp52
 70
     0
102
RTVSPost2010Prop53
 90
        2
102
RTVSPost2010PropOp53
 70
     1
102
RTVSPost2010Prop54
  1
strokes_ogs.tif
102
RTVSPost2010PropOp54
 70
     1
102
RTVSPost2010Prop55
280
     0
102
RTVSPost2010PropOp55
 70
     1
102
RTVSPost2010Prop56
140
1.0
102
RTVSPost2010PropOp56
 70
     1
102
RTVSPost2010Prop57
140
1.0
102
RTVSPost2010PropOp57
 70
     1
102
RTVSPropertyOp0
 70
     1
102
RTVSPropertyOp1
 70
     1
102
RTVSPropertyOp2
 70
     1
102
RTVSPropertyOp3
 70
     1
102
RTVSPropertyOp4
 70
     1
102
RTVSPropertyOp5
 70
     1
102
RTVSPropertyOp6
 70
     1
102
RTVSPropertyOp7
 70
     1
102
RTVSPropertyOp8
 70
     1
102
RTVSPropertyOp9
 70
     1
102
RTVSPropertyOp10
 70
     1
102
RTVSPropertyOp11
 70
     1
102
RTVSPropertyOp12
 70
     1
102
RTVSPropertyOp13
 70
     1
102
RTVSPropertyOp14
 70
     1
102
RTVSPropertyOp15
 70
     1
102
RTVSPropertyOp16
 70
     1
102
RTVSPropertyOp17
 70
     1
102
RTVSPropertyOp18
 70
     1
102
RTVSPropertyOp19
 70
     1
102
RTVSPropertyOp20
 70
     1
102
RTVSPropertyOp21
 70
     1
102
RTVSPropertyOp22
 70
     1
102
RTVSPropertyOp23
 70
     1
102
RTVSPropertyOp24
 70
     1
102
RTVSPropertyOp25
 70
     1
102
RTVSPropertyOp26
 70
     1
102
RTVSPropertyOp27
 70
     1
102
RTVSPropertyOp28
 70
     1
102
RTVSPropertyOp29
 70
     1
102
RTVSPropertyOp30
 70
     1
102
RTVSPropertyOp31
 70
     1
102
RTVSPropertyOp32
 70
     1
102
RTVSPropertyOp33
 70
     1
102
RTVSPropertyOp34
 70
     1
102
RTVSPropertyOp35
 70
     1
102
RTVSPropertyOp36
 70
     1
102
RTVSPropertyOp37
 70
     1
102
RTVSPropertyOp38
 70
     1
102
RTVSPropertyOp39
 70
     1
102
RTVSPropertyOp40
 70
     1
102
RTVSPropertyOp41
 70
     1
102
RTVSPropertyOp42
 70
     1
102
RTVSPropertyOp43
 70
     1
102
RTVSPropertyOp44
 70
     1
102
RTVSPropertyOp45
 70
     1
102
RTVSPropertyOp46
 70
     1
102
RTVSPropertyOp47
 70
     1
102
RTVSPropertyOp48
 70
     1
102
RTVSPropertyOp49
 70
     1
102
RTVSPropertyOp50
 70
     1
102
RTVSPropertyOp51
 70
     0
102
RTVSPropertyOp52
 70
     0
102
RTVSPropertyOp53
 70
     1
102
RTVSPropertyOp54
 70
     1
102
RTVSPropertyOp55
 70
     1
102
RTVSPropertyOp56
 70
     1
102
RTVSPropertyOp57
 70
     1
102
RTVSPropertyOp58
 70
     1
102
RTVSPropertyOp59
 70
     1
102
RTVSPropertyOp60
 70
     1
102
RTVSPropertyOp61
 70
     1
102
RTVSPropertyOp62
 70
     1
  0
XRECORD
  5
37F
102
{ACAD_REACTORS
330
37E
102
}
330
37E
100
AcDbXrecord
280
     1
102
RTVSPost2010Prop28
280
     0
102
RTVSPost2010PropOp28
 70
     1
102
RTVSPost2010Prop29
280
     1
102
RTVSPost2010PropOp29
 70
     1
102
RTVSPost2010Prop30
280
     1
102
RTVSPost2010PropOp30
 70
     1
102
RTVSPost2010Prop31
280
     0
102
RTVSPost2010PropOp31
 70
     1
102
RTVSPost2010Prop32
280
     0
102
RTVSPost2010PropOp32
 70
     1
102
RTVSPost2010Prop33
280
     0
102
RTVSPost2010PropOp33
 70
     1
102
RTVSPost2010Prop34
280
     0
102
RTVSPost2010PropOp34
 70
     1
102
RTVSPost2010Prop35
280
     0
102
RTVSPost2010PropOp35
 70
     1
102
RTVSPost2010Prop36
280
     0
102
RTVSPost2010PropOp36
 70
     1
102
RTVSPost2010Prop37
 90
       50
102
RTVSPost2010PropOp37
 70
     1
102
RTVSPost2010Prop38
140
0.0
102
RTVSPost2010PropOp38
 70
     1
102
RTVSPost2010Prop39
140
1.0
102
RTVSPost2010PropOp39
 70
     1
102
RTVSPost2010Prop40
 90
        0
102
RTVSPost2010PropOp40
 70
     1
102
RTVSPost2010Prop41ColorIndex
 90
       18
102
RTVSPost2010Prop41ColorRGB
 90
        0
102
RTVSPost2010PropOp41
 70
     1
102
RTVSPost2010Prop42
 90
       50
102
RTVSPost2010PropOp42
 70
     1
102
RTVSPost2010Prop43
 90
        3
102
RTVSPost2010PropOp43
 70
     1
102
RTVSPost2010Prop44ColorIndex
 90
        5
102
RTVSPost2010Prop44ColorRGB
 90
      255
102
RTVSPost2010PropOp44
 70
     1
102
RTVSPost2010Prop45
280
     0
102
RTVSPost2010PropOp45
 70
     1
102
RTVSPost2010Prop46
 90
       50
102
RTVSPost2010PropOp46
 70
     1
102
RTVSPost2010Prop47
 90
       50
102
RTVSPost2010PropOp47
 70
     1
102
RTVSPost2010Prop48
 90
       50
102
RTVSPost2010PropOp48
 70
     1
102
RTVSPost2010Prop49
280
     0
102
RTVSPost2010PropOp49
 70
     1
102
RTVSPost2010Prop50
 90
       50
102
RTVSPost2010PropOp50
 70
     1
102
RTVSPost2010Prop51ColorIndex
 90
      256
102
RTVSPost2010Prop51ColorRGB
 90
-16777216
102
RTVSPost2010PropOp51
 70
     0
102
RTVSPost2010Prop52
140
1.0
102
RTVSPost2010PropOp52
 70
     0
102
RTVSPost2010Prop53
 90
        2
102
RTVSPost2010PropOp53
 70
     1
102
RTVSPost2010Prop54
  1
strokes_ogs.tif
102
RTVSPost2010PropOp54
 70
     1
102
RTVSPost2010Prop55
280
     0
102
RTVSPost2010PropOp55
 70
     1
102
RTVSPost2010Prop56
140
1.0
102
RTVSPost2010PropOp56
 70
     1
102
RTVSPost2010Prop57
140
1.0
102
RTVSPost2010PropOp57
 70
     1
102
RTVSPropertyOp0
 70
     1
102
RTVSPropertyOp1
 70
     1
102
RTVSPropertyOp2
 70
     1
102
RTVSPropertyOp3
 70
     1
102
RTVSPropertyOp4
 70
     1
102
RTVSPropertyOp5
 70
     1
102
RTVSPropertyOp6
 70
     1
102
RTVSPropertyOp7
 70
     1
102
RTVSPropertyOp8
 70
     1
102
RTVSPropertyOp9
 70
     1
102
RTVSPropertyOp10
 70
     1
102
RTVSPropertyOp11
 70
     1
102
RTVSPropertyOp12
 70
     1
102
RTVSPropertyOp13
 70
     1
102
RTVSPropertyOp14
 70
     1
102
RTVSPropertyOp15
 70
     1
102
RTVSPropertyOp16
 70
     1
102
RTVSPropertyOp17
 70
     1
102
RTVSPropertyOp18
 70
     1
102
RTVSPropertyOp19
 70
     1
102
RTVSPropertyOp20
 70
     1
102
RTVSPropertyOp21
 70
     1
102
RTVSPropertyOp22
 70
     1
102
RTVSPropertyOp23
 70
     1
102
RTVSPropertyOp24
 70
     1
102
RTVSPropertyOp25
 70
     1
102
RTVSPropertyOp26
 70
     1
102
RTVSPropertyOp27
 70
     1
102
RTVSPropertyOp28
 70
     1
102
RTVSPropertyOp29
 70
     1
102
RTVSPropertyOp30
 70
     1
102
RTVSPropertyOp31
 70
     1
102
RTVSPropertyOp32
 70
     1
102
RTVSPropertyOp33
 70
     1
102
RTVSPropertyOp34
 70
     1
102
RTVSPropertyOp35
 70
     1
102
RTVSPropertyOp36
 70
     1
102
RTVSPropertyOp37
 70
     1
102
RTVSPropertyOp38
 70
     1
102
RTVSPropertyOp39
 70
     1
102
RTVSPropertyOp40
 70
     1
102
RTVSPropertyOp41
 70
     1
102
RTVSPropertyOp42
 70
     1
102
RTVSPropertyOp43
 70
     1
102
RTVSPropertyOp44
 70
     1
102
RTVSPropertyOp45
 70
     1
102
RTVSPropertyOp46
 70
     1
102
RTVSPropertyOp47
 70
     1
102
RTVSPropertyOp48
 70
     1
102
RTVSPropertyOp49
 70
     1
102
RTVSPropertyOp50
 70
     1
102
RTVSPropertyOp51
 70
     0
102
RTVSPropertyOp52
 70
     0
102
RTVSPropertyOp53
 70
     1
102
RTVSPropertyOp54
 70
     1
102
RTVSPropertyOp55
 70
     1
102
RTVSPropertyOp56
 70
     1
102
RTVSPropertyOp57
 70
     1
102
RTVSPropertyOp58
 70
     1
102
RTVSPropertyOp59
 70
     1
102
RTVSPropertyOp60
 70
     1
102
RTVSPropertyOp61
 70
     1
102
RTVSPropertyOp62
 70
     1
  0
XRECORD
  5
379
102
{ACAD_REACTORS
330
378
102
}
330
378
100
AcDbXrecord
280
     1
102
RTVSPost2010Prop28
280
     0
102
RTVSPost2010PropOp28
 70
     1
102
RTVSPost2010Prop29
280
     1
102
RTVSPost2010PropOp29
 70
     1
102
RTVSPost2010Prop30
280
     1
102
RTVSPost2010PropOp30
 70
     1
102
RTVSPost2010Prop31
280
     0
102
RTVSPost2010PropOp31
 70
     1
102
RTVSPost2010Prop32
280
     0
102
RTVSPost2010PropOp32
 70
     1
102
RTVSPost2010Prop33
280
     0
102
RTVSPost2010PropOp33
 70
     1
102
RTVSPost2010Prop34
280
     0
102
RTVSPost2010PropOp34
 70
     1
102
RTVSPost2010Prop35
280
     0
102
RTVSPost2010PropOp35
 70
     1
102
RTVSPost2010Prop36
280
     0
102
RTVSPost2010PropOp36
 70
     1
102
RTVSPost2010Prop37
 90
       50
102
RTVSPost2010PropOp37
 70
     1
102
RTVSPost2010Prop38
140
0.0
102
RTVSPost2010PropOp38
 70
     1
102
RTVSPost2010Prop39
140
1.0
102
RTVSPost2010PropOp39
 70
     1
102
RTVSPost2010Prop40
 90
        0
102
RTVSPost2010PropOp40
 70
     1
102
RTVSPost2010Prop41ColorIndex
 90
       18
102
RTVSPost2010Prop41ColorRGB
 90
        0
102
RTVSPost2010PropOp41
 70
     1
102
RTVSPost2010Prop42
 90
       50
102
RTVSPost2010PropOp42
 70
     1
102
RTVSPost2010Prop43
 90
        3
102
RTVSPost2010PropOp43
 70
     1
102
RTVSPost2010Prop44ColorIndex
 90
        5
102
RTVSPost2010Prop44ColorRGB
 90
      255
102
RTVSPost2010PropOp44
 70
     1
102
RTVSPost2010Prop45
280
     0
102
RTVSPost2010PropOp45
 70
     1
102
RTVSPost2010Prop46
 90
       50
102
RTVSPost2010PropOp46
 70
     1
102
RTVSPost2010Prop47
 90
       50
102
RTVSPost2010PropOp47
 70
     1
102
RTVSPost2010Prop48
 90
       50
102
RTVSPost2010PropOp48
 70
     1
102
RTVSPost2010Prop49
280
     0
102
RTVSPost2010PropOp49
 70
     1
102
RTVSPost2010Prop50
 90
       50
102
RTVSPost2010PropOp50
 70
     1
102
RTVSPost2010Prop51ColorIndex
 90
      256
102
RTVSPost2010Prop51ColorRGB
 90
-16777216
102
RTVSPost2010PropOp51
 70
     0
102
RTVSPost2010Prop52
140
1.0
102
RTVSPost2010PropOp52
 70
     0
102
RTVSPost2010Prop53
 90
        2
102
RTVSPost2010PropOp53
 70
     1
102
RTVSPost2010Prop54
  1
strokes_ogs.tif
102
RTVSPost2010PropOp54
 70
     1
102
RTVSPost2010Prop55
280
     0
102
RTVSPost2010PropOp55
 70
     1
102
RTVSPost2010Prop56
140
1.0
102
RTVSPost2010PropOp56
 70
     1
102
RTVSPost2010Prop57
140
1.0
102
RTVSPost2010PropOp57
 70
     1
102
RTVSPropertyOp0
 70
     1
102
RTVSPropertyOp1
 70
     1
102
RTVSPropertyOp2
 70
     1
102
RTVSPropertyOp3
 70
     1
102
RTVSPropertyOp4
 70
     1
102
RTVSPropertyOp5
 70
     1
102
RTVSPropertyOp6
 70
     1
102
RTVSPropertyOp7
 70
     1
102
RTVSPropertyOp8
 70
     1
102
RTVSPropertyOp9
 70
     1
102
RTVSPropertyOp10
 70
     1
102
RTVSPropertyOp11
 70
     1
102
RTVSPropertyOp12
 70
     1
102
RTVSPropertyOp13
 70
     1
102
RTVSPropertyOp14
 70
     1
102
RTVSPropertyOp15
 70
     1
102
RTVSPropertyOp16
 70
     1
102
RTVSPropertyOp17
 70
     1
102
RTVSPropertyOp18
 70
     1
102
RTVSPropertyOp19
 70
     1
102
RTVSPropertyOp20
 70
     1
102
RTVSPropertyOp21
 70
     1
102
RTVSPropertyOp22
 70
     1
102
RTVSPropertyOp23
 70
     1
102
RTVSPropertyOp24
 70
     1
102
RTVSPropertyOp25
 70
     1
102
RTVSPropertyOp26
 70
     1
102
RTVSPropertyOp27
 70
     1
102
RTVSPropertyOp28
 70
     1
102
RTVSPropertyOp29
 70
     1
102
RTVSPropertyOp30
 70
     1
102
RTVSPropertyOp31
 70
     1
102
RTVSPropertyOp32
 70
     1
102
RTVSPropertyOp33
 70
     1
102
RTVSPropertyOp34
 70
     1
102
RTVSPropertyOp35
 70
     1
102
RTVSPropertyOp36
 70
     1
102
RTVSPropertyOp37
 70
     1
102
RTVSPropertyOp38
 70
     1
102
RTVSPropertyOp39
 70
     1
102
RTVSPropertyOp40
 70
     1
102
RTVSPropertyOp41
 70
     1
102
RTVSPropertyOp42
 70
     1
102
RTVSPropertyOp43
 70
     1
102
RTVSPropertyOp44
 70
     1
102
RTVSPropertyOp45
 70
     1
102
RTVSPropertyOp46
 70
     1
102
RTVSPropertyOp47
 70
     1
102
RTVSPropertyOp48
 70
     1
102
RTVSPropertyOp49
 70
     1
102
RTVSPropertyOp50
 70
     1
102
RTVSPropertyOp51
 70
     0
102
RTVSPropertyOp52
 70
     0
102
RTVSPropertyOp53
 70
     1
102
RTVSPropertyOp54
 70
     1
102
RTVSPropertyOp55
 70
     1
102
RTVSPropertyOp56
 70
     1
102
RTVSPropertyOp57
 70
     1
102
RTVSPropertyOp58
 70
     1
102
RTVSPropertyOp59
 70
     1
102
RTVSPropertyOp60
 70
     1
102
RTVSPropertyOp61
 70
     1
102
RTVSPropertyOp62
 70
     1
  0
XRECORD
  5
37B
102
{ACAD_REACTORS
330
37A
102
}
330
37A
100
AcDbXrecord
280
     1
102
RTVSPost2010Prop28
280
     0
102
RTVSPost2010PropOp28
 70
     1
102
RTVSPost2010Prop29
280
     1
102
RTVSPost2010PropOp29
 70
     1
102
RTVSPost2010Prop30
280
     1
102
RTVSPost2010PropOp30
 70
     1
102
RTVSPost2010Prop31
280
     0
102
RTVSPost2010PropOp31
 70
     1
102
RTVSPost2010Prop32
280
     0
102
RTVSPost2010PropOp32
 70
     1
102
RTVSPost2010Prop33
280
     0
102
RTVSPost2010PropOp33
 70
     1
102
RTVSPost2010Prop34
280
     0
102
RTVSPost2010PropOp34
 70
     1
102
RTVSPost2010Prop35
280
     0
102
RTVSPost2010PropOp35
 70
     1
102
RTVSPost2010Prop36
280
     0
102
RTVSPost2010PropOp36
 70
     1
102
RTVSPost2010Prop37
 90
       50
102
RTVSPost2010PropOp37
 70
     1
102
RTVSPost2010Prop38
140
0.0
102
RTVSPost2010PropOp38
 70
     1
102
RTVSPost2010Prop39
140
1.0
102
RTVSPost2010PropOp39
 70
     1
102
RTVSPost2010Prop40
 90
        0
102
RTVSPost2010PropOp40
 70
     1
102
RTVSPost2010Prop41ColorIndex
 90
       18
102
RTVSPost2010Prop41ColorRGB
 90
        0
102
RTVSPost2010PropOp41
 70
     1
102
RTVSPost2010Prop42
 90
       50
102
RTVSPost2010PropOp42
 70
     1
102
RTVSPost2010Prop43
 90
        3
102
RTVSPost2010PropOp43
 70
     1
102
RTVSPost2010Prop44ColorIndex
 90
        5
102
RTVSPost2010Prop44ColorRGB
 90
      255
102
RTVSPost2010PropOp44
 70
     1
102
RTVSPost2010Prop45
280
     0
102
RTVSPost2010PropOp45
 70
     1
102
RTVSPost2010Prop46
 90
       50
102
RTVSPost2010PropOp46
 70
     1
102
RTVSPost2010Prop47
 90
       50
102
RTVSPost2010PropOp47
 70
     1
102
RTVSPost2010Prop48
 90
       50
102
RTVSPost2010PropOp48
 70
     1
102
RTVSPost2010Prop49
280
     0
102
RTVSPost2010PropOp49
 70
     1
102
RTVSPost2010Prop50
 90
       50
102
RTVSPost2010PropOp50
 70
     1
102
RTVSPost2010Prop51ColorIndex
 90
      256
102
RTVSPost2010Prop51ColorRGB
 90
-16777216
102
RTVSPost2010PropOp51
 70
     0
102
RTVSPost2010Prop52
140
1.0
102
RTVSPost2010PropOp52
 70
     0
102
RTVSPost2010Prop53
 90
        2
102
RTVSPost2010PropOp53
 70
     1
102
RTVSPost2010Prop54
  1
strokes_ogs.tif
102
RTVSPost2010PropOp54
 70
     1
102
RTVSPost2010Prop55
280
     0
102
RTVSPost2010PropOp55
 70
     1
102
RTVSPost2010Prop56
140
1.0
102
RTVSPost2010PropOp56
 70
     1
102
RTVSPost2010Prop57
140
1.0
102
RTVSPost2010PropOp57
 70
     1
102
RTVSPropertyOp0
 70
     1
102
RTVSPropertyOp1
 70
     1
102
RTVSPropertyOp2
 70
     1
102
RTVSPropertyOp3
 70
     1
102
RTVSPropertyOp4
 70
     1
102
RTVSPropertyOp5
 70
     1
102
RTVSPropertyOp6
 70
     1
102
RTVSPropertyOp7
 70
     1
102
RTVSPropertyOp8
 70
     1
102
RTVSPropertyOp9
 70
     1
102
RTVSPropertyOp10
 70
     1
102
RTVSPropertyOp11
 70
     1
102
RTVSPropertyOp12
 70
     1
102
RTVSPropertyOp13
 70
     1
102
RTVSPropertyOp14
 70
     1
102
RTVSPropertyOp15
 70
     1
102
RTVSPropertyOp16
 70
     1
102
RTVSPropertyOp17
 70
     1
102
RTVSPropertyOp18
 70
     1
102
RTVSPropertyOp19
 70
     1
102
RTVSPropertyOp20
 70
     1
102
RTVSPropertyOp21
 70
     1
102
RTVSPropertyOp22
 70
     1
102
RTVSPropertyOp23
 70
     1
102
RTVSPropertyOp24
 70
     1
102
RTVSPropertyOp25
 70
     1
102
RTVSPropertyOp26
 70
     1
102
RTVSPropertyOp27
 70
     1
102
RTVSPropertyOp28
 70
     1
102
RTVSPropertyOp29
 70
     1
102
RTVSPropertyOp30
 70
     1
102
RTVSPropertyOp31
 70
     1
102
RTVSPropertyOp32
 70
     1
102
RTVSPropertyOp33
 70
     1
102
RTVSPropertyOp34
 70
     1
102
RTVSPropertyOp35
 70
     1
102
RTVSPropertyOp36
 70
     1
102
RTVSPropertyOp37
 70
     1
102
RTVSPropertyOp38
 70
     1
102
RTVSPropertyOp39
 70
     1
102
RTVSPropertyOp40
 70
     1
102
RTVSPropertyOp41
 70
     1
102
RTVSPropertyOp42
 70
     1
102
RTVSPropertyOp43
 70
     1
102
RTVSPropertyOp44
 70
     1
102
RTVSPropertyOp45
 70
     1
102
RTVSPropertyOp46
 70
     1
102
RTVSPropertyOp47
 70
     1
102
RTVSPropertyOp48
 70
     1
102
RTVSPropertyOp49
 70
     1
102
RTVSPropertyOp50
 70
     1
102
RTVSPropertyOp51
 70
     0
102
RTVSPropertyOp52
 70
     0
102
RTVSPropertyOp53
 70
     1
102
RTVSPropertyOp54
 70
     1
102
RTVSPropertyOp55
 70
     1
102
RTVSPropertyOp56
 70
     1
102
RTVSPropertyOp57
 70
     1
102
RTVSPropertyOp58
 70
     1
102
RTVSPropertyOp59
 70
     1
102
RTVSPropertyOp60
 70
     1
102
RTVSPropertyOp61
 70
     1
102
RTVSPropertyOp62
 70
     1
  0
XRECORD
  5
36B
102
{ACAD_REACTORS
330
36A
102
}
330
36A
100
AcDbXrecord
280
     1
102
RTVSPost2010Prop28
280
     0
102
RTVSPost2010PropOp28
 70
     1
102
RTVSPost2010Prop29
280
     1
102
RTVSPost2010PropOp29
 70
     1
102
RTVSPost2010Prop30
280
     1
102
RTVSPost2010PropOp30
 70
     1
102
RTVSPost2010Prop31
280
     0
102
RTVSPost2010PropOp31
 70
     1
102
RTVSPost2010Prop32
280
     0
102
RTVSPost2010PropOp32
 70
     1
102
RTVSPost2010Prop33
280
     0
102
RTVSPost2010PropOp33
 70
     1
102
RTVSPost2010Prop34
280
     0
102
RTVSPost2010PropOp34
 70
     1
102
RTVSPost2010Prop35
280
     0
102
RTVSPost2010PropOp35
 70
     1
102
RTVSPost2010Prop36
280
     0
102
RTVSPost2010PropOp36
 70
     1
102
RTVSPost2010Prop37
 90
       50
102
RTVSPost2010PropOp37
 70
     1
102
RTVSPost2010Prop38
140
0.0
102
RTVSPost2010PropOp38
 70
     1
102
RTVSPost2010Prop39
140
1.0
102
RTVSPost2010PropOp39
 70
     1
102
RTVSPost2010Prop40
 90
        0
102
RTVSPost2010PropOp40
 70
     1
102
RTVSPost2010Prop41ColorIndex
 90
       18
102
RTVSPost2010Prop41ColorRGB
 90
        0
102
RTVSPost2010PropOp41
 70
     1
102
RTVSPost2010Prop42
 90
       50
102
RTVSPost2010PropOp42
 70
     1
102
RTVSPost2010Prop43
 90
        3
102
RTVSPost2010PropOp43
 70
     1
102
RTVSPost2010Prop44ColorIndex
 90
        5
102
RTVSPost2010Prop44ColorRGB
 90
      255
102
RTVSPost2010PropOp44
 70
     1
102
RTVSPost2010Prop45
280
     0
102
RTVSPost2010PropOp45
 70
     1
102
RTVSPost2010Prop46
 90
       50
102
RTVSPost2010PropOp46
 70
     1
102
RTVSPost2010Prop47
 90
       50
102
RTVSPost2010PropOp47
 70
     1
102
RTVSPost2010Prop48
 90
       50
102
RTVSPost2010PropOp48
 70
     1
102
RTVSPost2010Prop49
280
     0
102
RTVSPost2010PropOp49
 70
     1
102
RTVSPost2010Prop50
 90
       50
102
RTVSPost2010PropOp50
 70
     1
102
RTVSPost2010Prop51ColorIndex
 90
      256
102
RTVSPost2010Prop51ColorRGB
 90
-16777216
102
RTVSPost2010PropOp51
 70
     0
102
RTVSPost2010Prop52
140
1.0
102
RTVSPost2010PropOp52
 70
     0
102
RTVSPost2010Prop53
 90
        2
102
RTVSPost2010PropOp53
 70
     1
102
RTVSPost2010Prop54
  1
strokes_ogs.tif
102
RTVSPost2010PropOp54
 70
     1
102
RTVSPost2010Prop55
280
     0
102
RTVSPost2010PropOp55
 70
     1
102
RTVSPost2010Prop56
140
1.0
102
RTVSPost2010PropOp56
 70
     1
102
RTVSPost2010Prop57
140
1.0
102
RTVSPost2010PropOp57
 70
     1
102
RTVSPropertyOp0
 70
     1
102
RTVSPropertyOp1
 70
     1
102
RTVSPropertyOp2
 70
     1
102
RTVSPropertyOp3
 70
     1
102
RTVSPropertyOp4
 70
     1
102
RTVSPropertyOp5
 70
     1
102
RTVSPropertyOp6
 70
     1
102
RTVSPropertyOp7
 70
     1
102
RTVSPropertyOp8
 70
     1
102
RTVSPropertyOp9
 70
     1
102
RTVSPropertyOp10
 70
     1
102
RTVSPropertyOp11
 70
     1
102
RTVSPropertyOp12
 70
     1
102
RTVSPropertyOp13
 70
     1
102
RTVSPropertyOp14
 70
     1
102
RTVSPropertyOp15
 70
     1
102
RTVSPropertyOp16
 70
     1
102
RTVSPropertyOp17
 70
     1
102
RTVSPropertyOp18
 70
     1
102
RTVSPropertyOp19
 70
     1
102
RTVSPropertyOp20
 70
     1
102
RTVSPropertyOp21
 70
     1
102
RTVSPropertyOp22
 70
     1
102
RTVSPropertyOp23
 70
     1
102
RTVSPropertyOp24
 70
     1
102
RTVSPropertyOp25
 70
     1
102
RTVSPropertyOp26
 70
     1
102
RTVSPropertyOp27
 70
     1
102
RTVSPropertyOp28
 70
     1
102
RTVSPropertyOp29
 70
     1
102
RTVSPropertyOp30
 70
     1
102
RTVSPropertyOp31
 70
     1
102
RTVSPropertyOp32
 70
     1
102
RTVSPropertyOp33
 70
     1
102
RTVSPropertyOp34
 70
     1
102
RTVSPropertyOp35
 70
     1
102
RTVSPropertyOp36
 70
     1
102
RTVSPropertyOp37
 70
     1
102
RTVSPropertyOp38
 70
     1
102
RTVSPropertyOp39
 70
     1
102
RTVSPropertyOp40
 70
     1
102
RTVSPropertyOp41
 70
     1
102
RTVSPropertyOp42
 70
     1
102
RTVSPropertyOp43
 70
     1
102
RTVSPropertyOp44
 70
     1
102
RTVSPropertyOp45
 70
     1
102
RTVSPropertyOp46
 70
     1
102
RTVSPropertyOp47
 70
     1
102
RTVSPropertyOp48
 70
     1
102
RTVSPropertyOp49
 70
     1
102
RTVSPropertyOp50
 70
     1
102
RTVSPropertyOp51
 70
     0
102
RTVSPropertyOp52
 70
     0
102
RTVSPropertyOp53
 70
     1
102
RTVSPropertyOp54
 70
     1
102
RTVSPropertyOp55
 70
     1
102
RTVSPropertyOp56
 70
     1
102
RTVSPropertyOp57
 70
     1
102
RTVSPropertyOp58
 70
     1
102
RTVSPropertyOp59
 70
     1
102
RTVSPropertyOp60
 70
     1
102
RTVSPropertyOp61
 70
     1
102
RTVSPropertyOp62
 70
     1
  0
XRECORD
  5
35D
102
{ACAD_REACTORS
330
35C
102
}
330
35C
100
AcDbXrecord
280
     1
102
RTVSPost2010Prop28
280
     0
102
RTVSPost2010PropOp28
 70
     1
102
RTVSPost2010Prop29
280
     1
102
RTVSPost2010PropOp29
 70
     1
102
RTVSPost2010Prop30
280
     1
102
RTVSPost2010PropOp30
 70
     1
102
RTVSPost2010Prop31
280
     0
102
RTVSPost2010PropOp31
 70
     1
102
RTVSPost2010Prop32
280
     0
102
RTVSPost2010PropOp32
 70
     1
102
RTVSPost2010Prop33
280
     0
102
RTVSPost2010PropOp33
 70
     1
102
RTVSPost2010Prop34
280
     0
102
RTVSPost2010PropOp34
 70
     1
102
RTVSPost2010Prop35
280
     0
102
RTVSPost2010PropOp35
 70
     1
102
RTVSPost2010Prop36
280
     0
102
RTVSPost2010PropOp36
 70
     1
102
RTVSPost2010Prop37
 90
       50
102
RTVSPost2010PropOp37
 70
     1
102
RTVSPost2010Prop38
140
0.0
102
RTVSPost2010PropOp38
 70
     1
102
RTVSPost2010Prop39
140
1.0
102
RTVSPost2010PropOp39
 70
     1
102
RTVSPost2010Prop40
 90
        0
102
RTVSPost2010PropOp40
 70
     1
102
RTVSPost2010Prop41ColorIndex
 90
       18
102
RTVSPost2010Prop41ColorRGB
 90
        0
102
RTVSPost2010PropOp41
 70
     1
102
RTVSPost2010Prop42
 90
       50
102
RTVSPost2010PropOp42
 70
     1
102
RTVSPost2010Prop43
 90
        3
102
RTVSPost2010PropOp43
 70
     1
102
RTVSPost2010Prop44ColorIndex
 90
        5
102
RTVSPost2010Prop44ColorRGB
 90
      255
102
RTVSPost2010PropOp44
 70
     1
102
RTVSPost2010Prop45
280
     0
102
RTVSPost2010PropOp45
 70
     1
102
RTVSPost2010Prop46
 90
       50
102
RTVSPost2010PropOp46
 70
     1
102
RTVSPost2010Prop47
 90
       50
102
RTVSPost2010PropOp47
 70
     1
102
RTVSPost2010Prop48
 90
       50
102
RTVSPost2010PropOp48
 70
     1
102
RTVSPost2010Prop49
280
     0
102
RTVSPost2010PropOp49
 70
     1
102
RTVSPost2010Prop50
 90
       50
102
RTVSPost2010PropOp50
 70
     1
102
RTVSPost2010Prop51ColorIndex
 90
      256
102
RTVSPost2010Prop51ColorRGB
 90
-16777216
102
RTVSPost2010PropOp51
 70
     0
102
RTVSPost2010Prop52
140
1.0
102
RTVSPost2010PropOp52
 70
     0
102
RTVSPost2010Prop53
 90
        2
102
RTVSPost2010PropOp53
 70
     1
102
RTVSPost2010Prop54
  1
strokes_ogs.tif
102
RTVSPost2010PropOp54
 70
     1
102
RTVSPost2010Prop55
280
     0
102
RTVSPost2010PropOp55
 70
     1
102
RTVSPost2010Prop56
140
1.0
102
RTVSPost2010PropOp56
 70
     1
102
RTVSPost2010Prop57
140
1.0
102
RTVSPost2010PropOp57
 70
     1
102
RTVSPropertyOp0
 70
     1
102
RTVSPropertyOp1
 70
     1
102
RTVSPropertyOp2
 70
     1
102
RTVSPropertyOp3
 70
     1
102
RTVSPropertyOp4
 70
     1
102
RTVSPropertyOp5
 70
     1
102
RTVSPropertyOp6
 70
     1
102
RTVSPropertyOp7
 70
     1
102
RTVSPropertyOp8
 70
     1
102
RTVSPropertyOp9
 70
     1
102
RTVSPropertyOp10
 70
     1
102
RTVSPropertyOp11
 70
     1
102
RTVSPropertyOp12
 70
     1
102
RTVSPropertyOp13
 70
     1
102
RTVSPropertyOp14
 70
     1
102
RTVSPropertyOp15
 70
     1
102
RTVSPropertyOp16
 70
     1
102
RTVSPropertyOp17
 70
     1
102
RTVSPropertyOp18
 70
     1
102
RTVSPropertyOp19
 70
     1
102
RTVSPropertyOp20
 70
     1
102
RTVSPropertyOp21
 70
     1
102
RTVSPropertyOp22
 70
     1
102
RTVSPropertyOp23
 70
     1
102
RTVSPropertyOp24
 70
     1
102
RTVSPropertyOp25
 70
     1
102
RTVSPropertyOp26
 70
     1
102
RTVSPropertyOp27
 70
     1
102
RTVSPropertyOp28
 70
     1
102
RTVSPropertyOp29
 70
     1
102
RTVSPropertyOp30
 70
     1
102
RTVSPropertyOp31
 70
     1
102
RTVSPropertyOp32
 70
     1
102
RTVSPropertyOp33
 70
     1
102
RTVSPropertyOp34
 70
     1
102
RTVSPropertyOp35
 70
     1
102
RTVSPropertyOp36
 70
     1
102
RTVSPropertyOp37
 70
     1
102
RTVSPropertyOp38
 70
     1
102
RTVSPropertyOp39
 70
     1
102
RTVSPropertyOp40
 70
     1
102
RTVSPropertyOp41
 70
     1
102
RTVSPropertyOp42
 70
     1
102
RTVSPropertyOp43
 70
     1
102
RTVSPropertyOp44
 70
     1
102
RTVSPropertyOp45
 70
     1
102
RTVSPropertyOp46
 70
     1
102
RTVSPropertyOp47
 70
     1
102
RTVSPropertyOp48
 70
     1
102
RTVSPropertyOp49
 70
     1
102
RTVSPropertyOp50
 70
     1
102
RTVSPropertyOp51
 70
     0
102
RTVSPropertyOp52
 70
     0
102
RTVSPropertyOp53
 70
     1
102
RTVSPropertyOp54
 70
     1
102
RTVSPropertyOp55
 70
     1
102
RTVSPropertyOp56
 70
     1
102
RTVSPropertyOp57
 70
     1
102
RTVSPropertyOp58
 70
     1
102
RTVSPropertyOp59
 70
     1
102
RTVSPropertyOp60
 70
     1
102
RTVSPropertyOp61
 70
     1
102
RTVSPropertyOp62
 70
     1
  0
XRECORD
  5
37D
102
{ACAD_REACTORS
330
37C
102
}
330
37C
100
AcDbXrecord
280
     1
102
RTVSPost2010Prop28
280
     0
102
RTVSPost2010PropOp28
 70
     1
102
RTVSPost2010Prop29
280
     1
102
RTVSPost2010PropOp29
 70
     1
102
RTVSPost2010Prop30
280
     1
102
RTVSPost2010PropOp30
 70
     1
102
RTVSPost2010Prop31
280
     0
102
RTVSPost2010PropOp31
 70
     1
102
RTVSPost2010Prop32
280
     0
102
RTVSPost2010PropOp32
 70
     1
102
RTVSPost2010Prop33
280
     0
102
RTVSPost2010PropOp33
 70
     1
102
RTVSPost2010Prop34
280
     0
102
RTVSPost2010PropOp34
 70
     1
102
RTVSPost2010Prop35
280
     0
102
RTVSPost2010PropOp35
 70
     1
102
RTVSPost2010Prop36
280
     0
102
RTVSPost2010PropOp36
 70
     1
102
RTVSPost2010Prop37
 90
       50
102
RTVSPost2010PropOp37
 70
     1
102
RTVSPost2010Prop38
140
0.0
102
RTVSPost2010PropOp38
 70
     1
102
RTVSPost2010Prop39
140
1.0
102
RTVSPost2010PropOp39
 70
     1
102
RTVSPost2010Prop40
 90
        0
102
RTVSPost2010PropOp40
 70
     1
102
RTVSPost2010Prop41ColorIndex
 90
       18
102
RTVSPost2010Prop41ColorRGB
 90
        0
102
RTVSPost2010PropOp41
 70
     1
102
RTVSPost2010Prop42
 90
       50
102
RTVSPost2010PropOp42
 70
     1
102
RTVSPost2010Prop43
 90
        3
102
RTVSPost2010PropOp43
 70
     1
102
RTVSPost2010Prop44ColorIndex
 90
        5
102
RTVSPost2010Prop44ColorRGB
 90
      255
102
RTVSPost2010PropOp44
 70
     1
102
RTVSPost2010Prop45
280
     0
102
RTVSPost2010PropOp45
 70
     1
102
RTVSPost2010Prop46
 90
       50
102
RTVSPost2010PropOp46
 70
     1
102
RTVSPost2010Prop47
 90
       50
102
RTVSPost2010PropOp47
 70
     1
102
RTVSPost2010Prop48
 90
       50
102
RTVSPost2010PropOp48
 70
     1
102
RTVSPost2010Prop49
280
     0
102
RTVSPost2010PropOp49
 70
     1
102
RTVSPost2010Prop50
 90
       50
102
RTVSPost2010PropOp50
 70
     1
102
RTVSPost2010Prop51ColorIndex
 90
      256
102
RTVSPost2010Prop51ColorRGB
 90
-16777216
102
RTVSPost2010PropOp51
 70
     0
102
RTVSPost2010Prop52
140
1.0
102
RTVSPost2010PropOp52
 70
     0
102
RTVSPost2010Prop53
 90
        2
102
RTVSPost2010PropOp53
 70
     1
102
RTVSPost2010Prop54
  1
strokes_ogs.tif
102
RTVSPost2010PropOp54
 70
     1
102
RTVSPost2010Prop55
280
     0
102
RTVSPost2010PropOp55
 70
     1
102
RTVSPost2010Prop56
140
1.0
102
RTVSPost2010PropOp56
 70
     1
102
RTVSPost2010Prop57
140
1.0
102
RTVSPost2010PropOp57
 70
     1
102
RTVSPropertyOp0
 70
     1
102
RTVSPropertyOp1
 70
     1
102
RTVSPropertyOp2
 70
     1
102
RTVSPropertyOp3
 70
     1
102
RTVSPropertyOp4
 70
     1
102
RTVSPropertyOp5
 70
     1
102
RTVSPropertyOp6
 70
     1
102
RTVSPropertyOp7
 70
     1
102
RTVSPropertyOp8
 70
     1
102
RTVSPropertyOp9
 70
     1
102
RTVSPropertyOp10
 70
     1
102
RTVSPropertyOp11
 70
     1
102
RTVSPropertyOp12
 70
     1
102
RTVSPropertyOp13
 70
     1
102
RTVSPropertyOp14
 70
     1
102
RTVSPropertyOp15
 70
     1
102
RTVSPropertyOp16
 70
     1
102
RTVSPropertyOp17
 70
     1
102
RTVSPropertyOp18
 70
     1
102
RTVSPropertyOp19
 70
     1
102
RTVSPropertyOp20
 70
     1
102
RTVSPropertyOp21
 70
     1
102
RTVSPropertyOp22
 70
     1
102
RTVSPropertyOp23
 70
     1
102
RTVSPropertyOp24
 70
     1
102
RTVSPropertyOp25
 70
     1
102
RTVSPropertyOp26
 70
     1
102
RTVSPropertyOp27
 70
     1
102
RTVSPropertyOp28
 70
     1
102
RTVSPropertyOp29
 70
     1
102
RTVSPropertyOp30
 70
     1
102
RTVSPropertyOp31
 70
     1
102
RTVSPropertyOp32
 70
     1
102
RTVSPropertyOp33
 70
     1
102
RTVSPropertyOp34
 70
     1
102
RTVSPropertyOp35
 70
     1
102
RTVSPropertyOp36
 70
     1
102
RTVSPropertyOp37
 70
     1
102
RTVSPropertyOp38
 70
     1
102
RTVSPropertyOp39
 70
     1
102
RTVSPropertyOp40
 70
     1
102
RTVSPropertyOp41
 70
     1
102
RTVSPropertyOp42
 70
     1
102
RTVSPropertyOp43
 70
     1
102
RTVSPropertyOp44
 70
     1
102
RTVSPropertyOp45
 70
     1
102
RTVSPropertyOp46
 70
     1
102
RTVSPropertyOp47
 70
     1
102
RTVSPropertyOp48
 70
     1
102
RTVSPropertyOp49
 70
     1
102
RTVSPropertyOp50
 70
     1
102
RTVSPropertyOp51
 70
     0
102
RTVSPropertyOp52
 70
     0
102
RTVSPropertyOp53
 70
     1
102
RTVSPropertyOp54
 70
     1
102
RTVSPropertyOp55
 70
     1
102
RTVSPropertyOp56
 70
     1
102
RTVSPropertyOp57
 70
     1
102
RTVSPropertyOp58
 70
     1
102
RTVSPropertyOp59
 70
     1
102
RTVSPropertyOp60
 70
     1
102
RTVSPropertyOp61
 70
     1
102
RTVSPropertyOp62
 70
     1
  0
ENDSEC
  0
EOF
