  0
SECTION
  2
HEADER
  9
$ACADVER
  1
AC1018
  9
$ACADMAINTVER
 70
   104
  9
$DWGCODEPAGE
  3
ANSI_1250
  9
$LASTSAVEDBY
  1
wq7085
  9
$INSBASE
 10
0.0
 20
0.0
 30
0.0
  9
$EXTMIN
 10
187.2502013333333
 20
118.534924
 30
0.0
  9
$EXTMAX
 10
465.3848509999999
 20
351.9336746666668
 30
0.0
  9
$LIMMIN
 10
-0.5
 20
-0.5
  9
$LIMMAX
 10
5.0
 20
5.0
  9
$ORTHOMODE
 70
     0
  9
$REGENMODE
 70
     1
  9
$FILLMODE
 70
     1
  9
$QTEXTMODE
 70
     0
  9
$MIRRTEXT
 70
     1
  9
$LTSCALE
 40
1.0
  9
$ATTMODE
 70
     1
  9
$TEXTSIZE
 40
0.2
  9
$TRACEWID
 40
0.05
  9
$TEXTSTYLE
  7
Standard
  9
$CLAYER
  8
0
  9
$CELTYPE
  6
ByLayer
  9
$CECOLOR
 62
   256
  9
$CELTSCALE
 40
1.0
  9
$DISPSILH
 70
     0
  9
$DIMSCALE
 40
1.0
  9
$DIMASZ
 40
0.18
  9
$DIMEXO
 40
0.0625
  9
$DIMDLI
 40
0.38
  9
$DIMRND
 40
0.0
  9
$DIMDLE
 40
0.0
  9
$DIMEXE
 40
0.18
  9
$DIMTP
 40
0.0
  9
$DIMTM
 40
0.0
  9
$DIMTXT
 40
0.18
  9
$DIMCEN
 40
0.09
  9
$DIMTSZ
 40
0.0
  9
$DIMTOL
 70
     0
  9
$DIMLIM
 70
     0
  9
$DIMTIH
 70
     1
  9
$DIMTOH
 70
     1
  9
$DIMSE1
 70
     0
  9
$DIMSE2
 70
     0
  9
$DIMTAD
 70
     0
  9
$DIMZIN
 70
     0
  9
$DIMBLK
  1

  9
$DIMASO
 70
     1
  9
$DIMSHO
 70
     1
  9
$DIMPOST
  1

  9
$DIMAPOST
  1

  9
$DIMALT
 70
     0
  9
$DIMALTD
 70
     2
  9
$DIMALTF
 40
25.4
  9
$DIMLFAC
 40
1.0
  9
$DIMTOFL
 70
     0
  9
$DIMTVP
 40
0.0
  9
$DIMTIX
 70
     0
  9
$DIMSOXD
 70
     0
  9
$DIMSAH
 70
     0
  9
$DIMBLK1
  1

  9
$DIMBLK2
  1

  9
$DIMSTYLE
  2
Standard
  9
$DIMCLRD
 70
     0
  9
$DIMCLRE
 70
     0
  9
$DIMCLRT
 70
     0
  9
$DIMTFAC
 40
1.0
  9
$DIMGAP
 40
0.09
  9
$DIMJUST
 70
     0
  9
$DIMSD1
 70
     0
  9
$DIMSD2
 70
     0
  9
$DIMTOLJ
 70
     1
  9
$DIMTZIN
 70
     0
  9
$DIMALTZ
 70
     0
  9
$DIMALTTZ
 70
     0
  9
$DIMUPT
 70
     0
  9
$DIMDEC
 70
     4
  9
$DIMTDEC
 70
     4
  9
$DIMALTU
 70
     2
  9
$DIMALTTD
 70
     2
  9
$DIMTXSTY
  7
Standard
  9
$DIMAUNIT
 70
     0
  9
$DIMADEC
 70
     0
  9
$DIMALTRND
 40
0.0
  9
$DIMAZIN
 70
     0
  9
$DIMDSEP
 70
    46
  9
$DIMATFIT
 70
     3
  9
$DIMFRAC
 70
     0
  9
$DIMLDRBLK
  1

  9
$DIMLUNIT
 70
     2
  9
$DIMLWD
 70
    -2
  9
$DIMLWE
 70
    -2
  9
$DIMTMOVE
 70
     0
  9
$LUNITS
 70
     2
  9
$LUPREC
 70
     4
  9
$SKETCHINC
 40
0.1
  9
$FILLETRAD
 40
0.5
  9
$AUNITS
 70
     0
  9
$AUPREC
 70
     0
  9
$MENU
  1
.
  9
$ELEVATION
 40
0.0
  9
$PELEVATION
 40
0.0
  9
$THICKNESS
 40
0.0
  9
$LIMCHECK
 70
     0
  9
$CHAMFERA
 40
0.0
  9
$CHAMFERB
 40
0.0
  9
$CHAMFERC
 40
0.0
  9
$CHAMFERD
 40
0.0
  9
$SKPOLY
 70
     0
  9
$TDCREATE
 40
2459089.414444444
  9
$TDUCREATE
 40
2459089.331121458
  9
$TDUPDATE
 40
2459089.415150463
  9
$TDUUPDATE
 40
2459089.331817130
  9
$TDINDWG
 40
0.0002662153
  9
$TDUSRTIMER
 40
0.0002662153
  9
$USRTIMER
 70
     1
  9
$ANGBASE
 50
0.0
  9
$ANGDIR
 70
     0
  9
$PDMODE
 70
     0
  9
$PDSIZE
 40
0.0
  9
$PLINEWID
 40
0.0
  9
$SPLFRAME
 70
     0
  9
$SPLINETYPE
 70
     6
  9
$SPLINESEGS
 70
     8
  9
$HANDSEED
  5
3DA
  9
$SURFTAB1
 70
     6
  9
$SURFTAB2
 70
     6
  9
$SURFTYPE
 70
     6
  9
$SURFU
 70
     6
  9
$SURFV
 70
     6
  9
$UCSBASE
  2

  9
$UCSNAME
  2

  9
$UCSORG
 10
274.404842
 20
288.907994
 30
0.0
  9
$UCSXDIR
 10
1.0
 20
0.0
 30
0.0
  9
$UCSYDIR
 10
0.0
 20
1.0
 30
0.0
  9
$UCSORTHOREF
  2

  9
$UCSORTHOVIEW
 70
     0
  9
$UCSORGTOP
 10
0.0
 20
0.0
 30
0.0
  9
$UCSORGBOTTOM
 10
0.0
 20
0.0
 30
0.0
  9
$UCSORGLEFT
 10
0.0
 20
0.0
 30
0.0
  9
$UCSORGRIGHT
 10
0.0
 20
0.0
 30
0.0
  9
$UCSORGFRONT
 10
0.0
 20
0.0
 30
0.0
  9
$UCSORGBACK
 10
0.0
 20
0.0
 30
0.0
  9
$PUCSBASE
  2

  9
$PUCSNAME
  2

  9
$PUCSORG
 10
0.0
 20
0.0
 30
0.0
  9
$PUCSXDIR
 10
1.0
 20
0.0
 30
0.0
  9
$PUCSYDIR
 10
0.0
 20
1.0
 30
0.0
  9
$PUCSORTHOREF
  2

  9
$PUCSORTHOVIEW
 70
     0
  9
$PUCSORGTOP
 10
0.0
 20
0.0
 30
0.0
  9
$PUCSORGBOTTOM
 10
0.0
 20
0.0
 30
0.0
  9
$PUCSORGLEFT
 10
0.0
 20
0.0
 30
0.0
  9
$PUCSORGRIGHT
 10
0.0
 20
0.0
 30
0.0
  9
$PUCSORGFRONT
 10
0.0
 20
0.0
 30
0.0
  9
$PUCSORGBACK
 10
0.0
 20
0.0
 30
0.0
  9
$USERI1
 70
     0
  9
$USERI2
 70
     0
  9
$USERI3
 70
     0
  9
$USERI4
 70
     0
  9
$USERI5
 70
     0
  9
$USERR1
 40
0.0
  9
$USERR2
 40
0.0
  9
$USERR3
 40
0.0
  9
$USERR4
 40
0.0
  9
$USERR5
 40
0.0
  9
$WORLDVIEW
 70
     1
  9
$SHADEDGE
 70
     3
  9
$SHADEDIF
 70
    70
  9
$TILEMODE
 70
     1
  9
$MAXACTVP
 70
    64
  9
$PINSBASE
 10
0.0
 20
0.0
 30
0.0
  9
$PLIMCHECK
 70
     0
  9
$PEXTMIN
 10
-0.5
 20
-0.5
 30
-0.5
  9
$PEXTMAX
 10
5.0
 20
5.0
 30
5.0
  9
$PLIMMIN
 10
-0.5
 20
-0.5
  9
$PLIMMAX
 10
5.0
 20
5.0
  9
$UNITMODE
 70
     0
  9
$VISRETAIN
 70
     1
  9
$PLINEGEN
 70
     0
  9
$PSLTSCALE
 70
     1
  9
$TREEDEPTH
 70
  3020
  9
$CMLSTYLE
  2
Standard
  9
$CMLJUST
 70
     0
  9
$CMLSCALE
 40
1.0
  9
$PROXYGRAPHICS
 70
     1
  9
$MEASUREMENT
 70
     1
  9
$CELWEIGHT
370
    13
  9
$ENDCAPS
280
     0
  9
$JOINSTYLE
280
     0
  9
$LWDISPLAY
290
     0
  9
$INSUNITS
 70
     4
  9
$HYPERLINKBASE
  1

  9
$STYLESHEET
  1

  9
$XEDIT
290
     1
  9
$CEPSNTYPE
380
     0
  9
$PSTYLEMODE
290
     1
  9
$FINGERPRINTGUID
  2
{9711B763-44B3-4757-B4FA-F36D250A90D1}
  9
$VERSIONGUID
  2
{CABA3D3D-CE12-2F47-9BDF-7EA91204CB46}
  9
$EXTNAMES
290
     1
  9
$PSVPSCALE
 40
0.0
  9
$OLESTARTUP
290
     0
  9
$SORTENTS
280
   127
  9
$INDEXCTL
280
     0
  9
$HIDETEXT
280
     1
  9
$XCLIPFRAME
290
     0
  9
$HALOGAP
280
     0
  9
$OBSCOLOR
 70
   257
  9
$OBSLTYPE
280
     0
  9
$INTERSECTIONDISPLAY
280
     0
  9
$INTERSECTIONCOLOR
 70
   257
  9
$DIMASSOC
280
     2
  9
$PROJECTNAME
  1

  0
ENDSEC
  0
SECTION
  2
CLASSES
  0
CLASS
  1
ACDBDICTIONARYWDFLT
  2
AcDbDictionaryWithDefault
  3
ObjectDBX Classes
 90
        0
 91
        1
280
     0
281
     0
  0
CLASS
  1
VISUALSTYLE
  2
AcDbVisualStyle
  3
ObjectDBX Classes
 90
     4095
 91
       24
280
     0
281
     0
  0
CLASS
  1
MATERIAL
  2
AcDbMaterial
  3
ObjectDBX Classes
 90
     1153
 91
        3
280
     0
281
     0
  0
CLASS
  1
SCALE
  2
AcDbScale
  3
ObjectDBX Classes
 90
     1153
 91
       33
280
     0
281
     0
  0
CLASS
  1
TABLESTYLE
  2
AcDbTableStyle
  3
ObjectDBX Classes
 90
     4095
 91
        1
280
     0
281
     0
  0
CLASS
  1
MLEADERSTYLE
  2
AcDbMLeaderStyle
  3
ACDB_MLEADERSTYLE_CLASS
 90
     4095
 91
        1
280
     0
281
     0
  0
CLASS
  1
SUN
  2
AcDbSun
  3
SCENEOE
 90
     1153
 91
        0
280
     0
281
     0
  0
CLASS
  1
DIMASSOC
  2
AcDbDimAssoc
  3
"AcDbDimAssoc|Product Desc:     AcDim ARX App For Dimension|Company:          Autodesk, Inc.|WEB Address:      www.autodesk.com"
 90
        0
 91
        7
280
     0
281
     0
  0
CLASS
  1
DICTIONARYVAR
  2
AcDbDictionaryVar
  3
ObjectDBX Classes
 90
        0
 91
        8
280
     0
281
     0
  0
CLASS
  1
CELLSTYLEMAP
  2
AcDbCellStyleMap
  3
ObjectDBX Classes
 90
     1152
 91
        2
280
     0
281
     0
  0
CLASS
  1
ACDBSECTIONVIEWSTYLE
  2
AcDbSectionViewStyle
  3
ObjectDBX Classes
 90
     1025
 91
        1
280
     0
281
     0
  0
CLASS
  1
ACDBDETAILVIEWSTYLE
  2
AcDbDetailViewStyle
  3
ObjectDBX Classes
 90
     1025
 91
        1
280
     0
281
     0
  0
CLASS
  1
SORTENTSTABLE
  2
AcDbSortentsTable
  3
ObjectDBX Classes
 90
        0
 91
        1
280
     0
281
     0
  0
ENDSEC
  0
SECTION
  2
TABLES
  0
TABLE
  2
VPORT
  5
8
330
0
100
AcDbSymbolTable
 70
    16
  0
VPORT
  5
29
330
8
100
AcDbSymbolTableRecord
100
AcDbViewportTableRecord
  2
*Active
 70
     0
 10
0.0
 20
0.0
 11
1.0
 21
1.0
 12
333.5121139300948
 22
298.0655472150795
 13
0.0
 23
0.0
 14
0.5
 24
0.5
 15
0.5
 25
0.5
 16
0.0
 26
0.0
 36
1.0
 17
0.0
 27
0.0
 37
0.0
 40
202.5677762882921
 41
2.292712066905615
 42
50.0
 43
484.459769
 44
-484.459769
 50
0.0
 51
0.0
 71
     0
 72
   100
 73
     1
 74
     3
 75
     0
 76
     0
 77
     0
 78
     0
281
     0
 65
     1
110
274.404842
120
288.907994
130
0.0
111
1.0
121
0.0
131
0.0
112
0.0
122
1.0
132
0.0
 79
     0
146
0.0
1001
ACAD_NAV_VCDISPLAY
1070
     3
  0
VPORT
  5
2DE
330
8
100
AcDbSymbolTableRecord
100
AcDbViewportTableRecord
  2
L1
 70
     0
 10
0.0
 20
0.0
 11
1.0
 21
1.0
 12
325.813324
 22
235.154897
 13
0.0
 23
0.0
 14
0.5
 24
0.5
 15
0.5
 25
0.5
 16
0.0
 26
0.0
 36
1.0
 17
0.0
 27
0.0
 37
0.0
 40
207.433333
 41
0.085602
 42
50.0
 43
484.459769
 44
-484.459769
 50
0.0
 51
0.0
 71
     0
 72
   100
 73
     1
 74
     3
 75
     0
 76
     0
 77
     0
 78
     0
281
     0
 65
     1
110
0.0
120
0.0
130
0.0
111
1.0
121
0.0
131
0.0
112
0.0
122
1.0
132
0.0
 79
     0
146
0.0
  0
VPORT
  5
2DF
330
8
100
AcDbSymbolTableRecord
100
AcDbViewportTableRecord
  2
L2
 70
     0
 10
0.0
 20
0.0
 11
0.5
 21
1.0
 12
0.0
 22
0.0
 13
0.0
 23
0.0
 14
0.5
 24
0.5
 15
0.5
 25
0.5
 16
0.0
 26
-1.0
 36
0.0
 17
0.0
 27
0.0
 37
0.0
 40
1316.18997
 41
0.013491
 42
50.0
 43
678.00864
 44
-678.00864
 50
0.0
 51
0.0
 71
     0
 72
   100
 73
     1
 74
     3
 75
     0
 76
     0
 77
     0
 78
     0
281
     0
 65
     1
110
0.0
120
0.0
130
0.0
111
1.0
121
0.0
131
0.0
112
0.0
122
1.0
132
0.0
 79
     0
146
0.0
  0
VPORT
  5
2E0
330
8
100
AcDbSymbolTableRecord
100
AcDbViewportTableRecord
  2
L2
 70
     0
 10
0.5
 20
0.0
 11
1.0
 21
1.0
 12
0.0
 22
0.0
 13
0.0
 23
0.0
 14
0.5
 24
0.5
 15
0.5
 25
0.5
 16
1.0
 26
0.0
 36
0.0
 17
0.0
 27
0.0
 37
0.0
 40
1316.18997
 41
0.013491
 42
50.0
 43
666.2177989999999
 44
-666.2177989999999
 50
0.0
 51
0.0
 71
     0
 72
   100
 73
     1
 74
     3
 75
     0
 76
     0
 77
     0
 78
     0
281
     0
 65
     1
110
0.0
120
0.0
130
0.0
111
1.0
121
0.0
131
0.0
112
0.0
122
1.0
132
0.0
 79
     0
146
0.0
  0
VPORT
  5
2E1
330
8
100
AcDbSymbolTableRecord
100
AcDbViewportTableRecord
  2
L3
 70
     0
 10
0.0
 20
0.5
 11
1.0
 21
1.0
 12
325.813324
 22
235.154897
 13
0.0
 23
0.0
 14
0.5
 24
0.5
 15
0.5
 25
0.5
 16
0.0
 26
0.0
 36
1.0
 17
0.0
 27
0.0
 37
0.0
 40
207.433333
 41
0.085602
 42
50.0
 43
484.459769
 44
-484.459769
 50
0.0
 51
0.0
 71
     0
 72
   100
 73
     1
 74
     3
 75
     0
 76
     0
 77
     0
 78
     0
281
     0
 65
     1
110
0.0
120
0.0
130
0.0
111
1.0
121
0.0
131
0.0
112
0.0
122
1.0
132
0.0
 79
     0
146
0.0
  0
VPORT
  5
2E2
330
8
100
AcDbSymbolTableRecord
100
AcDbViewportTableRecord
  2
L3
 70
     0
 10
0.0
 20
0.0
 11
1.0
 21
0.5
 12
0.0
 22
0.0
 13
0.0
 23
0.0
 14
0.5
 24
0.5
 15
0.5
 25
0.5
 16
0.0
 26
-1.0
 36
0.0
 17
0.0
 27
0.0
 37
0.0
 40
1316.18997
 41
0.013491
 42
50.0
 43
678.00864
 44
-678.00864
 50
0.0
 51
0.0
 71
     0
 72
   100
 73
     1
 74
     3
 75
     0
 76
     0
 77
     0
 78
     0
281
     0
 65
     1
110
0.0
120
0.0
130
0.0
111
1.0
121
0.0
131
0.0
112
0.0
122
1.0
132
0.0
 79
     0
146
0.0
  0
VPORT
  5
2E3
330
8
100
AcDbSymbolTableRecord
100
AcDbViewportTableRecord
  2
L4
 70
     0
 10
0.0
 20
0.5
 11
0.5
 21
1.0
 12
325.813324
 22
235.154897
 13
0.0
 23
0.0
 14
0.5
 24
0.5
 15
0.5
 25
0.5
 16
0.0
 26
0.0
 36
1.0
 17
0.0
 27
0.0
 37
0.0
 40
207.433333
 41
0.085602
 42
50.0
 43
484.459769
 44
-484.459769
 50
0.0
 51
0.0
 71
     0
 72
   100
 73
     1
 74
     3
 75
     0
 76
     0
 77
     0
 78
     0
281
     0
 65
     1
110
0.0
120
0.0
130
0.0
111
1.0
121
0.0
131
0.0
112
0.0
122
1.0
132
0.0
 79
     0
146
0.0
  0
VPORT
  5
2E4
330
8
100
AcDbSymbolTableRecord
100
AcDbViewportTableRecord
  2
L4
 70
     0
 10
0.0
 20
0.0
 11
0.5
 21
0.5
 12
0.0
 22
0.0
 13
0.0
 23
0.0
 14
0.5
 24
0.5
 15
0.5
 25
0.5
 16
0.0
 26
-1.0
 36
0.0
 17
0.0
 27
0.0
 37
0.0
 40
1316.18997
 41
0.013491
 42
50.0
 43
678.00864
 44
-678.00864
 50
0.0
 51
0.0
 71
     0
 72
   100
 73
     1
 74
     3
 75
     0
 76
     0
 77
     0
 78
     0
281
     0
 65
     1
110
0.0
120
0.0
130
0.0
111
1.0
121
0.0
131
0.0
112
0.0
122
1.0
132
0.0
 79
     0
146
0.0
  0
VPORT
  5
2E5
330
8
100
AcDbSymbolTableRecord
100
AcDbViewportTableRecord
  2
L4
 70
     0
 10
0.5
 20
0.0
 11
1.0
 21
0.5
 12
0.0
 22
0.0
 13
0.0
 23
0.0
 14
0.5
 24
0.5
 15
0.5
 25
0.5
 16
1.0
 26
0.0
 36
0.0
 17
0.0
 27
0.0
 37
0.0
 40
1316.18997
 41
0.013491
 42
50.0
 43
666.2177989999999
 44
-666.2177989999999
 50
0.0
 51
0.0
 71
     0
 72
   100
 73
     1
 74
     3
 75
     0
 76
     0
 77
     0
 78
     0
281
     0
 65
     1
110
0.0
120
0.0
130
0.0
111
1.0
121
0.0
131
0.0
112
0.0
122
1.0
132
0.0
 79
     0
146
0.0
  0
VPORT
  5
2E6
330
8
100
AcDbSymbolTableRecord
100
AcDbViewportTableRecord
  2
L4
 70
     0
 10
0.5
 20
0.5
 11
1.0
 21
1.0
 12
0.0
 22
0.0
 13
0.0
 23
0.0
 14
0.5
 24
0.5
 15
0.5
 25
0.5
 16
0.5773502691896259
 26
-0.5773502691896259
 36
0.5773502691896259
 17
0.0
 27
0.0
 37
0.0
 40
1292.532264
 41
0.013738
 42
50.0
 43
673.245608
 44
-673.245608
 50
0.0
 51
0.0
 71
     0
 72
   100
 73
     1
 74
     3
 75
     0
 76
     0
 77
     0
 78
     0
281
     0
 65
     1
110
0.0
120
0.0
130
0.0
111
1.0
121
0.0
131
0.0
112
0.0
122
1.0
132
0.0
 79
     0
146
0.0
  0
VPORT
  5
2E7
330
8
100
AcDbSymbolTableRecord
100
AcDbViewportTableRecord
  2
L6
 70
     0
 10
0.0
 20
0.5
 11
0.333333
 21
1.0
 12
0.0
 22
0.0
 13
0.0
 23
0.0
 14
0.5
 24
0.5
 15
0.5
 25
0.5
 16
0.7188730927569434
 26
-0.5850486126764433
 36
0.3754192287502549
 17
0.0
 27
0.0
 37
0.0
 40
1364.064247
 41
0.013018
 42
50.0
 43
706.2613849999999
 44
-706.2613849999999
 50
0.0
 51
0.0
 71
     0
 72
   100
 73
     1
 74
     3
 75
     0
 76
     0
 77
     0
 78
     0
281
     0
 65
     1
110
0.0
120
0.0
130
0.0
111
1.0
121
0.0
131
0.0
112
0.0
122
1.0
132
0.0
 79
     0
146
0.0
  0
VPORT
  5
2E8
330
8
100
AcDbSymbolTableRecord
100
AcDbViewportTableRecord
  2
L6
 70
     0
 10
0.0
 20
0.0
 11
0.333333
 21
0.5
 12
0.0
 22
0.0
 13
0.0
 23
0.0
 14
0.5
 24
0.5
 15
0.5
 25
0.5
 16
-1.0
 26
0.0
 36
0.0
 17
0.0
 27
0.0
 37
0.0
 40
1316.18997
 41
0.013491
 42
50.0
 43
666.2177989999999
 44
-666.2177989999999
 50
0.0
 51
0.0
 71
     0
 72
   100
 73
     1
 74
     3
 75
     0
 76
     0
 77
     0
 78
     0
281
     0
 65
     1
110
0.0
120
0.0
130
0.0
111
1.0
121
0.0
131
0.0
112
0.0
122
1.0
132
0.0
 79
     0
146
0.0
  0
VPORT
  5
2E9
330
8
100
AcDbSymbolTableRecord
100
AcDbViewportTableRecord
  2
L6
 70
     0
 10
0.333333
 20
0.5
 11
0.666667
 21
1.0
 12
325.813324
 22
235.154897
 13
0.0
 23
0.0
 14
0.5
 24
0.5
 15
0.5
 25
0.5
 16
0.0
 26
0.0
 36
1.0
 17
0.0
 27
0.0
 37
0.0
 40
207.433333
 41
0.085602
 42
50.0
 43
484.459769
 44
-484.459769
 50
0.0
 51
0.0
 71
     0
 72
   100
 73
     1
 74
     3
 75
     0
 76
     0
 77
     0
 78
     0
281
     0
 65
     1
110
0.0
120
0.0
130
0.0
111
1.0
121
0.0
131
0.0
112
0.0
122
1.0
132
0.0
 79
     0
146
0.0
  0
VPORT
  5
2EA
330
8
100
AcDbSymbolTableRecord
100
AcDbViewportTableRecord
  2
L6
 70
     0
 10
0.333333
 20
0.0
 11
0.666667
 21
0.5
 12
0.0
 22
0.0
 13
0.0
 23
0.0
 14
0.5
 24
0.5
 15
0.5
 25
0.5
 16
0.0
 26
-1.0
 36
0.0
 17
0.0
 27
0.0
 37
0.0
 40
1316.18997
 41
0.013491
 42
50.0
 43
678.00864
 44
-678.00864
 50
0.0
 51
0.0
 71
     0
 72
   100
 73
     1
 74
     3
 75
     0
 76
     0
 77
     0
 78
     0
281
     0
 65
     1
110
0.0
120
0.0
130
0.0
111
1.0
121
0.0
131
0.0
112
0.0
122
1.0
132
0.0
 79
     0
146
0.0
  0
VPORT
  5
2EB
330
8
100
AcDbSymbolTableRecord
100
AcDbViewportTableRecord
  2
L6
 70
     0
 10
0.666667
 20
0.5
 11
1.0
 21
1.0
 12
0.0
 22
0.0
 13
0.0
 23
0.0
 14
0.5
 24
0.5
 15
0.5
 25
0.5
 16
0.5773502691896259
 26
-0.5773502691896259
 36
0.5773502691896259
 17
0.0
 27
0.0
 37
0.0
 40
1292.532264
 41
0.013738
 42
50.0
 43
673.245608
 44
-673.245608
 50
0.0
 51
0.0
 71
     0
 72
   100
 73
     1
 74
     3
 75
     0
 76
     0
 77
     0
 78
     0
281
     0
 65
     1
110
0.0
120
0.0
130
0.0
111
1.0
121
0.0
131
0.0
112
0.0
122
1.0
132
0.0
 79
     0
146
0.0
  0
VPORT
  5
2EC
330
8
100
AcDbSymbolTableRecord
100
AcDbViewportTableRecord
  2
L6
 70
     0
 10
0.666667
 20
0.0
 11
1.0
 21
0.5
 12
0.0
 22
0.0
 13
0.0
 23
0.0
 14
0.5
 24
0.5
 15
0.5
 25
0.5
 16
1.0
 26
0.0
 36
0.0
 17
0.0
 27
0.0
 37
0.0
 40
1316.18997
 41
0.013491
 42
50.0
 43
666.2177989999999
 44
-666.2177989999999
 50
0.0
 51
0.0
 71
     0
 72
   100
 73
     1
 74
     3
 75
     0
 76
     0
 77
     0
 78
     0
281
     0
 65
     1
110
0.0
120
0.0
130
0.0
111
1.0
121
0.0
131
0.0
112
0.0
122
1.0
132
0.0
 79
     0
146
0.0
  0
ENDTAB
  0
TABLE
  2
LTYPE
  5
5
330
0
100
AcDbSymbolTable
 70
     7
  0
LTYPE
  5
14
330
5
100
AcDbSymbolTableRecord
100
AcDbLinetypeTableRecord
  2
ByBlock
 70
     0
  3

 72
    65
 73
     0
 40
0.0
  0
LTYPE
  5
15
330
5
100
AcDbSymbolTableRecord
100
AcDbLinetypeTableRecord
  2
ByLayer
 70
     0
  3

 72
    65
 73
     0
 40
0.0
  0
LTYPE
  5
16
330
5
100
AcDbSymbolTableRecord
100
AcDbLinetypeTableRecord
  2
Continuous
 70
     0
  3
Solid line
 72
    65
 73
     0
 40
0.0
  0
LTYPE
  5
6E
330
5
100
AcDbSymbolTableRecord
100
AcDbLinetypeTableRecord
  2
CENTER
 70
     0
  3
____ _ ____ _ ____ _ ____
 72
    65
 73
     4
 40
47.4
 49
22.0
 74
     4
 75
     0
340
0
 46
0.0
 50
0.0
 44
0.0
 45
0.0
 49
-8.5
 74
     4
 75
     0
340
0
 46
0.0
 50
0.0
 44
0.0
 45
0.0
 49
8.5
 74
     4
 75
     0
340
0
 46
0.0
 50
0.0
 44
0.0
 45
0.0
 49
-8.5
 74
     4
 75
     0
340
0
 46
0.0
 50
0.0
 44
0.0
 45
0.0
  0
LTYPE
  5
6F
330
5
100
AcDbSymbolTableRecord
100
AcDbLinetypeTableRecord
  2
DASHDOT
 70
     0
  3
_._._._._._._._._._._._._._._._.
 72
    65
 73
     4
 40
70.0
 49
31.0
 74
     4
 75
     0
340
0
 46
0.0
 50
0.0
 44
0.0
 45
0.0
 49
-13.0
 74
     4
 75
     0
340
0
 46
0.0
 50
0.0
 44
0.0
 45
0.0
 49
13.0
 74
     4
 75
     0
340
0
 46
0.0
 50
0.0
 44
0.0
 45
0.0
 49
-13.0
 74
     4
 75
     0
340
0
 46
0.0
 50
0.0
 44
0.0
 45
0.0
  0
LTYPE
  5
70
330
5
100
AcDbSymbolTableRecord
100
AcDbLinetypeTableRecord
  2
DASHED
 70
     0
  3
__ __ __ __ __ __ __ __ __
 72
    65
 73
     2
 40
25.72
 49
12.86
 74
     4
 75
     0
340
0
 46
0.0
 50
0.0
 44
0.0
 45
0.0
 49
-12.86
 74
     4
 75
     0
340
0
 46
0.0
 50
0.0
 44
0.0
 45
0.0
  0
LTYPE
  5
71
330
5
100
AcDbSymbolTableRecord
100
AcDbLinetypeTableRecord
  2
DOT
 70
     0
  3
.........................
 72
    65
 73
     2
 40
10.0
 49
0.0
 74
     4
 75
     0
340
0
 46
0.0
 50
0.0
 44
0.0
 45
0.0
 49
-10.0
 74
     4
 75
     0
340
0
 46
0.0
 50
0.0
 44
0.0
 45
0.0
  0
LTYPE
  5
72
330
5
100
AcDbSymbolTableRecord
100
AcDbLinetypeTableRecord
  2
PHANTOM
 70
     0
  3
____ _ _ ____ _ _ _____ _ _ ____
 72
    65
 73
     6
 40
50.5
 49
18.0
 74
     4
 75
     0
340
0
 46
0.0
 50
0.0
 44
0.0
 45
0.0
 49
-6.5
 74
     4
 75
     0
340
0
 46
0.0
 50
0.0
 44
0.0
 45
0.0
 49
6.5
 74
     4
 75
     0
340
0
 46
0.0
 50
0.0
 44
0.0
 45
0.0
 49
-6.5
 74
     4
 75
     0
340
0
 46
0.0
 50
0.0
 44
0.0
 45
0.0
 49
6.5
 74
     4
 75
     0
340
0
 46
0.0
 50
0.0
 44
0.0
 45
0.0
 49
-6.5
 74
     4
 75
     0
340
0
 46
0.0
 50
0.0
 44
0.0
 45
0.0
  0
LTYPE
  5
37C
330
5
100
AcDbSymbolTableRecord
100
AcDbLinetypeTableRecord
  2
CENTER2
 70
     0
  3
Center (.5x) ___ _ ___ _ ___ _ ___ _ ___ _ ___
 72
    65
 73
     4
 40
1.125
 49
0.75
 74
     0
 49
-0.125
 74
     0
 49
0.125
 74
     0
 49
-0.125
 74
     0
  0
ENDTAB
  0
TABLE
  2
LAYER
  5
2
330
0
100
AcDbSymbolTable
 70
    22
  0
LAYER
  5
10
102
{ACAD_XDICTIONARY
360
387
102
}
330
2
100
AcDbSymbolTableRecord
100
AcDbLayerTableRecord
  2
0
 70
     0
 62
     7
  6
Continuous
370
    -3
390
F
  0
LAYER
  5
238
330
2
100
AcDbSymbolTableRecord
100
AcDbLayerTableRecord
  2
Defpoints
 70
     0
 62
     7
  6
Continuous
290
     0
370
    -3
390
F
  0
LAYER
  5
379
102
{ACAD_XDICTIONARY
360
389
102
}
330
2
100
AcDbSymbolTableRecord
100
AcDbLayerTableRecord
  2
1
 70
     0
 62
     4
  6
Continuous
370
    -3
390
F
  0
LAYER
  5
37A
102
{ACAD_XDICTIONARY
360
38B
102
}
330
2
100
AcDbSymbolTableRecord
100
AcDbLayerTableRecord
  2
2
 70
     0
 62
     7
  6
Continuous
370
    -3
390
F
  0
LAYER
  5
37B
102
{ACAD_XDICTIONARY
360
38D
102
}
330
2
100
AcDbSymbolTableRecord
100
AcDbLayerTableRecord
  2
4
 70
     0
 62
     2
  6
CENTER2
370
    -3
390
F
  0
LAYER
  5
37D
102
{ACAD_XDICTIONARY
360
38F
102
}
330
2
100
AcDbSymbolTableRecord
100
AcDbLayerTableRecord
  2
SK1
 70
     0
 62
     4
  6
Continuous
370
    -3
390
F
  0
LAYER
  5
37E
102
{ACAD_XDICTIONARY
360
391
102
}
330
2
100
AcDbSymbolTableRecord
100
AcDbLayerTableRecord
  2
SK2
 70
     0
 62
     7
  6
Continuous
370
    -3
390
F
  0
LAYER
  5
380
102
{ACAD_XDICTIONARY
360
393
102
}
330
2
100
AcDbSymbolTableRecord
100
AcDbLayerTableRecord
  2
SK4
 70
     0
 62
     2
  6
CENTER2
370
    -3
390
F
  0
LAYER
  5
381
102
{ACAD_XDICTIONARY
360
395
102
}
330
2
100
AcDbSymbolTableRecord
100
AcDbLayerTableRecord
  2
SK6
 70
     0
 62
     5
  6
Continuous
370
    -3
390
F
  0
LAYER
  5
382
102
{ACAD_XDICTIONARY
360
397
102
}
330
2
100
AcDbSymbolTableRecord
100
AcDbLayerTableRecord
  2
CUT
 70
     0
 62
     1
  6
Continuous
370
    -3
390
F
  0
LAYER
  5
383
102
{ACAD_XDICTIONARY
360
399
102
}
330
2
100
AcDbSymbolTableRecord
100
AcDbLayerTableRecord
  2
NOCUT
 70
     0
 62
     7
  6
Continuous
370
    -3
390
F
  0
LAYER
  5
384
102
{ACAD_XDICTIONARY
360
39B
102
}
330
2
100
AcDbSymbolTableRecord
100
AcDbLayerTableRecord
  2
80
 70
     0
 62
     6
  6
Continuous
370
    -3
390
F
  0
LAYER
  5
385
102
{ACAD_XDICTIONARY
360
39D
102
}
330
2
100
AcDbSymbolTableRecord
100
AcDbLayerTableRecord
  2
81
 70
     0
 62
     3
  6
Continuous
370
    -3
390
F
  0
ENDTAB
  0
TABLE
  2
STYLE
  5
3
330
0
100
AcDbSymbolTable
 70
     3
  0
STYLE
  5
11
330
3
100
AcDbSymbolTableRecord
100
AcDbTextStyleTableRecord
  2
Standard
 70
     0
 40
0.0
 41
1.0
 50
0.0
 71
     0
 42
0.2
  3
txt
  4

  0
STYLE
  5
231
330
3
100
AcDbSymbolTableRecord
100
AcDbTextStyleTableRecord
  2
cesky
 70
     0
 40
0.0
 41
1.0
 50
0.0
 71
     0
 42
0.2
  3
simplex.shx
  4

  0
STYLE
  5
232
330
3
100
AcDbSymbolTableRecord
100
AcDbTextStyleTableRecord
  2
DWGDirectTextStyle
 70
     0
 40
0.0
 41
1.0
 50
0.0
 71
     0
 42
0.2
  3
simplex
  4

  0
ENDTAB
  0
TABLE
  2
VIEW
  5
6
330
0
100
AcDbSymbolTable
 70
     0
  0
ENDTAB
  0
TABLE
  2
UCS
  5
7
330
0
100
AcDbSymbolTable
 70
     0
  0
ENDTAB
  0
TABLE
  2
APPID
  5
9
330
0
100
AcDbSymbolTable
 70
     7
  0
APPID
  5
12
330
9
100
AcDbSymbolTableRecord
100
AcDbRegAppTableRecord
  2
ACAD
 70
     0
  0
APPID
  5
234
330
9
100
AcDbSymbolTableRecord
100
AcDbRegAppTableRecord
  2
ACAD_DSTYLE_DIMBREAK
 70
     0
  0
APPID
  5
2ED
330
9
100
AcDbSymbolTableRecord
100
AcDbRegAppTableRecord
  2
ACAD_DSTYLE_DIM_LINETYPE
 70
     0
  0
APPID
  5
2EE
330
9
100
AcDbSymbolTableRecord
100
AcDbRegAppTableRecord
  2
ACAD_DSTYLE_DIM_EXT1_LINETYPE
 70
     0
  0
APPID
  5
2EF
330
9
100
AcDbSymbolTableRecord
100
AcDbRegAppTableRecord
  2
ACAD_DSTYLE_DIM_EXT2_LINETYPE
 70
     0
  0
APPID
  5
32F
330
9
100
AcDbSymbolTableRecord
100
AcDbRegAppTableRecord
  2
ACAD_MLEADERVER
 70
     0
  0
APPID
  5
3A2
330
9
100
AcDbSymbolTableRecord
100
AcDbRegAppTableRecord
  2
ACAD_NAV_VCDISPLAY
 70
     0
  0
ENDTAB
  0
TABLE
  2
DIMSTYLE
  5
A
330
0
100
AcDbSymbolTable
 70
     1
100
AcDbDimStyleTable
 71
     0
  0
DIMSTYLE
105
27
330
A
100
AcDbSymbolTableRecord
100
AcDbDimStyleTableRecord
  2
Standard
 70
     0
340
11
1001
ACAD_DSTYLE_DIMBREAK
1070
   391
1040
6.349999999999999
  0
ENDTAB
  0
TABLE
  2
BLOCK_RECORD
  5
1
330
0
100
AcDbSymbolTable
 70
    16
  0
BLOCK_RECORD
  5
1F
102
{ACAD_XDICTIONARY
360
33F
102
}
330
1
100
AcDbSymbolTableRecord
100
AcDbBlockTableRecord
  2
*Model_Space
340
22
  0
BLOCK_RECORD
  5
1B
330
1
100
AcDbSymbolTableRecord
100
AcDbBlockTableRecord
  2
*Paper_Space
340
1E
  0
BLOCK_RECORD
  5
23
330
1
100
AcDbSymbolTableRecord
100
AcDbBlockTableRecord
  2
*Paper_Space0
340
26
  0
BLOCK_RECORD
  5
22B
330
1
100
AcDbSymbolTableRecord
100
AcDbBlockTableRecord
  2
ASSORTED_DRAFT1
340
0
  0
BLOCK_RECORD
  5
239
330
1
100
AcDbSymbolTableRecord
100
AcDbBlockTableRecord
  2
*D2
340
0
  0
BLOCK_RECORD
  5
245
330
1
100
AcDbSymbolTableRecord
100
AcDbBlockTableRecord
  2
_U0
340
0
  0
BLOCK_RECORD
  5
251
330
1
100
AcDbSymbolTableRecord
100
AcDbBlockTableRecord
  2
*D4
340
0
  0
BLOCK_RECORD
  5
25D
330
1
100
AcDbSymbolTableRecord
100
AcDbBlockTableRecord
  2
_U1
340
0
  0
BLOCK_RECORD
  5
269
330
1
100
AcDbSymbolTableRecord
100
AcDbBlockTableRecord
  2
*D6
340
0
  0
BLOCK_RECORD
  5
275
330
1
100
AcDbSymbolTableRecord
100
AcDbBlockTableRecord
  2
_U2
340
0
  0
BLOCK_RECORD
  5
281
330
1
100
AcDbSymbolTableRecord
100
AcDbBlockTableRecord
  2
*D8
340
0
  0
BLOCK_RECORD
  5
28C
330
1
100
AcDbSymbolTableRecord
100
AcDbBlockTableRecord
  2
_U3
340
0
  0
BLOCK_RECORD
  5
297
330
1
100
AcDbSymbolTableRecord
100
AcDbBlockTableRecord
  2
*D10
340
0
  0
BLOCK_RECORD
  5
2A3
330
1
100
AcDbSymbolTableRecord
100
AcDbBlockTableRecord
  2
_U4
340
0
  0
BLOCK_RECORD
  5
2B0
330
1
100
AcDbSymbolTableRecord
100
AcDbBlockTableRecord
  2
*D12
340
0
  0
BLOCK_RECORD
  5
2BC
330
1
100
AcDbSymbolTableRecord
100
AcDbBlockTableRecord
  2
_U5
340
0
  0
BLOCK_RECORD
  5
2C9
330
1
100
AcDbSymbolTableRecord
100
AcDbBlockTableRecord
  2
*D14
340
0
  0
BLOCK_RECORD
  5
2D5
330
1
100
AcDbSymbolTableRecord
100
AcDbBlockTableRecord
  2
_U6
340
0
  0
ENDTAB
  0
ENDSEC
  0
SECTION
  2
BLOCKS
  0
BLOCK
  5
20
330
1F
100
AcDbEntity
  8
0
100
AcDbBlockBegin
  2
*Model_Space
 70
     0
 10
0.0
 20
0.0
 30
0.0
  3
*Model_Space
  1

  0
ENDBLK
  5
21
330
1F
100
AcDbEntity
  8
0
100
AcDbBlockEnd
  0
BLOCK
  5
1C
330
1B
100
AcDbEntity
 67
     1
  8
0
100
AcDbBlockBegin
  2
*Paper_Space
 70
     0
 10
0.0
 20
0.0
 30
0.0
  3
*Paper_Space
  1

  0
ENDBLK
  5
1D
330
1B
100
AcDbEntity
 67
     1
  8
0
100
AcDbBlockEnd
  0
BLOCK
  5
24
330
23
100
AcDbEntity
 67
     1
  8
0
100
AcDbBlockBegin
  2
*Paper_Space0
 70
     0
 10
0.0
 20
0.0
 30
0.0
  3
*Paper_Space0
  1

  0
ENDBLK
  5
25
330
23
100
AcDbEntity
 67
     1
  8
0
100
AcDbBlockEnd
  0
BLOCK
  5
22E
330
22B
100
AcDbEntity
  8
0
100
AcDbBlockBegin
  2
ASSORTED_DRAFT1
 70
     0
 10
0.0
 20
0.0
 30
0.0
  3
ASSORTED_DRAFT1
  1

  0
SOLID
  5
22C
330
22B
100
AcDbEntity
  8
0
 62
   254
370
    13
100
AcDbTrace
 10
270.185042
 20
164.534924
 30
0.0
 11
265.185046
 21
163.42645
 31
0.0
 12
265.1850379999999
 22
165.643397
 32
0.0
 13
270.185042
 23
164.534924
 33
0.0
  0
ENDBLK
  5
22F
330
22B
100
AcDbEntity
  8
0
100
AcDbBlockEnd
  0
BLOCK
  5
23A
330
239
100
AcDbEntity
  8
0
100
AcDbBlockBegin
  2
*D2
 70
     1
 10
0.0
 20
0.0
 30
0.0
  3
*D2
  1

  0
LINE
  5
23C
330
239
100
AcDbEntity
  8
0
 62
   254
370
    -2
100
AcDbLine
 10
447.4048419999999
 20
309.407994
 30
0.0
 11
447.4048419999999
 21
348.392842
 31
0.0
  0
LINE
  5
23D
330
239
100
AcDbEntity
  8
0
 62
   254
370
    -2
100
AcDbLine
 10
214.404842
 20
302.907994
 30
0.0
 11
214.404842
 21
348.392842
 31
0.0
  0
LINE
  5
23E
330
239
100
AcDbEntity
  8
0
 62
   254
370
    -2
100
AcDbLine
 10
443.9048419999999
 20
347.392842
 30
0.0
 11
217.904842
 21
347.392842
 31
0.0
  0
SOLID
  5
23F
330
239
100
AcDbEntity
  8
0
 62
   254
100
AcDbTrace
 10
443.9048419999999
 20
346.809508
 30
0.0
 11
443.9048419999999
 21
347.976175
 31
0.0
 12
447.4048419999999
 22
347.392842
 32
0.0
 13
447.4048419999999
 23
347.392842
 33
0.0
  0
SOLID
  5
240
330
239
100
AcDbEntity
  8
0
 62
   254
100
AcDbTrace
 10
217.904842
 20
347.976175
 30
0.0
 11
217.904842
 21
346.809508
 31
0.0
 12
214.404842
 22
347.392842
 32
0.0
 13
214.404842
 23
347.392842
 33
0.0
  0
MTEXT
  5
241
330
239
100
AcDbEntity
  8
0
 62
   254
370
    13
100
AcDbMText
 10
330.904842
 20
352.642842
 30
0.0
 40
3.5
 41
0.0
 71
     5
 72
     1
  1
\A1;233
  7
cesky
 73
     1
 44
1.0
  0
POINT
  5
242
330
239
100
AcDbEntity
  8
Defpoints
 62
     0
100
AcDbPoint
 10
447.4048419999999
 20
309.407994
 30
0.0
  0
POINT
  5
243
330
239
100
AcDbEntity
  8
Defpoints
 62
     0
100
AcDbPoint
 10
214.404842
 20
302.907994
 30
0.0
  0
POINT
  5
244
330
239
100
AcDbEntity
  8
Defpoints
 62
     0
100
AcDbPoint
 10
214.404842
 20
347.392842
 30
0.0
  0
ENDBLK
  5
23B
330
239
100
AcDbEntity
  8
0
100
AcDbBlockEnd
  0
BLOCK
  5
24C
330
245
100
AcDbEntity
  8
0
100
AcDbBlockBegin
  2
_U0
 70
     0
 10
0.0
 20
0.0
 30
0.0
  3
_U0
  1

  0
ENDBLK
  5
24D
330
245
100
AcDbEntity
  8
0
100
AcDbBlockEnd
  0
BLOCK
  5
252
330
251
100
AcDbEntity
  8
0
100
AcDbBlockBegin
  2
*D4
 70
     1
 10
0.0
 20
0.0
 30
0.0
  3
*D4
  1

  0
LINE
  5
254
330
251
100
AcDbEntity
  8
0
 62
   254
370
    -2
100
AcDbLine
 10
274.404842
 20
288.907994
 30
0.0
 11
274.404842
 21
334.9472990000001
 31
0.0
  0
LINE
  5
255
330
251
100
AcDbEntity
  8
0
 62
   254
370
    -2
100
AcDbLine
 10
214.404842
 20
295.907994
 30
0.0
 11
214.404842
 21
334.9472990000001
 31
0.0
  0
LINE
  5
256
330
251
100
AcDbEntity
  8
0
 62
   254
370
    -2
100
AcDbLine
 10
270.904842
 20
333.947299
 30
0.0
 11
217.904842
 21
333.947299
 31
0.0
  0
SOLID
  5
257
330
251
100
AcDbEntity
  8
0
 62
   254
100
AcDbTrace
 10
270.904842
 20
333.363965
 30
0.0
 11
270.904842
 21
334.530632
 31
0.0
 12
274.404842
 22
333.947299
 32
0.0
 13
274.404842
 23
333.947299
 33
0.0
  0
SOLID
  5
258
330
251
100
AcDbEntity
  8
0
 62
   254
100
AcDbTrace
 10
217.904842
 20
334.530632
 30
0.0
 11
217.904842
 21
333.363965
 31
0.0
 12
214.404842
 22
333.947299
 32
0.0
 13
214.404842
 23
333.947299
 33
0.0
  0
MTEXT
  5
259
330
251
100
AcDbEntity
  8
0
 62
   254
370
    13
100
AcDbMText
 10
244.404842
 20
339.1972990000001
 30
0.0
 40
3.5
 41
0.0
 71
     5
 72
     1
  1
\A1;60
  7
cesky
 73
     1
 44
1.0
  0
POINT
  5
25A
330
251
100
AcDbEntity
  8
Defpoints
 62
     0
100
AcDbPoint
 10
274.404842
 20
288.907994
 30
0.0
  0
POINT
  5
25B
330
251
100
AcDbEntity
  8
Defpoints
 62
     0
100
AcDbPoint
 10
214.404842
 20
295.907994
 30
0.0
  0
POINT
  5
25C
330
251
100
AcDbEntity
  8
Defpoints
 62
     0
100
AcDbPoint
 10
214.404842
 20
333.947299
 30
0.0
  0
ENDBLK
  5
253
330
251
100
AcDbEntity
  8
0
100
AcDbBlockEnd
  0
BLOCK
  5
264
330
25D
100
AcDbEntity
  8
0
100
AcDbBlockBegin
  2
_U1
 70
     0
 10
0.0
 20
0.0
 30
0.0
  3
_U1
  1

  0
ENDBLK
  5
265
330
25D
100
AcDbEntity
  8
0
100
AcDbBlockEnd
  0
BLOCK
  5
26A
330
269
100
AcDbEntity
  8
0
100
AcDbBlockBegin
  2
*D6
 70
     1
 10
0.0
 20
0.0
 30
0.0
  3
*D6
  1

  0
LINE
  5
26C
330
269
100
AcDbEntity
  8
0
 62
   254
370
    -2
100
AcDbLine
 10
447.4048419999999
 20
307.407994
 30
0.0
 11
447.4048419999999
 21
321.118433
 31
0.0
  0
LINE
  5
26D
330
269
100
AcDbEntity
  8
0
 62
   254
370
    -2
100
AcDbLine
 10
289.4077689999999
 20
307.1440990000001
 30
0.0
 11
289.4077689999999
 21
321.118433
 31
0.0
  0
LINE
  5
26E
330
269
100
AcDbEntity
  8
0
 62
   254
370
    -2
100
AcDbLine
 10
443.9048419999999
 20
320.118433
 30
0.0
 11
292.907769
 21
320.118433
 31
0.0
  0
SOLID
  5
26F
330
269
100
AcDbEntity
  8
0
 62
   254
100
AcDbTrace
 10
443.9048419999999
 20
319.5351
 30
0.0
 11
443.9048419999999
 21
320.701766
 31
0.0
 12
447.4048419999999
 22
320.118433
 32
0.0
 13
447.4048419999999
 23
320.118433
 33
0.0
  0
SOLID
  5
270
330
269
100
AcDbEntity
  8
0
 62
   254
100
AcDbTrace
 10
292.907769
 20
320.701766
 30
0.0
 11
292.907769
 21
319.5351
 31
0.0
 12
289.4077689999999
 22
320.118433
 32
0.0
 13
289.4077689999999
 23
320.118433
 33
0.0
  0
MTEXT
  5
271
330
269
100
AcDbEntity
  8
0
 62
   254
370
    13
100
AcDbMText
 10
368.406306
 20
325.368433
 30
0.0
 40
3.5
 41
0.0
 71
     5
 72
     1
  1
\A1;158
  7
cesky
 73
     1
 44
1.0
  0
POINT
  5
272
330
269
100
AcDbEntity
  8
Defpoints
 62
     0
100
AcDbPoint
 10
447.4048419999999
 20
307.407994
 30
0.0
  0
POINT
  5
273
330
269
100
AcDbEntity
  8
Defpoints
 62
     0
100
AcDbPoint
 10
289.4077689999999
 20
307.1440990000001
 30
0.0
  0
POINT
  5
274
330
269
100
AcDbEntity
  8
Defpoints
 62
     0
100
AcDbPoint
 10
289.4077689999999
 20
320.118433
 30
0.0
  0
ENDBLK
  5
26B
330
269
100
AcDbEntity
  8
0
100
AcDbBlockEnd
  0
BLOCK
  5
27C
330
275
100
AcDbEntity
  8
0
100
AcDbBlockBegin
  2
_U2
 70
     0
 10
0.0
 20
0.0
 30
0.0
  3
_U2
  1

  0
ENDBLK
  5
27D
330
275
100
AcDbEntity
  8
0
100
AcDbBlockEnd
  0
BLOCK
  5
282
330
281
100
AcDbEntity
  8
0
100
AcDbBlockBegin
  2
*D8
 70
     1
 10
0.0
 20
0.0
 30
0.0
  3
*D8
  1

  0
LINE
  5
284
330
281
100
AcDbEntity
  8
0
 62
   254
370
    -2
100
AcDbLine
 10
288.732221
 20
288.907994
 30
0.0
 11
465.3848509999999
 21
288.907994
 31
0.0
  0
LINE
  5
285
330
281
100
AcDbEntity
  8
0
 62
   254
370
    -2
100
AcDbLine
 10
330.83929
 20
307.407994
 30
0.0
 11
465.3848509999999
 21
307.407994
 31
0.0
  0
LINE
  5
286
330
281
100
AcDbEntity
  8
0
 62
   254
370
    -2
100
AcDbLine
 10
464.3848509999999
 20
288.907994
 30
0.0
 11
464.3848509999999
 21
307.407994
 31
0.0
  0
SOLID
  5
287
330
281
100
AcDbEntity
  8
0
 62
   254
100
AcDbTrace
 10
464.9681849999999
 20
303.907994
 30
0.0
 11
463.801518
 21
303.907994
 31
0.0
 12
464.3848509999999
 22
307.407994
 32
0.0
 13
464.3848509999999
 23
307.407994
 33
0.0
  0
MTEXT
  5
288
330
281
100
AcDbEntity
  8
0
 62
   254
370
    13
100
AcDbMText
 10
459.1348509999999
 20
279.07466
 30
0.0
 40
3.5
 41
0.0
 71
     5
 72
     1
  1
\A1;37
  7
cesky
 11
0.0
 21
1.0
 31
0.0
 73
     1
 44
1.0
  0
POINT
  5
289
330
281
100
AcDbEntity
  8
Defpoints
 62
     0
100
AcDbPoint
 10
288.732221
 20
288.907994
 30
0.0
  0
POINT
  5
28A
330
281
100
AcDbEntity
  8
Defpoints
 62
     0
100
AcDbPoint
 10
330.83929
 20
307.407994
 30
0.0
  0
POINT
  5
28B
330
281
100
AcDbEntity
  8
Defpoints
 62
     0
100
AcDbPoint
 10
464.3848509999999
 20
307.407994
 30
0.0
  0
ENDBLK
  5
283
330
281
100
AcDbEntity
  8
0
100
AcDbBlockEnd
  0
BLOCK
  5
292
330
28C
100
AcDbEntity
  8
0
100
AcDbBlockBegin
  2
_U3
 70
     0
 10
0.0
 20
0.0
 30
0.0
  3
_U3
  1

  0
ENDBLK
  5
293
330
28C
100
AcDbEntity
  8
0
100
AcDbBlockEnd
  0
BLOCK
  5
298
330
297
100
AcDbEntity
  8
0
100
AcDbBlockBegin
  2
*D10
 70
     1
 10
0.0
 20
0.0
 30
0.0
  3
*D10
  1

  0
LINE
  5
29A
330
297
100
AcDbEntity
  8
0
 62
    95
370
    -2
100
AcDbLine
 10
216.404842
 20
304.907994
 30
0.0
 11
203.66833
 21
304.907994
 31
0.0
  0
LINE
  5
29B
330
297
100
AcDbEntity
  8
0
 62
    95
370
    -2
100
AcDbLine
 10
216.404842
 20
272.907994
 30
0.0
 11
203.66833
 21
272.907994
 31
0.0
  0
LINE
  5
29C
330
297
100
AcDbEntity
  8
0
 62
    95
370
    -2
100
AcDbLine
 10
204.66833
 20
301.407994
 30
0.0
 11
204.66833
 21
276.407994
 31
0.0
  0
SOLID
  5
29D
330
297
100
AcDbEntity
  8
0
 62
    95
100
AcDbTrace
 10
205.251663
 20
301.407994
 30
0.0
 11
204.084996
 21
301.407994
 31
0.0
 12
204.66833
 22
304.907994
 32
0.0
 13
204.66833
 23
304.907994
 33
0.0
  0
SOLID
  5
29E
330
297
100
AcDbEntity
  8
0
 62
    95
100
AcDbTrace
 10
204.084996
 20
276.407994
 30
0.0
 11
205.251663
 21
276.407994
 31
0.0
 12
204.66833
 22
272.907994
 32
0.0
 13
204.66833
 23
272.907994
 33
0.0
  0
MTEXT
  5
29F
330
297
100
AcDbEntity
  8
0
 62
    95
370
    13
100
AcDbMText
 10
199.41833
 20
288.907994
 30
0.0
 40
3.5
 41
0.0
 71
     5
 72
     1
  1
\A1;32
  7
cesky
 11
0.0
 21
1.0
 31
0.0
 73
     1
 44
1.0
  0
POINT
  5
2A0
330
297
100
AcDbEntity
  8
Defpoints
 62
     0
100
AcDbPoint
 10
216.404842
 20
304.907994
 30
0.0
  0
POINT
  5
2A1
330
297
100
AcDbEntity
  8
Defpoints
 62
     0
100
AcDbPoint
 10
216.404842
 20
272.907994
 30
0.0
  0
POINT
  5
2A2
330
297
100
AcDbEntity
  8
Defpoints
 62
     0
100
AcDbPoint
 10
204.66833
 20
272.907994
 30
0.0
  0
ENDBLK
  5
299
330
297
100
AcDbEntity
  8
0
100
AcDbBlockEnd
  0
BLOCK
  5
2AB
330
2A3
100
AcDbEntity
  8
0
100
AcDbBlockBegin
  2
_U4
 70
     0
 10
0.0
 20
0.0
 30
0.0
  3
_U4
  1

  0
ENDBLK
  5
2AC
330
2A3
100
AcDbEntity
  8
0
100
AcDbBlockEnd
  0
BLOCK
  5
2B1
330
2B0
100
AcDbEntity
  8
0
100
AcDbBlockBegin
  2
*D12
 70
     1
 10
0.0
 20
0.0
 30
0.0
  3
*D12
  1

  0
LINE
  5
2B3
330
2B0
100
AcDbEntity
  8
0
 62
    95
370
    -2
100
AcDbLine
 10
277.154842
 20
309.907994
 30
0.0
 11
191.104285
 21
309.907994
 31
0.0
  0
LINE
  5
2B4
330
2B0
100
AcDbEntity
  8
0
 62
    95
370
    -2
100
AcDbLine
 10
277.154842
 20
267.907994
 30
0.0
 11
191.104285
 21
267.907994
 31
0.0
  0
LINE
  5
2B5
330
2B0
100
AcDbEntity
  8
0
 62
    95
370
    -2
100
AcDbLine
 10
192.104285
 20
306.407994
 30
0.0
 11
192.104285
 21
271.407994
 31
0.0
  0
SOLID
  5
2B6
330
2B0
100
AcDbEntity
  8
0
 62
    95
100
AcDbTrace
 10
192.687618
 20
306.407994
 30
0.0
 11
191.520952
 21
306.407994
 31
0.0
 12
192.104285
 22
309.907994
 32
0.0
 13
192.104285
 23
309.907994
 33
0.0
  0
SOLID
  5
2B7
330
2B0
100
AcDbEntity
  8
0
 62
    95
100
AcDbTrace
 10
191.520952
 20
271.407994
 30
0.0
 11
192.687618
 21
271.407994
 31
0.0
 12
192.104285
 22
267.907994
 32
0.0
 13
192.104285
 23
267.907994
 33
0.0
  0
MTEXT
  5
2B8
330
2B0
100
AcDbEntity
  8
0
 62
    95
370
    13
100
AcDbMText
 10
186.854285
 20
288.907994
 30
0.0
 40
3.5
 41
0.0
 71
     5
 72
     1
  1
\A1;42
  7
cesky
 11
0.0
 21
1.0
 31
0.0
 73
     1
 44
1.0
  0
POINT
  5
2B9
330
2B0
100
AcDbEntity
  8
Defpoints
 62
     0
100
AcDbPoint
 10
277.154842
 20
309.907994
 30
0.0
  0
POINT
  5
2BA
330
2B0
100
AcDbEntity
  8
Defpoints
 62
     0
100
AcDbPoint
 10
277.154842
 20
267.907994
 30
0.0
  0
POINT
  5
2BB
330
2B0
100
AcDbEntity
  8
Defpoints
 62
     0
100
AcDbPoint
 10
192.104285
 20
267.907994
 30
0.0
  0
ENDBLK
  5
2B2
330
2B0
100
AcDbEntity
  8
0
100
AcDbBlockEnd
  0
BLOCK
  5
2C4
330
2BC
100
AcDbEntity
  8
0
100
AcDbBlockBegin
  2
_U5
 70
     0
 10
0.0
 20
0.0
 30
0.0
  3
_U5
  1

  0
ENDBLK
  5
2C5
330
2BC
100
AcDbEntity
  8
0
100
AcDbBlockEnd
  0
BLOCK
  5
2CA
330
2C9
100
AcDbEntity
  8
0
100
AcDbBlockBegin
  2
*D14
 70
     1
 10
0.0
 20
0.0
 30
0.0
  3
*D14
  1

  0
LINE
  5
2CC
330
2C9
100
AcDbEntity
  8
0
 62
   254
370
    -2
100
AcDbLine
 10
447.4048419999999
 20
307.407994
 30
0.0
 11
447.4048419999999
 21
334.9472990000001
 31
0.0
  0
LINE
  5
2CD
330
2C9
100
AcDbEntity
  8
0
 62
   254
370
    -2
100
AcDbLine
 10
274.404842
 20
288.907994
 30
0.0
 11
274.404842
 21
334.9472990000001
 31
0.0
  0
LINE
  5
2CE
330
2C9
100
AcDbEntity
  8
0
 62
   254
370
    -2
100
AcDbLine
 10
443.9048419999999
 20
333.947299
 30
0.0
 11
277.904842
 21
333.947299
 31
0.0
  0
SOLID
  5
2CF
330
2C9
100
AcDbEntity
  8
0
 62
   254
100
AcDbTrace
 10
443.9048419999999
 20
333.363965
 30
0.0
 11
443.9048419999999
 21
334.530632
 31
0.0
 12
447.4048419999999
 22
333.947299
 32
0.0
 13
447.4048419999999
 23
333.947299
 33
0.0
  0
SOLID
  5
2D0
330
2C9
100
AcDbEntity
  8
0
 62
   254
100
AcDbTrace
 10
277.904842
 20
334.530632
 30
0.0
 11
277.904842
 21
333.363965
 31
0.0
 12
274.404842
 22
333.947299
 32
0.0
 13
274.404842
 23
333.947299
 33
0.0
  0
MTEXT
  5
2D1
330
2C9
100
AcDbEntity
  8
0
 62
   254
370
    13
100
AcDbMText
 10
360.904842
 20
339.1972990000001
 30
0.0
 40
3.5
 41
0.0
 71
     5
 72
     1
  1
\A1;173
  7
cesky
 73
     1
 44
1.0
  0
POINT
  5
2D2
330
2C9
100
AcDbEntity
  8
Defpoints
 62
     0
100
AcDbPoint
 10
447.4048419999999
 20
307.407994
 30
0.0
  0
POINT
  5
2D3
330
2C9
100
AcDbEntity
  8
Defpoints
 62
     0
100
AcDbPoint
 10
274.404842
 20
288.907994
 30
0.0
  0
POINT
  5
2D4
330
2C9
100
AcDbEntity
  8
Defpoints
 62
     0
100
AcDbPoint
 10
274.404842
 20
333.947299
 30
0.0
  0
ENDBLK
  5
2CB
330
2C9
100
AcDbEntity
  8
0
100
AcDbBlockEnd
  0
BLOCK
  5
2DC
330
2D5
100
AcDbEntity
  8
0
100
AcDbBlockBegin
  2
_U6
 70
     0
 10
0.0
 20
0.0
 30
0.0
  3
_U6
  1

  0
ENDBLK
  5
2DD
330
2D5
100
AcDbEntity
  8
0
100
AcDbBlockEnd
  0
ENDSEC
  0
SECTION
  2
ENTITIES
  0
POINT
  5
73
102
{ACAD_REACTORS
330
386
102
}
330
1F
100
AcDbEntity
  8
80
100
AcDbPoint
 10
274.404842
 20
288.907994
 30
0.0
  0
POINT
  5
76
330
1F
100
AcDbEntity
  8
SK4
 60
     1
100
AcDbPoint
 10
216.404842
 20
288.907994
 30
0.0
  0
POINT
  5
78
330
1F
100
AcDbEntity
  8
SK4
 60
     1
100
AcDbPoint
 10
274.404842
 20
288.907994
 30
0.0
  0
POINT
  5
79
330
1F
100
AcDbEntity
  8
4
 60
     1
100
AcDbPoint
 10
288.732221
 20
288.907994
 30
0.0
  0
POINT
  5
7A
330
1F
100
AcDbEntity
  8
4
 60
     1
100
AcDbPoint
 10
446.5487369999999
 20
288.907994
 30
0.0
  0
POINT
  5
7B
330
1F
100
AcDbEntity
  8
SK6
 60
     1
100
AcDbPoint
 10
274.404842
 20
288.907994
 30
0.0
  0
POINT
  5
7C
330
1F
100
AcDbEntity
  8
SK6
 60
     1
100
AcDbPoint
 10
289.4077689999999
 20
307.1440990000001
 30
0.0
  0
LINE
  5
7D
330
1F
100
AcDbEntity
  8
80
100
AcDbLine
 10
274.404842
 20
287.90842
 30
0.0
 11
274.404842
 21
289.907567
 31
0.0
  0
LINE
  5
7E
330
1F
100
AcDbEntity
  8
81
100
AcDbLine
 10
445.4048419999999
 20
307.407994
 30
0.0
 11
449.4048419999999
 21
307.407994
 31
0.0
  0
LINE
  5
7F
330
1F
100
AcDbEntity
  8
SK1
100
AcDbLine
 10
216.404842
 20
272.907994
 30
0.0
 11
274.404842
 21
272.907994
 31
0.0
  0
LINE
  5
81
330
1F
100
AcDbEntity
  8
81
100
AcDbLine
 10
447.4048419999999
 20
309.407994
 30
0.0
 11
447.4048419999999
 21
305.407994
 31
0.0
  0
LINE
  5
82
330
1F
100
AcDbEntity
  8
1
100
AcDbLine
 10
274.904842
 20
267.907994
 30
0.0
 11
279.404842
 21
267.907994
 31
0.0
  0
LINE
  5
83
330
1F
100
AcDbEntity
  8
1
100
AcDbLine
 10
288.732221
 20
270.907994
 30
0.0
 11
299.326898
 21
270.907994
 31
0.0
  0
LINE
  5
84
330
1F
100
AcDbEntity
  8
1
100
AcDbLine
 10
274.404842
 20
309.407994
 30
0.0
 11
274.404842
 21
288.907994
 31
0.0
  0
LINE
  5
85
330
1F
100
AcDbEntity
  8
1
100
AcDbLine
 10
274.404842
 20
288.907994
 30
0.0
 11
274.404842
 21
268.407994
 31
0.0
  0
LINE
  5
86
330
1F
100
AcDbEntity
  8
1
100
AcDbLine
 10
438.7819389999999
 20
301.4121
 30
0.0
 11
438.748112
 21
301.316197
 31
0.0
  0
LINE
  5
88
330
1F
100
AcDbEntity
  8
1
100
AcDbLine
 10
438.847069
 20
301.35246
 30
0.0
 11
438.8126929999999
 21
301.254998
 31
0.0
  0
LINE
  5
89
330
1F
100
AcDbEntity
  8
1
100
AcDbLine
 10
441.603086
 20
300.610332
 30
0.0
 11
441.637478
 21
300.707837
 31
0.0
  0
LINE
  5
8A
330
1F
100
AcDbEntity
  8
1
100
AcDbLine
 10
438.895876
 20
299.87015
 30
0.0
 11
438.8615539999999
 21
299.772841
 31
0.0
  0
LINE
  5
8B
330
1F
100
AcDbEntity
  8
1
100
AcDbLine
 10
438.852565
 20
299.849589
 30
0.0
 11
438.818542
 21
299.75313
 31
0.0
  0
LINE
  5
8C
330
1F
100
AcDbEntity
  8
1
100
AcDbLine
 10
440.9115799999999
 20
299.301426
 30
0.0
 11
440.9459169999999
 21
299.398775
 31
0.0
  0
LINE
  5
8D
330
1F
100
AcDbEntity
  8
1
100
AcDbLine
 10
440.9491519999999
 20
299.258473
 30
0.0
 11
440.9831269999999
 21
299.354796
 31
0.0
  0
LINE
  5
8E
330
1F
100
AcDbEntity
  8
1
100
AcDbLine
 10
446.682658
 20
289.357775
 30
0.0
 11
446.190758
 21
288.882752
 31
0.0
  0
LINE
  5
90
330
1F
100
AcDbEntity
  8
1
100
AcDbLine
 10
445.8528429999999
 20
288.556432
 30
0.0
 11
446.190758
 21
288.882752
 31
0.0
  0
LINE
  5
91
330
1F
100
AcDbEntity
  8
1
100
AcDbLine
 10
447.388062
 20
288.08519
 30
0.0
 11
446.724553
 21
287.919759
 31
0.0
  0
LINE
  5
92
330
1F
100
AcDbEntity
  8
1
100
AcDbLine
 10
446.073508
 20
287.757435
 30
0.0
 11
446.724553
 21
287.919759
 31
0.0
  0
LINE
  5
93
330
1F
100
AcDbEntity
  8
1
100
AcDbLine
 10
445.9548559999999
 20
280.959853
 30
0.0
 11
446.59984
 21
280.774907
 31
0.0
  0
LINE
  5
94
330
1F
100
AcDbEntity
  8
1
100
AcDbLine
 10
446.59984
 20
280.774907
 30
0.0
 11
447.264067
 21
280.584443
 31
0.0
  0
LINE
  5
95
330
1F
100
AcDbEntity
  8
1
100
AcDbLine
 10
445.566662
 20
280.313789
 30
0.0
 11
446.032761
 21
279.83113
 31
0.0
  0
LINE
  5
96
330
1F
100
AcDbEntity
  8
1
100
AcDbLine
 10
446.507783
 20
279.33923
 30
0.0
 11
446.032761
 21
279.83113
 31
0.0
  0
LINE
  5
97
330
1F
100
AcDbEntity
  8
1
100
AcDbLine
 10
431.8395349999999
 20
293.609651
 30
0.0
 11
431.8429
 21
293.619192
 31
0.0
  0
LINE
  5
98
330
1F
100
AcDbEntity
  8
1
100
AcDbLine
 10
426.148957
 20
296.353035
 30
0.0
 11
428.555161
 21
294.965992
 31
0.0
  0
LINE
  5
99
330
1F
100
AcDbEntity
  8
1
100
AcDbLine
 10
444.689044
 20
293.617192
 30
0.0
 11
435.2852389999999
 21
293.289146
 31
0.0
  0
LINE
  5
9A
330
1F
100
AcDbEntity
  8
1
100
AcDbLine
 10
436.755054
 20
301.835204
 30
0.0
 11
436.754945
 21
301.834896
 31
0.0
  0
LINE
  5
9B
330
1F
100
AcDbEntity
  8
SK1
100
AcDbLine
 10
216.404842
 20
304.907994
 30
0.0
 11
214.404842
 21
302.907994
 31
0.0
  0
LINE
  5
9C
330
1F
100
AcDbEntity
  8
SK1
100
AcDbLine
 10
274.404842
 20
304.907994
 30
0.0
 11
216.404842
 21
304.907994
 31
0.0
  0
LINE
  5
9D
330
1F
100
AcDbEntity
  8
1
100
AcDbLine
 10
274.904842
 20
267.907994
 30
0.0
 11
274.404842
 21
268.407994
 31
0.0
  0
LINE
  5
9E
330
1F
100
AcDbEntity
  8
1
100
AcDbLine
 10
274.404842
 20
309.407994
 30
0.0
 11
274.904842
 21
309.907994
 31
0.0
  0
LINE
  5
9F
330
1F
100
AcDbEntity
  8
1
100
AcDbLine
 10
279.404842
 20
309.907994
 30
0.0
 11
274.904842
 21
309.907994
 31
0.0
  0
LINE
  5
A4
330
1F
100
AcDbEntity
  8
80
100
AcDbLine
 10
275.404416
 20
288.907994
 30
0.0
 11
273.405268
 21
288.907994
 31
0.0
  0
LINE
  5
A5
330
1F
100
AcDbEntity
  8
1
100
AcDbLine
 10
446.276469
 20
294.448128
 30
0.0
 11
446.2749129999999
 21
294.6722049999999
 31
0.0
  0
LINE
  5
A6
330
1F
100
AcDbEntity
  8
1
100
AcDbLine
 10
446.276469
 20
294.448128
 30
0.0
 11
446.2344639999999
 21
294.43201
 31
0.0
  0
LINE
  5
A7
330
1F
100
AcDbEntity
  8
1
100
AcDbLine
 10
445.125139
 20
270.907994
 30
0.0
 11
445.905624
 21
278.26154
 31
0.0
  0
LINE
  5
A8
330
1F
100
AcDbEntity
  8
1
100
AcDbLine
 10
445.905624
 20
278.26154
 30
0.0
 11
445.8635329999999
 21
278.262213
 31
0.0
  0
LINE
  5
A9
330
1F
100
AcDbEntity
  8
1
100
AcDbLine
 10
445.8888149999999
 20
278.500413
 30
0.0
 11
445.8635329999999
 21
278.262213
 31
0.0
  0
LINE
  5
AA
330
1F
100
AcDbEntity
  8
1
100
AcDbLine
 10
445.8888149999999
 20
278.500413
 30
0.0
 11
445.6470249999999
 21
278.893394
 31
0.0
  0
LINE
  5
AB
330
1F
100
AcDbEntity
  8
1
100
AcDbLine
 10
445.042103
 20
283.153494
 30
0.0
 11
445.852841
 21
283.153494
 31
0.0
  0
LINE
  5
AC
330
1F
100
AcDbEntity
  8
SK1
100
AcDbLine
 10
216.404842
 20
304.907994
 30
0.0
 11
216.404842
 21
272.907994
 31
0.0
  0
LINE
  5
AD
330
1F
100
AcDbEntity
  8
SK1
100
AcDbLine
 10
214.404842
 20
302.907994
 30
0.0
 11
214.404842
 21
274.907994
 31
0.0
  0
LINE
  5
AE
330
1F
100
AcDbEntity
  8
1
100
AcDbLine
 10
433.855411
 20
297.527125
 30
0.0
 11
433.850179
 21
297.51229
 31
0.0
  0
LINE
  5
AF
330
1F
100
AcDbEntity
  8
1
100
AcDbLine
 10
433.855411
 20
297.527125
 30
0.0
 11
433.5350339999999
 21
306.849714
 31
0.0
  0
LINE
  5
B0
330
1F
100
AcDbEntity
  8
1
100
AcDbLine
 10
433.530207
 20
306.823083
 30
0.0
 11
433.850179
 21
297.51229
 31
0.0
  0
LINE
  5
B1
330
1F
100
AcDbEntity
  8
1
100
AcDbLine
 10
445.125139
 20
270.907994
 30
0.0
 11
422.6919239999999
 21
270.907994
 31
0.0
  0
LINE
  5
B2
330
1F
100
AcDbEntity
  8
1
100
AcDbLine
 10
274.904842
 20
267.907994
 30
0.0
 11
274.904842
 21
288.907994
 31
0.0
  0
LINE
  5
B3
330
1F
100
AcDbEntity
  8
1
100
AcDbLine
 10
274.904842
 20
288.907994
 30
0.0
 11
274.904842
 21
309.907994
 31
0.0
  0
LINE
  5
B4
330
1F
100
AcDbEntity
  8
1
100
AcDbLine
 10
439.421893
 20
299.244804
 30
0.0
 11
439.456176
 21
299.342002
 31
0.0
  0
LINE
  5
B5
330
1F
100
AcDbEntity
  8
1
100
AcDbLine
 10
440.2176599999999
 20
299.188782
 30
0.0
 11
440.183246
 21
299.091213
 31
0.0
  0
LINE
  5
B6
330
1F
100
AcDbEntity
  8
1
100
AcDbLine
 10
438.8477639999999
 20
300.788585
 30
0.0
 11
438.883255
 21
300.889206
 31
0.0
  0
LINE
  5
B7
330
1F
100
AcDbEntity
  8
1
100
AcDbLine
 10
441.4355179999999
 20
300.439148
 30
0.0
 11
441.400028
 21
300.338526
 31
0.0
  0
LINE
  5
B8
330
1F
100
AcDbEntity
  8
1
100
AcDbLine
 10
440.0645449999999
 20
302.035898
 30
0.0
 11
440.098959
 21
302.133466
 31
0.0
  0
LINE
  5
B9
330
1F
100
AcDbEntity
  8
1
100
AcDbLine
 10
440.841946
 20
301.927804
 30
0.0
 11
440.825899
 21
301.882307
 31
0.0
  0
LINE
  5
BA
330
1F
100
AcDbEntity
  8
1
100
AcDbLine
 10
436.755054
 20
301.835204
 30
0.0
 11
436.738924
 21
301.789474
 31
0.0
  0
LINE
  5
BB
330
1F
100
AcDbEntity
  8
1
100
AcDbLine
 10
443.5289339999999
 20
299.394527
 30
0.0
 11
443.545063
 21
299.440257
 31
0.0
  0
LINE
  5
BC
330
1F
100
AcDbEntity
  8
SK1
100
AcDbLine
 10
214.404842
 20
274.907994
 30
0.0
 11
216.404842
 21
272.907994
 31
0.0
  0
LINE
  5
BD
330
1F
100
AcDbEntity
  8
1
100
AcDbLine
 10
434.047716
 20
306.745831
 30
0.0
 11
434.0424549999999
 21
306.898936
 31
0.0
  0
LINE
  5
BE
330
1F
100
AcDbEntity
  8
1
100
AcDbLine
 10
437.514203
 20
294.127809
 30
0.0
 11
446.2344639999999
 21
294.43201
 31
0.0
  0
LINE
  5
BF
330
1F
100
AcDbEntity
  8
1
100
AcDbLine
 10
446.424842
 20
290.306883
 30
0.0
 11
446.424842
 21
290.406898
 31
0.0
  0
LINE
  5
C0
330
1F
100
AcDbEntity
  8
1
100
AcDbLine
 10
446.2362759999999
 20
294.170874
 30
0.0
 11
446.2344639999999
 21
294.43201
 31
0.0
  0
LINE
  5
C1
330
1F
100
AcDbEntity
  8
1
100
AcDbLine
 10
433.777897
 20
306.311105
 30
0.0
 11
433.759398
 21
306.849399
 31
0.0
  0
LINE
  5
C2
330
1F
100
AcDbEntity
  8
1
100
AcDbLine
 10
446.1603559999999
 20
293.640825
 30
0.0
 11
435.2930709999999
 21
293.261726
 31
0.0
  0
LINE
  5
C3
330
1F
100
AcDbEntity
  8
1
100
AcDbLine
 10
446.1603559999999
 20
293.640825
 30
0.0
 11
443.8989059999999
 21
289.89412
 31
0.0
  0
LINE
  5
C4
330
1F
100
AcDbEntity
  8
1
100
AcDbLine
 10
445.6470249999999
 20
278.893394
 30
0.0
 11
445.4712549999999
 21
278.896207
 31
0.0
  0
LINE
  5
C5
330
1F
100
AcDbEntity
  8
1
100
AcDbLine
 10
445.4540889999999
 20
279.396546
 30
0.0
 11
445.852841
 21
283.153494
 31
0.0
  0
LINE
  5
C6
330
1F
100
AcDbEntity
  8
1
100
AcDbLine
 10
445.852841
 20
283.153494
 30
0.0
 11
445.852841
 21
289.189059
 31
0.0
  0
LINE
  5
C7
330
1F
100
AcDbEntity
  8
1
100
AcDbLine
 10
445.923111
 20
289.687909
 30
0.0
 11
446.09918
 21
289.684835
 31
0.0
  0
LINE
  5
C8
330
1F
100
AcDbEntity
  8
1
100
AcDbLine
 10
446.1603559999999
 20
293.640825
 30
0.0
 11
446.169736
 21
293.644425
 31
0.0
  0
LINE
  5
C9
330
1F
100
AcDbEntity
  8
1
100
AcDbLine
 10
446.276469
 20
294.448128
 30
0.0
 11
437.519435
 21
294.142644
 31
0.0
  0
LINE
  5
CA
330
1F
100
AcDbEntity
  8
1
100
AcDbLine
 10
437.514203
 20
294.127809
 30
0.0
 11
437.519435
 21
294.142644
 31
0.0
  0
LINE
  5
CB
330
1F
100
AcDbEntity
  8
1
100
AcDbLine
 10
446.09918
 20
289.684835
 30
0.0
 11
446.3826799999999
 21
290.069008
 31
0.0
  0
LINE
  5
CC
330
1F
100
AcDbEntity
  8
1
100
AcDbLine
 10
446.3826799999999
 20
290.307619
 30
0.0
 11
446.3826799999999
 21
290.069008
 31
0.0
  0
LINE
  5
CD
330
1F
100
AcDbEntity
  8
1
100
AcDbLine
 10
446.3826799999999
 20
290.307619
 30
0.0
 11
446.424842
 21
290.306883
 31
0.0
  0
LINE
  5
CE
330
1F
100
AcDbEntity
  8
1
100
AcDbLine
 10
446.424842
 20
294.729688
 30
0.0
 11
446.424842
 21
290.406898
 31
0.0
  0
LINE
  5
CF
330
1F
100
AcDbEntity
  8
1
100
AcDbLine
 10
428.5336639999999
 20
294.91539
 30
0.0
 11
427.4821059999999
 21
295.514818
 31
0.0
  0
LINE
  5
D0
330
1F
100
AcDbEntity
  8
1
100
AcDbLine
 10
279.404842
 20
309.907994
 30
0.0
 11
279.404842
 21
280.003811
 31
0.0
  0
LINE
  5
D1
330
1F
100
AcDbEntity
  8
1
100
AcDbLine
 10
279.404842
 20
267.907994
 30
0.0
 11
279.404842
 21
271.263752
 31
0.0
  0
LINE
  5
D2
330
1F
100
AcDbEntity
  8
1
100
AcDbLine
 10
444.027866
 20
283.153494
 30
0.0
 11
444.393516
 21
283.153494
 31
0.0
  0
LINE
  5
D3
330
1F
100
AcDbEntity
  8
1
100
AcDbLine
 10
446.734349
 20
287.843649
 30
0.0
 11
446.6122849999999
 21
280.850629
 31
0.0
  0
LINE
  5
D4
330
1F
100
AcDbEntity
  8
1
100
AcDbLine
 10
446.237296
 20
288.821736
 30
0.0
 11
446.69747
 21
287.991559
 31
0.0
  0
LINE
  5
D5
330
1F
100
AcDbEntity
  8
1
100
AcDbLine
 10
446.5702669999999
 20
280.704096
 30
0.0
 11
446.0814
 21
279.890484
 31
0.0
  0
LINE
  5
D6
330
1F
100
AcDbEntity
  8
1
100
AcDbLine
 10
445.971745
 20
279.784592
 30
0.0
 11
445.465493
 21
279.503971
 31
0.0
  0
LINE
  5
D7
330
1F
100
AcDbEntity
  8
1
100
AcDbLine
 10
445.852845
 20
288.164371
 30
0.0
 11
446.0612919999999
 21
287.788323
 31
0.0
  0
LINE
  5
D8
330
1F
100
AcDbEntity
  8
1
100
AcDbLine
 10
445.85283
 20
289.098775
 30
0.0
 11
446.131403
 21
288.931391
 31
0.0
  0
LINE
  5
D9
330
1F
100
AcDbEntity
  8
1
100
AcDbLine
 10
445.95972
 20
280.992711
 30
0.0
 11
446.077223
 21
287.724428
 31
0.0
  0
LINE
  5
DA
330
1F
100
AcDbEntity
  8
1
100
AcDbLine
 10
445.587303
 20
280.339813
 30
0.0
 11
445.941569
 21
280.92941
 31
0.0
  0
LINE
  5
DB
330
1F
100
AcDbEntity
  8
1
100
AcDbLine
 10
447.359382
 20
288.156592
 30
0.0
 11
446.728011
 21
289.295615
 31
0.0
  0
LINE
  5
DC
330
1F
100
AcDbEntity
  8
1
100
AcDbLine
 10
447.399861
 20
287.789483
 30
0.0
 11
447.275424
 21
280.660477
 31
0.0
  0
LINE
  5
DD
330
1F
100
AcDbEntity
  8
1
100
AcDbLine
 10
447.399861
 20
287.789483
 30
0.0
 11
447.3982219999999
 21
288.009171
 31
0.0
  0
LINE
  5
DE
330
1F
100
AcDbEntity
  8
1
100
AcDbLine
 10
446.556683
 20
279.398314
 30
0.0
 11
446.6744900000001
 21
279.583751
 31
0.0
  0
LINE
  5
DF
330
1F
100
AcDbEntity
  8
1
100
AcDbLine
 10
447.2334059999999
 20
280.513944
 30
0.0
 11
446.6744900000001
 21
279.583751
 31
0.0
  0
LINE
  5
E0
330
1F
100
AcDbEntity
  8
1
100
AcDbLine
 10
446.623573
 20
289.406675
 30
0.0
 11
446.438136
 21
289.524481
 31
0.0
  0
LINE
  5
E1
330
1F
100
AcDbEntity
  8
1
100
AcDbLine
 10
446.1213179999999
 20
289.714844
 30
0.0
 11
446.438136
 21
289.524481
 31
0.0
  0
LINE
  5
E2
330
1F
100
AcDbEntity
  8
1
100
AcDbLine
 10
445.66639
 20
278.86194
 30
0.0
 11
446.445624
 21
279.293876
 31
0.0
  0
LINE
  5
E3
330
1F
100
AcDbEntity
  8
1
100
AcDbLine
 10
446.446378
 20
306.560704
 30
0.0
 11
446.844963
 21
295.434119
 31
0.0
  0
LINE
  5
E4
330
1F
100
AcDbEntity
  8
1
100
AcDbLine
 10
434.50455
 20
306.920164
 30
0.0
 11
445.642729
 21
307.308713
 31
0.0
  0
LINE
  5
E5
330
1F
100
AcDbEntity
  8
1
100
AcDbLine
 10
434.1550179999999
 20
294.991437
 30
0.0
 11
433.756432
 21
306.118022
 31
0.0
  0
LINE
  5
E6
330
1F
100
AcDbEntity
  8
1
100
AcDbLine
 10
446.096846
 20
294.631977
 30
0.0
 11
434.9586669999999
 21
294.243428
 31
0.0
  0
LINE
  5
E7
330
1F
100
AcDbEntity
  8
1
100
AcDbLine
 10
435.63922
 20
305.099252
 30
0.0
 11
444.632094
 21
305.412963
 31
0.0
  0
LINE
  5
E8
330
1F
100
AcDbEntity
  8
1
100
AcDbLine
 10
435.9610339999999
 20
296.1157379999999
 30
0.0
 11
435.63922
 21
305.099252
 31
0.0
  0
LINE
  5
E9
330
1F
100
AcDbEntity
  8
1
100
AcDbLine
 10
444.953909
 20
296.42945
 30
0.0
 11
435.9610339999999
 21
296.1157379999999
 31
0.0
  0
LINE
  5
EA
330
1F
100
AcDbEntity
  8
1
100
AcDbLine
 10
444.632094
 20
305.412963
 30
0.0
 11
444.953909
 21
296.42945
 31
0.0
  0
LINE
  5
EB
330
1F
100
AcDbEntity
  8
1
100
AcDbLine
 10
433.9618999999999
 20
306.907994
 30
0.0
 11
424.9240789999999
 21
306.907994
 31
0.0
  0
LINE
  5
EC
330
1F
100
AcDbEntity
  8
1
100
AcDbLine
 10
300.703406
 20
306.907994
 30
0.0
 11
288.732221
 21
306.907994
 31
0.0
  0
LINE
  5
140
330
1F
100
AcDbEntity
  8
NOCUT
100
AcDbLine
 10
274.404842
 20
304.907994
 30
0.0
 11
216.404842
 21
304.907994
 31
0.0
  0
LINE
  5
141
330
1F
100
AcDbEntity
  8
NOCUT
100
AcDbLine
 10
279.404842
 20
309.907994
 30
0.0
 11
274.904842
 21
309.907994
 31
0.0
  0
LINE
  5
142
330
1F
100
AcDbEntity
  8
NOCUT
100
AcDbLine
 10
214.404842
 20
302.907994
 30
0.0
 11
214.404842
 21
288.907994
 31
0.0
  0
LINE
  5
143
330
1F
100
AcDbEntity
  8
NOCUT
100
AcDbLine
 10
446.0045599999999
 20
306.907994
 30
0.0
 11
446.424842
 21
294.976049
 31
0.0
  0
LINE
  5
144
330
1F
100
AcDbEntity
  8
NOCUT
100
AcDbLine
 10
446.424842
 20
294.976049
 30
0.0
 11
446.424842
 21
288.907994
 31
0.0
  0
LINE
  5
145
330
1F
100
AcDbEntity
  8
NOCUT
100
AcDbLine
 10
446.424842
 20
288.907994
 30
0.0
 11
214.404842
 21
288.907994
 31
0.0
  0
LINE
  5
146
330
1F
100
AcDbEntity
  8
NOCUT
100
AcDbLine
 10
288.732221
 20
306.907994
 30
0.0
 11
446.0045599999999
 21
306.907994
 31
0.0
  0
LINE
  5
147
330
1F
100
AcDbEntity
  8
NOCUT
100
AcDbLine
 10
274.404842
 20
304.907994
 30
0.0
 11
274.404842
 21
309.407994
 31
0.0
  0
LINE
  5
148
330
1F
100
AcDbEntity
  8
NOCUT
100
AcDbLine
 10
274.404842
 20
309.407994
 30
0.0
 11
274.904842
 21
309.907994
 31
0.0
  0
LINE
  5
149
330
1F
100
AcDbEntity
  8
NOCUT
100
AcDbLine
 10
214.404842
 20
302.907994
 30
0.0
 11
216.404842
 21
304.907994
 31
0.0
  0
ARC
  5
152
330
1F
100
AcDbEntity
  8
1
100
AcDbCircle
 10
441.418941
 20
284.60888
 30
0.0
 40
1.75
100
AcDbArc
 50
75.0
 51
345.0
  0
CIRCLE
  5
153
330
1F
100
AcDbEntity
  8
1
100
AcDbCircle
 10
441.418941
 20
284.60888
 30
0.0
 40
1.35
  0
ARC
  5
154
330
1F
100
AcDbEntity
  8
1
100
AcDbCircle
 10
288.732221
 20
254.907994
 30
0.0
 40
16.0
100
AcDbArc
 50
90.0
 51
125.659088
  0
ARC
  5
155
330
1F
100
AcDbEntity
  8
1
100
AcDbCircle
 10
288.732221
 20
322.907994
 30
0.0
 40
16.0
100
AcDbArc
 50
234.340912
 51
270.0
  0
ARC
  5
160
330
1F
100
AcDbEntity
  8
NOCUT
100
AcDbCircle
 10
288.732221
 20
322.907994
 30
0.0
 40
16.0
100
AcDbArc
 50
234.340912
 51
270.0
  0
ELLIPSE
  5
161
330
1F
100
AcDbEntity
  8
1
100
AcDbEllipse
 10
445.343623
 20
280.544753
 30
0.0
 11
-0.223038816141459
 21
0.2309634552664429
 31
0.0
210
-0.0000000000000001
220
0.0
230
0.9999999999999998
 40
0.6229040000000001
 41
2.97621062644554
 42
3.306974680734076
  0
ELLIPSE
  5
162
330
1F
100
AcDbEntity
  8
1
100
AcDbEllipse
 10
440.150059
 20
300.637731
 30
0.0
 11
-3.395004864809728
 21
1.197473159581581
 31
0.0
210
0.0
220
0.0
230
0.9999999999999998
 40
0.9986239999999998
 41
3.141585274248858
 42
5.872218228534562
  0
ELLIPSE
  5
163
330
1F
100
AcDbEntity
  8
1
100
AcDbEllipse
 10
440.150059
 20
300.637731
 30
0.0
 11
-3.395004864809728
 21
1.197473159581581
 31
0.0
210
0.0
220
0.0
230
0.9999999999999998
 40
0.9986239999999998
 41
5.872218228534567
 42
6.283185307179585
  0
ELLIPSE
  5
164
330
1F
100
AcDbEntity
  8
1
100
AcDbEllipse
 10
440.133929
 20
300.592001
 30
0.0
 11
3.395004864809725
 21
-1.197473159581583
 31
0.0
210
0.0
220
0.0
230
1.0
 40
0.9986239999999998
 41
0.0
 42
6.283185307179585
  0
ELLIPSE
  5
165
330
1F
100
AcDbEntity
  8
1
100
AcDbEllipse
 10
438.7454459999999
 20
301.1875970000001
 30
0.0
 11
-0.0898897536456661
 21
0.0317055708602404
 31
0.0
210
0.0
220
0.0
230
0.9999999999999998
 40
0.998624
 41
3.886489476374958
 42
4.56322139325587
  0
ELLIPSE
  5
166
330
1F
100
AcDbEntity
  8
1
100
AcDbEllipse
 10
438.8347849999999
 20
301.3557120000001
 30
0.0
 11
-0.089889753645666
 21
0.0317055708602404
 31
0.0
210
0.0
220
0.0
230
0.9999999999999998
 40
0.998624
 41
0.2212980471867055
 42
1.421628739665804
  0
ELLIPSE
  5
167
330
1F
100
AcDbEntity
  8
1
100
AcDbEllipse
 10
439.336807
 20
301.296151
 30
0.0
 11
-0.5666776289729548
 21
0.1998763706833374
 31
0.0
210
0.0
220
0.0
230
1.0
 40
0.9986239999999998
 41
5.239953310136215
 42
6.504483354366383
  0
ELLIPSE
  5
168
330
1F
100
AcDbEntity
  8
1
100
AcDbEllipse
 10
439.2418839999999
 20
301.7922089999999
 30
0.0
 11
-0.0898897536456681
 21
0.0317055708602411
 31
0.0
210
0.0
220
0.0
230
1.0
 40
0.9986239999999998
 41
4.039622617657256
 42
5.239953310136188
  0
ELLIPSE
  5
169
330
1F
100
AcDbEntity
  8
1
100
AcDbEllipse
 10
439.4034389999999
 20
301.893106
 30
0.0
 11
-0.0898897536456681
 21
0.0317055708602411
 31
0.0
210
0.0
220
0.0
230
1.0
 40
0.9986239999999998
 41
0.898029964067464
 42
1.57476188094789
  0
ELLIPSE
  5
16A
330
1F
100
AcDbEntity
  8
1
100
AcDbEllipse
 10
439.569487
 20
302.369901
 30
0.0
 11
-0.5666776289729545
 21
0.1998763706833373
 31
0.0
210
0.0
220
0.0
230
1.0
 40
0.9986239999999998
 41
1.574761880948108
 42
2.839291925178266
  0
ELLIPSE
  5
16B
330
1F
100
AcDbEntity
  8
1
100
AcDbEllipse
 10
439.9746559999999
 20
302.067604
 30
0.0
 11
-0.0898897536456661
 21
0.0317055708602404
 31
0.0
210
0.0
220
0.0
230
0.9999999999999998
 40
0.998624
 41
2.839291925178331
 42
3.516023842058904
  0
ELLIPSE
  5
16C
330
1F
100
AcDbEntity
  8
1
100
AcDbEllipse
 10
440.16514
 20
302.074249
 30
0.0
 11
-0.089889753645666
 21
0.0317055708602404
 31
0.0
210
0.0
220
0.0
230
0.9999999999999998
 40
0.998624
 41
5.457285803169855
 42
6.657616495648667
  0
ELLIPSE
  5
16D
330
1F
100
AcDbEntity
  8
1
100
AcDbEllipse
 10
440.36489
 20
301.610214
 30
0.0
 11
-0.5666776289729548
 21
0.1998763706833374
 31
0.0
210
0.0
220
0.0
230
1.0
 40
0.9986239999999998
 41
4.192755758939638
 42
5.457285803169822
  0
ELLIPSE
  5
16E
330
1F
100
AcDbEntity
  8
1
100
AcDbEllipse
 10
440.7474159999999
 20
301.93999
 30
0.0
 11
-0.0898897536456681
 21
0.0317055708602411
 31
0.0
210
0.0
220
0.0
230
1.0
 40
0.9986239999999998
 41
2.992425066460607
 42
4.192755758939999
  0
ELLIPSE
  5
16F
330
1F
100
AcDbEntity
  8
1
100
AcDbEllipse
 10
440.9157889999999
 20
301.850602
 30
0.0
 11
-0.0898897536456681
 21
0.0317055708602411
 31
0.0
210
0.0
220
0.0
230
1.0
 40
0.9986239999999998
 41
6.134017720050445
 42
6.810749636930947
  0
ELLIPSE
  5
170
330
1F
100
AcDbEntity
  8
1
100
AcDbEllipse
 10
441.4122959999999
 20
301.944996
 30
0.0
 11
-0.5666776289729545
 21
0.1998763706833373
 31
0.0
210
0.0
220
0.0
230
1.0
 40
0.9986239999999998
 41
0.5275643297515246
 42
1.792094373981719
  0
ELLIPSE
  5
171
330
1F
100
AcDbEntity
  8
1
100
AcDbEllipse
 10
441.3531049999999
 20
301.443562
 30
0.0
 11
-0.0898897536456661
 21
0.0317055708602404
 31
0.0
210
0.0
220
0.0
230
0.9999999999999998
 40
0.998624
 41
1.7920943739819
 42
2.468826290862588
  0
ELLIPSE
  5
172
330
1F
100
AcDbEntity
  8
1
100
AcDbEllipse
 10
441.454251
 20
301.282092
 30
0.0
 11
-0.089889753645666
 21
0.0317055708602404
 31
0.0
210
0.0
220
0.0
230
0.9999999999999998
 40
0.998624
 41
4.410088251972969
 42
5.61041894445203
  0
ELLIPSE
  5
173
330
1F
100
AcDbEntity
  8
1
100
AcDbEllipse
 10
441.1519789999999
 20
300.877618
 30
0.0
 11
-0.5666776289729548
 21
0.1998763706833374
 31
0.0
210
0.0
220
0.0
230
1.0
 40
0.9986239999999998
 41
3.145558207743001
 42
4.410088251973144
  0
ELLIPSE
  5
174
330
1F
100
AcDbEntity
  8
1
100
AcDbEllipse
 10
441.629429
 20
300.711337
 30
0.0
 11
-0.0898897536456681
 21
0.0317055708602411
 31
0.0
210
0.0
220
0.0
230
1.0
 40
0.9986239999999998
 41
1.945227515264138
 42
3.145558207743123
  0
ELLIPSE
  5
175
330
1F
100
AcDbEntity
  8
1
100
AcDbEllipse
 10
441.636245
 20
300.521051
 30
0.0
 11
-0.0898897536456681
 21
0.0317055708602411
 31
0.0
210
0.0
220
0.0
230
1.0
 40
0.9986239999999998
 41
5.086820168853653
 42
5.763552085734606
  0
ELLIPSE
  5
176
330
1F
100
AcDbEntity
  8
1
100
AcDbEllipse
 10
441.966705
 20
300.13865
 30
0.0
 11
-0.5666776289729545
 21
0.1998763706833373
 31
0.0
210
0.0
220
0.0
230
1.0
 40
0.9986239999999998
 41
5.763552085734519
 42
7.028082129964722
  0
ELLIPSE
  5
177
330
1F
100
AcDbEntity
  8
1
100
AcDbEllipse
 10
441.5023459999999
 20
299.939514
 30
0.0
 11
-0.0898897536456661
 21
0.0317055708602404
 31
0.0
210
0.0
220
0.0
230
0.9999999999999998
 40
0.998624
 41
0.7448968227853672
 42
1.421628739666371
  0
ELLIPSE
  5
178
330
1F
100
AcDbEntity
  8
1
100
AcDbEllipse
 10
441.413007
 20
299.771399
 30
0.0
 11
-0.089889753645666
 21
0.0317055708602404
 31
0.0
210
0.0
220
0.0
230
0.9999999999999998
 40
0.998624
 41
3.362890700776643
 42
4.563221393255596
  0
ELLIPSE
  5
179
330
1F
100
AcDbEntity
  8
1
100
AcDbEllipse
 10
440.910984
 20
299.83096
 30
0.0
 11
-0.5666776289729548
 21
0.1998763706833374
 31
0.0
210
0.0
220
0.0
230
1.0
 40
0.9986239999999998
 41
2.098360656546422
 42
3.36289070077659
  0
ELLIPSE
  5
17A
330
1F
100
AcDbEntity
  8
1
100
AcDbEllipse
 10
441.005908
 20
299.334903
 30
0.0
 11
-0.0898897536456681
 21
0.0317055708602411
 31
0.0
210
0.0
220
0.0
230
1.0
 40
0.9986239999999998
 41
0.898029964067231
 42
2.098360656546139
  0
ELLIPSE
  5
17B
330
1F
100
AcDbEntity
  8
1
100
AcDbEllipse
 10
440.8443519999999
 20
299.234005
 30
0.0
 11
-0.0898897536456681
 21
0.0317055708602411
 31
0.0
210
0.0
220
0.0
230
1.0
 40
0.9986239999999998
 41
4.03962261765749
 42
4.71635453453798
  0
ELLIPSE
  5
17C
330
1F
100
AcDbEntity
  8
1
100
AcDbEllipse
 10
440.6783049999999
 20
298.75721
 30
0.0
 11
-0.5666776289729545
 21
0.1998763706833373
 31
0.0
210
0.0
220
0.0
230
1.0
 40
0.9986239999999998
 41
4.716354534537948
 42
5.98088457876811
  0
ELLIPSE
  5
17D
330
1F
100
AcDbEntity
  8
1
100
AcDbEllipse
 10
440.273136
 20
299.059508
 30
0.0
 11
-0.0898897536456661
 21
0.0317055708602404
 31
0.0
210
0.0
220
0.0
230
0.9999999999999998
 40
0.998624
 41
5.980884578768496
 42
6.657616495648838
  0
ELLIPSE
  5
17E
330
1F
100
AcDbEntity
  8
1
100
AcDbEllipse
 10
440.0826519999999
 20
299.052863
 30
0.0
 11
-0.089889753645666
 21
0.0317055708602404
 31
0.0
210
0.0
220
0.0
230
0.9999999999999998
 40
0.998624
 41
2.315693149580063
 42
3.516023842059013
  0
ELLIPSE
  5
17F
330
1F
100
AcDbEntity
  8
1
100
AcDbEllipse
 10
439.8829019999999
 20
299.516897
 30
0.0
 11
-0.5666776289729548
 21
0.1998763706833374
 31
0.0
210
0.0
220
0.0
230
1.0
 40
0.9986239999999998
 41
1.051163105349833
 42
2.315693149580029
  0
ELLIPSE
  5
180
330
1F
100
AcDbEntity
  8
1
100
AcDbEllipse
 10
439.5003749999999
 20
299.187121
 30
0.0
 11
-0.0898897536456681
 21
0.0317055708602411
 31
0.0
210
0.0
220
0.0
230
1.0
 40
0.9986239999999998
 41
6.134017720050741
 42
7.334348412529349
  0
ELLIPSE
  5
181
330
1F
100
AcDbEntity
  8
1
100
AcDbEllipse
 10
439.332003
 20
299.276509
 30
0.0
 11
-0.0898897536456681
 21
0.0317055708602411
 31
0.0
210
0.0
220
0.0
230
1.0
 40
0.9986239999999998
 41
2.992425066460651
 42
3.669156983341411
  0
ELLIPSE
  5
182
330
1F
100
AcDbEntity
  8
1
100
AcDbEllipse
 10
438.835495
 20
299.182116
 30
0.0
 11
-0.5666776289729545
 21
0.1998763706833373
 31
0.0
210
0.0
220
0.0
230
1.0
 40
0.9986239999999998
 41
3.669156983341314
 42
4.933687027571518
  0
ELLIPSE
  5
183
330
1F
100
AcDbEntity
  8
1
100
AcDbEllipse
 10
438.894686
 20
299.683549
 30
0.0
 11
-0.0898897536456661
 21
0.0317055708602404
 31
0.0
210
0.0
220
0.0
230
0.9999999999999998
 40
0.998624
 41
4.933687027571985
 42
5.610418944452566
  0
ELLIPSE
  5
184
330
1F
100
AcDbEntity
  8
1
100
AcDbEllipse
 10
438.7935409999999
 20
299.845019
 30
0.0
 11
-0.089889753645666
 21
0.0317055708602404
 31
0.0
210
0.0
220
0.0
230
0.9999999999999998
 40
0.998624
 41
1.26849559838379
 42
2.468826290862236
  0
ELLIPSE
  5
185
330
1F
100
AcDbEntity
  8
1
100
AcDbEllipse
 10
439.0958129999999
 20
300.2494930000001
 30
0.0
 11
-0.5666776289729548
 21
0.1998763706833374
 31
0.0
210
0.0
220
0.0
230
1.0
 40
0.9986239999999998
 41
0.0039655541532315
 42
1.268495598383314
  0
ELLIPSE
  5
186
330
1F
100
AcDbEntity
  8
1
100
AcDbEllipse
 10
438.6183629999999
 20
300.415774
 30
0.0
 11
-0.0898897536456681
 21
0.0317055708602411
 31
0.0
210
0.0
220
0.0
230
1.0
 40
0.9986239999999998
 41
5.086820168853931
 42
6.287150861332918
  0
ELLIPSE
  5
187
330
1F
100
AcDbEntity
  8
1
100
AcDbEllipse
 10
438.611546
 20
300.60606
 30
0.0
 11
-0.0898897536456681
 21
0.0317055708602411
 31
0.0
210
0.0
220
0.0
230
1.0
 40
0.9986239999999998
 41
1.945227515263915
 42
2.621959432144793
  0
ELLIPSE
  5
188
330
1F
100
AcDbEntity
  8
1
100
AcDbEllipse
 10
438.281086
 20
300.988461
 30
0.0
 11
-0.5666776289729545
 21
0.1998763706833373
 31
0.0
210
0.0
220
0.0
230
1.0
 40
0.9986239999999998
 41
2.621959432144723
 42
3.886489476374961
  0
ELLIPSE
  5
189
330
1F
100
AcDbEntity
  8
1
100
AcDbEllipse
 10
440.1238959999999
 20
300.563556
 30
0.0
 11
1.98041950447234
 21
-0.698526009755924
 31
0.0
210
0.0
220
0.0
230
1.0
 40
0.9986239999999998
 41
0.0
 42
6.283185307179585
  0
ELLIPSE
  5
18A
330
1F
100
AcDbEntity
  8
1
100
AcDbEllipse
 10
446.1662679999999
 20
294.144011
 30
0.0
 11
0.0003016037624762
 21
0.500308475863159
 31
0.0
210
0.0
220
0.0
230
0.9999999999999998
 40
0.140101
 41
3.195395734395631
 42
4.766192061177499
  0
ELLIPSE
  5
18B
330
1F
100
AcDbEntity
  8
1
100
AcDbEllipse
 10
447.035608
 20
288.907994
 30
0.0
 11
1.948297849564968
 21
17.99796429379652
 31
0.0
210
0.0
220
0.0
230
1.0
 40
0.138944
 41
1.911243059567965
 42
3.156632395651087
  0
ELLIPSE
  5
18C
330
1F
100
AcDbEntity
  8
1
100
AcDbEllipse
 10
446.424842
 20
288.907994
 30
0.0
 11
0.0
 21
18.00000000019703
 31
0.0
210
0.0
220
0.0
230
1.0
 40
0.140541
 41
1.515984066620165
 42
1.896203317503278
  0
ELLIPSE
  5
18D
330
1F
100
AcDbEntity
  8
1
100
AcDbEllipse
 10
435.880952
 20
296.186599
 30
0.0
 11
-2.357642267228976
 21
0.8315785830427637
 31
0.0
210
0.0
220
0.0
230
1.0
 40
0.998624
 41
0.0520252572636104
 42
1.945227431237593
  0
ELLIPSE
  5
18E
330
1F
100
AcDbEntity
  8
1
100
AcDbEllipse
 10
435.880952
 20
296.186599
 30
0.0
 11
-2.357642267228976
 21
0.8315785830427637
 31
0.0
210
0.0
220
0.0
230
1.0
 40
0.998624
 41
1.945227431237593
 42
2.645311779347055
  0
ELLIPSE
  5
18F
330
1F
100
AcDbEntity
  8
1
100
AcDbEllipse
 10
435.799673
 20
295.956162
 30
0.0
 11
-2.357642267228976
 21
0.8315785830427641
 31
0.0
210
0.0
220
0.0
230
1.0
 40
0.9986239999999998
 41
5.822888314034125
 42
5.942244189143306
  0
ELLIPSE
  5
190
330
1F
100
AcDbEntity
  8
1
100
AcDbEllipse
 10
435.79444
 20
295.941327
 30
0.0
 11
2.357642267228976
 21
-0.8315785830427662
 31
0.0
210
0.0
220
0.0
230
1.0
 40
0.9986239999999998
 41
2.800651535553516
 42
4.52325753194092
  0
ELLIPSE
  5
191
330
1F
100
AcDbEntity
  8
1
100
AcDbEllipse
 10
434.162492
 20
288.908377
 30
0.0
 11
0.6019522330334661
 21
-17.99961260787873
 31
0.0
210
0.0
220
0.0
230
1.0
 40
0.0191
 41
3.221446864527959
 42
3.238124672837078
  0
ELLIPSE
  5
192
330
1F
100
AcDbEntity
  8
1
100
AcDbEllipse
 10
384.436412
 20
288.944675
 30
0.0
 11
1030.787490231108
 21
-0.8913026961345931
 31
0.0
210
0.0
220
0.0
230
0.9999999999999998
 40
0.017405
 41
1.52316588695108
 42
1.525432873361738
  0
ELLIPSE
  5
193
330
1F
100
AcDbEntity
  8
1
100
AcDbEllipse
 10
434.833024
 20
305.841586
 30
0.0
 11
-11.88251702683405
 21
4.191156058535533
 31
0.0
210
0.0
220
0.0
230
1.0
 40
0.9986239999999998
 41
1.386722154625872
 42
1.945227515264127
  0
ELLIPSE
  5
194
330
1F
100
AcDbEntity
  8
1
100
AcDbEllipse
 10
434.6329799999999
 20
288.907994
 30
0.0
 11
0.6019657106481856
 21
-17.99999617909144
 31
0.0
210
0.0
220
0.0
230
1.0
 40
0.0191
 41
3.019331100969107
 42
3.109228726047353
  0
ELLIPSE
  5
195
330
1F
100
AcDbEntity
  8
1
100
AcDbEllipse
 10
435.79444
 20
295.941327
 30
0.0
 11
2.357642267228976
 21
-0.8315785830427662
 31
0.0
210
0.0
220
0.0
230
1.0
 40
0.9986239999999998
 41
5.633253637681668
 42
5.809792633311539
  0
ELLIPSE
  5
196
330
1F
100
AcDbEntity
  8
1
100
AcDbEllipse
 10
434.456636
 20
288.907994
 30
0.0
 11
0.5047094090410105
 21
-17.99986022804541
 31
0.0
210
0.0
220
0.0
230
0.9999999999999998
 40
0.140543
 41
3.105926729799456
 42
3.218361562491261
  0
ELLIPSE
  5
197
330
1F
100
AcDbEntity
  8
1
100
AcDbEllipse
 10
314.670848
 20
288.907993
 30
0.0
 11
470.3282354509966
 21
17.55344417595355
 31
0.0
210
0.0
220
0.0
230
0.9999999999999996
 40
0.008472
 41
4.971713532298927
 42
4.990414354789588
  0
ELLIPSE
  5
198
330
1F
100
AcDbEntity
  8
1
100
AcDbEllipse
 10
445.52424
 20
279.395423
 30
0.0
 11
0.0538770024353449
 21
0.4991611425090598
 31
0.0
210
0.0
220
0.0
230
0.9999999999999998
 40
0.139171
 41
1.583568179248028
 42
3.154364506042667
  0
ELLIPSE
  5
199
330
1F
100
AcDbEntity
  8
1
100
AcDbEllipse
 10
445.923111
 20
289.187832
 30
0.0
 11
0.0001758288826049
 21
-0.5000776676690136
 31
0.0
210
0.0
220
0.0
230
1.0
 40
0.140519
 41
3.139090475970851
 42
4.709886802757823
  0
ELLIPSE
  5
19A
330
1F
100
AcDbEntity
  8
1
100
AcDbEllipse
 10
326.275501
 20
288.907994
 30
0.0
 11
67.13509619969825
 21
-13.87359850783656
 31
0.0
210
0.0
220
0.0
230
1.0
 40
0.170825
 41
4.268662903363721
 42
4.433146036286287
  0
ELLIPSE
  5
19B
330
1F
100
AcDbEntity
  8
1
100
AcDbEllipse
 10
435.799673
 20
295.956162
 30
0.0
 11
-2.357642267228976
 21
0.8315785830427641
 31
0.0
210
0.0
220
0.0
230
1.0
 40
0.9986239999999998
 41
2.668199979721753
 42
2.776747666076899
  0
ELLIPSE
  5
19C
330
1F
100
AcDbEntity
  8
1
100
AcDbEllipse
 10
436.412836
 20
310.321429
 30
0.0
 11
7.099830032861928
 21
15.80214846551352
 31
0.0
210
0.0
220
0.0
230
0.9999999999999998
 40
0.72502
 41
3.072013076124897
 42
3.078221023094123
  0
ELLIPSE
  5
19D
330
1F
100
AcDbEntity
  8
1
100
AcDbEllipse
 10
439.4003839999999
 20
288.907994
 30
0.0
 11
30.87180533621116
 21
-17.75819781381187
 31
0.0
210
0.0
220
0.0
230
1.0
 40
0.095248
 41
4.23010782994956
 42
4.414545463489348
  0
ELLIPSE
  5
19E
330
1F
100
AcDbEntity
  8
1
100
AcDbEllipse
 10
303.999548
 20
288.914688
 30
0.0
 11
3.718367368100277
 21
17.99845652048794
 31
0.0
210
0.0
220
0.0
230
1.0
 40
0.170882
 41
4.331741689158791
 42
4.335978941967377
  0
ELLIPSE
  5
19F
330
1F
100
AcDbEntity
  8
1
100
AcDbEllipse
 10
446.2487359999999
 20
280.875584
 30
0.0
 11
0.3598828603242479
 21
-0.0632201112314988
 31
0.0
210
0.0
220
0.0
230
1.0
 40
0.8188099999999998
 41
6.264719809118965
 42
6.411625123529522
  0
ELLIPSE
  5
1A0
330
1F
100
AcDbEntity
  8
1
100
AcDbEllipse
 10
446.3701499999999
 20
287.831396
 30
0.0
 11
0.3618699755831586
 21
0.050621868202967
 31
0.0
210
0.0
220
0.0
230
1.0
 40
0.8188100000000002
 41
6.154745489706624
 42
6.301650804899629
  0
ELLIPSE
  5
1A1
330
1F
100
AcDbEntity
  8
1
100
AcDbEllipse
 10
446.3701499999999
 20
287.831396
 30
0.0
 11
0.3432777661731935
 21
0.1251912131659322
 31
0.0
210
0.0
220
0.0
230
1.0
 40
0.81881
 41
6.264719806689477
 42
6.411625118626496
  0
ELLIPSE
  5
1A2
330
1F
100
AcDbEntity
  8
1
100
AcDbEllipse
 10
445.928017
 20
288.6290259999999
 30
0.0
 11
0.2880776676581678
 21
0.2247748186191051
 31
0.0
210
0.0
220
0.0
230
1.0
 40
0.81881
 41
6.154745493366453
 42
6.301650806108129
  0
ELLIPSE
  5
1A3
330
1F
100
AcDbEntity
  8
1
100
AcDbEllipse
 10
445.928017
 20
288.6290259999999
 30
0.0
 11
0.2346916568848329
 21
0.2800576499851614
 31
0.0
210
0.0
220
0.0
230
1.0
 40
0.8188100000000002
 41
6.264719807922543
 42
6.411625120816968
  0
ELLIPSE
  5
1A4
330
1F
100
AcDbEntity
  8
1
100
AcDbEllipse
 10
445.7790349999999
 20
280.0938700000001
 30
0.0
 11
0.2800576481871989
 21
-0.2346916555556687
 31
0.0
210
0.0
220
0.0
230
0.9999999999999998
 40
0.81881
 41
6.264719808170723
 42
6.411625121514933
  0
ELLIPSE
  5
1A5
330
1F
100
AcDbEntity
  8
1
100
AcDbEllipse
 10
446.2487359999999
 20
280.875584
 30
0.0
 11
0.3386995278797141
 21
-0.1370951641342534
 31
0.0
210
0.0
220
0.0
230
1.0
 40
0.81881
 41
6.154745488727628
 42
6.301650803528483
  0
ELLIPSE
  5
1A6
330
1F
100
AcDbEntity
  8
1
100
AcDbEllipse
 10
445.7790349999999
 20
280.0938700000001
 30
0.0
 11
0.2247748141915651
 21
-0.2880776618443794
 31
0.0
210
0.0
220
0.0
230
0.9999999999999998
 40
0.81881
 41
6.154745491888
 42
6.301650806096615
  0
ELLIPSE
  5
1A7
330
1F
100
AcDbEntity
  8
1
100
AcDbEllipse
 10
445.761969
 20
287.67976
 30
0.0
 11
-0.3115396276772998
 21
-0.0776755531752887
 31
0.0
210
-0.0000000000000001
220
0.0
230
1.0
 40
0.6229040000000001
 41
2.976210626445514
 42
3.306974680734071
  0
ELLIPSE
  5
1A8
330
1F
100
AcDbEntity
  8
1
100
AcDbEllipse
 10
445.646217
 20
281.048354
 30
0.0
 11
-0.3086390084417319
 21
0.0885008115358406
 31
0.0
210
0.0
220
0.0
230
0.9999999999999998
 40
0.6229040000000001
 41
2.976210626445484
 42
3.306974680734093
  0
ELLIPSE
  5
1A9
330
1F
100
AcDbEntity
  8
1
100
AcDbEllipse
 10
446.473427
 20
289.155723
 30
0.0
 11
0.1593661332395206
 21
-0.2546671894639436
 31
0.0
210
0.0
220
0.0
230
1.0
 40
0.9668319999999999
 41
1.515965207738789
 42
2.029724466421611
  0
ELLIPSE
  5
1AA
330
1F
100
AcDbEntity
  8
1
100
AcDbEllipse
 10
447.105838
 20
288.014824
 30
0.0
 11
0.131518841085413
 21
-0.2701031955484704
 31
0.0
210
0.0
220
0.0
230
1.0
 40
0.9668319999999999
 41
1.111868187216437
 42
1.625627445920745
  0
ELLIPSE
  5
1AB
330
1F
100
AcDbEntity
  8
1
100
AcDbEllipse
 10
446.305732
 20
279.54846
 30
0.0
 11
0.2546671889151124
 21
0.1593661338513014
 31
0.0
210
0.0
220
0.0
230
1.0
 40
0.9668319999999999
 41
4.657557858514653
 42
5.171317117433798
  0
ELLIPSE
  5
1AC
330
1F
100
AcDbEntity
  8
1
100
AcDbEllipse
 10
446.969907
 20
280.668792
 30
0.0
 11
-0.2941597133632818
 21
0.0843489404830548
 31
0.0
210
0.0
220
0.0
230
0.9999999999999998
 40
0.9803469999999999
 41
2.884713024277096
 42
3.398472282902498
  0
ELLIPSE
  5
1AD
330
1F
100
AcDbEntity
  8
1
100
AcDbEllipse
 10
440.319239
 20
300.828636
 30
0.0
 11
3.531988007444661
 21
-1.245789330883938
 31
0.0
210
0.0
220
0.0
230
1.0
 40
0.9986239999999998
 41
1.945227552038378
 42
3.356097206659879
  0
ELLIPSE
  5
1AE
330
1F
100
AcDbEntity
  8
1
100
AcDbEllipse
 10
440.319239
 20
300.828636
 30
0.0
 11
3.531988007444661
 21
-1.245789330883938
 31
0.0
210
0.0
220
0.0
230
1.0
 40
0.9986239999999998
 41
5.419043491545747
 42
6.283185307179585
  0
ELLIPSE
  5
1AF
330
1F
100
AcDbEntity
  8
1
100
AcDbEllipse
 10
440.319239
 20
300.828636
 30
0.0
 11
3.531988007444661
 21
-1.245789330883938
 31
0.0
210
0.0
220
0.0
230
1.0
 40
0.9986239999999998
 41
0.0
 42
1.508938775396913
  0
ELLIPSE
  5
1B0
330
1F
100
AcDbEntity
  8
1
100
AcDbEllipse
 10
440.319239
 20
300.828636
 30
0.0
 11
3.531988007444661
 21
-1.245789330883938
 31
0.0
210
0.0
220
0.0
230
1.0
 40
0.9986239999999998
 41
1.63254085945862
 42
1.945227552038378
  0
ELLIPSE
  5
1B1
330
1F
100
AcDbEntity
  8
1
100
AcDbEllipse
 10
435.5467469999999
 20
295.663447
 30
0.0
 11
0.4817434590655705
 21
0.5170545784325839
 31
0.0
210
0.0
220
0.0
230
1.0
 40
0.01483
 41
0.5198738242647601
 42
1.536779665084272
  0
ELLIPSE
  5
1B2
330
1F
100
AcDbEntity
  8
1
100
AcDbEllipse
 10
440.2994419999999
 20
300.77251
 30
0.0
 11
3.588083700633127
 21
-1.265575189707758
 31
0.0
210
0.0
220
0.0
230
1.0
 40
0.9986239999999998
 41
1.945227451328575
 42
3.745261875445966
  0
ELLIPSE
  5
1B3
330
1F
100
AcDbEntity
  8
1
100
AcDbEllipse
 10
440.2994419999999
 20
300.77251
 30
0.0
 11
3.588083700633127
 21
-1.265575189707758
 31
0.0
210
0.0
220
0.0
230
1.0
 40
0.9986239999999998
 41
4.874566385899286
 42
6.283185307179585
  0
ELLIPSE
  5
1B4
330
1F
100
AcDbEntity
  8
1
100
AcDbEllipse
 10
440.2994419999999
 20
300.77251
 30
0.0
 11
3.588083700633127
 21
-1.265575189707758
 31
0.0
210
0.0
220
0.0
230
1.0
 40
0.9986239999999998
 41
0.0
 42
1.945227440221053
  0
ELLIPSE
  5
1B5
330
1F
100
AcDbEntity
  8
1
100
AcDbEllipse
 10
445.3894329999999
 20
296.006804
 30
0.0
 11
0.5172967686963209
 21
-0.4819691094621354
 31
0.0
210
0.0
220
0.0
230
0.9999999999999998
 40
0.033998
 41
1.585610887679488
 42
2.602516728123982
  0
ELLIPSE
  5
1B6
330
1F
100
AcDbEntity
  8
1
100
AcDbEllipse
 10
435.194521
 20
305.495887
 30
0.0
 11
0.5172967687115556
 21
-0.4819691094806848
 31
0.0
210
0.0
220
0.0
230
1.0
 40
0.033998
 41
0.5687050474102833
 42
1.585610887818261
  0
ELLIPSE
  5
1B7
330
1F
100
AcDbEntity
  8
1
100
AcDbEllipse
 10
445.037207
 20
305.839244
 30
0.0
 11
0.4817434595057631
 21
0.5170545789082182
 31
0.0
210
0.0
220
0.0
230
0.9999999999999998
 40
0.01483
 41
1.536779664867896
 42
2.553685504903868
  0
ELLIPSE
  5
1B8
330
1F
100
AcDbEntity
  8
1
100
AcDbEllipse
 10
440.2965639999999
 20
300.764351
 30
0.0
 11
-3.677921936877202
 21
1.297262589546711
 31
0.0
210
0.0
220
0.0
230
1.0
 40
0.9986239999999998
 41
0.0
 42
6.283185307179585
  0
SPLINE
  5
1CA
330
1F
100
AcDbEntity
  8
1
100
AcDbSpline
210
0.0
220
0.0
230
1.0
 70
    12
 71
     3
 72
     8
 73
     4
 74
     0
 42
0.000000001
 43
0.0000000001
 40
0.0
 40
0.0
 40
0.0
 40
0.0
 40
1.0
 40
1.0
 40
1.0
 40
1.0
 10
339.5069511892984
 20
275.2471182334846
 30
0.0
 41
1.000831786882474
 10
341.7682293226367
 20
275.4062560398766
 30
0.0
 41
1.000854197081537
 10
344.0222230963388
 20
275.5712423930014
 30
0.0
 41
1.000967549803415
 10
346.2751626043915
 20
275.7585083623186
 30
0.0
 41
1.001189248333919
  0
SPLINE
  5
1CB
330
1F
100
AcDbEntity
  8
1
100
AcDbSpline
210
0.0
220
0.0
230
1.0
 70
     8
 71
     3
 72
     8
 73
     4
 74
     0
 42
0.000000001
 43
0.0000000001
 40
0.0
 40
0.0
 40
0.0
 40
0.0
 40
1.0
 40
1.0
 40
1.0
 40
1.0
 10
438.7737608581193
 20
301.4622683589078
 30
0.0
 10
438.7750404332572
 20
301.4732669998978
 30
0.0
 10
438.7766246253643
 20
301.4841987297093
 30
0.0
 10
438.778511743832
 20
301.4950636719661
 30
0.0
  0
SPLINE
  5
1CC
330
1F
100
AcDbEntity
  8
1
100
AcDbSpline
210
0.0
220
0.0
230
1.0
 70
     8
 71
     3
 72
    10
 73
     6
 74
     0
 42
0.000000001
 43
0.0000000001
 40
0.0
 40
0.0
 40
0.0
 40
0.0
 40
0.6628244121379998
 40
0.6628244121379998
 40
1.0
 40
1.0
 40
1.0
 40
1.0
 10
440.1018295681766
 20
302.1433184565816
 30
0.0
 10
440.1013259988293
 20
302.1411469548873
 30
0.0
 10
440.1007412665913
 20
302.1389858353506
 30
0.0
 10
440.0997363505937
 20
302.1357423042301
 30
0.0
 10
440.0993782896748
 20
302.134656968731
 30
0.0
 10
440.0990008723131
 20
302.1335799834994
 30
0.0
  0
SPLINE
  5
1CD
330
1F
100
AcDbEntity
  8
1
100
AcDbSpline
210
0.0
220
0.0
230
1.0
 70
     8
 71
     3
 72
    27
 73
    23
 74
     0
 42
0.000000001
 43
0.0000000001
 40
0.0
 40
0.0
 40
0.0
 40
0.0
 40
0.1249999999998281
 40
0.1249999999998281
 40
0.1874999999997941
 40
0.1874999999997941
 40
0.24999999999976
 40
0.24999999999976
 40
0.3749999999998003
 40
0.3749999999998003
 40
0.4374999999998201
 40
0.4374999999998201
 40
0.4999999999998401
 40
0.4999999999998401
 40
0.6249999999998798
 40
0.6249999999998798
 40
0.6874999999999011
 40
0.6874999999999011
 40
0.7499999999999223
 40
0.7499999999999223
 40
0.874999999999961
 40
1.0
 40
1.0
 40
1.0
 40
1.0
 10
440.1539349937634
 20
299.0607049068508
 30
0.0
 10
440.1247190180464
 20
299.0479834590937
 30
0.0
 10
440.0947810709642
 20
299.037691376546
 30
0.0
 10
440.0488122186196
 20
299.0258412174249
 30
0.0
 10
440.0333114515653
 20
299.0224919009965
 30
0.0
 10
440.0019476746678
 20
299.0170190716057
 30
0.0
 10
439.9860386008601
 20
299.0148956685292
 30
0.0
 10
439.9385229756553
 20
299.0104826581012
 30
0.0
 10
439.9069115940847
 20
299.0100860056596
 30
0.0
 10
439.8595921516893
 20
299.0132482169082
 30
0.0
 10
439.8438353467678
 20
299.0149314048575
 30
0.0
 10
439.8123551438173
 20
299.0195816652158
 30
0.0
 10
439.7965598922505
 20
299.0225678226149
 30
0.0
 10
439.7499308282013
 20
299.0333514095871
 30
0.0
 10
439.7197782146447
 20
299.0429444052635
 30
0.0
 10
439.6759074158419
 20
299.0608309507796
 30
0.0
 10
439.6615112676628
 20
299.0673787893209
 30
0.0
 10
439.6331798781842
 20
299.0816609744095
 30
0.0
 10
439.6191943809251
 20
299.0894265396818
 30
0.0
 10
439.5783103197502
 20
299.1143381861117
 30
0.0
 10
439.5271823991391
 20
299.1514622082951
 30
0.0
 10
439.4825337088735
 20
299.1960563624986
 30
0.0
 10
439.4618802977276
 20
299.2202753765543
 30
0.0
  0
SPLINE
  5
1CE
330
1F
100
AcDbEntity
  8
1
100
AcDbSpline
210
0.0
220
0.0
230
1.0
 70
     8
 71
     3
 72
    16
 73
    12
 74
     0
 42
0.000000001
 43
0.0000000001
 40
0.0
 40
0.0
 40
0.0
 40
0.0
 40
0.3587940320761831
 40
0.3587940320761831
 40
0.5381910481142462
 40
0.5381910481142462
 40
0.7175880641523093
 40
0.7175880641523093
 40
0.8969850801903723
 40
0.8969850801903723
 40
1.0
 40
1.0
 40
1.0
 40
1.0
 10
439.4618802977276
 20
299.2202753765543
 30
0.0
 10
439.4554134446273
 20
299.2278586665504
 30
0.0
 10
439.4502272206552
 20
299.2363947791778
 30
0.0
 10
439.4446131630409
 20
299.2498044101893
 30
0.0
 10
439.4430840483131
 20
299.2544007399376
 30
0.0
 10
439.4407154225308
 20
299.2638475189165
 30
0.0
 10
439.4398931506987
 20
299.2686521643475
 30
0.0
 10
439.4389725466081
 20
299.2781958095728
 30
0.0
 10
439.4388654948435
 20
299.2829684467251
 30
0.0
 10
439.4392447672593
 20
299.2904823945798
 30
0.0
 10
439.4395011458938
 20
299.2932354584953
 30
0.0
 10
439.4398711691151
 20
299.295969432333
 30
0.0
  0
SPLINE
  5
1CF
330
1F
100
AcDbEntity
  8
1
100
AcDbSpline
210
0.0
220
0.0
230
1.0
 70
     8
 71
     3
 72
    10
 73
     6
 74
     0
 42
0.000000001
 43
0.0000000001
 40
0.0
 40
0.0
 40
0.0
 40
0.0
 40
0.1325035073396685
 40
0.1325035073396685
 40
1.0
 40
1.0
 40
1.0
 40
1.0
 10
440.1820058069163
 20
299.0794179284764
 30
0.0
 10
440.180926946367
 20
299.0783835658636
 30
0.0
 10
440.1798223775663
 20
299.0773724208067
 30
0.0
 10
440.1713051026097
 20
299.0699355400329
 30
0.0
 10
440.1630696123538
 20
299.0646823736419
 30
0.0
 10
440.1539349937634
 20
299.0607049068508
 30
0.0
  0
SPLINE
  5
1D0
330
1F
100
AcDbEntity
  8
1
100
AcDbSpline
210
0.0
220
0.0
230
1.0
 70
     8
 71
     3
 72
    10
 73
     6
 74
     0
 42
0.000000001
 43
0.0000000001
 40
0.0
 40
0.0
 40
0.0
 40
0.0
 40
0.6419716905414527
 40
0.6419716905414527
 40
1.0
 40
1.0
 40
1.0
 40
1.0
 10
439.4601834632921
 20
299.3923246584446
 30
0.0
 10
439.4621988748881
 20
299.3813578683457
 30
0.0
 10
439.4623010523621
 20
299.370374488591
 30
0.0
 10
439.4596549597054
 20
299.3534850507391
 30
0.0
 10
439.4581742240581
 20
299.3476214622405
 30
0.0
 10
439.4561639942487
 20
299.3419395058182
 30
0.0
  0
SPLINE
  5
1D1
330
1F
100
AcDbEntity
  8
1
100
AcDbSpline
210
0.0
220
0.0
230
1.0
 70
     8
 71
     3
 72
     8
 73
     4
 74
     0
 42
0.000000001
 43
0.0000000001
 40
0.0
 40
0.0
 40
0.0
 40
0.0
 40
1.0
 40
1.0
 40
1.0
 40
1.0
 10
440.2176216073089
 20
299.1886765724217
 30
0.0
 10
440.2208522106603
 20
299.1978932348088
 30
0.0
 10
440.2253950113993
 20
299.2065170800757
 30
0.0
 10
440.2313216097708
 20
299.2145195269359
 30
0.0
  0
SPLINE
  5
1D2
330
1F
100
AcDbEntity
  8
1
100
AcDbSpline
210
0.0
220
0.0
230
1.0
 70
     8
 71
     3
 72
    20
 73
    16
 74
     0
 42
0.000000001
 43
0.0000000001
 40
0.0
 40
0.0
 40
0.0
 40
0.0
 40
0.1250000000000017
 40
0.1250000000000017
 40
0.2500000000000033
 40
0.2500000000000033
 40
0.3750000000000049
 40
0.3750000000000049
 40
0.5000000000000067
 40
0.5000000000000067
 40
0.6250000000000085
 40
0.6250000000000085
 40
0.75000000000001
 40
0.75000000000001
 40
1.0
 40
1.0
 40
1.0
 40
1.0
 10
438.8783085139539
 20
299.8612315503338
 30
0.0
 10
438.8742929409118
 20
299.8586576742462
 30
0.0
 10
438.8701198960437
 20
299.8563938360309
 30
0.0
 10
438.8614610547661
 20
299.8524822412631
 30
0.0
 10
438.8569675858761
 20
299.850837366541
 30
0.0
 10
438.8478778216687
 20
299.8482454359754
 30
0.0
 10
438.843256113513
 20
299.8472851198774
 30
0.0
 10
438.8338571201622
 20
299.8460470177171
 30
0.0
 10
438.8290416996722
 20
299.8457717601283
 30
0.0
 10
438.819482514237
 20
299.8459495567615
 30
0.0
 10
438.8147342680976
 20
299.8463950968939
 30
0.0
 10
438.8053019034692
 20
299.8480064167584
 30
0.0
 10
438.8005870571585
 20
299.8491827123817
 30
0.0
 10
438.7867646964164
 20
299.8538030582837
 30
0.0
 10
438.7781501678051
 20
299.8582305981579
 30
0.0
 10
438.7701765289853
 20
299.8640901835162
 30
0.0
  0
SPLINE
  5
1D3
330
1F
100
AcDbEntity
  8
1
100
AcDbSpline
210
0.0
220
0.0
230
1.0
 70
     8
 71
     3
 72
    10
 73
     6
 74
     0
 42
0.000000001
 43
0.0000000001
 40
0.0
 40
0.0
 40
0.0
 40
0.0
 40
0.5
 40
0.5
 40
1.0
 40
1.0
 40
1.0
 40
1.0
 10
438.8783085139539
 20
299.8612315503338
 30
0.0
 10
438.8874872126903
 20
299.8671148534004
 30
0.0
 10
438.8974125936958
 20
299.8713675088718
 30
0.0
 10
438.9186261655332
 20
299.8764886980037
 30
0.0
 10
438.9294203098598
 20
299.8772501588957
 30
0.0
 10
438.940418498757
 20
299.8761045587858
 30
0.0
  0
SPLINE
  5
1D4
330
1F
100
AcDbEntity
  8
1
100
AcDbSpline
210
0.0
220
0.0
230
1.0
 70
     8
 71
     3
 72
    24
 73
    20
 74
     0
 42
0.000000001
 43
0.0000000001
 40
0.0
 40
0.0
 40
0.0
 40
0.0
 40
0.1250000000001262
 40
0.1250000000001262
 40
0.2500000000002525
 40
0.2500000000002525
 40
0.3125000000002672
 40
0.3125000000002672
 40
0.3750000000002821
 40
0.3750000000002821
 40
0.5000000000002257
 40
0.5000000000002257
 40
0.6250000000001693
 40
0.6250000000001693
 40
0.7500000000001128
 40
0.7500000000001128
 40
0.8750000000000564
 40
0.8750000000000564
 40
1.0
 40
1.0
 40
1.0
 40
1.0
 10
438.940418498757
 20
299.8761045587858
 30
0.0
 10
438.9715668721201
 20
299.87286006278
 30
0.0
 10
439.0021985815198
 20
299.8672070140422
 30
0.0
 10
439.0624763230328
 20
299.8510839355486
 30
0.0
 10
439.0921227802902
 20
299.8406162616985
 30
0.0
 10
439.1358300008128
 20
299.821001909528
 30
0.0
 10
439.1501778714648
 20
299.8138438979517
 30
0.0
 10
439.1780864033776
 20
299.7984669796638
 30
0.0
 10
439.1917011914691
 20
299.7902243062114
 30
0.0
 10
439.2315296509614
 20
299.7638325109938
 30
0.0
 10
439.2567718055098
 20
299.7439964625946
 30
0.0
 10
439.3042569193458
 20
299.6997862093697
 30
0.0
 10
439.325809183876
 20
299.6760666063704
 30
0.0
 10
439.3647844486205
 20
299.6255792521294
 30
0.0
 10
439.3822122035106
 20
299.5988006433448
 30
0.0
 10
439.4128422647098
 20
299.5421696743801
 30
0.0
 10
439.4256018240223
 20
299.5131457194693
 30
0.0
 10
439.4464196370829
 20
299.4537537236031
 30
0.0
 10
439.4544753753842
 20
299.4233850145905
 30
0.0
 10
439.4601834632921
 20
299.3923246584446
 30
0.0
  0
SPLINE
  5
1D5
330
1F
100
AcDbEntity
  8
1
100
AcDbSpline
210
0.0
220
0.0
230
1.0
 70
     8
 71
     3
 72
    18
 73
    14
 74
     0
 42
0.000000001
 43
0.0000000001
 40
0.0
 40
0.0
 40
0.0
 40
0.0
 40
0.2500000000000029
 40
0.2500000000000029
 40
0.375000000000007
 40
0.375000000000007
 40
0.5000000000000112
 40
0.5000000000000112
 40
0.6250000000000155
 40
0.6250000000000155
 40
0.7500000000000196
 40
0.7500000000000196
 40
1.0
 40
1.0
 40
1.0
 40
1.0
 10
441.0574277221728
 20
299.3367073779124
 30
0.0
 10
441.0476991764978
 20
299.3349240751317
 30
0.0
 10
441.0378081379433
 20
299.3347302314603
 30
0.0
 10
441.023554365521
 20
299.3366208314258
 30
0.0
 10
441.0188690305546
 20
299.3376112948407
 30
0.0
 10
441.0096319481662
 20
299.340317835549
 30
0.0
 10
441.0051279021966
 20
299.342025779105
 30
0.0
 10
440.9965429861897
 20
299.3460359724494
 30
0.0
 10
440.9924290780166
 20
299.3483476124242
 30
0.0
 10
440.9845537555691
 20
299.3535745099048
 30
0.0
 10
440.9807662914269
 20
299.3565168450789
 30
0.0
 10
440.9702412496382
 20
299.3660204261698
 30
0.0
 10
440.9642606833007
 20
299.3732572161301
 30
0.0
 10
440.9593251318904
 20
299.3814012694516
 30
0.0
  0
SPLINE
  5
1D6
330
1F
100
AcDbEntity
  8
1
100
AcDbSpline
210
0.0
220
0.0
230
1.0
 70
     8
 71
     3
 72
    10
 73
     6
 74
     0
 42
0.000000001
 43
0.0000000001
 40
0.0
 40
0.0
 40
0.0
 40
0.0
 40
0.5
 40
0.5
 40
1.0
 40
1.0
 40
1.0
 40
1.0
 10
440.9102305403863
 20
299.4219152663632
 30
0.0
 10
440.9205853213083
 20
299.4181373929596
 30
0.0
 10
440.9299807942812
 20
299.4126926939127
 30
0.0
 10
440.9467018756203
 20
299.3988237704362
 30
0.0
 10
440.9536898426226
 20
299.3906999460252
 30
0.0
 10
440.9593251318904
 20
299.3814012694516
 30
0.0
  0
SPLINE
  5
1D7
330
1F
100
AcDbEntity
  8
1
100
AcDbSpline
210
0.0
220
0.0
230
1.0
 70
     8
 71
     3
 72
    24
 73
    20
 74
     0
 42
0.000000001
 43
0.0000000001
 40
0.0
 40
0.0
 40
0.0
 40
0.0
 40
0.125
 40
0.125
 40
0.25
 40
0.25
 40
0.3125
 40
0.3125
 40
0.375
 40
0.375
 40
0.5
 40
0.5
 40
0.625
 40
0.625
 40
0.75
 40
0.75
 40
0.875
 40
0.875
 40
1.0
 40
1.0
 40
1.0
 40
1.0
 10
440.2313216097708
 20
299.2145195269359
 30
0.0
 10
440.2501372684783
 20
299.2399255523661
 30
0.0
 10
440.2707433714981
 20
299.2636710676182
 30
0.0
 10
440.3155494245843
 20
299.3078804057913
 30
0.0
 10
440.3397476017573
 20
299.3283457864624
 30
0.0
 10
440.3789746261938
 20
299.3564096092455
 30
0.0
 10
440.3924623044525
 20
299.3652595086591
 30
0.0
 10
440.4199312572603
 20
299.3817410524907
 30
0.0
 10
440.4339605564392
 20
299.3894076329995
 30
0.0
 10
440.4769336867126
 20
299.4106861230569
 30
0.0
 10
440.5068056263383
 20
299.4226037651554
 30
0.0
 10
440.5688400073564
 20
299.4415444603659
 30
0.0
 10
440.6000913665533
 20
299.4482982326874
 30
0.0
 10
440.663042774167
 20
299.456682591777
 30
0.0
 10
440.6947550692656
 20
299.4583118230645
 30
0.0
 10
440.7586075165636
 20
299.4563523457541
 30
0.0
 10
440.7898176582168
 20
299.4527970012523
 30
0.0
 10
440.8509664831233
 20
299.4409294407694
 30
0.0
 10
440.8809044288681
 20
299.4326147043882
 30
0.0
 10
440.9102305403865
 20
299.4219152663632
 30
0.0
  0
SPLINE
  5
1D8
330
1F
100
AcDbEntity
  8
1
100
AcDbSpline
210
0.0
220
0.0
230
1.0
 70
     8
 71
     3
 72
    27
 73
    23
 74
     0
 42
0.000000001
 43
0.0000000001
 40
0.0
 40
0.0
 40
0.0
 40
0.0
 40
0.1358119458609497
 40
0.1358119458609497
 40
0.2037179187914273
 40
0.2037179187914273
 40
0.2716238917219048
 40
0.2716238917219048
 40
0.407435837582928
 40
0.407435837582928
 40
0.4753418105134397
 40
0.4753418105134397
 40
0.5432477834439511
 40
0.5432477834439511
 40
0.6790597293049469
 40
0.6790597293049469
 40
0.7469657022354448
 40
0.7469657022354448
 40
0.8148716751659426
 40
0.8148716751659426
 40
0.9506836210269336
 40
1.0
 40
1.0
 40
1.0
 40
1.0
 10
438.7701765289853
 20
299.8640901835162
 30
0.0
 10
438.7446743428958
 20
299.8828309666884
 30
0.0
 10
438.7208968442922
 20
299.9034325040295
 30
0.0
 10
438.6877816598645
 20
299.9370771923643
 30
0.0
 10
438.6771703780702
 20
299.9487512694896
 30
0.0
 10
438.6568198597187
 20
299.9730355954831
 30
0.0
 10
438.6470576813578
 20
299.9856857169688
 30
0.0
 10
438.6195579011984
 20
300.0244488747717
 30
0.0
 10
438.6034440386792
 20
300.0515285909841
 30
0.0
 10
438.5825502135272
 20
300.0939735357897
 30
0.0
 10
438.5761343044825
 20
300.1084275084706
 30
0.0
 10
438.5644223401833
 20
300.1379591034766
 30
0.0
 10
438.5591068211744
 20
300.1531084525694
 30
0.0
 10
438.5451059951986
 20
300.1988313582808
 30
0.0
 10
438.5383035575461
 20
300.2297293510737
 30
0.0
 10
438.5317822580506
 20
300.2766816601826
 30
0.0
 10
438.5302251791419
 20
300.2924338053947
 30
0.0
 10
438.5283603320391
 20
300.3241435111209
 30
0.0
 10
438.5280543071885
 20
300.3401602389392
 30
0.0
 10
438.5290585153601
 20
300.3881068689428
 30
0.0
 10
438.5334101017301
 20
300.43104246165
 30
0.0
 10
438.542242506669
 20
300.4731470716277
 30
0.0
 10
438.5449167503423
 20
300.4843036366187
 30
0.0
  0
SPLINE
  5
1D9
330
1F
100
AcDbEntity
  8
1
100
AcDbSpline
210
0.0
220
0.0
230
1.0
 70
     8
 71
     3
 72
    21
 73
    17
 74
     0
 42
0.000000001
 43
0.0000000001
 40
0.0
 40
0.0
 40
0.0
 40
0.0
 40
0.1243620819398178
 40
0.1243620819398178
 40
0.2119258737458342
 40
0.2119258737458342
 40
0.2994896655518507
 40
0.2994896655518507
 40
0.4746172491638836
 40
0.4746172491638836
 40
0.5621810409699029
 40
0.5621810409699029
 40
0.6497448327759223
 40
0.6497448327759223
 40
0.8248724163879611
 40
1.0
 40
1.0
 40
1.0
 40
1.0
 10
441.4772871654263
 20
299.647879547742
 30
0.0
 10
441.4669020232885
 20
299.627906510129
 30
0.0
 10
441.4554410738069
 20
299.6086047757838
 30
0.0
 10
441.4340977003458
 20
299.5768436968583
 30
0.0
 10
441.4247492036071
 20
299.5640512023003
 30
0.0
 10
441.4049709293311
 20
299.5391408819787
 30
0.0
 10
441.3944887380731
 20
299.5269704132132
 30
0.0
 10
441.3618601776761
 20
299.4920311516426
 30
0.0
 10
441.3385201996129
 20
299.470755441221
 30
0.0
 10
441.3012013122981
 20
299.441776401575
 30
0.0
 10
441.2883750143047
 20
299.432608176989
 30
0.0
 10
441.2619392764862
 20
299.4152674888988
 30
0.0
 10
441.2482780875682
 20
299.4070673137164
 30
0.0
 10
441.2064507366206
 20
299.384206557409
 30
0.0
 10
441.1490387381824
 20
299.3586211817965
 30
0.0
 10
441.0884987573196
 20
299.3424028914278
 30
0.0
 10
441.0574277221728
 20
299.3367073779124
 30
0.0
  0
SPLINE
  5
1DA
330
1F
100
AcDbEntity
  8
1
100
AcDbSpline
210
0.0
220
0.0
230
1.0
 70
     8
 71
     3
 72
    18
 73
    14
 74
     0
 42
0.000000001
 43
0.0000000001
 40
0.0
 40
0.0
 40
0.0
 40
0.0
 40
0.2127774583464138
 40
0.2127774583464138
 40
0.4255549166928275
 40
0.4255549166928275
 40
0.5319436458660256
 40
0.5319436458660256
 40
0.6383323750392239
 40
0.6383323750392239
 40
0.8511098333856088
 40
0.8511098333856088
 40
1.0
 40
1.0
 40
1.0
 40
1.0
 10
438.8675655810687
 20
301.3231597092877
 30
0.0
 10
438.8800512613662
 20
301.2949421635577
 30
0.0
 10
438.8902163935871
 20
301.2659384072922
 30
0.0
 10
438.9059365928966
 20
301.2063090520239
 30
0.0
 10
438.9114938780056
 20
301.175684305467
 30
0.0
 10
438.9161098330178
 20
301.1283900816288
 30
0.0
 10
438.9170099753183
 20
301.1124964151774
 30
0.0
 10
438.9175185026433
 20
301.0808341533576
 30
0.0
 10
438.9171330276921
 20
301.0650074567395
 30
0.0
 10
438.9140586221939
 20
301.0175367653387
 30
0.0
 10
438.9094535852485
 20
300.9858515377418
 30
0.0
 10
438.8970880120361
 20
300.9321816735877
 30
0.0
 10
438.8907984103773
 20
300.9105927497707
 30
0.0
 10
438.8833568853656
 20
300.8894893159147
 30
0.0
  0
SPLINE
  5
1DB
330
1F
100
AcDbEntity
  8
1
100
AcDbSpline
210
0.0
220
0.0
230
1.0
 70
     8
 71
     3
 72
    10
 73
     6
 74
     0
 42
0.000000001
 43
0.0000000001
 40
0.0
 40
0.0
 40
0.0
 40
0.0
 40
0.5
 40
0.5
 40
1.0
 40
1.0
 40
1.0
 40
1.0
 10
438.8243102518611
 20
301.3686019396841
 30
0.0
 10
438.8338732482804
 20
301.3637546980306
 30
0.0
 10
438.8424001708471
 20
301.3574433304662
 30
0.0
 10
438.8572082656363
 20
301.341944806293
 30
0.0
 10
438.863156859763
 20
301.3331233870442
 30
0.0
 10
438.8675655810687
 20
301.3231597092877
 30
0.0
  0
SPLINE
  5
1DC
330
1F
100
AcDbEntity
  8
1
100
AcDbSpline
210
0.0
220
0.0
230
1.0
 70
     8
 71
     3
 72
    20
 73
    16
 74
     0
 42
0.000000001
 43
0.0000000001
 40
0.0
 40
0.0
 40
0.0
 40
0.0
 40
0.1249999999999999
 40
0.1249999999999999
 40
0.2499999999999998
 40
0.2499999999999998
 40
0.3749999999999998
 40
0.3749999999999998
 40
0.4999999999999998
 40
0.4999999999999998
 40
0.6249999999999997
 40
0.6249999999999997
 40
0.7499999999999997
 40
0.7499999999999997
 40
1.0
 40
1.0
 40
1.0
 40
1.0
 10
438.8243102518611
 20
301.3686019396841
 30
0.0
 10
438.8201264960009
 20
301.3707225799924
 30
0.0
 10
438.816132367441
 20
301.3731346468597
 30
0.0
 10
438.808520979141
 20
301.378537658281
 30
0.0
 10
438.8049020039843
 20
301.3815369510411
 30
0.0
 10
438.7982143866962
 20
301.3879767709306
 30
0.0
 10
438.7951218840861
 20
301.3914322028968
 30
0.0
 10
438.789448183823
 20
301.3988212507367
 30
0.0
 10
438.7868504088559
 20
301.4027886899994
 30
0.0
 10
438.7823163938058
 20
301.4110322748019
 30
0.0
 10
438.7803718657534
 20
301.4153078221141
 30
0.0
 10
438.7771344287366
 20
301.4241685249499
 30
0.0
 10
438.7758355646181
 20
301.4287848178934
 30
0.0
 10
438.7730361241104
 20
301.4429142434926
 30
0.0
 10
438.7726247536208
 20
301.4525029257265
 30
0.0
 10
438.7737608581193
 20
301.4622683589078
 30
0.0
  0
SPLINE
  5
1DD
330
1F
100
AcDbEntity
  8
1
100
AcDbSpline
210
0.0
220
0.0
230
1.0
 70
     8
 71
     3
 72
    14
 73
    10
 74
     0
 42
0.000000001
 43
0.0000000001
 40
0.0
 40
0.0
 40
0.0
 40
0.0
 40
0.0909779694415376
 40
0.0909779694415376
 40
0.3939853129610252
 40
0.3939853129610252
 40
0.6969926564805127
 40
0.6969926564805127
 40
1.0
 40
1.0
 40
1.0
 40
1.0
 10
441.4355453835449
 20
300.4392307637254
 30
0.0
 10
441.4387184938448
 20
300.4482293895987
 30
0.0
 10
441.4420995406833
 20
300.4571268703414
 30
0.0
 10
441.457626200109
 20
300.4952281308602
 30
0.0
 10
441.4718413484063
 20
300.5234404270531
 30
0.0
 10
441.5048830047648
 20
300.5775979851961
 30
0.0
 10
441.5232246628334
 20
300.6027574797248
 30
0.0
 10
441.5633074547852
 20
300.6495779349671
 30
0.0
 10
441.5850503434971
 20
300.6712369849346
 30
0.0
 10
441.608515769177
 20
300.6911652853563
 30
0.0
  0
SPLINE
  5
1DE
330
1F
100
AcDbEntity
  8
1
100
AcDbSpline
210
0.0
220
0.0
230
1.0
 70
     8
 71
     3
 72
    10
 73
     6
 74
     0
 42
0.000000001
 43
0.0000000001
 40
0.0
 40
0.0
 40
0.0
 40
0.0
 40
0.5
 40
0.5
 40
1.0
 40
1.0
 40
1.0
 40
1.0
 10
441.608515769177
 20
300.6911652853563
 30
0.0
 10
441.6168015763128
 20
300.6982021086422
 30
0.0
 10
441.6260327259657
 20
300.7035695597324
 30
0.0
 10
441.6460246549938
 20
300.7110200578185
 30
0.0
 10
441.6563598559855
 20
300.7129603795355
 30
0.0
 10
441.6670318176598
 20
300.713141586494
 30
0.0
  0
SPLINE
  5
1DF
330
1F
100
AcDbEntity
  8
1
100
AcDbSpline
210
0.0
220
0.0
230
1.0
 70
     8
 71
     3
 72
    16
 73
    12
 74
     0
 42
0.000000001
 43
0.0000000001
 40
0.0
 40
0.0
 40
0.0
 40
0.0
 40
0.0631184670996018
 40
0.0631184670996018
 40
0.2504947736798671
 40
0.2504947736798671
 40
0.4378710802601328
 40
0.4378710802601328
 40
0.625247386840398
 40
0.625247386840398
 40
1.0
 40
1.0
 40
1.0
 40
1.0
 10
441.7333845504171
 20
300.7426032034965
 30
0.0
 10
441.7322981602382
 20
300.7414354436652
 30
0.0
 10
441.7311804974116
 20
300.7402948970329
 30
0.0
 10
441.7266205445527
 20
300.7358767707305
 30
0.0
 10
441.7229623072402
 20
300.7328482748313
 30
0.0
 10
441.7153478607427
 20
300.7274570642015
 30
0.0
 10
441.711367104157
 20
300.7250701323485
 30
0.0
 10
441.7030645827589
 20
300.7209047003624
 30
0.0
 10
441.6987068358293
 20
300.7191172177104
 30
0.0
 10
441.6854653263098
 20
300.7148177843233
 30
0.0
 10
441.6763784514886
 20
300.7133002897522
 30
0.0
 10
441.6670318176598
 20
300.713141586494
 30
0.0
  0
SPLINE
  5
1E6
330
1F
100
AcDbEntity
  8
1
100
AcDbSpline
210
0.0
220
0.0
230
1.0
 70
     9
 71
     3
 72
   133
 73
   129
 74
     0
 42
0.000000001
 43
0.0000000001
 40
0.0
 40
0.0
 40
0.0
 40
0.0
 40
0.0312500000000441
 40
0.0312500000000441
 40
0.0468750000000652
 40
0.0468750000000652
 40
0.0625000000000862
 40
0.0625000000000862
 40
0.0937500000001319
 40
0.0937500000001319
 40
0.1093750000001547
 40
0.1093750000001547
 40
0.1250000000001775
 40
0.1250000000001775
 40
0.1562500000002169
 40
0.1562500000002169
 40
0.1640625000002211
 40
0.1640625000002211
 40
0.1718750000002253
 40
0.1718750000002253
 40
0.1875000000002256
 40
0.2031250000002259
 40
0.2031250000002259
 40
0.2109375000002261
 40
0.2109375000002261
 40
0.2187500000002262
 40
0.2187500000002262
 40
0.2500000000002179
 40
0.2500000000002179
 40
0.2656250000002092
 40
0.2656250000002092
 40
0.2734375000002005
 40
0.2734375000002005
 40
0.2812500000001917
 40
0.2812500000001917
 40
0.3125000000001655
 40
0.3125000000001655
 40
0.3203125000001549
 40
0.3203125000001549
 40
0.3281250000001443
 40
0.3281250000001443
 40
0.3437500000001231
 40
0.3593750000001018
 40
0.3593750000001018
 40
0.3671875000000944
 40
0.3671875000000944
 40
0.375000000000087
 40
0.375000000000087
 40
0.4062500000000635
 40
0.4062500000000635
 40
0.4218750000000517
 40
0.4218750000000517
 40
0.4296875000000457
 40
0.4296875000000457
 40
0.4375000000000397
 40
0.4375000000000397
 40
0.4687500000000184
 40
0.4687500000000184
 40
0.4765625000000135
 40
0.4765625000000135
 40
0.4843750000000084
 40
0.4843750000000084
 40
0.4999999999999988
 40
0.4999999999999988
 40
0.5312499999999792
 40
0.5312499999999792
 40
0.5390624999999744
 40
0.5390624999999744
 40
0.5468749999999697
 40
0.5468749999999697
 40
0.5624999999999628
 40
0.5781249999999561
 40
0.5781249999999561
 40
0.5859374999999549
 40
0.5859374999999549
 40
0.5937499999999542
 40
0.5937499999999542
 40
0.6249999999999393
 40
0.6249999999999393
 40
0.640624999999932
 40
0.640624999999932
 40
0.648437499999932
 40
0.648437499999932
 40
0.656249999999932
 40
0.656249999999932
 40
0.6874999999999313
 40
0.6874999999999313
 40
0.6953124999999311
 40
0.6953124999999311
 40
0.7031249999999309
 40
0.7031249999999309
 40
0.7187499999999304
 40
0.7187499999999304
 40
0.7499999999999383
 40
0.7499999999999383
 40
0.7578124999999402
 40
0.7578124999999402
 40
0.7656249999999422
 40
0.7656249999999422
 40
0.7812499999999552
 40
0.796874999999968
 40
0.796874999999968
 40
0.8046874999999745
 40
0.8046874999999745
 40
0.8124999999999808
 40
0.8124999999999808
 40
0.8437499999999985
 40
0.8437499999999985
 40
0.8515624999999976
 40
0.8515624999999976
 40
0.8593749999999968
 40
0.8593749999999968
 40
0.8749999999999946
 40
0.8749999999999946
 40
0.9062499999999904
 40
0.9062499999999904
 40
0.9140624999999914
 40
0.9140624999999914
 40
0.9218749999999927
 40
0.9218749999999927
 40
0.9374999999999953
 40
0.953124999999998
 40
0.953124999999998
 40
0.9609374999999982
 40
0.9609374999999982
 40
0.9687499999999984
 40
0.9687499999999984
 40
1.0
 40
1.0
 40
1.0
 40
1.0
 10
439.9691615337857
 20
284.6341862655649
 30
0.0
 10
439.9708099895152
 20
284.7286262310586
 30
0.0
 10
439.9815769482284
 20
284.821600134949
 30
0.0
 10
440.0110426353656
 20
284.9589004616112
 30
0.0
 10
440.0230992541178
 20
285.0043043762794
 30
0.0
 10
440.0518107994536
 20
285.0943587984139
 30
0.0
 10
440.0685653221018
 20
285.1391942187293
 30
0.0
 10
440.1248383363161
 20
285.2697775148446
 30
0.0
 10
440.1704693599434
 20
285.3523947515204
 30
0.0
 10
440.2510816099082
 20
285.4696089066744
 30
0.0
 10
440.2799935618975
 20
285.5075540965582
 30
0.0
 10
440.3420763796147
 20
285.5810831630773
 30
0.0
 10
440.3747562515177
 20
285.6160798850961
 30
0.0
 10
440.4773633563175
 20
285.7156869037703
 30
0.0
 10
440.5519012744972
 20
285.775067867663
 30
0.0
 10
440.6529198197102
 20
285.840257635806
 30
0.0
 10
440.6735409371584
 20
285.8528520789599
 30
0.0
 10
440.7155035539485
 20
285.8770533059445
 30
0.0
 10
440.7367060341203
 20
285.8885813816275
 30
0.0
 10
440.8009636592367
 20
285.9214809680778
 30
0.0
 10
440.8883711389193
 20
285.9608628502316
 30
0.0
 10
440.9791784326592
 20
285.9914212827879
 30
0.0
 10
441.0485738419778
 20
286.0109879812295
 30
0.0
 10
441.0719210273962
 20
286.0169505180115
 30
0.0
 10
441.1190536226706
 20
286.0277362234774
 30
0.0
 10
441.1429081591781
 20
286.0325706660588
 30
0.0
 10
441.2623334224327
 20
286.0536594030615
 30
0.0
 10
441.3581011819679
 20
286.0607816867856
 30
0.0
 10
441.5020834835559
 20
286.0572904612799
 30
0.0
 10
441.5501331119078
 20
286.0537466198529
 30
0.0
 10
441.6222933451033
 20
286.0447546610181
 30
0.0
 10
441.646387104408
 20
286.0411350845597
 30
0.0
 10
441.6940574985189
 20
286.0327470007689
 30
0.0
 10
441.7177010768315
 20
286.0279718735317
 30
0.0
 10
441.8349775829221
 20
286.0012426474033
 30
0.0
 10
441.9258141217587
 20
285.9708109135249
 30
0.0
 10
442.0356106565255
 20
285.9214342324502
 30
0.0
 10
442.0573807680189
 20
285.9109868434473
 30
0.0
 10
442.1005349483008
 20
285.888925788239
 30
0.0
 10
442.1217937728187
 20
285.8773742799013
 30
0.0
 10
442.1843732338174
 20
285.8413294586132
 30
0.0
 10
442.2648534792793
 20
285.7894538263465
 30
0.0
 10
442.3395587492346
 20
285.7301493926864
 30
0.0
 10
442.393412280314
 20
285.6828801053377
 30
0.0
 10
442.4110002425418
 20
285.6666576917855
 30
0.0
 10
442.4454401491733
 20
285.6332698881876
 30
0.0
 10
442.4623323731884
 20
285.6160606953618
 30
0.0
 10
442.5444146998443
 20
285.528154891307
 30
0.0
 10
442.6019775431217
 20
285.4526123314872
 30
0.0
 10
442.6767158611879
 20
285.3318890011869
 30
0.0
 10
442.6996800661957
 20
285.2904037039961
 30
0.0
 10
442.7311464736821
 20
285.2262803635737
 30
0.0
 10
442.7411570826118
 20
285.2045391658085
 30
0.0
 10
442.759981722881
 20
285.1608536902826
 30
0.0
 10
442.768817283858
 20
285.1388715956807
 30
0.0
 10
442.8101718728846
 20
285.0282817568494
 30
0.0
 10
442.8342987244203
 20
284.9376557569342
 30
0.0
 10
442.8534224072803
 20
284.8217515699218
 30
0.0
 10
442.8566905954763
 20
284.798438420527
 30
0.0
 10
442.8620983591923
 20
284.7515442963482
 30
0.0
 10
442.8642354313289
 20
284.7279475174119
 30
0.0
 10
442.8688896722975
 20
284.6574963477385
 30
0.0
 10
442.8696875371096
 20
284.6107357894305
 30
0.0
 10
442.8653791485035
 20
284.4710572022705
 30
0.0
 10
442.8536332021261
 20
284.3787379814065
 30
0.0
 10
442.8276092480605
 20
284.264346673813
 30
0.0
 10
442.8218238306441
 20
284.2415010901922
 30
0.0
 10
442.8092266732443
 20
284.1963836612286
 30
0.0
 10
442.802402909814
 20
284.17405284241
 30
0.0
 10
442.7803812783573
 20
284.1077316425026
 30
0.0
 10
442.7468920686497
 20
284.0210903917311
 30
0.0
 10
442.7052352869753
 20
283.9379665516261
 30
0.0
 10
442.6708731322275
 20
283.8769582056553
 30
0.0
 10
442.6588982231606
 20
283.8568448943304
 30
0.0
 10
442.6338853343057
 20
283.8170713277739
 30
0.0
 10
442.6208120940936
 20
283.7973636617791
 30
0.0
 10
442.5533762973656
 20
283.7009038508218
 30
0.0
 10
442.4926318839003
 20
283.6298657423613
 30
0.0
 10
442.3914167449313
 20
283.5323182090867
 30
0.0
 10
442.3559832676028
 20
283.5013147111018
 30
0.0
 10
442.3001873239029
 20
283.457156810793
 30
0.0
 10
442.2810965243706
 20
283.4427941029267
 30
0.0
 10
442.2422519906853
 20
283.4150510806015
 30
0.0
 10
442.2225483738181
 20
283.4017023039463
 30
0.0
 10
442.1226423642037
 20
283.3375316336301
 30
0.0
 10
442.0383166480128
 20
283.2943534538023
 30
0.0
 10
441.9272986643748
 20
283.2507045215656
 30
0.0
 10
441.9048119738043
 20
283.2424957068309
 30
0.0
 10
441.8592589756761
 20
283.2271431438289
 30
0.0
 10
441.8361335817386
 20
283.2199830956035
 30
0.0
 10
441.7662850037331
 20
283.2002663929586
 30
0.0
 10
441.7194002420308
 20
283.189541851325
 30
0.0
 10
441.5778137847821
 20
283.1644255821124
 30
0.0
 10
441.482188922037
 20
283.1570212254153
 30
0.0
 10
441.3610615280622
 20
283.159833281638
 30
0.0
 10
441.3367009822926
 20
283.1610116311312
 30
0.0
 10
441.2883761429105
 20
283.1645673316584
 30
0.0
 10
441.2643542698491
 20
283.1669432920883
 30
0.0
 10
441.1927017908269
 20
283.175830077523
 30
0.0
 10
441.0982648806471
 20
283.1923609014348
 30
0.0
 10
441.0059870139958
 20
283.2180966763453
 30
0.0
 10
440.9375967438756
 20
283.2408943683154
 30
0.0
 10
440.9149138586744
 20
283.2490862140963
 30
0.0
 10
440.8699215930736
 20
283.266620625804
 30
0.0
 10
440.8477576531623
 20
283.2759051180753
 30
0.0
 10
440.7385537439446
 20
283.3248479655975
 30
0.0
 10
440.656313815465
 20
283.3719926145793
 30
0.0
 10
440.5596985115716
 20
283.4406487909161
 30
0.0
 10
440.5406875837252
 20
283.4548708936826
 30
0.0
 10
440.5032961181423
 20
283.4843087171088
 30
0.0
 10
440.4849001627388
 20
283.4995423032694
 30
0.0
 10
440.4312316161072
 20
283.5462511902736
 30
0.0
 10
440.3972777440145
 20
283.5788792100789
 30
0.0
 10
440.3006871567048
 20
283.6810879871757
 30
0.0
 10
440.243271278448
 20
283.7549523090825
 30
0.0
 10
440.1803376022972
 20
283.854613673383
 30
0.0
 10
440.168252460371
 20
283.8748312293708
 30
0.0
 10
440.1451873090543
 20
283.9156260837611
 30
0.0
 10
440.1341874113726
 20
283.9362346747528
 30
0.0
 10
440.10275879522
 20
283.9986855516918
 30
0.0
 10
440.0650361179701
 20
284.083617534691
 30
0.0
 10
440.0355773987128
 20
284.171859153405
 30
0.0
 10
440.0166346177346
 20
284.2393088483136
 30
0.0
 10
440.0108464991741
 20
284.2620038509126
 30
0.0
 10
440.0003430935133
 20
284.3078265204256
 30
0.0
 10
439.995644972983
 20
284.3308884494697
 30
0.0
 10
439.9750282957305
 20
284.4463394073411
 30
0.0
 10
439.9675130780564
 20
284.5397463000715
 30
0.0
 10
439.9691615337857
 20
284.634186265565
 30
0.0
  0
SPLINE
  5
1E7
330
1F
100
AcDbEntity
  8
1
100
AcDbSpline
210
0.0
220
0.0
230
1.0
 70
    12
 71
     2
 72
     6
 73
     3
 74
     0
 42
0.000000001
 43
0.0000000001
 40
0.0
 40
0.0
 40
0.0
 40
1.0
 40
1.0
 40
1.0
 10
433.5350341251412
 20
306.8497141730157
 30
0.0
 41
0.5000046035043628
 10
433.6472164898836
 20
306.8495567475027
 30
0.0
 41
0.4999953964956373
 10
433.7593980940211
 20
306.8493988974426
 30
0.0
 41
0.5000046035043628
  0
SPLINE
  5
1E8
330
1F
100
AcDbEntity
  8
1
100
AcDbSpline
210
0.0
220
0.0
230
1.0
 70
     8
 71
     3
 72
    23
 73
    19
 74
     0
 42
0.000000001
 43
0.0000000001
 40
0.0
 40
0.0
 40
0.0
 40
0.0
 40
0.1250000000000207
 40
0.1250000000000207
 40
0.2500000000000415
 40
0.2500000000000415
 40
0.3750000000000622
 40
0.3750000000000622
 40
0.500000000000083
 40
0.500000000000083
 40
0.6250000000001035
 40
0.6250000000001035
 40
0.6562500000001
 40
0.6562500000001
 40
0.6875000000000968
 40
0.7500000000000793
 40
0.7500000000000793
 40
1.0
 40
1.0
 40
1.0
 40
1.0
 10
428.6997601359143
 20
292.0109799039196
 30
0.0
 10
428.5039984593703
 20
292.0945794530015
 30
0.0
 10
428.3049136856702
 20
292.1821672489804
 30
0.0
 10
427.9011268069504
 20
292.3640845349517
 30
0.0
 10
427.6964240834911
 20
292.4584147671707
 30
0.0
 10
427.2822501052305
 20
292.6527982301945
 30
0.0
 10
427.0727641303591
 20
292.7528691274327
 30
0.0
 10
426.6495716634674
 20
292.9580762160106
 30
0.0
 10
426.4358638078467
 20
293.0632140438884
 30
0.0
 10
426.0046784776855
 20
293.2780138439141
 30
0.0
 10
425.7872001073864
 20
293.3876768911157
 30
0.0
 10
425.5132220274321
 20
293.5273121805443
 30
0.0
 10
425.4582924666142
 20
293.5553812630323
 30
0.0
 10
425.3483693032647
 20
293.6116955330912
 30
0.0
 10
425.1834283606414
 20
293.6964104617023
 30
0.0
 10
425.0183242538362
 20
293.7818324368315
 30
0.0
 10
424.4676362260973
 20
294.0680500461098
 30
0.0
 10
424.0260019876211
 20
294.301720682245
 30
0.0
 10
423.5834923442237
 20
294.5391847489772
 30
0.0
  0
SPLINE
  5
1E9
330
1F
100
AcDbEntity
  8
1
100
AcDbSpline
210
0.0
220
0.0
230
1.0
 70
     8
 71
     3
 72
    34
 73
    30
 74
     0
 42
0.000000001
 43
0.0000000001
 40
0.0
 40
0.0
 40
0.0
 40
0.0
 40
0.0452058349412121
 40
0.0452058349412121
 40
0.1186515399457342
 40
0.1186515399457342
 40
0.192097244950256
 40
0.192097244950256
 40
0.2655429499547781
 40
0.2655429499547781
 40
0.3389886549592999
 40
0.3389886549592999
 40
0.4124343599638218
 40
0.4124343599638218
 40
0.4858800649683442
 40
0.4858800649683442
 40
0.5593257699728662
 40
0.5593257699728662
 40
0.6327714749773885
 40
0.6327714749773885
 40
0.7062171799819107
 40
0.7062171799819107
 40
0.7796628849864331
 40
0.7796628849864331
 40
0.8531085899909552
 40
0.8531085899909552
 40
0.9265542949954779
 40
0.9265542949954779
 40
1.0
 40
1.0
 40
1.0
 40
1.0
 10
355.3834606161268
 20
274.5159321704448
 30
0.0
 10
354.6791587153381
 20
274.4279668770243
 30
0.0
 10
353.9746254683328
 20
274.3423951522921
 30
0.0
 10
352.1247577871624
 20
274.1240072180334
 30
0.0
 10
350.9790056728547
 20
273.9950173394191
 30
0.0
 10
348.6869028012204
 20
273.746595125768
 30
0.0
 10
347.5405526691573
 20
273.6271661984852
 30
0.0
 10
345.2478965316771
 20
273.3959034538171
 30
0.0
 10
344.1015908162571
 20
273.2840731710122
 30
0.0
 10
341.8095369219269
 20
273.0667999347048
 30
0.0
 10
340.663788873381
 20
272.9613604231907
 30
0.0
 10
338.3732286955422
 20
272.756310308269
 30
0.0
 10
337.2284166580291
 20
272.6567030356506
 30
0.0
 10
334.9399689483815
 20
272.4633068279029
 30
0.0
 10
333.7963333972561
 20
272.3695212347208
 30
0.0
 10
331.51033819614
 20
272.188206158263
 30
0.0
 10
330.3679787166024
 20
272.1006802368818
 30
0.0
 10
328.0844899498498
 20
271.9326679322461
 30
0.0
 10
326.9433608624607
 20
271.8521855691856
 30
0.0
 10
324.6621362596253
 20
271.6992766611771
 30
0.0
 10
323.5220409215429
 20
271.6268547970725
 30
0.0
 10
321.2425303991371
 20
271.4911862188032
 30
0.0
 10
320.1031152966896
 20
271.4279449351932
 30
0.0
 10
317.8244508413958
 20
271.3117084197674
 30
0.0
 10
316.685201394941
 20
271.2587192571696
 30
0.0
 10
314.4061927272411
 20
271.1638362758999
 30
0.0
 10
313.2664331695858
 20
271.1219487681219
 30
0.0
 10
310.9855738475194
 20
271.0497091967429
 30
0.0
 10
309.8444734753162
 20
271.0193629407671
 30
0.0
 10
308.7022173831763
 20
270.9947073329122
 30
0.0
  0
SPLINE
  5
1EA
330
1F
100
AcDbEntity
  8
1
100
AcDbSpline
210
0.0
220
0.0
230
1.0
 70
     8
 71
     3
 72
    26
 73
    22
 74
     0
 42
0.000000001
 43
0.0000000001
 40
0.0
 40
0.0
 40
0.0
 40
0.0
 40
0.125
 40
0.125
 40
0.25
 40
0.25
 40
0.375
 40
0.375
 40
0.5
 40
0.5
 40
0.5625000000000004
 40
0.5625000000000004
 40
0.6250000000000007
 40
0.6250000000000007
 40
0.7500000000000007
 40
0.7500000000000007
 40
0.8750000000000007
 40
0.8750000000000007
 40
0.9375000000000003
 40
0.9375000000000003
 40
1.0
 40
1.0
 40
1.0
 40
1.0
 10
308.7022173831763
 20
270.9947073329122
 30
0.0
 10
309.9824599786281
 20
271.1235698343721
 30
0.0
 10
311.2607941718667
 20
271.2662334932465
 30
0.0
 10
313.8159674227043
 20
271.5747127170877
 30
0.0
 10
315.0928042226848
 20
271.7405323734604
 30
0.0
 10
317.6469146675417
 20
272.0901336162579
 30
0.0
 10
318.9241864287391
 20
272.2739206208984
 30
0.0
 10
321.4807756287864
 20
272.6533874547131
 30
0.0
 10
322.7600915629842
 20
272.8490762031271
 30
0.0
 10
324.6816027621642
 20
273.1461590219259
 30
0.0
 10
325.3224965709053
 20
273.2457639478444
 30
0.0
 10
326.6049703788855
 20
273.4450693130663
 30
0.0
 10
327.2465858659928
 20
273.5447752225164
 30
0.0
 10
329.1727874939675
 20
273.842392151968
 30
0.0
 10
330.4587365265524
 20
274.0388272276948
 30
0.0
 10
333.0352938101762
 20
274.4180348658177
 30
0.0
 10
334.3259137056376
 20
274.6007176151673
 30
0.0
 10
336.2658322868147
 20
274.8573186660334
 30
0.0
 10
336.9131324459318
 20
274.9399586759437
 30
0.0
 10
338.2090608193503
 20
275.0986137821833
 30
0.0
 10
338.8576895193119
 20
275.1746230911648
 30
0.0
 10
339.5069511892994
 20
275.2471182334847
 30
0.0
  0
SPLINE
  5
1EB
330
1F
100
AcDbEntity
  8
1
100
AcDbSpline
210
0.0
220
0.0
230
1.0
 70
     8
 71
     3
 72
    34
 73
    30
 74
     0
 42
0.000000001
 43
0.0000000001
 40
0.0
 40
0.0
 40
0.0
 40
0.0
 40
0.1249999999999997
 40
0.1249999999999997
 40
0.2499999999999993
 40
0.2499999999999993
 40
0.3749999999999989
 40
0.3749999999999989
 40
0.4374999999999992
 40
0.4374999999999992
 40
0.4531249999999992
 40
0.4531249999999992
 40
0.4687499999999993
 40
0.4687499999999993
 40
0.4999999999999994
 40
0.4999999999999994
 40
0.6249999999999999
 40
0.6249999999999999
 40
0.7500000000000001
 40
0.7500000000000001
 40
0.8125000000000003
 40
0.8125000000000003
 40
0.8437500000000003
 40
0.8437500000000003
 40
0.8750000000000003
 40
0.8750000000000003
 40
0.9375
 40
0.9375
 40
1.0
 40
1.0
 40
1.0
 40
1.0
 10
279.4048419453079
 20
280.0038113444213
 30
0.0
 10
279.7039524280706
 20
280.3469207184526
 30
0.0
 10
280.0147744576551
 20
280.674652579055
 30
0.0
 10
280.6596922167085
 20
281.3014619069917
 30
0.0
 10
280.9937898896063
 20
281.6005252944282
 30
0.0
 10
281.6859793071648
 20
282.1706053619919
 30
0.0
 10
282.0440653102151
 20
282.4416219960381
 30
0.0
 10
282.6004122733225
 20
282.8266401499436
 30
0.0
 10
282.7890719067905
 20
282.9513853183645
 30
0.0
 10
283.0291055711551
 20
283.1026939560745
 30
0.0
 10
283.0773229649098
 20
283.1327243082533
 30
0.0
 10
283.1741848253257
 20
283.192318040223
 30
0.0
 10
283.2228541984682
 20
283.2218961291865
 30
0.0
 10
283.3692174586658
 20
283.3097475597155
 30
0.0
 10
283.4673247144912
 20
283.3671756843758
 30
0.0
 10
283.9605467445377
 20
283.6486017586303
 30
0.0
 10
284.3636890073998
 20
283.8555255968117
 30
0.0
 10
285.1882469067756
 20
284.2314304524652
 30
0.0
 10
285.6096518193068
 20
284.4004333952136
 30
0.0
 10
286.2569972643345
 20
284.6228083373999
 30
0.0
 10
286.4753268065278
 20
284.6917269832957
 30
0.0
 10
286.8069268435509
 20
284.7867552492742
 30
0.0
 10
286.9181452035938
 20
284.8170381031231
 30
0.0
 10
287.142009164463
 20
284.8747053866375
 30
0.0
 10
287.254253077463
 20
284.9019858390096
 30
0.0
 10
287.5918643357516
 20
284.9790501569879
 30
0.0
 10
287.8181431974901
 20
285.0240721993166
 30
0.0
 10
288.2732376432906
 20
285.1007358528604
 30
0.0
 10
288.5020529629099
 20
285.1323789285741
 30
0.0
 10
288.7322209984139
 20
285.1568817003532
 30
0.0
  0
SPLINE
  5
1EC
330
1F
100
AcDbEntity
  8
1
100
AcDbSpline
210
0.0
220
0.0
230
1.0
 70
     8
 71
     3
 72
    26
 73
    22
 74
     0
 42
0.000000001
 43
0.0000000001
 40
0.0
 40
0.0
 40
0.0
 40
0.0
 40
0.1250000000000134
 40
0.1250000000000134
 40
0.2500000000000267
 40
0.2500000000000267
 40
0.3125000000000138
 40
0.3125000000000138
 40
0.3750000000000011
 40
0.3750000000000011
 40
0.4999999999999757
 40
0.4999999999999757
 40
0.6249999999999504
 40
0.6249999999999504
 40
0.6874999999999586
 40
0.6874999999999586
 40
0.7499999999999668
 40
0.7499999999999668
 40
0.8749999999999834
 40
0.8749999999999834
 40
1.0
 40
1.0
 40
1.0
 40
1.0
 10
437.1688960925734
 20
293.8545640351751
 30
0.0
 10
437.0991128720073
 20
293.8087336026645
 30
0.0
 10
437.0279360126365
 20
293.7667622925072
 30
0.0
 10
436.8826082207403
 20
293.690047380923
 30
0.0
 10
436.8084610820089
 20
293.6553076983743
 30
0.0
 10
436.6948241089003
 20
293.608551904768
 30
0.0
 10
436.6565415356777
 20
293.5938616139171
 30
0.0
 10
436.5791228356832
 20
293.5662912589027
 30
0.0
 10
436.5399898967316
 20
293.5534183660621
 30
0.0
 10
436.4222637735497
 20
293.5178569940264
 30
0.0
 10
436.3430090802241
 20
293.4980876476426
 30
0.0
 10
436.1826009555356
 20
293.4664731304154
 30
0.0
 10
436.1014429488532
 20
293.4546294933864
 30
0.0
 10
435.9779832959148
 20
293.4431306960205
 30
0.0
 10
435.9365240552131
 20
293.4403443216604
 30
0.0
 10
435.8530738234452
 20
293.4369513165261
 30
0.0
 10
435.8115697252591
 20
293.4363635997075
 30
0.0
 10
435.6876840466816
 20
293.4378190590291
 30
0.0
 10
435.6059332990416
 20
293.4430709871102
 30
0.0
 10
435.4437202025831
 20
293.4617398058061
 30
0.0
 10
435.3632514130278
 20
293.4751537277165
 30
0.0
 10
435.2832003795383
 20
293.4926222698558
 30
0.0
  0
SPLINE
  5
1ED
330
1F
100
AcDbEntity
  8
1
100
AcDbSpline
210
0.0
220
0.0
230
1.0
 70
     8
 71
     3
 72
    27
 73
    23
 74
     0
 42
0.000000001
 43
0.0000000001
 40
0.0
 40
0.0
 40
0.0
 40
0.0
 40
0.1250000000000125
 40
0.2500000000000252
 40
0.3750000000000377
 40
0.4062500000000381
 40
0.4062500000000381
 40
0.4375000000000384
 40
0.4375000000000384
 40
0.5000000000000389
 40
0.5000000000000389
 40
0.62500000000004
 40
0.62500000000004
 40
0.6875000000000405
 40
0.6875000000000405
 40
0.7187500000000409
 40
0.7187500000000409
 40
0.7500000000000411
 40
0.7500000000000411
 40
0.8750000000000206
 40
0.8750000000000206
 40
1.0
 40
1.0
 40
1.0
 40
1.0
 10
435.2823956729576
 20
293.2613526669551
 30
0.0
 10
434.9907947639557
 20
293.2511091126908
 30
0.0
 10
434.409252647601
 20
293.2506959657397
 30
0.0
 10
433.5418320264614
 20
293.3092146503706
 30
0.0
 10
432.8949254900597
 20
293.3972881828818
 30
0.0
 10
432.5368183722564
 20
293.4617190153098
 30
0.0
 10
432.393679106556
 20
293.4887398686238
 30
0.0
 10
432.3221939064673
 20
293.5028686178076
 30
0.0
 10
432.1083894949307
 20
293.5470262595404
 30
0.0
 10
431.9665690587747
 20
293.5788543014494
 30
0.0
 10
431.5432421237206
 20
293.6814545091556
 30
0.0
 10
431.2638674014837
 20
293.7593346286015
 30
0.0
 10
430.8490649785013
 20
293.8903135957349
 30
0.0
 10
430.7115080974369
 20
293.9363350945003
 30
0.0
 10
430.5062439174462
 20
294.0089207933568
 30
0.0
 10
430.4379686580648
 20
294.0337207826594
 30
0.0
 10
430.3019971714978
 20
294.0844254043669
 30
0.0
 10
430.2342904826351
 20
294.1103330125482
 30
0.0
 10
429.8971467416676
 20
294.2426329057255
 30
0.0
 10
429.6318736590612
 20
294.3573016438544
 30
0.0
 10
429.1101518647439
 20
294.6040710580226
 30
0.0
 10
428.8537031273174
 20
294.7361722506497
 30
0.0
 10
428.6017023233113
 20
294.8769885910389
 30
0.0
  0
SPLINE
  5
1EE
330
1F
100
AcDbEntity
  8
1
100
AcDbSpline
210
0.0
220
0.0
230
1.0
 70
     8
 71
     3
 72
    27
 73
    23
 74
     0
 42
0.000000001
 43
0.0000000001
 40
0.0
 40
0.0
 40
0.0
 40
0.0
 40
0.1249999999999886
 40
0.1249999999999886
 40
0.2499999999999772
 40
0.2499999999999772
 40
0.3124999999999715
 40
0.3124999999999715
 40
0.3749999999999658
 40
0.3749999999999658
 40
0.4999999999999658
 40
0.4999999999999658
 40
0.5312499999999656
 40
0.5312499999999656
 40
0.5624999999999656
 40
0.5624999999999656
 40
0.6249999999999654
 40
0.6249999999999654
 40
0.7499999999999769
 40
0.8749999999999882
 40
0.8749999999999882
 40
1.0
 40
1.0
 40
1.0
 40
1.0
 10
428.7238020307195
 20
291.3082895466948
 30
0.0
 10
428.9735350724901
 20
291.1547529634698
 30
0.0
 10
429.2283062867729
 20
291.0108022542047
 30
0.0
 10
429.7478266469998
 20
290.7420365253211
 30
0.0
 10
430.0125754917043
 20
290.6172207738568
 30
0.0
 10
430.4172132527225
 20
290.4445096249613
 30
0.0
 10
430.5534372492557
 20
290.3893304002808
 30
0.0
 10
430.8272908570335
 20
290.2842748956313
 30
0.0
 10
430.9650408406688
 20
290.2343432564314
 30
0.0
 10
431.3807447016563
 20
290.0923004189051
 30
0.0
 10
431.6611491583541
 20
290.0079311751805
 30
0.0
 10
432.0157377788031
 20
289.915406061881
 30
0.0
 10
432.0868599163894
 20
289.8975486545478
 30
0.0
 10
432.2295140108834
 20
289.863133015714
 30
0.0
 10
432.3010817833451
 20
289.8465669192806
 30
0.0
 10
432.5161511929709
 20
289.7988804609699
 30
0.0
 10
432.6597805095244
 20
289.7698209153833
 30
0.0
 10
433.0914076730119
 20
289.6907331450861
 30
0.0
 10
433.6688796674108
 20
289.6068357838683
 30
0.0
 10
434.2502366286931
 20
289.5655004103778
 30
0.0
 10
434.8335434100736
 20
289.5455361121948
 30
0.0
 10
435.1261716292718
 20
289.546238616619
 30
0.0
 10
435.4197958893037
 20
289.5578580861024
 30
0.0
  0
SPLINE
  5
1EF
330
1F
100
AcDbEntity
  8
1
100
AcDbSpline
210
0.0
220
0.0
230
1.0
 70
     8
 71
     3
 72
     8
 73
     4
 74
     0
 42
0.000000001
 43
0.0000000001
 40
0.0
 40
0.0
 40
0.0
 40
0.0
 40
1.0
 40
1.0
 40
1.0
 40
1.0
 10
435.2823956729576
 20
293.2613526669551
 30
0.0
 10
435.285953295672
 20
293.2614776415357
 30
0.0
 10
435.2895119014148
 20
293.2616022162768
 30
0.0
 10
435.2930714918051
 20
293.2617263905198
 30
0.0
  0
SPLINE
  5
1F0
330
1F
100
AcDbEntity
  8
1
100
AcDbSpline
210
0.0
220
0.0
230
1.0
 70
     8
 71
     3
 72
    80
 73
    76
 74
     0
 42
0.000000001
 43
0.0000000001
 40
0.0
 40
0.0
 40
0.0
 40
0.0
 40
0.062500000000017
 40
0.062500000000017
 40
0.1250000000000339
 40
0.1250000000000339
 40
0.1875000000000509
 40
0.1875000000000509
 40
0.203125000000056
 40
0.203125000000056
 40
0.218750000000061
 40
0.218750000000061
 40
0.2500000000000677
 40
0.2500000000000677
 40
0.3125000000000845
 40
0.3125000000000845
 40
0.3437500000000914
 40
0.3437500000000914
 40
0.3750000000000983
 40
0.3750000000000983
 40
0.4062500000001052
 40
0.4062500000001052
 40
0.4375000000001121
 40
0.4375000000001121
 40
0.468750000000119
 40
0.468750000000119
 40
0.4843750000001223
 40
0.4843750000001223
 40
0.5000000000001258
 40
0.5000000000001258
 40
0.5078125000001267
 40
0.5078125000001267
 40
0.5117187500001272
 40
0.5117187500001272
 40
0.5156250000001278
 40
0.5312500000001299
 40
0.5312500000001299
 40
0.5625000000001334
 40
0.5625000000001334
 40
0.5703125000001345
 40
0.5703125000001345
 40
0.5781250000001355
 40
0.5781250000001355
 40
0.5937500000001376
 40
0.5937500000001376
 40
0.6093750000001396
 40
0.6093750000001396
 40
0.6171875000001405
 40
0.62109375000014
 40
0.62109375000014
 40
0.6250000000001394
 40
0.6250000000001394
 40
0.6562500000001274
 40
0.6562500000001274
 40
0.6875000000001153
 40
0.6875000000001153
 40
0.7031250000001111
 40
0.7031250000001111
 40
0.7187500000001067
 40
0.7187500000001067
 40
0.7500000000000944
 40
0.7500000000000944
 40
0.7812500000000822
 40
0.7812500000000822
 40
0.8125000000000699
 40
0.8125000000000699
 40
0.8437500000000575
 40
0.8437500000000575
 40
0.8750000000000454
 40
0.8750000000000454
 40
0.9062500000000332
 40
0.9062500000000332
 40
0.9375000000000207
 40
0.9375000000000207
 40
1.0
 40
1.0
 40
1.0
 40
1.0
 10
428.6099449849081
 20
294.6360741843837
 30
0.0
 10
428.8200207532292
 20
294.4677247189799
 30
0.0
 10
429.0302715038516
 20
294.3064914679587
 30
0.0
 10
429.4504214412182
 20
293.9972036454624
 30
0.0
 10
429.6603255626057
 20
293.8491520607393
 30
0.0
 10
430.0788226588127
 20
293.5653314953421
 30
0.0
 10
430.2874249887698
 20
293.4295657976833
 30
0.0
 10
430.5464670074085
 20
293.2670127443596
 30
0.0
 10
430.5981882640801
 20
293.2348598391036
 30
0.0
 10
430.7014265262703
 20
293.171256023658
 30
0.0
 10
430.752957887021
 20
293.1397965174692
 30
0.0
 10
430.9070466891251
 20
293.0465395018877
 30
0.0
 10
431.0091213190486
 20
292.9858508993248
 30
0.0
 10
431.3128996136791
 20
292.8080251011123
 30
0.0
 10
431.5124183713664
 20
292.6951125938569
 30
0.0
 10
431.8043871111505
 20
292.5332844263872
 30
0.0
 10
431.9004760096772
 20
292.4805968170074
 30
0.0
 10
432.0894207316986
 20
292.3775417798878
 30
0.0
 10
432.1823731343396
 20
292.3271253181791
 30
0.0
 10
432.3631025427314
 20
292.2288354337704
 30
0.0
 10
432.4509632486454
 20
292.1809209181327
 30
0.0
 10
432.6199921389615
 20
292.0872924088646
 30
0.0
 10
432.7011750106289
 20
292.0415791093422
 30
0.0
 10
432.8543260505915
 20
291.9520324998978
 30
0.0
 10
432.9263218733916
 20
291.9081997367464
 30
0.0
 10
433.0244192638178
 20
291.8435590389245
 30
0.0
 10
433.0554552288996
 20
291.8221961671582
 30
0.0
 10
433.1134695777361
 20
291.7797800183315
 30
0.0
 10
433.1404504253092
 20
291.7587266527373
 30
0.0
 10
433.1771641988473
 20
291.7273320317454
 30
0.0
 10
433.1887738916221
 20
291.7168980398242
 30
0.0
 10
433.2051352666764
 20
291.701287524131
 30
0.0
 10
433.2104134807236
 20
291.6960900743272
 30
0.0
 10
433.2205494431366
 20
291.6857594260712
 30
0.0
 10
433.2448715249958
 20
291.6600620345297
 30
0.0
 10
433.263934754244
 20
291.6350093956224
 30
0.0
 10
433.2981648402874
 20
291.5761624618863
 30
0.0
 10
433.305611453505
 20
291.538610312421
 30
0.0
 10
433.2907624026902
 20
291.494220944227
 30
0.0
 10
433.2865643931117
 20
291.4854531950623
 30
0.0
 10
433.2758336237191
 20
291.4684474628083
 30
0.0
 10
433.2692971201782
 20
291.4601794459109
 30
0.0
 10
433.2462750334932
 20
291.4360774341873
 30
0.0
 10
433.2263727239468
 20
291.4209449862386
 30
0.0
 10
433.1781181425745
 20
291.3925508709866
 30
0.0
 10
433.1497680630422
 20
291.3792893371225
 30
0.0
 10
433.1014820758558
 20
291.3608106391126
 30
0.0
 10
433.075899790045
 20
291.3519248368186
 30
0.0
 10
433.0482715464368
 20
291.3435724254977
 30
0.0
 10
433.0294107702211
 20
291.3381230880063
 30
0.0
 10
433.0197468288408
 20
291.3354546808898
 30
0.0
 10
432.9311990557896
 20
291.3120689504653
 30
0.0
 10
432.8413439873592
 20
291.2956770030378
 30
0.0
 10
432.6465559885797
 20
291.2705857609878
 30
0.0
 10
432.5416253231666
 20
291.2618834339692
 30
0.0
 10
432.3765089990612
 20
291.2541163347459
 30
0.0
 10
432.3201247271504
 20
291.2524111261454
 30
0.0
 10
432.2053512938743
 20
291.2507234093591
 30
0.0
 10
432.1471930351271
 20
291.2507425664971
 30
0.0
 10
431.9708726391721
 20
291.2532606071096
 30
0.0
 10
431.8508878016148
 20
291.2582130293936
 30
0.0
 10
431.6077834277601
 20
291.274215397273
 30
0.0
 10
431.4846523522171
 20
291.2852688163387
 30
0.0
 10
431.2363545437979
 20
291.3132217833586
 30
0.0
 10
431.1111817486488
 20
291.3301230428684
 30
0.0
 10
430.8595475709505
 20
291.3696332989821
 30
0.0
 10
430.7330827833212
 20
291.3922431853903
 30
0.0
 10
430.4793926332143
 20
291.4431092816915
 30
0.0
 10
430.352165252431
 20
291.471365960922
 30
0.0
 10
430.0973360438663
 20
291.5335221237882
 30
0.0
 10
429.9697329648918
 20
291.5674218412706
 30
0.0
 10
429.7144435753836
 20
291.6409085172554
 30
0.0
 10
429.5867212339953
 20
291.6805073307913
 30
0.0
 10
429.2039883776379
 20
291.8078929772806
 30
0.0
 10
428.9506565676465
 20
291.9038351913824
 30
0.0
 10
428.6997601359145
 20
292.0109799039193
 30
0.0
  0
SPLINE
  5
1F1
330
1F
100
AcDbEntity
  8
1
100
AcDbSpline
210
0.0
220
0.0
230
1.0
 70
     8
 71
     3
 72
    12
 73
     8
 74
     0
 42
0.000000001
 43
0.0000000001
 40
0.0
 40
0.0
 40
0.0
 40
0.0
 40
0.5
 40
0.5
 40
0.75
 40
0.75
 40
1.0
 40
1.0
 40
1.0
 40
1.0
 10
435.2832003795384
 20
293.4926222698558
 30
0.0
 10
435.1517692696017
 20
293.5213028475106
 30
0.0
 10
435.024251960127
 20
293.560159431299
 30
0.0
 10
434.8376567365138
 20
293.6331958645796
 30
0.0
 10
434.7762472300011
 20
293.6600177672712
 30
0.0
 10
434.6548647679823
 20
293.7187469586573
 30
0.0
 10
434.5948937627198
 20
293.7506524557317
 30
0.0
 10
434.5355634873834
 20
293.7852534729192
 30
0.0
  0
SPLINE
  5
1F2
330
1F
100
AcDbEntity
  8
1
100
AcDbSpline
210
0.0
220
0.0
230
1.0
 70
     8
 71
     3
 72
    10
 73
     6
 74
     0
 42
0.000000001
 43
0.0000000001
 40
0.0
 40
0.0
 40
0.0
 40
0.0
 40
0.5
 40
0.5
 40
1.0
 40
1.0
 40
1.0
 40
1.0
 10
431.6238290942057
 20
301.9943339695845
 30
0.0
 10
431.5372516138258
 20
302.7984460508912
 30
0.0
 10
431.4598284607088
 20
303.6033562438739
 30
0.0
 10
431.318520518067
 20
305.2143569597256
 30
0.0
 10
431.2546588523349
 20
306.0204494986213
 30
0.0
 10
431.1959534461753
 20
306.8269915813069
 30
0.0
  0
SPLINE
  5
1F3
330
1F
100
AcDbEntity
  8
1
100
AcDbSpline
210
0.0
220
0.0
230
1.0
 70
     8
 71
     3
 72
    48
 73
    44
 74
     0
 42
0.000000001
 43
0.0000000001
 40
0.0
 40
0.0
 40
0.0
 40
0.0
 40
0.0284721826134836
 40
0.0284721826134836
 40
0.0569443652269673
 40
0.0569443652269673
 40
0.1138887304539357
 40
0.1138887304539357
 40
0.1708330956809041
 40
0.1708330956809041
 40
0.1993052782943883
 40
0.1993052782943883
 40
0.2135413696011304
 40
0.2135413696011304
 40
0.2277774609078725
 40
0.2277774609078725
 40
0.2847218261348421
 40
0.2847218261348421
 40
0.3416661913618117
 40
0.3416661913618117
 40
0.3986105565887813
 40
0.3986105565887813
 40
0.427082739202266
 40
0.427082739202266
 40
0.4555549218157509
 40
0.4555549218157509
 40
0.5694436522696912
 40
0.5694436522696912
 40
0.6833323827236315
 40
0.6833323827236315
 40
0.7402767479506017
 40
0.7402767479506017
 40
0.7972211131775719
 40
0.7972211131775719
 40
0.854165478404542
 40
0.854165478404542
 40
0.8826376610180274
 40
0.8826376610180274
 40
0.9111098436315128
 40
0.9111098436315128
 40
0.9680542088584836
 40
0.9680542088584836
 40
1.0
 40
1.0
 40
1.0
 40
1.0
 10
431.1959534461756
 20
306.8269915812893
 30
0.0
 10
430.5583382694316
 20
306.8449763886257
 30
0.0
 10
429.9196398826564
 20
306.8595572037158
 30
0.0
 10
428.6399816025241
 20
306.8827033978196
 30
0.0
 10
427.9990218384102
 20
306.8912696843308
 30
0.0
 10
426.0726851168573
 20
306.9091184940837
 30
0.0
 10
424.7838293159888
 20
306.9105813096513
 30
0.0
 10
422.1970613823422
 20
306.898364945799
 30
0.0
 10
420.8991533441384
 20
306.8846991619575
 30
0.0
 10
418.9461369718793
 20
306.8563243979655
 30
0.0
 10
418.2941103787183
 20
306.8455434243066
 30
0.0
 10
417.3146552346925
 20
306.8277235240382
 30
0.0
 10
416.987934550854
 20
306.8215081107221
 30
0.0
 10
416.3340440453863
 20
306.808573718093
 30
0.0
 10
416.0068464695733
 20
306.8018541427841
 30
0.0
 10
414.3701643120559
 20
306.7671089931518
 30
0.0
 10
413.0587903180446
 20
306.7357067464233
 30
0.0
 10
410.4330507244326
 20
306.6674180954052
 30
0.0
 10
409.1186873275164
 20
306.6305291857025
 30
0.0
 10
406.4882577820106
 20
306.5514954769243
 30
0.0
 10
405.1721936073053
 20
306.5093487101236
 30
0.0
 10
403.197904261346
 20
306.4412910740738
 30
0.0
 10
402.5397898947065
 20
306.4177681665697
 30
0.0
 10
401.2235970803655
 20
306.3689451188486
 30
0.0
 10
400.5655098547142
 20
306.3436566475967
 30
0.0
 10
397.2751405864952
 20
306.2127702309151
 30
0.0
 10
394.6429436895792
 20
306.093874310836
 30
0.0
 10
389.3805330961513
 20
305.8254659619585
 30
0.0
 10
386.7502352370459
 20
305.6759394316302
 30
0.0
 10
382.8064030656104
 20
305.4264291507995
 30
0.0
 10
381.4920594648843
 20
305.3390527278415
 30
0.0
 10
378.8639516268856
 20
305.1554092025627
 30
0.0
 10
377.550186229146
 20
305.0591466507693
 30
0.0
 10
374.9233143587182
 20
304.8570760698191
 30
0.0
 10
373.610270127726
 20
304.7512794416209
 30
0.0
 10
371.6418252510653
 20
304.5847135256525
 30
0.0
 10
370.9858466544617
 20
304.5278749099702
 30
0.0
 10
369.6742679289827
 20
304.4113846593953
 30
0.0
 10
369.0186718587206
 20
304.3517211694714
 30
0.0
 10
367.0524381650663
 20
304.1684233591922
 30
0.0
 10
365.742355409714
 20
304.0404771643366
 30
0.0
 10
363.6983098079257
 20
303.8317677235552
 30
0.0
 10
362.9639114166238
 20
303.7549460494895
 30
0.0
 10
362.2296854381285
 20
303.6763511645073
 30
0.0
  0
SPLINE
  5
1F4
330
1F
100
AcDbEntity
  8
1
100
AcDbSpline
210
0.0
220
0.0
230
1.0
 70
    28
 71
     4
 72
    13
 73
     8
 74
     0
 42
0.000000001
 43
0.0000000001
 40
0.0
 40
0.0
 40
0.0
 40
0.0
 40
0.0
 40
0.255480912389328
 40
0.255480912389328
 40
0.255480912389328
 40
1.0
 40
1.0
 40
1.0
 40
1.0
 40
1.0
 10
302.9048419452958
 20
282.3905568697768
 30
0.0
 41
0.9983967632540858
 10
302.9048419452958
 20
281.6993449308113
 30
0.0
 41
0.9993027292586631
 10
302.9048419452957
 20
280.9748778542099
 30
0.0
 41
1.000487404907671
 10
302.9048419452958
 20
280.2349750236546
 30
0.0
 41
1.00156323924462
 10
302.9048419452958
 20
277.3630305493547
 30
0.0
 41
1.00156323924462
 10
302.9048419452958
 20
274.8882441751665
 30
0.0
 41
0.9924267329589879
 10
302.9048419452958
 20
272.6297296291322
 30
0.0
 41
0.9980855264856208
 10
302.9048419452958
 20
270.92792186978
 30
0.0
 41
1.00068073662958
  0
SPLINE
  5
1F5
330
1F
100
AcDbEntity
  8
1
100
AcDbSpline
210
0.0
220
0.0
230
1.0
 70
     8
 71
     3
 72
    58
 73
    54
 74
     0
 42
0.000000001
 43
0.0000000001
 40
0.0
 40
0.0
 40
0.0
 40
0.0
 40
0.0624999999999997
 40
0.0624999999999997
 40
0.1249999999999994
 40
0.1249999999999994
 40
0.1562499999999992
 40
0.1562499999999992
 40
0.1874999999999991
 40
0.1874999999999991
 40
0.2499999999999986
 40
0.2499999999999986
 40
0.2812499999999984
 40
0.2812499999999984
 40
0.3124999999999982
 40
0.3124999999999982
 40
0.3437499999999979
 40
0.3437499999999979
 40
0.3749999999999976
 40
0.3749999999999976
 40
0.4062499999999973
 40
0.4062499999999973
 40
0.4374999999999972
 40
0.4374999999999972
 40
0.4687499999999968
 40
0.4687499999999968
 40
0.4999999999999967
 40
0.4999999999999967
 40
0.5312499999999964
 40
0.5312499999999964
 40
0.5468749999999963
 40
0.5468749999999963
 40
0.5624999999999961
 40
0.5624999999999961
 40
0.593749999999996
 40
0.593749999999996
 40
0.6249999999999957
 40
0.6249999999999957
 40
0.6874999999999952
 40
0.6874999999999952
 40
0.7499999999999946
 40
0.7499999999999946
 40
0.8124999999999939
 40
0.8124999999999939
 40
0.8281249999999944
 40
0.8281249999999944
 40
0.8437499999999948
 40
0.8437499999999948
 40
0.8749999999999955
 40
0.8749999999999955
 40
0.9374999999999978
 40
0.9374999999999978
 40
1.0
 40
1.0
 40
1.0
 40
1.0
 10
305.4735760097802
 20
281.6379502086642
 30
0.0
 10
307.9212162117352
 20
281.2589940497344
 30
0.0
 10
310.3691111340459
 20
280.8882539246192
 30
0.0
 10
315.2647745522104
 20
280.159566628474
 30
0.0
 10
317.7125386412662
 20
279.8015876607396
 30
0.0
 10
321.3834062386491
 20
279.2709874336833
 30
0.0
 10
322.6068973241502
 20
279.0951803105287
 30
0.0
 10
325.0534913340315
 20
278.7451832468363
 30
0.0
 10
326.2765900770007
 20
278.5709926640322
 30
0.0
 10
329.9439908219543
 20
278.0503500950153
 30
0.0
 10
332.3867483120157
 20
277.7056969555796
 30
0.0
 10
336.046644236323
 20
277.1908971155813
 30
0.0
 10
337.2659036738393
 20
277.0196783268647
 30
0.0
 10
339.7028729375822
 20
276.6780228320113
 30
0.0
 10
340.920582354041
 20
276.5075849784631
 30
0.0
 10
343.3543443513061
 20
276.1677351477067
 30
0.0
 10
344.5703964918376
 20
275.9983222488913
 30
0.0
 10
347.0007808835293
 20
275.6610241344849
 30
0.0
 10
348.2151126751396
 20
275.4931383430268
 30
0.0
 10
350.6420510340106
 20
275.1596772242247
 30
0.0
 10
351.854657141612
 20
274.9941018153941
 30
0.0
 10
354.2782103890953
 20
274.6663356880958
 30
0.0
 10
355.489103089145
 20
274.5040119488042
 30
0.0
 10
357.9105336136925
 20
274.1874202609224
 30
0.0
 10
359.1210817941196
 20
274.0331782317971
 30
0.0
 10
361.5430400199885
 20
273.7362684233393
 30
0.0
 10
362.7544496749948
 20
273.5935917568656
 30
0.0
 10
365.1790389866079
 20
273.321789929226
 30
0.0
 10
366.3922161631406
 20
273.1926512697639
 30
0.0
 10
368.2138037251419
 20
273.0097336819769
 30
0.0
 10
368.8212064119032
 20
272.9505616048346
 30
0.0
 10
370.0364095727576
 20
272.8358590204943
 30
0.0
 10
370.6442321482161
 20
272.7803458843561
 30
0.0
 10
372.4683255206668
 20
272.6189740405293
 30
0.0
 10
373.6852051850547
 20
272.5182313901787
 30
0.0
 10
376.1203806002204
 20
272.3287803469112
 30
0.0
 10
377.338678330721
 20
272.2400823826525
 30
0.0
 10
380.9955752520959
 20
271.9904014612881
 30
0.0
 10
383.4361682716178
 20
271.8458002806919
 30
0.0
 10
388.3227689285846
 20
271.5940494552132
 30
0.0
 10
390.7688053532069
 20
271.4869569309853
 30
0.0
 10
395.6664410014388
 20
271.3046976318346
 30
0.0
 10
398.1180389780711
 20
271.2295118132103
 30
0.0
 10
401.1858094045991
 20
271.1520626233841
 30
0.0
 10
401.7995449339464
 20
271.1374005685896
 30
0.0
 10
403.0271968141134
 20
271.1096586851972
 30
0.0
 10
403.6411242156225
 20
271.0965798569286
 30
0.0
 10
405.4831819821278
 20
271.0595837321745
 30
0.0
 10
406.7115860786551
 20
271.0378992855962
 30
0.0
 10
410.3976355881933
 20
270.9808720621235
 30
0.0
 10
412.8561265078734
 20
270.9534784094019
 30
0.0
 10
417.7738764740006
 20
270.917044067143
 30
0.0
 10
420.2331328417698
 20
270.9079935137005
 30
0.0
 10
422.6919243817964
 20
270.9079935137005
 30
0.0
  0
SPLINE
  5
1F6
330
1F
100
AcDbEntity
  8
1
100
AcDbSpline
210
0.0
220
0.0
230
1.0
 70
     8
 71
     3
 72
    70
 73
    66
 74
     0
 42
0.000000001
 43
0.0000000001
 40
0.0
 40
0.0
 40
0.0
 40
0.0
 40
0.0625
 40
0.0625
 40
0.1250000000000001
 40
0.1250000000000001
 40
0.15625
 40
0.15625
 40
0.1874999999999999
 40
0.1874999999999999
 40
0.2187499999999998
 40
0.2187499999999998
 40
0.2499999999999998
 40
0.2499999999999998
 40
0.2812499999999997
 40
0.2812499999999997
 40
0.3124999999999998
 40
0.3124999999999998
 40
0.3437499999999999
 40
0.3437499999999999
 40
0.3750000000000001
 40
0.3750000000000001
 40
0.4062500000000001
 40
0.4062500000000001
 40
0.4218750000000002
 40
0.4218750000000002
 40
0.4375000000000002
 40
0.4375000000000002
 40
0.4687500000000003
 40
0.4687500000000003
 40
0.5000000000000004
 40
0.5000000000000004
 40
0.5312500000000005
 40
0.5312500000000005
 40
0.5625000000000005
 40
0.5625000000000005
 40
0.5937500000000005
 40
0.5937500000000005
 40
0.6250000000000006
 40
0.6250000000000006
 40
0.6562500000000006
 40
0.6562500000000006
 40
0.6875000000000006
 40
0.6875000000000006
 40
0.7187500000000006
 40
0.7187500000000006
 40
0.7500000000000006
 40
0.7500000000000006
 40
0.7812500000000006
 40
0.7812500000000006
 40
0.8125000000000005
 40
0.8125000000000005
 40
0.8437500000000005
 40
0.8437500000000005
 40
0.8750000000000007
 40
0.8750000000000007
 40
0.9062500000000007
 40
0.9062500000000007
 40
0.9375000000000007
 40
0.9375000000000007
 40
0.9687500000000007
 40
0.9687500000000007
 40
0.9843750000000003
 40
0.9843750000000003
 40
1.0
 40
1.0
 40
1.0
 40
1.0
 10
302.904841945296
 20
306.9056150686412
 30
0.0
 10
305.4313273720985
 20
306.8992309213883
 30
0.0
 10
307.9560786356696
 20
306.879860402944
 30
0.0
 10
313.0021313289602
 20
306.8112065285423
 30
0.0
 10
315.523428528115
 20
306.7619020774125
 30
0.0
 10
319.3030556832247
 20
306.6624496622577
 30
0.0
 10
320.5625971811508
 20
306.6250489638153
 30
0.0
 10
323.0807516165158
 20
306.5413068466866
 30
0.0
 10
324.339327243062
 20
306.494965882316
 30
0.0
 10
326.8555914706208
 20
306.3929748229492
 30
0.0
 10
328.1132800277229
 20
306.3373234886988
 30
0.0
 10
330.6279239449127
 20
306.2164528198598
 30
0.0
 10
331.8848793411782
 20
306.151232278152
 30
0.0
 10
334.3982488473565
 20
306.0111142695623
 30
0.0
 10
335.6546630940385
 20
305.9362157781549
 30
0.0
 10
338.1671777717208
 20
305.7768169840292
 30
0.0
 10
339.4233235854597
 20
305.6923125414316
 30
0.0
 10
341.9351645693414
 20
305.5140161487029
 30
0.0
 10
343.1908950477585
 20
305.4202221952953
 30
0.0
 10
345.7022611820221
 20
305.2238575774192
 30
0.0
 10
346.9578972645261
 20
305.1212873830353
 30
0.0
 10
349.469376432054
 20
304.9081020381236
 30
0.0
 10
350.7252199943935
 20
304.7974879687733
 30
0.0
 10
352.6093686159348
 20
304.6262273658847
 30
0.0
 10
353.2374831301343
 20
304.5682549648315
 30
0.0
 10
354.4938718336285
 20
304.4506504010512
 30
0.0
 10
355.1221401971105
 20
304.3910040417443
 30
0.0
 10
357.007095648784
 20
304.2093787486351
 30
0.0
 10
358.2639161290198
 20
304.0847068446956
 30
0.0
 10
360.777273054809
 20
303.8275457753712
 30
0.0
 10
362.0338620475433
 20
303.6950491195449
 30
0.0
 10
364.5467509814178
 20
303.4218152649381
 30
0.0
 10
365.8030518263585
 20
303.281077485403
 30
0.0
 10
368.3153797658017
 20
302.9912692026258
 30
0.0
 10
369.5714030971418
 20
302.8421830046846
 30
0.0
 10
372.0833059667295
 20
302.5359710437403
 30
0.0
 10
373.3392116276581
 20
302.37892945052
 30
0.0
 10
375.8512602756434
 20
302.0581038046424
 30
0.0
 10
377.1072807219298
 20
301.8943353185052
 30
0.0
 10
379.619419873879
 20
301.5609828584184
 30
0.0
 10
380.8755564243396
 20
301.3913964380449
 30
0.0
 10
383.3880981568951
 20
301.0470320611351
 30
0.0
 10
384.6445029340966
 20
300.8722541687361
 30
0.0
 10
387.1576439567275
 20
300.5178843682255
 30
0.0
 10
388.4143799587054
 20
300.3382928631746
 30
0.0
 10
390.9281852431311
 20
299.9744158138955
 30
0.0
 10
392.1852928206432
 20
299.7901253722109
 30
0.0
 10
394.6996071671107
 20
299.4167215412799
 30
0.0
 10
395.9567529543397
 20
299.2276185907885
 30
0.0
 10
398.4709139335318
 20
298.8441493846448
 30
0.0
 10
399.7279292389953
 20
298.6497847186801
 30
0.0
 10
402.2416612881512
 20
298.2549850676043
 30
0.0
 10
403.4983832411644
 20
298.0545757881104
 30
0.0
 10
406.0112652662796
 20
297.6463331975349
 30
0.0
 10
407.2674094136177
 20
297.4384232130352
 30
0.0
 10
409.7789794483813
 20
297.0141915689893
 30
0.0
 10
411.0344542387088
 20
296.7978451252323
 30
0.0
 10
413.5445088191528
 20
296.3574154499477
 30
0.0
 10
414.7991048502313
 20
296.1333076182453
 30
0.0
 10
417.308031597528
 20
295.679993842206
 30
0.0
 10
418.5623586553538
 20
295.4507635416315
 30
0.0
 10
420.4444852240751
 20
295.1071258042404
 30
0.0
 10
421.0719711818653
 20
294.9926381938712
 30
0.0
 10
422.3273615783556
 20
294.7647721987353
 30
0.0
 10
422.9552880014264
 20
294.6513891478643
 30
0.0
 10
423.5834923442236
 20
294.5391847489772
 30
0.0
  0
SPLINE
  5
1F7
330
1F
100
AcDbEntity
  8
1
100
AcDbSpline
210
0.0
220
0.0
230
1.0
 70
     8
 71
     3
 72
    45
 73
    41
 74
     0
 42
0.000000001
 43
0.0000000001
 40
0.0
 40
0.0
 40
0.0
 40
0.0
 40
0.1250000000000089
 40
0.1250000000000089
 40
0.2500000000000178
 40
0.2500000000000178
 40
0.2812500000000178
 40
0.2812500000000178
 40
0.3125000000000177
 40
0.3125000000000177
 40
0.3750000000000172
 40
0.3750000000000172
 40
0.4375000000000166
 40
0.4375000000000166
 40
0.5000000000000161
 40
0.5000000000000161
 40
0.5625000000000156
 40
0.5625000000000156
 40
0.5937500000000151
 40
0.5937500000000151
 40
0.609375000000015
 40
0.609375000000015
 40
0.6250000000000147
 40
0.6250000000000147
 40
0.6875000000000129
 40
0.6875000000000129
 40
0.7500000000000111
 40
0.7500000000000111
 40
0.7656250000000093
 40
0.7656250000000093
 40
0.7812500000000075
 40
0.8125000000000039
 40
0.8125000000000039
 40
0.8750000000000021
 40
0.8750000000000021
 40
0.9062500000000014
 40
0.9062500000000014
 40
0.9375000000000007
 40
0.9375000000000007
 40
1.0
 40
1.0
 40
1.0
 40
1.0
 10
426.0679425357817
 20
296.9760920695419
 30
0.0
 10
426.3835933994941
 20
297.0845427196732
 30
0.0
 10
426.6963660097963
 20
297.2001224789088
 30
0.0
 10
427.3150145628981
 20
297.4483642650164
 30
0.0
 10
427.6209002014637
 20
297.5810022765707
 30
0.0
 10
427.997926106248
 20
297.7600044320547
 30
0.0
 10
428.0731085804456
 20
297.796492291333
 30
0.0
 10
428.2226342300803
 20
297.8707455654422
 30
0.0
 10
428.2969747696648
 20
297.9085083884797
 30
0.0
 10
428.5186606166528
 20
298.0238092397613
 30
0.0
 10
428.6646734362178
 20
298.1033547028368
 30
0.0
 10
428.952707709355
 20
298.2684587473699
 30
0.0
 10
429.0947306838917
 20
298.3540150374473
 30
0.0
 10
429.374228733215
 20
298.5319791715904
 30
0.0
 10
429.5117063208821
 20
298.6243832299231
 30
0.0
 10
429.7813760064804
 20
298.8171541030857
 30
0.0
 10
429.9135725286689
 20
298.9175142526328
 30
0.0
 10
430.1071394453278
 20
299.0751771566975
 30
0.0
 10
430.1708711948108
 20
299.1289224556317
 30
0.0
 10
430.2651564049635
 20
299.2115175971034
 30
0.0
 10
430.2963658237906
 20
299.239379218049
 30
0.0
 10
430.3583221694256
 20
299.2957992187105
 30
0.0
 10
430.3890890208221
 20
299.3243765318681
 30
0.0
 10
430.5414724851437
 20
299.4688921974742
 30
0.0
 10
430.6580775523214
 20
299.5890263209837
 30
0.0
 10
430.8785581320068
 20
299.8401510468087
 30
0.0
 10
430.9824546113285
 20
299.971123767448
 30
0.0
 10
431.1023854783133
 20
300.1433168298136
 30
0.0
 10
431.1258976928783
 20
300.1782237868425
 30
0.0
 10
431.1717310574882
 20
300.2487590687577
 30
0.0
 10
431.238538266271
 20
300.355398019491
 30
0.0
 10
431.2993019551425
 20
300.4646375734024
 30
0.0
 10
431.4120775554496
 20
300.6868826819256
 30
0.0
 10
431.47566347982
 20
300.8400367718162
 30
0.0
 10
431.5498387254534
 20
301.078892101953
 30
0.0
 10
431.5710168106476
 20
301.1600502961385
 30
0.0
 10
431.6053724990331
 20
301.3257554942578
 30
0.0
 10
431.6182354279532
 20
301.4088169250895
 30
0.0
 10
431.6436323164452
 20
301.6586396744991
 30
0.0
 10
431.6430022860226
 20
301.8260380992966
 30
0.0
 10
431.6238290942057
 20
301.9943339695846
 30
0.0
  0
SPLINE
  5
1F8
330
1F
100
AcDbEntity
  8
1
100
AcDbSpline
210
0.0
220
0.0
230
1.0
 70
    12
 71
     3
 72
     9
 73
     5
 74
     0
 42
0.000000001
 43
0.0000000001
 40
0.0
 40
0.0
 40
0.0
 40
0.0
 40
0.4341591772732876
 40
1.0
 40
1.0
 40
1.0
 40
1.0
 10
381.0245565375433
 20
301.3711005067913
 30
0.0
 41
1.001670105003644
 10
388.3635937690942
 20
301.4837207836094
 30
0.0
 41
1.001638898601323
 10
405.3118775354185
 20
301.1156828464431
 30
0.0
 41
1.001006685908244
 10
422.1670808772441
 20
300.7697859165847
 30
0.0
 41
1.001811122613869
 10
431.6238290942058
 20
301.9943339695846
 30
0.0
 41
1.001628030392432
  0
SPLINE
  5
1F9
330
1F
100
AcDbEntity
  8
1
100
AcDbSpline
210
0.0
220
0.0
230
1.0
 70
     8
 71
     3
 72
    28
 73
    24
 74
     0
 42
0.000000001
 43
0.0000000001
 40
0.0
 40
0.0
 40
0.0
 40
0.0
 40
0.0625
 40
0.0625
 40
0.1249999999999999
 40
0.1249999999999999
 40
0.2499999999999998
 40
0.2499999999999998
 40
0.3749999999999996
 40
0.3749999999999996
 40
0.4999999999999994
 40
0.4999999999999994
 40
0.5312499999999993
 40
0.5312499999999993
 40
0.5624999999999992
 40
0.5624999999999992
 40
0.6249999999999995
 40
0.6249999999999995
 40
0.7499999999999996
 40
0.7499999999999996
 40
0.8749999999999996
 40
0.8749999999999996
 40
1.0
 40
1.0
 40
1.0
 40
1.0
 10
288.7322209983847
 20
271.3639207990851
 30
0.0
 10
288.5007759420713
 20
271.3866131889245
 30
0.0
 10
288.2720611481868
 20
271.4060601784701
 30
0.0
 10
287.8196262693332
 20
271.4393003424755
 30
0.0
 10
287.595907388512
 20
271.4530924583162
 30
0.0
 10
286.9317306551008
 20
271.4870770745617
 30
0.0
 10
286.4982195659431
 20
271.4999055971145
 30
0.0
 10
285.6480234122616
 20
271.5108305884771
 30
0.0
 10
285.2313511662909
 20
271.5089106160716
 30
0.0
 10
284.4140705989882
 20
271.4945200110873
 30
0.0
 10
284.0134684681335
 20
271.4820359109059
 30
0.0
 10
283.5226811258585
 20
271.4622852544132
 30
0.0
 10
283.4250233037823
 20
271.4581277434877
 30
0.0
 10
283.2307102262062
 20
271.4494600305235
 30
0.0
 10
283.1340071129584
 20
271.4449474760495
 30
0.0
 10
282.8457489331221
 20
271.4309918470369
 30
0.0
 10
282.6563231885661
 20
271.4211450767641
 30
0.0
 10
282.0962004548383
 20
271.3907784886468
 30
0.0
 10
281.7336399006119
 20
271.3694143937333
 30
0.0
 10
281.0302430909953
 20
271.3289726062711
 30
0.0
 10
280.6894062068323
 20
271.3098691515728
 30
0.0
 10
280.0300616529904
 20
271.2793086833215
 30
0.0
 10
279.7115471040403
 20
271.2678048239721
 30
0.0
 10
279.4048419452955
 20
271.2637516957254
 30
0.0
  0
SPLINE
  5
1FA
330
1F
100
AcDbEntity
  8
1
100
AcDbSpline
210
0.0
220
0.0
230
1.0
 70
     8
 71
     3
 72
    54
 73
    50
 74
     0
 42
0.000000001
 43
0.0000000001
 40
0.0
 40
0.0
 40
0.0
 40
0.0
 40
0.0624999999999992
 40
0.0624999999999992
 40
0.1249999999999984
 40
0.1249999999999984
 40
0.1874999999999977
 40
0.1874999999999977
 40
0.2187499999999977
 40
0.2187499999999977
 40
0.2265624999999979
 40
0.2265624999999979
 40
0.2343749999999981
 40
0.2499999999999985
 40
0.2499999999999985
 40
0.3125000000000009
 40
0.3125000000000009
 40
0.3750000000000033
 40
0.3750000000000033
 40
0.4375000000000057
 40
0.4375000000000057
 40
0.4531250000000062
 40
0.4531250000000062
 40
0.4687500000000066
 40
0.5000000000000072
 40
0.5000000000000072
 40
0.5625000000000079
 40
0.5625000000000079
 40
0.6250000000000086
 40
0.6250000000000086
 40
0.6406250000000085
 40
0.6406250000000085
 40
0.6562500000000084
 40
0.6562500000000084
 40
0.6875000000000077
 40
0.6875000000000077
 40
0.7500000000000059
 40
0.7500000000000059
 40
0.812500000000004
 40
0.812500000000004
 40
0.8437500000000028
 40
0.8437500000000028
 40
0.8593750000000024
 40
0.8593750000000024
 40
0.8750000000000021
 40
0.8750000000000021
 40
0.937500000000001
 40
0.937500000000001
 40
1.0
 40
1.0
 40
1.0
 40
1.0
 10
279.4048419453063
 20
280.0038113444181
 30
0.0
 10
279.225595857844
 20
279.8204095231388
 30
0.0
 10
279.0554638568932
 20
279.6330074232364
 30
0.0
 10
278.7336566075183
 20
279.2505654765116
 30
0.0
 10
278.5819796650089
 20
279.0555257799036
 30
0.0
 10
278.2976965735699
 20
278.6579973309979
 30
0.0
 10
278.1650870166807
 20
278.4555093933867
 30
0.0
 10
277.9812818629484
 20
278.1461917968998
 30
0.0
 10
277.9225355861978
 20
278.0421534458183
 30
0.0
 10
277.8523735520482
 20
277.9109271168438
 30
0.0
 10
277.8385000721271
 20
277.8846133135798
 30
0.0
 10
277.8111586645032
 20
277.8320134840741
 30
0.0
 10
277.7707273966925
 20
277.7531048073924
 30
0.0
 10
277.7320349917815
 20
277.6741733097642
 30
0.0
 10
277.6069130101439
 20
277.4110343765129
 30
0.0
 10
277.5191235207556
 20
277.2004179684324
 30
0.0
 10
277.3681979346165
 20
276.7793477381339
 30
0.0
 10
277.3050606044845
 20
276.5688934988065
 30
0.0
 10
277.2040153780125
 20
276.1484420863724
 30
0.0
 10
277.1661042246283
 20
275.9384447592889
 30
0.0
 10
277.1352209928955
 20
275.6763748657261
 30
0.0
 10
277.1298666115661
 20
275.623908453834
 30
0.0
 10
277.1208829640066
 20
275.5196314698326
 30
0.0
 10
277.1099704548744
 20
275.3640460953457
 30
0.0
 10
277.1066464913316
 20
275.2109285972148
 30
0.0
 10
277.1099075885974
 20
274.9079320143301
 30
0.0
 10
277.1252762812023
 20
274.7102499534021
 30
0.0
 10
277.1817426594233
 20
274.3232984540638
 30
0.0
 10
277.2228421708325
 20
274.1340293983245
 30
0.0
 10
277.2902231220333
 20
273.9026065595132
 30
0.0
 10
277.3045008912727
 20
273.8565803143806
 30
0.0
 10
277.3346626435709
 20
273.7650426745557
 30
0.0
 10
277.3505697166531
 20
273.7194705691518
 30
0.0
 10
277.4005107154441
 20
273.5840471502053
 30
0.0
 10
277.4367392612619
 20
273.4955183282936
 30
0.0
 10
277.5538991681206
 20
273.2349464249931
 30
0.0
 10
277.6432888920376
 20
273.0679102814073
 30
0.0
 10
277.8433220550941
 20
272.7461009219185
 30
0.0
 10
277.9539696102245
 20
272.591330056127
 30
0.0
 10
278.1352510971443
 20
272.3677174996222
 30
0.0
 10
278.198233182672
 20
272.2946054164296
 30
0.0
 10
278.2964856319232
 20
272.1870050357785
 30
0.0
 10
278.3298926793051
 20
272.1514567760238
 30
0.0
 10
278.3977605973591
 20
272.0812413755174
 30
0.0
 10
278.4322344588988
 20
272.0465583430357
 30
0.0
 10
278.6072528015693
 20
271.8752071284385
 30
0.0
 10
278.7557302590837
 20
271.7447194370142
 30
0.0
 10
279.0685607448629
 20
271.4956058414803
 30
0.0
 10
279.2329167424318
 20
271.3769825502255
 30
0.0
 10
279.4048419452956
 20
271.2637516957254
 30
0.0
  0
SPLINE
  5
1FB
330
1F
100
AcDbEntity
  8
1
100
AcDbSpline
210
0.0
220
0.0
230
1.0
 70
     8
 71
     3
 72
    16
 73
    12
 74
     0
 42
0.000000001
 43
0.0000000001
 40
0.0
 40
0.0
 40
0.0
 40
0.0
 40
0.25
 40
0.5
 40
0.5
 40
0.75
 40
0.75
 40
0.875
 40
0.9375
 40
0.9375
 40
1.0
 40
1.0
 40
1.0
 40
1.0
 10
300.3277338787901
 20
270.9119677908901
 30
0.0
 10
300.5351912210739
 20
270.913587250131
 30
0.0
 10
300.9537477274643
 20
270.9174046546558
 30
0.0
 10
301.379573774581
 20
270.9211104046818
 30
0.0
 10
301.8090827020881
 20
270.9242900341287
 30
0.0
 10
302.0256784077413
 20
270.9256167400093
 30
0.0
 10
302.3534139517801
 20
270.9269791771022
 30
0.0
 10
302.5179929326857
 20
270.9275053630332
 30
0.0
 10
302.6836606922935
 20
270.9277728619602
 30
0.0
 10
302.7943507827405
 20
270.9278920793652
 30
0.0
 10
302.8496664549967
 20
270.9279218697799
 30
0.0
 10
302.9048419452954
 20
270.92792186978
 30
0.0
  0
SPLINE
  5
1FC
330
1F
100
AcDbEntity
  8
1
100
AcDbSpline
210
0.0
220
0.0
230
1.0
 70
     8
 71
     3
 72
     8
 73
     4
 74
     0
 42
0.000000001
 43
0.0000000001
 40
0.0
 40
0.0
 40
0.0
 40
0.0
 40
1.0
 40
1.0
 40
1.0
 40
1.0
 10
308.7022173831762
 20
270.9947073329122
 30
0.0
 10
306.7713405909813
 20
270.9638459001976
 30
0.0
 10
304.8389866213615
 20
270.941955298588
 30
0.0
 10
302.9048419452958
 20
270.92792186978
 30
0.0
  0
SPLINE
  5
1FD
330
1F
100
AcDbEntity
  8
1
100
AcDbSpline
210
0.0
220
0.0
230
1.0
 70
     8
 71
     3
 72
   102
 73
    98
 74
     0
 42
0.000000001
 43
0.0000000001
 40
0.0
 40
0.0
 40
0.0
 40
0.0
 40
0.0156249999999991
 40
0.0156249999999991
 40
0.0312499999999983
 40
0.0312499999999983
 40
0.0624999999999964
 40
0.0624999999999964
 40
0.0781249999999955
 40
0.0781249999999955
 40
0.0937499999999946
 40
0.1093749999999937
 40
0.1093749999999937
 40
0.1249999999999928
 40
0.1249999999999928
 40
0.1406249999999919
 40
0.1406249999999919
 40
0.156249999999991
 40
0.156249999999991
 40
0.1874999999999893
 40
0.1874999999999893
 40
0.2031249999999884
 40
0.2031249999999884
 40
0.2187499999999876
 40
0.2343749999999867
 40
0.2343749999999867
 40
0.2499999999999859
 40
0.2499999999999859
 40
0.2812499999999838
 40
0.2812499999999838
 40
0.3124999999999817
 40
0.3124999999999817
 40
0.3281249999999806
 40
0.3281249999999806
 40
0.3437499999999796
 40
0.3593749999999785
 40
0.3593749999999785
 40
0.3749999999999774
 40
0.3749999999999774
 40
0.4062499999999753
 40
0.4062499999999753
 40
0.437499999999973
 40
0.437499999999973
 40
0.4531249999999722
 40
0.4531249999999722
 40
0.4687499999999713
 40
0.4843749999999705
 40
0.4843749999999705
 40
0.4999999999999696
 40
0.4999999999999696
 40
0.5312499999999682
 40
0.5312499999999682
 40
0.5468749999999685
 40
0.5468749999999685
 40
0.5624999999999688
 40
0.578124999999969
 40
0.578124999999969
 40
0.5937499999999693
 40
0.5937499999999693
 40
0.6249999999999708
 40
0.6249999999999708
 40
0.6562499999999724
 40
0.6562499999999724
 40
0.6718749999999729
 40
0.6718749999999729
 40
0.6874999999999735
 40
0.7031249999999742
 40
0.7031249999999742
 40
0.7187499999999747
 40
0.7187499999999747
 40
0.7499999999999762
 40
0.7499999999999762
 40
0.7656249999999777
 40
0.7656249999999777
 40
0.7812499999999792
 40
0.7812499999999792
 40
0.7968749999999806
 40
0.7968749999999806
 40
0.812499999999982
 40
0.8281249999999836
 40
0.8281249999999836
 40
0.8437499999999849
 40
0.8437499999999849
 40
0.874999999999988
 40
0.874999999999988
 40
0.8906249999999896
 40
0.8906249999999896
 40
0.9062499999999912
 40
0.9062499999999912
 40
0.9218749999999927
 40
0.9218749999999927
 40
0.9374999999999944
 40
0.953124999999996
 40
0.953124999999996
 40
0.9687499999999975
 40
0.9687499999999975
 40
1.0
 40
1.0
 40
1.0
 40
1.0
 10
444.3935155558468
 20
283.1534935136941
 30
0.0
 10
444.386031969913
 20
283.1066727494693
 30
0.0
 10
444.3786990016075
 20
283.0593230842999
 30
0.0
 10
444.3643342675096
 20
282.9635660670541
 30
0.0
 10
444.3572956496786
 20
282.9151097723998
 30
0.0
 10
444.3366821525258
 20
282.7684614440255
 30
0.0
 10
444.3236877177467
 20
282.6695774203581
 30
0.0
 10
444.3053114482674
 20
282.5195833420222
 30
0.0
 10
444.2993639089914
 20
282.4692276664671
 30
0.0
 10
444.2879151714172
 20
282.3685659952452
 30
0.0
 10
444.2769002576367
 20
282.2678635659179
 30
0.0
 10
444.2667481397772
 20
282.1670800761985
 30
0.0
 10
444.2570298631849
 20
282.0662558267324
 30
0.0
 10
444.2523936941858
 20
282.015877532951
 30
0.0
 10
444.2436165443322
 20
281.9157542083408
 30
0.0
 10
444.2394677121983
 20
281.8659290273842
 30
0.0
 10
444.2316482972393
 20
281.7667504087093
 30
0.0
 10
444.2279753012236
 20
281.717362242599
 30
0.0
 10
444.2176953515097
 20
281.5701338088065
 30
0.0
 10
444.2118722073519
 20
281.473925736209
 30
0.0
 10
444.2046673447008
 20
281.3325009256823
 30
0.0
 10
444.2025187941963
 20
281.2857684646446
 30
0.0
 10
444.1987587264256
 20
281.1937963598294
 30
0.0
 10
444.1955308807856
 20
281.1032554845829
 30
0.0
 10
444.1933598984394
 20
281.0155566820517
 30
0.0
 10
444.191719463082
 20
280.9292846043671
 30
0.0
 10
444.1911660629213
 20
280.886890213987
 30
0.0
 10
444.1903111886559
 20
280.7626773811887
 30
0.0
 10
444.1908065949881
 20
280.6835069880989
 30
0.0
 10
444.1939329685085
 20
280.5326547602187
 30
0.0
 10
444.1965490051297
 20
280.4616487482158
 30
0.0
 10
444.2020359870872
 20
280.3617012514961
 30
0.0
 10
444.2041303087864
 20
280.3294334970905
 30
0.0
 10
444.2088218399175
 20
280.2674303456913
 30
0.0
 10
444.2140152658717
 20
280.2079314743756
 30
0.0
 10
444.2202058132719
 20
280.1534078912324
 30
0.0
 10
444.2268971007297
 20
280.1013828262948
 30
0.0
 10
444.2304935324432
 20
280.0766296209872
 30
0.0
 10
444.2419647540746
 20
280.0065934817866
 30
0.0
 10
444.2505401461516
 20
279.9653442393249
 30
0.0
 10
444.2695544459874
 20
279.8938079049189
 30
0.0
 10
444.2799003073599
 20
279.8638697425445
 30
0.0
 10
444.2966654898428
 20
279.8276263393865
 30
0.0
 10
444.3024698291732
 20
279.8169819515873
 30
0.0
 10
444.3144647108588
 20
279.7986757256465
 30
0.0
 10
444.3268175615413
 20
279.7833852058944
 30
0.0
 10
444.3398805178828
 20
279.7740769640751
 30
0.0
 10
444.3532995331389
 20
279.7677683369753
 30
0.0
 10
444.3601979223315
 20
279.7661143517476
 30
0.0
 10
444.3813531749614
 20
279.7657114015979
 30
0.0
 10
444.3960292453811
 20
279.7714839976815
 30
0.0
 10
444.4189016947381
 20
279.7891993627029
 30
0.0
 10
444.4266805068878
 20
279.7966337408597
 30
0.0
 10
444.4424320792846
 20
279.8144566963077
 30
0.0
 10
444.4583937049062
 20
279.8352385216214
 30
0.0
 10
444.4747743343663
 20
279.8619225549631
 30
0.0
 10
444.4913662430446
 20
279.8915827278576
 30
0.0
 10
444.4997637584683
 20
279.9078989270408
 30
0.0
 10
444.5251061031539
 20
279.960996986501
 30
0.0
 10
444.5422544413507
 20
280.0020057147433
 30
0.0
 10
444.577064155062
 20
280.0953794324675
 30
0.0
 10
444.5945580614389
 20
280.1472977145671
 30
0.0
 10
444.6209125239476
 20
280.2329378529301
 30
0.0
 10
444.6297315181656
 20
280.2628354360395
 30
0.0
 10
444.6473367618529
 20
280.3250070186029
 30
0.0
 10
444.6648926257998
 20
280.3894867694651
 30
0.0
 10
444.6823501913178
 20
280.4585613058596
 30
0.0
 10
444.6997582867888
 20
280.529948231776
 30
0.0
 10
444.7084464390909
 20
280.5668405576023
 30
0.0
 10
444.734264613923
 20
280.6802748974732
 30
0.0
 10
444.7512010815978
 20
280.7597656486395
 30
0.0
 10
444.7761891007648
 20
280.8848485907736
 30
0.0
 10
444.7844287027651
 20
280.9274230410297
 30
0.0
 10
444.8006640775875
 20
281.0139851416353
 30
0.0
 10
444.80866996252
 20
281.0580231163079
 30
0.0
 10
444.8244578730588
 20
281.1476146365156
 30
0.0
 10
444.8322496716017
 20
281.1932275789008
 30
0.0
 10
444.8475611475111
 20
281.2857117311805
 30
0.0
 10
444.8625675357843
 20
281.3792468471944
 30
0.0
 10
444.8769681635487
 20
281.4748686827302
 30
0.0
 10
444.8910646915367
 20
281.5715380790285
 30
0.0
 10
444.8979697406477
 20
281.6204652457427
 30
0.0
 10
444.918095056708
 20
281.7678905186594
 30
0.0
 10
444.9307637650585
 20
281.867260163291
 30
0.0
 10
444.9486417809663
 20
282.0179478790337
 30
0.0
 10
444.9544021287065
 20
282.0683637700745
 30
0.0
 10
444.9654718080751
 20
282.1690788317031
 30
0.0
 10
444.9707897307478
 20
282.2194497296121
 30
0.0
 10
444.9809923858766
 20
282.3202182199464
 30
0.0
 10
444.9858819797606
 20
282.3706686844152
 30
0.0
 10
444.9952020141188
 20
282.4713604792233
 30
0.0
 10
445.0040378725354
 20
282.5715620742494
 30
0.0
 10
445.011914734742
 20
282.6707927417817
 30
0.0
 10
445.0193113546967
 20
282.7695371921624
 30
0.0
 10
445.0227738642498
 20
282.8187388742119
 30
0.0
 10
445.032376537722
 20
282.9647235644109
 30
0.0
 10
445.0377520806248
 20
283.0600867737429
 30
0.0
 10
445.0421031895796
 20
283.1534935136922
 30
0.0
  0
SPLINE
  5
1FE
330
1F
100
AcDbEntity
  8
1
100
AcDbSpline
210
0.0
220
0.0
230
1.0
 70
     8
 71
     3
 72
    73
 73
    69
 74
     0
 42
0.000000001
 43
0.0000000001
 40
0.0
 40
0.0
 40
0.0
 40
0.0
 40
0.0625000000000128
 40
0.0625000000000128
 40
0.078125000000016
 40
0.078125000000016
 40
0.0937500000000192
 40
0.1250000000000248
 40
0.1250000000000248
 40
0.1562500000000304
 40
0.1562500000000304
 40
0.1875000000000359
 40
0.1875000000000359
 40
0.2031250000000379
 40
0.2031250000000379
 40
0.2187500000000397
 40
0.2187500000000397
 40
0.250000000000042
 40
0.250000000000042
 40
0.2812500000000442
 40
0.2812500000000442
 40
0.3125000000000465
 40
0.3437500000000487
 40
0.3437500000000487
 40
0.3593750000000491
 40
0.3593750000000491
 40
0.3750000000000493
 40
0.4062500000000472
 40
0.4062500000000472
 40
0.4375000000000451
 40
0.4375000000000451
 40
0.4687500000000428
 40
0.4687500000000428
 40
0.4843750000000407
 40
0.4843750000000407
 40
0.5000000000000387
 40
0.5000000000000387
 40
0.5625000000000293
 40
0.5625000000000293
 40
0.6250000000000199
 40
0.6250000000000199
 40
0.640625000000018
 40
0.640625000000018
 40
0.656250000000016
 40
0.6875000000000134
 40
0.6875000000000134
 40
0.7187500000000107
 40
0.7187500000000107
 40
0.7500000000000079
 40
0.7500000000000079
 40
0.7812500000000053
 40
0.7812500000000053
 40
0.8125000000000024
 40
0.8125000000000024
 40
0.8281250000000024
 40
0.8281250000000024
 40
0.8437500000000023
 40
0.8437500000000023
 40
0.8750000000000015
 40
0.8750000000000015
 40
0.9062500000000012
 40
0.9062500000000012
 40
0.9375000000000005
 40
0.96875
 40
0.96875
 40
0.984375
 40
0.984375
 40
1.0
 40
1.0
 40
1.0
 40
1.0
 10
445.04210318958
 20
283.1534935136918
 30
0.0
 10
445.0354963248478
 20
283.2669543367168
 30
0.0
 10
445.0277464017966
 20
283.3770148168893
 30
0.0
 10
445.0165898690959
 20
283.5102200872385
 30
0.0
 10
445.0142842426918
 20
283.5366427882267
 30
0.0
 10
445.0095523191442
 20
283.5887317504851
 30
0.0
 10
445.0022634800547
 20
283.6658505660012
 30
0.0
 10
444.9944058112208
 20
283.7399469194828
 30
0.0
 10
444.9834226784227
 20
283.836052158987
 30
0.0
 10
444.9776709538885
 20
283.8828004520716
 30
0.0
 10
444.9657495879171
 20
283.9728740152701
 30
0.0
 10
444.9595704296385
 20
284.016290467044
 30
0.0
 10
444.9499745731642
 20
284.0789890545232
 30
0.0
 10
444.9467213790376
 20
284.099483824004
 30
0.0
 10
444.9401052681682
 20
284.1396596012588
 30
0.0
 10
444.9367411685721
 20
284.1593456831604
 30
0.0
 10
444.9265239691969
 20
284.2169489879625
 30
0.0
 10
444.9195335042401
 20
284.2534926560333
 30
0.0
 10
444.905196316734
 20
284.322880986397
 30
0.0
 10
444.8978459723413
 20
284.3557405420336
 30
0.0
 10
444.8827999106838
 20
284.4176564510881
 30
0.0
 10
444.8674839612384
 20
284.4754636233308
 30
0.0
 10
444.8516325360382
 20
284.5251187818627
 30
0.0
 10
444.8395414729392
 20
284.5592774052357
 30
0.0
 10
444.8354750976071
 20
284.5701537986322
 30
0.0
 10
444.8273064631067
 20
284.5907899973254
 30
0.0
 10
444.8149887456929
 20
284.6201011881489
 30
0.0
 10
444.8024777387566
 20
284.6445086167718
 30
0.0
 10
444.7856237235781
 20
284.6726711448919
 30
0.0
 10
444.7770980947509
 20
284.6845683512752
 30
0.0
 10
444.7600043210987
 20
284.7037664914375
 30
0.0
 10
444.751422507038
 20
284.7110968315759
 30
0.0
 10
444.7384973134981
 20
284.7186839466671
 30
0.0
 10
444.7341801613001
 20
284.7206443382486
 30
0.0
 10
444.7255282255526
 20
284.7234198611393
 30
0.0
 10
444.7211904022951
 20
284.7242341924957
 30
0.0
 10
444.6995418630423
 20
284.7254156320433
 30
0.0
 10
444.6822902065536
 20
284.7171869242489
 30
0.0
 10
444.6479499653199
 20
284.682184161143
 30
0.0
 10
444.6310649252986
 20
284.6556225655687
 30
0.0
 10
444.6103165576618
 20
284.6110450369431
 30
0.0
 10
444.6061833825723
 20
284.6015527362068
 30
0.0
 10
444.5979872702484
 20
284.5814996871382
 30
0.0
 10
444.5857859310711
 20
284.5497910793577
 30
0.0
 10
444.5738617921268
 20
284.5132179663902
 30
0.0
 10
444.558210935924
 20
284.4601018119157
 30
0.0
 10
444.5505040998975
 20
284.4313335884063
 30
0.0
 10
444.5354677549508
 20
284.3698952682439
 30
0.0
 10
444.5281221483843
 20
284.3371758475536
 30
0.0
 10
444.5137769155941
 20
284.2677266494119
 30
0.0
 10
444.5067639356543
 20
284.2309148149645
 30
0.0
 10
444.4931869073436
 20
284.1537743599988
 30
0.0
 10
444.4866160403647
 20
284.1134254380715
 30
0.0
 10
444.4770856372326
 20
284.0502386997809
 30
0.0
 10
444.4739632094705
 20
284.0287320948099
 30
0.0
 10
444.4678276956556
 20
283.9848253033657
 30
0.0
 10
444.4648119304028
 20
283.9624032980273
 30
0.0
 10
444.455963484301
 20
283.8940473505898
 30
0.0
 10
444.4503213757145
 20
283.8469742351522
 30
0.0
 10
444.4395477822898
 20
283.7498410954058
 30
0.0
 10
444.4344135605551
 20
283.6997520450832
 30
0.0
 10
444.4246726845652
 20
283.5966749792893
 30
0.0
 10
444.4155093823853
 20
283.4912379102295
 30
0.0
 10
444.4074894247457
 20
283.3811290627702
 30
0.0
 10
444.4019060638278
 20
283.2967838522899
 30
0.0
 10
444.4001180998246
 20
283.2683884821776
 30
0.0
 10
444.3967008632301
 20
283.2112463398871
 30
0.0
 10
444.3950696852638
 20
283.1824713635791
 30
0.0
 10
444.3935155558468
 20
283.1534935136941
 30
0.0
  0
SPLINE
  5
1FF
330
1F
100
AcDbEntity
  8
1
100
AcDbSpline
210
0.0
220
0.0
230
1.0
 70
     8
 71
     3
 72
    15
 73
    11
 74
     0
 42
0.000000001
 43
0.0000000001
 40
0.0
 40
0.0
 40
0.0
 40
0.0
 40
0.1342552255519758
 40
0.1342552255519758
 40
0.201382838327966
 40
0.201382838327966
 40
0.2685104511039563
 40
0.5370209022079218
 40
0.5370209022079218
 40
1.0
 40
1.0
 40
1.0
 40
1.0
 10
302.9048419452969
 20
306.9056150686412
 30
0.0
 10
302.8051884206949
 20
306.9056150686412
 30
0.0
 10
302.7053095724844
 20
306.9056438764036
 30
0.0
 10
302.555148217344
 20
306.9057285976986
 30
0.0
 10
302.5050215160365
 20
306.9057637341428
 30
0.0
 10
302.4050104624832
 20
306.9058465307826
 30
0.0
 10
302.1553715783068
 20
306.90608405144
 30
0.0
 10
301.9076599726866
 20
306.9064657113743
 30
0.0
 10
301.3710876278413
 20
306.9073459843134
 30
0.0
 10
301.0350583989616
 20
306.9079889852127
 30
0.0
 10
300.7025795151847
 20
306.9079957697875
 30
0.0
  0
SPLINE
  5
200
330
1F
100
AcDbEntity
  8
1
100
AcDbSpline
210
0.0
220
0.0
230
1.0
 70
     8
 71
     3
 72
    19
 73
    15
 74
     0
 42
0.000000001
 43
0.0000000001
 40
0.0
 40
0.0
 40
0.0
 40
0.0
 40
0.2500000000000004
 40
0.2500000000000004
 40
0.3750000000000006
 40
0.3750000000000006
 40
0.4062500000000007
 40
0.4062500000000007
 40
0.4375000000000007
 40
0.5000000000000008
 40
0.5000000000000008
 40
0.7500000000000008
 40
0.7500000000000008
 40
1.0
 40
1.0
 40
1.0
 40
1.0
 10
295.3134414302635
 20
284.506291930643
 30
0.0
 10
294.7869703608229
 20
284.6604240564139
 30
0.0
 10
294.2528983487099
 20
284.7942110835166
 30
0.0
 10
293.4386116395862
 20
284.9587908574809
 30
0.0
 10
293.1649885428486
 20
285.0076411149075
 30
0.0
 10
292.8200342822183
 20
285.0606279539979
 30
0.0
 10
292.7509241683882
 20
285.0708166884959
 30
0.0
 10
292.6127662876121
 20
285.0903251927945
 30
0.0
 10
292.4054968869518
 20
285.1183041945822
 30
0.0
 10
292.1981293144912
 20
285.1424106513672
 30
0.0
 10
291.5066840057409
 20
285.2140689141486
 30
0.0
 10
290.9528242677243
 20
285.2435816802134
 30
0.0
 10
289.843641563637
 20
285.2445683362594
 30
0.0
 10
289.2883196462035
 20
285.216081746197
 30
0.0
 10
288.7322209984139
 20
285.1568817003535
 30
0.0
  0
SPLINE
  5
201
330
1F
100
AcDbEntity
  8
1
100
AcDbSpline
210
0.0
220
0.0
230
1.0
 70
     8
 71
     3
 72
    10
 73
     6
 74
     0
 42
0.000000001
 43
0.0000000001
 40
0.0
 40
0.0
 40
0.0
 40
0.0
 40
0.5
 40
0.5
 40
1.0
 40
1.0
 40
1.0
 40
1.0
 10
427.4821057418583
 20
295.5148184091016
 30
0.0
 10
427.678141333586
 20
295.3658726554174
 30
0.0
 10
427.8703376667993
 20
295.2181118545427
 30
0.0
 10
428.2464934284629
 20
294.9251324997937
 30
0.0
 10
428.4304543579295
 20
294.7799134826441
 30
0.0
 10
428.6099449849081
 20
294.6360741843837
 30
0.0
  0
SPLINE
  5
202
330
1F
100
AcDbEntity
  8
1
100
AcDbSpline
210
0.0
220
0.0
230
1.0
 70
     8
 71
     3
 72
     8
 73
     4
 74
     0
 42
0.000000001
 43
0.0000000001
 40
0.0
 40
0.0
 40
0.0
 40
0.0
 40
1.0
 40
1.0
 40
1.0
 40
1.0
 10
305.4735760097801
 20
281.6379502086642
 30
0.0
 10
305.4738029053739
 20
281.6628766781403
 30
0.0
 10
305.4740298610523
 20
281.6878033115744
 30
0.0
 10
305.4742568768634
 20
281.7127301090987
 30
0.0
  0
SPLINE
  5
203
330
1F
100
AcDbEntity
  8
1
100
AcDbSpline
210
0.0
220
0.0
230
1.0
 70
     8
 71
     3
 72
     8
 73
     4
 74
     0
 42
0.000000001
 43
0.0000000001
 40
0.0
 40
0.0
 40
0.0
 40
0.0
 40
1.0
 40
1.0
 40
1.0
 40
1.0
 10
427.4821057418582
 20
295.5148184091015
 30
0.0
 10
427.1167657177525
 20
295.7394702790492
 30
0.0
 10
426.7454608078109
 20
295.966809237805
 30
0.0
 10
426.3687593190796
 20
296.196579271835
 30
0.0
  0
SPLINE
  5
204
330
1F
100
AcDbEntity
  8
1
100
AcDbSpline
210
0.0
220
0.0
230
1.0
 70
     8
 71
     3
 72
    22
 73
    18
 74
     0
 42
0.000000001
 43
0.0000000001
 40
0.0
 40
0.0
 40
0.0
 40
0.0
 40
0.125
 40
0.125
 40
0.25
 40
0.25
 40
0.375
 40
0.375
 40
0.5
 40
0.5
 40
0.625
 40
0.625
 40
0.75
 40
0.75
 40
0.875
 40
0.875
 40
1.0
 40
1.0
 40
1.0
 40
1.0
 10
288.7322209983847
 20
271.3639207990851
 30
0.0
 10
289.2077935106731
 20
271.3172925538436
 30
0.0
 10
289.6862415140808
 20
271.2761273926234
 30
0.0
 10
290.6471595558026
 20
271.2021973510529
 30
0.0
 10
291.1296274695592
 20
271.1694356230761
 30
0.0
 10
292.0968409221085
 20
271.1105466104296
 30
0.0
 10
292.5815797653783
 20
271.0844205159783
 30
0.0
 10
293.5517018809106
 20
271.0377267937646
 30
0.0
 10
294.037074602334
 20
271.0171614949836
 30
0.0
 10
295.0072066103055
 20
270.9811634160523
 30
0.0
 10
295.491955315961
 20
270.9657374661459
 30
0.0
 10
296.4602920223438
 20
270.9401170241403
 30
0.0
 10
296.9438755169631
 20
270.9299349268293
 30
0.0
 10
297.9102952595977
 20
270.9151375431802
 30
0.0
 10
298.3931368289661
 20
270.910536466845
 30
0.0
 10
299.3594438258757
 20
270.907054589232
 30
0.0
 10
299.8429218314438
 20
270.9081832376827
 30
0.0
 10
300.3277338787902
 20
270.9119677908901
 30
0.0
  0
SPLINE
  5
205
330
1F
100
AcDbEntity
  8
1
100
AcDbSpline
210
0.0
220
0.0
230
1.0
 70
     8
 71
     3
 72
    47
 73
    43
 74
     0
 42
0.000000001
 43
0.0000000001
 40
0.0
 40
0.0
 40
0.0
 40
0.0
 40
0.1249999999999881
 40
0.1249999999999881
 40
0.2499999999999761
 40
0.2499999999999761
 40
0.3749999999999642
 40
0.3749999999999642
 40
0.4374999999999584
 40
0.4374999999999584
 40
0.4999999999999523
 40
0.4999999999999523
 40
0.5624999999999463
 40
0.5624999999999463
 40
0.5937499999999285
 40
0.5937499999999285
 40
0.6249999999999109
 40
0.6249999999999109
 40
0.6874999999998983
 40
0.6874999999998983
 40
0.7187499999998892
 40
0.7187499999998892
 40
0.7499999999998801
 40
0.7499999999998801
 40
0.7812499999998711
 40
0.7812499999998711
 40
0.7968749999998665
 40
0.7968749999998665
 40
0.8124999999998617
 40
0.8437499999998834
 40
0.8437499999998834
 40
0.8749999999999054
 40
0.8749999999999054
 40
0.8906249999999161
 40
0.8906249999999161
 40
0.9062499999999271
 40
0.9062499999999271
 40
0.9374999999999513
 40
0.9374999999999513
 40
0.9687499999999754
 40
0.9687499999999754
 40
1.0
 40
1.0
 40
1.0
 40
1.0
 10
426.3687593190796
 20
296.196579271835
 30
0.0
 10
426.330689779128
 20
296.2197998848452
 30
0.0
 10
426.2936157389257
 20
296.2440457238477
 30
0.0
 10
426.2217014281761
 20
296.2948523841553
 30
0.0
 10
426.1868568615339
 20
296.3214088300517
 30
0.0
 10
426.1198460172596
 20
296.3773056856222
 30
0.0
 10
426.0876678613238
 20
296.4066340468252
 30
0.0
 10
426.0420580796006
 20
296.4533863109561
 30
0.0
 10
426.0272750045102
 20
296.4694659715683
 30
0.0
 10
425.9989227481198
 20
296.502615882912
 30
0.0
 10
425.9854154801332
 20
296.5196080823487
 30
0.0
 10
425.9600303373136
 20
296.5546048981714
 30
0.0
 10
425.9481483134804
 20
296.5726070200332
 30
0.0
 10
425.9318998892879
 20
296.600583527192
 30
0.0
 10
425.9267479168503
 20
296.6100722939501
 30
0.0
 10
425.9170643128862
 20
296.6294320211703
 30
0.0
 10
425.9125228861721
 20
296.6393255664865
 30
0.0
 10
425.9000856512122
 20
296.669535533507
 30
0.0
 10
425.8934051770936
 20
296.6902097774017
 30
0.0
 10
425.8868560616091
 20
296.7223590091244
 30
0.0
 10
425.8852592652778
 20
296.7333248043816
 30
0.0
 10
425.8835650648605
 20
296.7552423580913
 30
0.0
 10
425.8834532272734
 20
296.7662305134932
 30
0.0
 10
425.8849598170583
 20
296.7882729070621
 30
0.0
 10
425.8865762075177
 20
296.7993270866633
 30
0.0
 10
425.8905798548548
 20
296.8159658948802
 30
0.0
 10
425.8921900319872
 20
296.8215487602776
 30
0.0
 10
425.8959161085623
 20
296.8325028337943
 30
0.0
 10
425.9022711560456
 20
296.8486762714316
 30
0.0
 10
425.9109601848432
 20
296.8640626746146
 30
0.0
 10
425.9247225128376
 20
296.8838404404653
 30
0.0
 10
425.9325252854439
 20
296.893109884194
 30
0.0
 10
425.9453460972871
 20
296.9060412627957
 30
0.0
 10
425.9498124110764
 20
296.910197982177
 30
0.0
 10
425.9591104518984
 20
296.918219663141
 30
0.0
 10
425.9639633612825
 20
296.9220997491792
 30
0.0
 10
425.9788657535908
 20
296.9331932013405
 30
0.0
 10
425.989235752841
 20
296.9398607665927
 30
0.0
 10
426.0106755706186
 20
296.9520242262072
 30
0.0
 10
426.0217463756593
 20
296.9575184744932
 30
0.0
 10
426.0444741248631
 20
296.9675252386918
 30
0.0
 10
426.0561444179733
 20
296.9720384974033
 30
0.0
 10
426.0679425357817
 20
296.9760920695419
 30
0.0
  0
SPLINE
  5
206
330
1F
100
AcDbEntity
  8
1
100
AcDbSpline
210
0.0
220
0.0
230
1.0
 70
     8
 71
     3
 72
     8
 73
     4
 74
     0
 42
0.000000001
 43
0.0000000001
 40
0.0
 40
0.0
 40
0.0
 40
0.0
 40
1.0
 40
1.0
 40
1.0
 40
1.0
 10
446.0081269389876
 20
279.8092402055162
 30
0.0
 10
446.0251824081699
 20
279.8231778142169
 30
0.0
 10
446.0409723155493
 20
279.8384259505285
 30
0.0
 10
446.0554966611258
 20
279.8549846144508
 30
0.0
  0
SPLINE
  5
207
330
1F
100
AcDbEntity
  8
1
100
AcDbSpline
210
0.0
220
0.0
230
1.0
 70
     8
 71
     3
 72
     8
 73
     4
 74
     0
 42
0.000000001
 43
0.0000000001
 40
0.0
 40
0.0
 40
0.0
 40
0.0
 40
1.0
 40
1.0
 40
1.0
 40
1.0
 10
446.5894505876547
 20
280.7436331788933
 30
0.0
 10
446.5972522528897
 20
280.7642312366872
 30
0.0
 10
446.6033026456479
 20
280.7853314637831
 30
0.0
 10
446.6076017659293
 20
280.8069338601809
 30
0.0
  0
SPLINE
  5
208
330
1F
100
AcDbEntity
  8
1
100
AcDbSpline
210
0.0
220
0.0
230
1.0
 70
     8
 71
     3
 72
     8
 73
     4
 74
     0
 42
0.000000001
 43
0.0000000001
 40
0.0
 40
0.0
 40
0.0
 40
0.0
 40
1.0
 40
1.0
 40
1.0
 40
1.0
 10
446.7311931720171
 20
287.8874807728481
 30
0.0
 10
446.7276505834055
 20
287.9092200467837
 30
0.0
 10
446.722340263689
 20
287.9305185758535
 30
0.0
 10
446.7152622128678
 20
287.9513763600573
 30
0.0
  0
SPLINE
  5
209
330
1F
100
AcDbEntity
  8
1
100
AcDbSpline
210
0.0
220
0.0
230
1.0
 70
     8
 71
     3
 72
     8
 73
     4
 74
     0
 42
0.000000001
 43
0.0000000001
 40
0.0
 40
0.0
 40
0.0
 40
0.0
 40
1.0
 40
1.0
 40
1.0
 40
1.0
 10
446.2126469442885
 20
288.8581183071029
 30
0.0
 10
446.1987093355879
 20
288.8751737762852
 30
0.0
 10
446.1834611992762
 20
288.8909636836646
 30
0.0
 10
446.166902535354
 20
288.9054880292412
 30
0.0
  0
SPLINE
  5
20A
330
1F
100
AcDbEntity
  8
1
100
AcDbSpline
210
0.0
220
0.0
230
1.0
 70
     8
 71
     3
 72
    36
 73
    32
 74
     0
 42
0.000000001
 43
0.0000000001
 40
0.0
 40
0.0
 40
0.0
 40
0.0
 40
0.1250000000000739
 40
0.1250000000000739
 40
0.187500000000115
 40
0.187500000000115
 40
0.2187500000001356
 40
0.2187500000001356
 40
0.2500000000001561
 40
0.2500000000001561
 40
0.3750000000002041
 40
0.3750000000002041
 40
0.4062500000002398
 40
0.4062500000002398
 40
0.4375000000002753
 40
0.4375000000002753
 40
0.5000000000003012
 40
0.5000000000003012
 40
0.625000000000303
 40
0.625000000000303
 40
0.6562500000002758
 40
0.6562500000002758
 40
0.6875000000002486
 40
0.7500000000001977
 40
0.8125000000001469
 40
0.8125000000001469
 40
0.8437500000000897
 40
0.8437500000000897
 40
0.8750000000000323
 40
0.8750000000000323
 40
1.0
 40
1.0
 40
1.0
 40
1.0
 10
446.4463777168563
 20
306.5607036972876
 30
0.0
 10
446.4445465202733
 20
306.6118218518205
 30
0.0
 10
446.4375856961734
 20
306.6618808180757
 30
0.0
 10
446.4198899786309
 20
306.735471329913
 30
0.0
 10
446.412772523999
 20
306.7597498203312
 30
0.0
 10
446.4002382621448
 20
306.7957838913646
 30
0.0
 10
446.3957373269383
 20
306.8077615020876
 30
0.0
 10
446.3861671311972
 20
306.8314299535189
 30
0.0
 10
446.3811078482151
 20
306.8431012864915
 30
0.0
 10
446.3544707933505
 20
306.900661480246
 30
0.0
 10
446.3289104883844
 20
306.9441843272977
 30
0.0
 10
446.2917190664783
 20
306.9954741959075
 30
0.0
 10
446.2840162900437
 20
307.0055750355099
 30
0.0
 10
446.2680736345825
 20
307.025457623302
 30
0.0
 10
446.2598136893467
 20
307.0352603696074
 30
0.0
 10
446.2344674804077
 20
307.0638975922903
 30
0.0
 10
446.2167638965992
 20
307.0820374177835
 30
0.0
 10
446.1613035796311
 20
307.133683109591
 30
0.0
 10
446.1212204206612
 20
307.1644425088955
 30
0.0
 10
446.0671051419399
 20
307.1981561737292
 30
0.0
 10
446.0560591508091
 20
307.2046696325104
 30
0.0
 10
446.0337936067997
 20
307.2170773164446
 30
0.0
 10
446.0000597293658
 20
307.2348094847332
 30
0.0
 10
445.9421889476537
 20
307.2600453319046
 30
0.0
 10
445.8941496142718
 20
307.2756671450778
 30
0.0
 10
445.8574523525181
 20
307.2856335977436
 30
0.0
 10
445.8451084327207
 20
307.2886635586609
 30
0.0
 10
445.8201925675479
 20
307.2941259266174
 30
0.0
 10
445.8076022819835
 20
307.2965600312087
 30
0.0
 10
445.7446537262211
 20
307.3071057713266
 30
0.0
 10
445.6938961198246
 20
307.3104977862831
 30
0.0
 10
445.6427292886618
 20
307.3087128611007
 30
0.0
  0
SPLINE
  5
20B
330
1F
100
AcDbEntity
  8
1
100
AcDbSpline
210
0.0
220
0.0
230
1.0
 70
     8
 71
     3
 72
    36
 73
    32
 74
     0
 42
0.000000001
 43
0.0000000001
 40
0.0
 40
0.0
 40
0.0
 40
0.0
 40
0.1249999999997976
 40
0.1249999999997976
 40
0.187499999999663
 40
0.187499999999663
 40
0.2187499999995956
 40
0.2187499999995956
 40
0.2499999999995283
 40
0.2499999999995283
 40
0.3749999999994522
 40
0.3749999999994522
 40
0.4062499999994471
 40
0.4062499999994471
 40
0.4374999999994418
 40
0.4374999999994418
 40
0.4999999999994768
 40
0.4999999999994768
 40
0.6249999999995871
 40
0.6249999999995871
 40
0.6562499999996093
 40
0.6562499999996093
 40
0.6874999999996315
 40
0.7499999999997062
 40
0.8124999999997811
 40
0.8124999999997811
 40
0.8437499999998141
 40
0.8437499999998141
 40
0.8749999999998474
 40
0.8749999999998474
 40
1.0
 40
1.0
 40
1.0
 40
1.0
 10
434.5045500895835
 20
306.9201639499017
 30
0.0
 10
434.4533786687226
 20
306.9183788646105
 30
0.0
 10
434.4032720029893
 20
306.9114687311783
 30
0.0
 10
434.3296178147493
 20
306.8938555259359
 30
0.0
 10
434.3053194216369
 20
306.8867666635374
 30
0.0
 10
434.2692575130144
 20
306.8742769487988
 30
0.0
 10
434.2572709381426
 20
306.8697911792767
 30
0.0
 10
434.2335853569607
 20
306.8602516759408
 30
0.0
 10
434.2219058707001
 20
306.8552078921444
 30
0.0
 10
434.1643069229801
 20
306.8286490812249
 30
0.0
 10
434.1207594535486
 20
306.8031537430933
 30
0.0
 10
434.0694466744446
 20
306.7660464539965
 30
0.0
 10
434.0593416497805
 20
306.7583606516985
 30
0.0
 10
434.0394514981248
 20
306.7424522441894
 30
0.0
 10
434.0296453678188
 20
306.7342096123972
 30
0.0
 10
434.0009993095733
 20
306.7089152844989
 30
0.0
 10
433.9828553110232
 20
306.6912463295204
 30
0.0
 10
433.9312021054969
 20
306.6358900199116
 30
0.0
 10
433.9004443216871
 20
306.5958763591509
 30
0.0
 10
433.8667412218533
 20
306.5418481595485
 30
0.0
 10
433.8602303146203
 20
306.530819625
 30
0.0
 10
433.8478285481008
 20
306.5085886452291
 30
0.0
 10
433.8301064892718
 20
306.4749062140744
 30
0.0
 10
433.8048935470571
 20
306.4171192117217
 30
0.0
 10
433.7892964630767
 20
306.3691448240561
 30
0.0
 10
433.7793510116275
 20
306.3324954754403
 30
0.0
 10
433.776328460925
 20
306.3201673937522
 30
0.0
 10
433.7708817514933
 20
306.2952829329309
 30
0.0
 10
433.7684559092311
 20
306.2827082347184
 30
0.0
 10
433.7579532216098
 20
306.2198362093401
 30
0.0
 10
433.7546014057015
 20
306.1691358974291
 30
0.0
 10
433.7564324380395
 20
306.1180223278168
 30
0.0
  0
SPLINE
  5
20C
330
1F
100
AcDbEntity
  8
1
100
AcDbSpline
210
0.0
220
0.0
230
1.0
 70
     8
 71
     3
 72
    36
 73
    32
 74
     0
 42
0.000000001
 43
0.0000000001
 40
0.0
 40
0.0
 40
0.0
 40
0.0
 40
0.1250000000001118
 40
0.1250000000001118
 40
0.1875000000001677
 40
0.1875000000001677
 40
0.2187500000001946
 40
0.2187500000001946
 40
0.2500000000002216
 40
0.2500000000002216
 40
0.3750000000003868
 40
0.3750000000003868
 40
0.406250000000409
 40
0.406250000000409
 40
0.4375000000004309
 40
0.4375000000004309
 40
0.50000000000043
 40
0.50000000000043
 40
0.625000000000378
 40
0.625000000000378
 40
0.6562500000003357
 40
0.6562500000003357
 40
0.6875000000002931
 40
0.7500000000002083
 40
0.8125000000001232
 40
0.8125000000001232
 40
0.843750000000114
 40
0.843750000000114
 40
0.8750000000001046
 40
0.8750000000001046
 40
1.0
 40
1.0
 40
1.0
 40
1.0
 10
434.1550181201678
 20
294.9914372939214
 30
0.0
 10
434.1568493167507
 20
294.9403191393885
 30
0.0
 10
434.1638101408508
 20
294.8902601731333
 30
0.0
 10
434.1815058583933
 20
294.8166696612959
 30
0.0
 10
434.1886233130252
 20
294.7923911708778
 30
0.0
 10
434.2011575748792
 20
294.7563570998443
 30
0.0
 10
434.2056585100859
 20
294.7443794891213
 30
0.0
 10
434.215228705827
 20
294.72071103769
 30
0.0
 10
434.2202879888089
 20
294.7090397047175
 30
0.0
 10
434.2469250436736
 20
294.651479510963
 30
0.0
 10
434.2724853486398
 20
294.6079566639113
 30
0.0
 10
434.3096767705456
 20
294.5566667953013
 30
0.0
 10
434.3173795469803
 20
294.546565955699
 30
0.0
 10
434.3333222024416
 20
294.5266833679069
 30
0.0
 10
434.3415821476774
 20
294.5168806216016
 30
0.0
 10
434.3669283566166
 20
294.4882433989187
 30
0.0
 10
434.3846319404248
 20
294.4701035734255
 30
0.0
 10
434.440092257393
 20
294.4184578816179
 30
0.0
 10
434.480175416363
 20
294.3876984823135
 30
0.0
 10
434.5342906950842
 20
294.3539848174798
 30
0.0
 10
434.5453366862149
 20
294.3474713586985
 30
0.0
 10
434.5676022302245
 20
294.3350636747643
 30
0.0
 10
434.6013361076583
 20
294.3173315064758
 30
0.0
 10
434.6592068893703
 20
294.2920956593044
 30
0.0
 10
434.7072462227523
 20
294.2764738461311
 30
0.0
 10
434.7439434845061
 20
294.2665073934654
 30
0.0
 10
434.7562874043036
 20
294.2634774325481
 30
0.0
 10
434.7812032694764
 20
294.2580150645915
 30
0.0
 10
434.7937935550406
 20
294.2555809600003
 30
0.0
 10
434.8567421108032
 20
294.2450352198824
 30
0.0
 10
434.9074997171997
 20
294.2416432049259
 30
0.0
 10
434.9586665483624
 20
294.2434281301082
 30
0.0
  0
SPLINE
  5
20D
330
1F
100
AcDbEntity
  8
1
100
AcDbSpline
210
0.0
220
0.0
230
1.0
 70
     8
 71
     3
 72
    36
 73
    32
 74
     0
 42
0.000000001
 43
0.0000000001
 40
0.0
 40
0.0
 40
0.0
 40
0.0
 40
0.1249999999997033
 40
0.1249999999997033
 40
0.1874999999995886
 40
0.1874999999995886
 40
0.2187499999995315
 40
0.2187499999995315
 40
0.2499999999994745
 40
0.2499999999994745
 40
0.3749999999994352
 40
0.3749999999994352
 40
0.4062499999994386
 40
0.4062499999994386
 40
0.4374999999994419
 40
0.4374999999994419
 40
0.4999999999994982
 40
0.4999999999994982
 40
0.6249999999996574
 40
0.6249999999996574
 40
0.6562499999996973
 40
0.6562499999996973
 40
0.6874999999997371
 40
0.7499999999997883
 40
0.8124999999998395
 40
0.8124999999998395
 40
0.8437499999998641
 40
0.8437499999998641
 40
0.8749999999998884
 40
0.8749999999998884
 40
1.0
 40
1.0
 40
1.0
 40
1.0
 10
446.0968457474406
 20
294.6319770413072
 30
0.0
 10
446.1480171683014
 20
294.6337621265985
 30
0.0
 10
446.1981238340348
 20
294.6406722600307
 30
0.0
 10
446.2717780222749
 20
294.6582854652731
 30
0.0
 10
446.2960764153871
 20
294.6653743276714
 30
0.0
 10
446.3321383240096
 20
294.6778640424101
 30
0.0
 10
446.3441248988816
 20
294.6823498119321
 30
0.0
 10
446.3678104800636
 20
294.691889315268
 30
0.0
 10
446.3794899663241
 20
294.6969330990645
 30
0.0
 10
446.437088914044
 20
294.7234919099841
 30
0.0
 10
446.4806363834754
 20
294.7489872481157
 30
0.0
 10
446.5319491625795
 20
294.7860945372125
 30
0.0
 10
446.5420541872438
 20
294.7937803395105
 30
0.0
 10
446.5619443388993
 20
294.8096887470196
 30
0.0
 10
446.5717504692054
 20
294.8179313788117
 30
0.0
 10
446.6003965274507
 20
294.8432257067101
 30
0.0
 10
446.6185405260011
 20
294.8608946616886
 30
0.0
 10
446.6701937315271
 20
294.9162509712973
 30
0.0
 10
446.7009515153372
 20
294.956264632058
 30
0.0
 10
446.7346546151711
 20
295.0102928316604
 30
0.0
 10
446.7411655224037
 20
295.021321366209
 30
0.0
 10
446.7535672889233
 20
295.0435523459799
 30
0.0
 10
446.7712893477523
 20
295.0772347771345
 30
0.0
 10
446.7965023663162
 20
295.1350217503588
 30
0.0
 10
446.8120993739475
 20
295.1829961671529
 30
0.0
 10
446.8220448253967
 20
295.2196455157686
 30
0.0
 10
446.8250673760992
 20
295.2319735974569
 30
0.0
 10
446.8305140855307
 20
295.256858058278
 30
0.0
 10
446.8329399277931
 20
295.2694327564905
 30
0.0
 10
446.8434426154141
 20
295.3323047818687
 30
0.0
 10
446.8467944313227
 20
295.3830050937798
 30
0.0
 10
446.8449633989846
 20
295.4341186633921
 30
0.0
  0
SPLINE
  5
20E
330
1F
100
AcDbEntity
  8
1
100
AcDbSpline
210
0.0
220
0.0
230
1.0
 70
     8
 71
     3
 72
    12
 73
     8
 74
     0
 42
0.000000001
 43
0.0000000001
 40
0.0
 40
0.0
 40
0.0
 40
0.0
 40
0.2714993357410789
 40
0.2714993357410789
 40
0.5429986714821579
 40
0.5429986714821579
 40
1.0
 40
1.0
 40
1.0
 40
1.0
 10
339.5069511892992
 20
275.2471182334847
 30
0.0
 10
340.0706967330565
 20
275.3098922253566
 30
0.0
 10
340.6347872000035
 20
275.3697067879254
 30
0.0
 10
341.7635354354093
 20
275.4840187292907
 30
0.0
 10
342.3281930232278
 20
275.53851781072
 30
0.0
 10
343.8438986407055
 20
275.6787205587021
 30
0.0
 10
344.795347577498
 20
275.7602617312402
 30
0.0
 10
345.7471075997132
 20
275.8378965485396
 30
0.0
  0
LINE
  5
229
330
1F
100
AcDbEntity
  8
SK4
100
AcDbLine
 10
210.904842
 20
288.907994
 30
0.0
 11
277.404842
 21
288.907994
 31
0.0
  0
LINE
  5
22A
330
1F
100
AcDbEntity
  8
4
100
AcDbLine
 10
265.732221
 20
288.907994
 30
0.0
 11
451.3487369999999
 21
288.907994
 31
0.0
  0
MTEXT
  5
230
330
1F
100
AcDbEntity
  8
SK6
100
AcDbMText
 10
304.314982
 20
248.747444
 30
0.0
 40
3.5
 41
0.0
 71
     7
 72
     5
  1
\W0.7147;804D-37-148-S32
  7
cesky
 73
     2
 44
0.8433729999999998
  0
MTEXT
  5
341
330
1F
100
AcDbEntity
  8
2
100
AcDbMText
 10
327.827842
 20
347.267008
 30
0.0
 40
3.5
 41
0.0
 71
     7
 72
     5
  1
\W0.7231;233
  7
cesky
 73
     2
 44
0.8433729999999998
  0
LINE
  5
342
330
1F
100
AcDbEntity
  8
2
100
AcDbLine
 10
447.4048419999999
 20
309.407994
 30
0.0
 11
447.4048419999999
 21
348.392842
 31
0.0
  0
LINE
  5
343
330
1F
100
AcDbEntity
  8
2
100
AcDbLine
 10
214.404842
 20
302.907994
 30
0.0
 11
214.404842
 21
348.392842
 31
0.0
  0
LINE
  5
344
330
1F
100
AcDbEntity
  8
2
100
AcDbLine
 10
447.4048419999999
 20
347.392842
 30
0.0
 11
214.404842
 21
347.392842
 31
0.0
  0
SOLID
  5
345
330
1F
100
AcDbEntity
  8
2
100
AcDbTrace
 10
447.4048419999999
 20
347.392842
 30
0.0
 11
443.904844
 21
346.775697
 31
0.0
 12
443.90484
 22
348.009986
 32
0.0
 13
443.90484
 23
348.009986
 33
0.0
  0
SOLID
  5
346
330
1F
100
AcDbEntity
  8
2
100
AcDbTrace
 10
214.404842
 20
347.392842
 30
0.0
 11
217.90484
 21
348.009986
 31
0.0
 12
217.904844
 22
346.775697
 32
0.0
 13
217.904844
 23
346.775697
 33
0.0
  0
MTEXT
  5
347
330
1F
100
AcDbEntity
  8
2
100
AcDbMText
 10
242.590342
 20
333.821465
 30
0.0
 40
3.5
 41
0.0
 71
     7
 72
     5
  1
\W0.7045;60
  7
cesky
 73
     2
 44
0.8433729999999998
  0
LINE
  5
348
330
1F
100
AcDbEntity
  8
2
100
AcDbLine
 10
274.404842
 20
288.907994
 30
0.0
 11
274.404842
 21
334.9472990000001
 31
0.0
  0
LINE
  5
349
330
1F
100
AcDbEntity
  8
2
100
AcDbLine
 10
214.404842
 20
302.907994
 30
0.0
 11
214.404842
 21
334.9472990000001
 31
0.0
  0
LINE
  5
34A
330
1F
100
AcDbEntity
  8
2
100
AcDbLine
 10
274.404842
 20
333.947299
 30
0.0
 11
214.404842
 21
333.947299
 31
0.0
  0
SOLID
  5
34B
330
1F
100
AcDbEntity
  8
2
100
AcDbTrace
 10
274.404842
 20
333.947299
 30
0.0
 11
270.904844
 21
333.330154
 31
0.0
 12
270.90484
 22
334.5644430000001
 32
0.0
 13
270.90484
 23
334.5644430000001
 33
0.0
  0
SOLID
  5
34C
330
1F
100
AcDbEntity
  8
2
100
AcDbTrace
 10
214.404842
 20
333.947299
 30
0.0
 11
217.90484
 21
334.5644430000001
 31
0.0
 12
217.904844
 22
333.330154
 32
0.0
 13
217.904844
 23
333.330154
 33
0.0
  0
MTEXT
  5
34D
330
1F
100
AcDbEntity
  8
2
100
AcDbMText
 10
365.329306
 20
319.9926
 30
0.0
 40
3.5
 41
0.0
 71
     7
 72
     5
  1
\W0.7809;158
  7
cesky
 73
     2
 44
0.8433729999999998
  0
LINE
  5
34E
330
1F
100
AcDbEntity
  8
2
100
AcDbLine
 10
447.4048419999999
 20
309.407994
 30
0.0
 11
447.4048419999999
 21
321.118433
 31
0.0
  0
LINE
  5
34F
330
1F
100
AcDbEntity
  8
2
100
AcDbLine
 10
289.4077689999999
 20
307.1440990000001
 30
0.0
 11
289.4077689999999
 21
321.118433
 31
0.0
  0
LINE
  5
350
330
1F
100
AcDbEntity
  8
2
100
AcDbLine
 10
447.4048419999999
 20
320.118433
 30
0.0
 11
289.4077689999999
 21
320.118433
 31
0.0
  0
SOLID
  5
351
330
1F
100
AcDbEntity
  8
2
100
AcDbTrace
 10
447.4048419999999
 20
320.118433
 30
0.0
 11
443.904844
 21
319.501288
 31
0.0
 12
443.90484
 22
320.735577
 32
0.0
 13
443.90484
 23
320.735577
 33
0.0
  0
SOLID
  5
352
330
1F
100
AcDbEntity
  8
2
100
AcDbTrace
 10
289.4077689999999
 20
320.118433
 30
0.0
 11
292.907767
 21
320.735577
 31
0.0
 12
292.9077709999999
 22
319.501288
 32
0.0
 13
292.9077709999999
 23
319.501288
 33
0.0
  0
MTEXT
  5
353
330
1F
100
AcDbEntity
  8
2
100
AcDbMText
 10
464.1974349999999
 20
288.300566
 30
0.0
 40
3.5
 41
0.0
 71
     7
 72
     5
  1
\W0.7045;37
  7
cesky
 11
0.0000000000000001
 21
1.0
 31
0.0
 73
     2
 44
0.8433729999999998
  0
MTEXT
  5
354
330
1F
100
AcDbEntity
  8
2
100
AcDbMText
 10
464.1974349999999
 20
281.563066
 30
0.0
 40
3.5
 41
0.0
 71
     7
 72
     5
  1
\W3.0115;\H2.63;%%c\H3.50;
  7
cesky
 11
0.0000000000000001
 21
1.0
 31
0.0
 73
     2
 44
0.8433729999999998
  0
LINE
  5
355
330
1F
100
AcDbEntity
  8
2
100
AcDbLine
 10
449.4048419999999
 20
307.407994
 30
0.0
 11
465.3848509999999
 21
307.407994
 31
0.0
  0
LINE
  5
356
330
1F
100
AcDbEntity
  8
2
100
AcDbLine
 10
464.3848509999999
 20
307.407994
 30
0.0
 11
464.3848509999999
 21
281.405566
 31
0.0
  0
SOLID
  5
357
330
1F
100
AcDbEntity
  8
2
100
AcDbTrace
 10
464.3848509999999
 20
307.407994
 30
0.0
 11
465.001996
 21
303.907996
 31
0.0
 12
463.767707
 22
303.907991
 32
0.0
 13
463.767707
 23
303.907991
 33
0.0
  0
MTEXT
  5
358
330
1F
100
AcDbEntity
  8
2
100
AcDbMText
 10
357.827842
 20
333.821465
 30
0.0
 40
3.5
 41
0.0
 71
     7
 72
     5
  1
\W0.7809;173
  7
cesky
 73
     2
 44
0.8433729999999998
  0
LINE
  5
359
330
1F
100
AcDbEntity
  8
2
100
AcDbLine
 10
447.4048419999999
 20
307.407994
 30
0.0
 11
447.4048419999999
 21
334.9472990000001
 31
0.0
  0
LINE
  5
35A
330
1F
100
AcDbEntity
  8
2
100
AcDbLine
 10
274.404842
 20
289.907567
 30
0.0
 11
274.404842
 21
334.9472990000001
 31
0.0
  0
LINE
  5
35B
330
1F
100
AcDbEntity
  8
2
100
AcDbLine
 10
447.4048419999999
 20
333.947299
 30
0.0
 11
274.404842
 21
333.947299
 31
0.0
  0
SOLID
  5
35C
330
1F
100
AcDbEntity
  8
2
100
AcDbTrace
 10
447.4048419999999
 20
333.947299
 30
0.0
 11
443.904844
 21
333.330154
 31
0.0
 12
443.90484
 22
334.5644430000001
 32
0.0
 13
443.90484
 23
334.5644430000001
 33
0.0
  0
SOLID
  5
35D
330
1F
100
AcDbEntity
  8
2
100
AcDbTrace
 10
274.404842
 20
333.947299
 30
0.0
 11
277.90484
 21
334.5644430000001
 31
0.0
 12
277.904844
 22
333.330154
 32
0.0
 13
277.904844
 23
333.330154
 33
0.0
  0
MTEXT
  5
35E
330
1F
100
AcDbEntity
  8
SK2
100
AcDbMText
 10
204.480913
 20
290.434244
 30
0.0
 40
3.5
 41
0.0
 71
     7
 72
     5
  1
\W0.7045;32
  7
cesky
 11
0.0000000000000001
 21
1.0
 31
0.0
 73
     2
 44
0.8433729999999998
  0
MTEXT
  5
35F
330
1F
100
AcDbEntity
  8
SK2
100
AcDbMText
 10
204.480913
 20
283.696744
 30
0.0
 40
3.5
 41
0.0
 71
     7
 72
     5
  1
\W3.0115;\H2.63;%%c\H3.50;
  7
cesky
 11
0.0000000000000001
 21
1.0
 31
0.0
 73
     2
 44
0.8433729999999998
  0
LINE
  5
360
330
1F
100
AcDbEntity
  8
SK2
100
AcDbLine
 10
216.404842
 20
304.907994
 30
0.0
 11
203.66833
 21
304.907994
 31
0.0
  0
LINE
  5
361
330
1F
100
AcDbEntity
  8
SK2
100
AcDbLine
 10
216.404842
 20
272.907994
 30
0.0
 11
203.66833
 21
272.907994
 31
0.0
  0
LINE
  5
362
330
1F
100
AcDbEntity
  8
SK2
100
AcDbLine
 10
204.66833
 20
304.907994
 30
0.0
 11
204.66833
 21
272.907994
 31
0.0
  0
SOLID
  5
363
330
1F
100
AcDbEntity
  8
SK2
100
AcDbTrace
 10
204.66833
 20
304.907994
 30
0.0
 11
205.285474
 21
301.407996
 31
0.0
 12
204.051185
 22
301.407991
 32
0.0
 13
204.051185
 23
301.407991
 33
0.0
  0
SOLID
  5
364
330
1F
100
AcDbEntity
  8
SK2
100
AcDbTrace
 10
204.66833
 20
272.907994
 30
0.0
 11
204.051185
 21
276.407991
 31
0.0
 12
205.285474
 22
276.407996
 32
0.0
 13
205.285474
 23
276.407996
 33
0.0
  0
MTEXT
  5
365
330
1F
100
AcDbEntity
  8
SK2
100
AcDbMText
 10
191.916868
 20
290.434244
 30
0.0
 40
3.5
 41
0.0
 71
     7
 72
     5
  1
\W0.7045;42
  7
cesky
 11
0.0000000000000001
 21
1.0
 31
0.0
 73
     2
 44
0.8433729999999998
  0
MTEXT
  5
366
330
1F
100
AcDbEntity
  8
SK2
100
AcDbMText
 10
191.916868
 20
283.696744
 30
0.0
 40
3.5
 41
0.0
 71
     7
 72
     5
  1
\W3.0115;\H2.63;%%c\H3.50;
  7
cesky
 11
0.0000000000000001
 21
1.0
 31
0.0
 73
     2
 44
0.8433729999999998
  0
LINE
  5
367
330
1F
100
AcDbEntity
  8
SK2
100
AcDbLine
 10
274.904842
 20
309.907994
 30
0.0
 11
191.104285
 21
309.907994
 31
0.0
  0
LINE
  5
368
330
1F
100
AcDbEntity
  8
SK2
100
AcDbLine
 10
274.904842
 20
267.907994
 30
0.0
 11
191.104285
 21
267.907994
 31
0.0
  0
LINE
  5
369
330
1F
100
AcDbEntity
  8
SK2
100
AcDbLine
 10
192.104285
 20
309.907994
 30
0.0
 11
192.104285
 21
267.907994
 31
0.0
  0
SOLID
  5
36A
330
1F
100
AcDbEntity
  8
SK2
100
AcDbTrace
 10
192.104285
 20
309.907994
 30
0.0
 11
192.721429
 21
306.407996
 31
0.0
 12
191.48714
 22
306.407991
 32
0.0
 13
191.48714
 23
306.407991
 33
0.0
  0
SOLID
  5
36B
330
1F
100
AcDbEntity
  8
SK2
100
AcDbTrace
 10
192.104285
 20
267.907994
 30
0.0
 11
191.48714
 21
271.4079910000001
 31
0.0
 12
192.721429
 22
271.407996
 32
0.0
 13
192.721429
 23
271.407996
 33
0.0
  0
LINE
  5
36C
330
1F
100
AcDbEntity
  8
CUT
100
AcDbLine
 10
446.7534797270134
 20
298.1013181225453
 30
0.0
 11
447.2334058386329
 21
297.3026386918773
 31
0.0
  0
LINE
  5
36D
330
1F
100
AcDbEntity
  8
CUT
100
AcDbLine
 10
447.2754235247553
 20
297.1561161883041
 30
0.0
 11
447.3998607906598
 21
290.0309651127017
 31
0.0
  0
LINE
  5
36E
330
1F
100
AcDbEntity
  8
CUT
100
AcDbLine
 10
434.5045500895835
 20
306.9972300692129
 30
0.0
 11
445.6427292886618
 21
307.4046831512871
 31
0.0
  0
LINE
  5
370
330
1F
100
AcDbEntity
  8
CUT
100
AcDbLine
 10
446.4463777168563
 20
306.6582945291699
 30
0.0
 11
446.7534797270134
 21
298.1013181225453
 31
0.0
  0
LINE
  5
372
330
1F
100
AcDbEntity
  8
CUT
100
AcDbLine
 10
447.399861
 20
290.030965
 30
0.0
 11
447.399861
 21
288.907994
 31
0.0
  0
LINE
  5
373
330
1F
100
AcDbEntity
  8
CUT
100
AcDbLine
 10
447.399861
 20
288.907994
 30
0.0
 11
434.50455
 21
288.907994
 31
0.0
  0
LINE
  5
374
330
1F
100
AcDbEntity
  8
CUT
100
AcDbLine
 10
434.50455
 20
288.907994
 30
0.0
 11
434.50455
 21
306.99723
 31
0.0
  0
LINE
  5
375
330
1F
100
AcDbEntity
  8
CUT
100
AcDbLine
 10
445.6427292886618
 20
307.4046831512871
 30
0.0
 11
445.6427292886618
 21
307.4046831512871
 31
0.0
  0
ARC
  5
376
330
1F
100
AcDbEntity
  8
CUT
100
AcDbCircle
 10
445.6665377073115
 20
306.6244732576728
 30
0.0
 40
0.780573070821911
100
AcDbArc
 50
2.483333126388497
 51
91.74786135666753
  0
LINE
  5
377
330
1F
100
AcDbEntity
  8
CUT
100
AcDbLine
 10
447.2334058386327
 20
297.3026386918773
 30
0.0
 11
447.2334058386327
 21
297.3026386918773
 31
0.0
  0
ARC
  5
378
330
1F
100
AcDbEntity
  8
CUT
100
AcDbCircle
 10
446.9810532454219
 20
297.1509866485933
 30
0.0
 40
0.2944149682548077
100
AcDbArc
 50
0.9983047031238154
 51
31.0038880491877
  0
ENDSEC
  0
SECTION
  2
OBJECTS
  0
DICTIONARY
  5
C
330
0
100
AcDbDictionary
281
     1
  3
ACAD_CIP_PREVIOUS_PRODUCT_INFO
350
33E
  3
ACAD_COLOR
350
339
  3
ACAD_DETAILVIEWSTYLE
350
335
  3
ACAD_GROUP
350
D
  3
ACAD_LAYOUT
350
1A
  3
ACAD_MATERIAL
350
43
  3
ACAD_MLEADERSTYLE
350
6B
  3
ACAD_MLINESTYLE
350
17
  3
ACAD_PLOTSETTINGS
350
19
  3
ACAD_PLOTSTYLENAME
350
E
  3
ACAD_SCALELIST
350
47
  3
ACAD_SECTIONVIEWSTYLE
350
336
  3
ACAD_TABLESTYLE
350
69
  3
ACAD_VISUALSTYLE
350
2A
  3
ACDB_RECOMPOSE_DATA
350
3A4
  3
AcDbVariableDictionary
350
2F2
  0
DICTIONARY
  5
387
330
10
100
AcDbDictionary
280
     1
281
     1
  3
ADSK_XREC_LAYER_RECONCILED
360
388
  0
DICTIONARY
  5
389
330
379
100
AcDbDictionary
280
     1
281
     1
  3
ADSK_XREC_LAYER_RECONCILED
360
38A
  0
DICTIONARY
  5
38B
330
37A
100
AcDbDictionary
280
     1
281
     1
  3
ADSK_XREC_LAYER_RECONCILED
360
38C
  0
DICTIONARY
  5
38D
330
37B
100
AcDbDictionary
280
     1
281
     1
  3
ADSK_XREC_LAYER_RECONCILED
360
38E
  0
DICTIONARY
  5
38F
330
37D
100
AcDbDictionary
280
     1
281
     1
  3
ADSK_XREC_LAYER_RECONCILED
360
390
  0
DICTIONARY
  5
391
330
37E
100
AcDbDictionary
280
     1
281
     1
  3
ADSK_XREC_LAYER_RECONCILED
360
392
  0
DICTIONARY
  5
393
330
380
100
AcDbDictionary
280
     1
281
     1
  3
ADSK_XREC_LAYER_RECONCILED
360
394
  0
DICTIONARY
  5
395
330
381
100
AcDbDictionary
280
     1
281
     1
  3
ADSK_XREC_LAYER_RECONCILED
360
396
  0
DICTIONARY
  5
397
330
382
100
AcDbDictionary
280
     1
281
     1
  3
ADSK_XREC_LAYER_RECONCILED
360
398
  0
DICTIONARY
  5
399
330
383
100
AcDbDictionary
280
     1
281
     1
  3
ADSK_XREC_LAYER_RECONCILED
360
39A
  0
DICTIONARY
  5
39B
330
384
100
AcDbDictionary
280
     1
281
     1
  3
ADSK_XREC_LAYER_RECONCILED
360
39C
  0
DICTIONARY
  5
39D
330
385
100
AcDbDictionary
280
     1
281
     1
  3
ADSK_XREC_LAYER_RECONCILED
360
39E
  0
DICTIONARY
  5
33F
330
1F
100
AcDbDictionary
280
     1
281
     1
  3
ACAD_SORTENTS
360
340
  0
XRECORD
  5
33E
102
{ACAD_REACTORS
330
C
102
}
330
C
100
AcDbXrecord
280
     1
300
ACD
300
2019
300
87084ACD_2019_0F
  0
DICTIONARY
  5
339
102
{ACAD_REACTORS
330
C
102
}
330
C
100
AcDbDictionary
281
     1
  0
DICTIONARY
  5
335
102
{ACAD_REACTORS
330
C
102
}
330
C
100
AcDbDictionary
281
     1
  3
Metric50
350
33B
  0
DICTIONARY
  5
D
102
{ACAD_REACTORS
330
C
102
}
330
C
100
AcDbDictionary
281
     1
  3
NULOVY_BOD
350
386
  0
DICTIONARY
  5
1A
102
{ACAD_REACTORS
330
C
102
}
330
C
100
AcDbDictionary
281
     1
  3
Layout1
350
1E
  3
Layout2
350
26
  3
Model
350
22
  0
DICTIONARY
  5
43
102
{ACAD_REACTORS
330
C
102
}
330
C
100
AcDbDictionary
281
     1
  3
ByBlock
350
45
  3
ByLayer
350
44
  3
Global
350
46
  0
DICTIONARY
  5
6B
102
{ACAD_REACTORS
330
C
102
}
330
C
100
AcDbDictionary
281
     1
  3
Standard
350
6C
  0
DICTIONARY
  5
17
102
{ACAD_REACTORS
330
C
102
}
330
C
100
AcDbDictionary
281
     1
  3
Standard
350
18
  0
DICTIONARY
  5
19
102
{ACAD_REACTORS
330
C
102
}
330
C
100
AcDbDictionary
281
     1
  0
ACDBDICTIONARYWDFLT
  5
E
102
{ACAD_REACTORS
330
C
102
}
330
C
100
AcDbDictionary
281
     1
  3
Normal
350
F
100
AcDbDictionaryWithDefault
340
F
  0
DICTIONARY
  5
47
102
{ACAD_REACTORS
330
C
102
}
330
C
100
AcDbDictionary
281
     1
  3
A0
350
48
  3
A1
350
49
  3
A2
350
4A
  3
A3
350
4B
  3
A4
350
4C
  3
A5
350
4D
  3
A6
350
4E
  3
A7
350
4F
  3
A8
350
50
  3
A9
350
51
  3
B0
350
52
  3
B1
350
53
  3
B2
350
54
  3
B3
350
55
  3
B4
350
56
  3
B5
350
57
  3
B6
350
58
  3
B7
350
59
  3
B8
350
5A
  3
B9
350
5B
  3
C0
350
5C
  3
C1
350
5D
  3
C2
350
5E
  3
C3
350
5F
  3
C4
350
60
  3
C5
350
61
  3
C6
350
62
  3
C7
350
63
  3
C8
350
64
  3
C9
350
65
  3
D0
350
66
  3
D1
350
67
  3
D2
350
68
  0
DICTIONARY
  5
336
102
{ACAD_REACTORS
330
C
102
}
330
C
100
AcDbDictionary
281
     1
  3
Metric50
350
33A
  0
DICTIONARY
  5
69
102
{ACAD_REACTORS
330
C
102
}
330
C
100
AcDbDictionary
281
     1
  3
Standard
350
6A
  0
DICTIONARY
  5
2A
102
{ACAD_REACTORS
330
C
102
}
330
C
100
AcDbDictionary
281
     1
  3
2dWireframe
350
2F
  3
Basic
350
32
  3
Brighten
350
36
  3
ColorChange
350
3A
  3
Conceptual
350
34
  3
Dim
350
35
  3
EdgeColorOff
350
3D
  3
Facepattern
350
39
  3
Flat
350
2B
  3
FlatWithEdges
350
2C
  3
Gouraud
350
2D
  3
GouraudWithEdges
350
2E
  3
Hidden
350
31
  3
JitterOff
350
3B
  3
Linepattern
350
38
  3
OverhangOff
350
3C
  3
Realistic
350
33
  3
Shaded
350
42
  3
Shaded with edges
350
41
  3
Shades of Gray
350
3E
  3
Sketchy
350
3F
  3
Thicken
350
37
  3
Wireframe
350
30
  3
X-Ray
350
40
  0
XRECORD
  5
3A4
102
{ACAD_REACTORS
330
C
102
}
330
C
100
AcDbXrecord
280
     1
 90
        1
330
6A
  0
DICTIONARY
  5
2F2
102
{ACAD_REACTORS
330
C
102
}
330
C
100
AcDbDictionary
281
     1
  3
CANNOSCALE
350
2F3
  3
CMLEADERSTYLE
350
334
  3
CTABLESTYLE
350
333
  3
CVIEWDETAILSTYLE
350
39F
  3
CVIEWSECTIONSTYLE
350
3A0
  3
MSLTSCALE
350
2F4
  3
XCLIPFRAME
350
3A1
  0
XRECORD
  5
388
102
{ACAD_REACTORS
330
387
102
}
330
387
100
AcDbXrecord
280
     1
290
     1
  0
XRECORD
  5
38A
102
{ACAD_REACTORS
330
389
102
}
330
389
100
AcDbXrecord
280
     1
290
     1
  0
XRECORD
  5
38C
102
{ACAD_REACTORS
330
38B
102
}
330
38B
100
AcDbXrecord
280
     1
290
     1
  0
XRECORD
  5
38E
102
{ACAD_REACTORS
330
38D
102
}
330
38D
100
AcDbXrecord
280
     1
290
     1
  0
XRECORD
  5
390
102
{ACAD_REACTORS
330
38F
102
}
330
38F
100
AcDbXrecord
280
     1
290
     1
  0
XRECORD
  5
392
102
{ACAD_REACTORS
330
391
102
}
330
391
100
AcDbXrecord
280
     1
290
     1
  0
XRECORD
  5
394
102
{ACAD_REACTORS
330
393
102
}
330
393
100
AcDbXrecord
280
     1
290
     1
  0
XRECORD
  5
396
102
{ACAD_REACTORS
330
395
102
}
330
395
100
AcDbXrecord
280
     1
290
     1
  0
XRECORD
  5
398
102
{ACAD_REACTORS
330
397
102
}
330
397
100
AcDbXrecord
280
     1
290
     1
  0
XRECORD
  5
39A
102
{ACAD_REACTORS
330
399
102
}
330
399
100
AcDbXrecord
280
     1
290
     1
  0
XRECORD
  5
39C
102
{ACAD_REACTORS
330
39B
102
}
330
39B
100
AcDbXrecord
280
     1
290
     1
  0
XRECORD
  5
39E
102
{ACAD_REACTORS
330
39D
102
}
330
39D
100
AcDbXrecord
280
     1
290
     1
  0
SORTENTSTABLE
  5
340
102
{ACAD_REACTORS
330
33F
102
}
330
33F
100
AcDbSortentsTable
330
1F
331
341
  5
294
331
342
  5
2AD
331
343
  5
341
331
344
  5
342
331
345
  5
343
331
346
  5
344
331
347
  5
345
331
348
  5
346
331
349
  5
347
331
34A
  5
348
331
34B
  5
349
331
34C
  5
34A
331
34D
  5
34B
331
34E
  5
34C
331
34F
  5
34D
331
350
  5
34E
331
351
  5
34F
331
352
  5
350
331
353
  5
351
331
354
  5
352
331
355
  5
353
331
356
  5
354
331
357
  5
355
331
358
  5
366
331
359
  5
367
331
35A
  5
368
331
35B
  5
369
331
35C
  5
36A
331
35D
  5
36B
331
35E
  5
358
331
35F
  5
359
331
360
  5
35A
331
361
  5
35B
331
362
  5
35C
331
363
  5
35D
331
364
  5
35E
331
365
  5
35F
331
366
  5
360
331
367
  5
361
331
368
  5
362
331
369
  5
363
331
36A
  5
364
331
36B
  5
365
331
370
  5
373
331
372
  5
376
331
373
  5
377
331
374
  5
378
331
375
  5
370
331
376
  5
372
331
377
  5
374
331
378
  5
375
  0
ACDBDETAILVIEWSTYLE
  5
33B
102
{ACAD_XDICTIONARY
360
3D8
102
}
102
{ACAD_REACTORS
330
335
102
}
330
335
100
AcDbModelDocViewStyle
 70
     0
  3
Metric50
290
     0
100
AcDbDetailViewStyle
 70
     0
 71
     0
 90
        3
 71
     1
340
11
 62
   256
 40
5.0
340
0
 62
   256
 40
5.0
300

 40
0.0
280
     1
 71
     2
340
16
 90
       25
 62
   256
 71
     3
340
11
 62
   256
 40
5.0
 90
        0
 40
15.0
 90
        1
300
%<\AcVar ViewDetailId>% (%<\AcVar ViewScale \f "%sn">%)
 71
     4
340
16
 90
       25
 62
   256
340
16
 90
       25
 62
   256
280
     0
  0
GROUP
  5
386
102
{ACAD_REACTORS
330
D
102
}
330
D
100
AcDbGroup
300

 70
     0
 71
     1
340
73
  0
LAYOUT
  5
1E
102
{ACAD_REACTORS
330
1A
102
}
330
1A
100
AcDbPlotSettings
  1

  2
none_device
  4

  6

 40
0.0
 41
0.0
 42
0.0
 43
0.0
 44
0.0
 45
0.0
 46
0.0
 47
0.0
 48
0.0
 49
0.0
140
0.0
141
0.0
142
1.0
143
1.0
 70
   688
 72
     0
 73
     0
 74
     5
  7

 75
    16
147
1.0
 76
     0
 77
     2
 78
   300
148
0.0
149
0.0
100
AcDbLayout
  1
Layout1
 70
     1
 71
     1
 10
-0.5
 20
-0.5
 11
5.0
 21
5.0
 12
0.0
 22
0.0
 32
0.0
 14
-0.5
 24
-0.5
 34
-0.5
 15
5.0
 25
5.0
 35
5.0
146
0.0
 13
0.0
 23
0.0
 33
0.0
 16
1.0
 26
0.0
 36
0.0
 17
0.0
 27
1.0
 37
0.0
 76
     0
330
1B
  0
LAYOUT
  5
26
102
{ACAD_REACTORS
330
1A
102
}
330
1A
100
AcDbPlotSettings
  1

  2
none_device
  4

  6

 40
0.0
 41
0.0
 42
0.0
 43
0.0
 44
0.0
 45
0.0
 46
0.0
 47
0.0
 48
0.0
 49
0.0
140
0.0
141
0.0
142
1.0
143
1.0
 70
   688
 72
     0
 73
     0
 74
     5
  7

 75
    16
147
1.0
 76
     0
 77
     2
 78
   300
148
0.0
149
0.0
100
AcDbLayout
  1
Layout2
 70
     1
 71
     2
 10
0.0
 20
0.0
 11
0.0
 21
0.0
 12
0.0
 22
0.0
 32
0.0
 14
0.0
 24
0.0
 34
0.0
 15
0.0
 25
0.0
 35
0.0
146
0.0
 13
0.0
 23
0.0
 33
0.0
 16
1.0
 26
0.0
 36
0.0
 17
0.0
 27
1.0
 37
0.0
 76
     0
330
23
  0
LAYOUT
  5
22
102
{ACAD_REACTORS
330
1A
102
}
330
1A
100
AcDbPlotSettings
  1

  2
none_device
  4
Letter_(8.50_x_11.00_Inches)
  6

 40
6.349999999999999
 41
6.349999999999999
 42
6.350005
 43
6.350005
 44
215.9
 45
279.4
 46
0.0
 47
0.0
 48
0.0
 49
0.0
140
0.0
141
0.0
142
1.0
143
1.0
 70
  1712
 72
     0
 73
     0
 74
     0
  7

 75
     0
147
1.0
 76
     0
 77
     2
 78
   300
148
0.0
149
0.0
100
AcDbLayout
  1
Model
 70
     1
 71
     0
 10
-0.5
 20
-0.5
 11
5.0
 21
5.0
 12
0.0
 22
0.0
 32
0.0
 14
-0.5
 24
-0.5
 34
-0.5
 15
5.0
 25
5.0
 35
5.0
146
0.0
 13
0.0
 23
0.0
 33
0.0
 16
1.0
 26
0.0
 36
0.0
 17
0.0
 27
1.0
 37
0.0
 76
     0
330
1F
331
29
  0
MATERIAL
  5
45
102
{ACAD_XDICTIONARY
360
328
102
}
102
{ACAD_REACTORS
330
43
102
}
330
43
100
AcDbMaterial
  1
ByBlock
  0
MATERIAL
  5
44
102
{ACAD_XDICTIONARY
360
326
102
}
102
{ACAD_REACTORS
330
43
102
}
330
43
100
AcDbMaterial
  1
ByLayer
  0
MATERIAL
  5
46
102
{ACAD_XDICTIONARY
360
32A
102
}
102
{ACAD_REACTORS
330
43
102
}
330
43
100
AcDbMaterial
  1
Global
  0
MLEADERSTYLE
  5
6C
102
{ACAD_REACTORS
330
6B
102
}
330
6B
100
AcDbMLeaderStyle
170
     2
171
     1
172
     0
 90
        2
 40
0.0
 41
0.0
173
     1
 91
-1056964608
340
14
 92
       -2
290
     1
 42
0.09
291
     1
 43
0.36
  3
Standard
 44
0.18
300

342
11
174
     1
178
     6
175
     1
176
     0
 93
-1056964608
 45
0.18
292
     0
297
     0
 46
0.18
 94
-1056964608
 47
1.0
 49
1.0
140
1.0
293
     1
141
0.0
294
     1
177
     0
142
1.0
295
     0
296
     0
143
0.125
1001
ACAD_MLEADERVER
1070
     2
  0
MLINESTYLE
  5
18
102
{ACAD_REACTORS
330
17
102
}
330
17
100
AcDbMlineStyle
  2
STANDARD
 70
     0
  3

 62
   256
 51
90.0
 52
90.0
 71
     2
 49
0.5
 62
   256
  6
BYLAYER
 49
-0.5
 62
   256
  6
BYLAYER
  0
ACDBPLACEHOLDER
  5
F
102
{ACAD_REACTORS
330
E
102
}
330
E
  0
SCALE
  5
48
102
{ACAD_REACTORS
330
47
102
}
330
47
100
AcDbScale
 70
     0
300
1:1
140
1.0
141
1.0
290
     1
  0
SCALE
  5
49
102
{ACAD_REACTORS
330
47
102
}
330
47
100
AcDbScale
 70
     0
300
1:2
140
1.0
141
2.0
290
     0
  0
SCALE
  5
4A
102
{ACAD_REACTORS
330
47
102
}
330
47
100
AcDbScale
 70
     0
300
1:4
140
1.0
141
4.0
290
     0
  0
SCALE
  5
4B
102
{ACAD_REACTORS
330
47
102
}
330
47
100
AcDbScale
 70
     0
300
1:5
140
1.0
141
5.0
290
     0
  0
SCALE
  5
4C
102
{ACAD_REACTORS
330
47
102
}
330
47
100
AcDbScale
 70
     0
300
1:8
140
1.0
141
8.0
290
     0
  0
SCALE
  5
4D
102
{ACAD_REACTORS
330
47
102
}
330
47
100
AcDbScale
 70
     0
300
1:10
140
1.0
141
10.0
290
     0
  0
SCALE
  5
4E
102
{ACAD_REACTORS
330
47
102
}
330
47
100
AcDbScale
 70
     0
300
1:16
140
1.0
141
16.0
290
     0
  0
SCALE
  5
4F
102
{ACAD_REACTORS
330
47
102
}
330
47
100
AcDbScale
 70
     0
300
1:20
140
1.0
141
20.0
290
     0
  0
SCALE
  5
50
102
{ACAD_REACTORS
330
47
102
}
330
47
100
AcDbScale
 70
     0
300
1:30
140
1.0
141
30.0
290
     0
  0
SCALE
  5
51
102
{ACAD_REACTORS
330
47
102
}
330
47
100
AcDbScale
 70
     0
300
1:40
140
1.0
141
40.0
290
     0
  0
SCALE
  5
52
102
{ACAD_REACTORS
330
47
102
}
330
47
100
AcDbScale
 70
     0
300
1:50
140
1.0
141
50.0
290
     0
  0
SCALE
  5
53
102
{ACAD_REACTORS
330
47
102
}
330
47
100
AcDbScale
 70
     0
300
1:100
140
1.0
141
100.0
290
     0
  0
SCALE
  5
54
102
{ACAD_REACTORS
330
47
102
}
330
47
100
AcDbScale
 70
     0
300
2:1
140
2.0
141
1.0
290
     0
  0
SCALE
  5
55
102
{ACAD_REACTORS
330
47
102
}
330
47
100
AcDbScale
 70
     0
300
4:1
140
4.0
141
1.0
290
     0
  0
SCALE
  5
56
102
{ACAD_REACTORS
330
47
102
}
330
47
100
AcDbScale
 70
     0
300
8:1
140
8.0
141
1.0
290
     0
  0
SCALE
  5
57
102
{ACAD_REACTORS
330
47
102
}
330
47
100
AcDbScale
 70
     0
300
10:1
140
10.0
141
1.0
290
     0
  0
SCALE
  5
58
102
{ACAD_REACTORS
330
47
102
}
330
47
100
AcDbScale
 70
     0
300
100:1
140
100.0
141
1.0
290
     0
  0
SCALE
  5
59
102
{ACAD_REACTORS
330
47
102
}
330
47
100
AcDbScale
 70
     0
300
1/128" = 1'-0"
140
0.007812
141
12.0
290
     0
  0
SCALE
  5
5A
102
{ACAD_REACTORS
330
47
102
}
330
47
100
AcDbScale
 70
     0
300
1/64" = 1'-0"
140
0.015625
141
12.0
290
     0
  0
SCALE
  5
5B
102
{ACAD_REACTORS
330
47
102
}
330
47
100
AcDbScale
 70
     0
300
1/32" = 1'-0"
140
0.03125
141
12.0
290
     0
  0
SCALE
  5
5C
102
{ACAD_REACTORS
330
47
102
}
330
47
100
AcDbScale
 70
     0
300
1/16" = 1'-0"
140
0.0625
141
12.0
290
     0
  0
SCALE
  5
5D
102
{ACAD_REACTORS
330
47
102
}
330
47
100
AcDbScale
 70
     0
300
3/32" = 1'-0"
140
0.09375
141
12.0
290
     0
  0
SCALE
  5
5E
102
{ACAD_REACTORS
330
47
102
}
330
47
100
AcDbScale
 70
     0
300
1/8" = 1'-0"
140
0.125
141
12.0
290
     0
  0
SCALE
  5
5F
102
{ACAD_REACTORS
330
47
102
}
330
47
100
AcDbScale
 70
     0
300
3/16" = 1'-0"
140
0.1875
141
12.0
290
     0
  0
SCALE
  5
60
102
{ACAD_REACTORS
330
47
102
}
330
47
100
AcDbScale
 70
     0
300
1/4" = 1'-0"
140
0.25
141
12.0
290
     0
  0
SCALE
  5
61
102
{ACAD_REACTORS
330
47
102
}
330
47
100
AcDbScale
 70
     0
300
3/8" = 1'-0"
140
0.375
141
12.0
290
     0
  0
SCALE
  5
62
102
{ACAD_REACTORS
330
47
102
}
330
47
100
AcDbScale
 70
     0
300
1/2" = 1'-0"
140
0.5
141
12.0
290
     0
  0
SCALE
  5
63
102
{ACAD_REACTORS
330
47
102
}
330
47
100
AcDbScale
 70
     0
300
3/4" = 1'-0"
140
0.75
141
12.0
290
     0
  0
SCALE
  5
64
102
{ACAD_REACTORS
330
47
102
}
330
47
100
AcDbScale
 70
     0
300
1" = 1'-0"
140
1.0
141
12.0
290
     0
  0
SCALE
  5
65
102
{ACAD_REACTORS
330
47
102
}
330
47
100
AcDbScale
 70
     0
300
1-1/2" = 1'-0"
140
1.5
141
12.0
290
     0
  0
SCALE
  5
66
102
{ACAD_REACTORS
330
47
102
}
330
47
100
AcDbScale
 70
     0
300
3" = 1'-0"
140
3.0
141
12.0
290
     0
  0
SCALE
  5
67
102
{ACAD_REACTORS
330
47
102
}
330
47
100
AcDbScale
 70
     0
300
6" = 1'-0"
140
6.0
141
12.0
290
     0
  0
SCALE
  5
68
102
{ACAD_REACTORS
330
47
102
}
330
47
100
AcDbScale
 70
     0
300
1'-0" = 1'-0"
140
12.0
141
12.0
290
     0
  0
ACDBSECTIONVIEWSTYLE
  5
33A
102
{ACAD_XDICTIONARY
360
3D6
102
}
102
{ACAD_REACTORS
330
336
102
}
330
336
100
AcDbModelDocViewStyle
 70
     0
  3
Metric50
290
     0
100
AcDbSectionViewStyle
 70
     0
 71
     0
 90
      102
 71
     1
340
11
 62
   256
 40
5.0
340
0
340
0
 62
   256
 40
5.0
300
I, O, Q, S, X, Z
 40
10.0
 90
        0
 40
2.5
 90
        0
 71
     2
340
16
 90
       25
 62
   256
340
16
 90
       50
 62
   256
 40
5.0
 40
2.5
 40
5.0
 71
     3
340
11
 62
   256
 40
5.0
 90
        0
 40
15.0
 90
        1
300
%<\AcVar ViewSectionStartId>%-%<\AcVar ViewSectionEndId>% (%<\AcVar ViewScale \f "%sn">%)
 71
     4
 62
   256
 62
   257
300
ANSI31
 40
1.0
 90
        0
290
     0
290
     0
 90
        6
 40
0.0
 40
1.570796326794896
 40
0.2617993877991494
 40
1.308996938995747
 40
-0.2617993877991494
 40
1.832595714594046
  0
TABLESTYLE
  5
6A
102
{ACAD_XDICTIONARY
360
32C
102
}
102
{ACAD_REACTORS
330
69
102
}
330
69
100
AcDbTableStyle
  3
Standard
 70
     0
 71
     0
 40
0.06
 41
0.06
280
     0
281
     0
  7
Standard
140
0.18
170
     2
 62
     0
 63
     7
283
     0
274
    -2
284
     1
 64
     0
275
    -2
285
     1
 65
     0
276
    -2
286
     1
 66
     0
277
    -2
287
     1
 67
     0
278
    -2
288
     1
 68
     0
279
    -2
289
     1
 69
     0
  7
Standard
140
0.25
170
     5
 62
     0
 63
     7
283
     0
274
    -2
284
     1
 64
     0
275
    -2
285
     1
 65
     0
276
    -2
286
     1
 66
     0
277
    -2
287
     1
 67
     0
278
    -2
288
     1
 68
     0
279
    -2
289
     1
 69
     0
  7
Standard
140
0.18
170
     5
 62
     0
 63
     7
283
     0
274
    -2
284
     1
 64
     0
275
    -2
285
     1
 65
     0
276
    -2
286
     1
 66
     0
277
    -2
287
     1
 67
     0
278
    -2
288
     1
 68
     0
279
    -2
289
     1
 69
     0
  0
VISUALSTYLE
  5
2F
102
{ACAD_XDICTIONARY
360
3AD
102
}
102
{ACAD_REACTORS
330
2A
102
}
330
2A
100
AcDbVisualStyle
  2

 70
     4
 71
     0
 72
     2
 73
     0
 90
        0
 40
-0.6
 41
-30.0
 62
     5
 63
     7
421
 16777215
 74
     1
 91
        4
 64
     7
 65
   257
 75
     1
175
     1
 42
1.0
 92
        0
 66
   257
 43
1.0
 76
     1
 77
     6
 78
     2
 67
     7
 79
     5
170
     0
171
     0
290
     0
174
     0
 93
        1
 44
0.0
173
     0
291
     0
 45
0.0
1001
ACAD
1000
AcDbSavedByObjectVersion
1070
     0
  0
VISUALSTYLE
  5
32
102
{ACAD_XDICTIONARY
360
3B3
102
}
102
{ACAD_REACTORS
330
2A
102
}
330
2A
100
AcDbVisualStyle
  2

 70
     7
 71
     1
 72
     0
 73
     1
 90
        0
 40
-0.6
 41
-30.0
 62
     5
 63
     7
421
 16777215
 74
     0
 91
        4
 64
     7
 65
   257
 75
     1
175
     1
 42
1.0
 92
        8
 66
     7
 43
1.0
 76
     1
 77
     6
 78
     2
 67
     7
 79
     5
170
     0
171
     0
290
     0
174
     0
 93
        1
 44
0.0
173
     0
291
     1
 45
0.0
1001
ACAD
1000
AcDbSavedByObjectVersion
1070
     0
  0
VISUALSTYLE
  5
36
102
{ACAD_XDICTIONARY
360
3BB
102
}
102
{ACAD_REACTORS
330
2A
102
}
330
2A
100
AcDbVisualStyle
  2

 70
    12
 71
     2
 72
     2
 73
     0
 90
        0
 40
-0.6
 41
-30.0
 62
     5
 63
     7
421
 16777215
 74
     1
 91
        4
 64
     7
 65
   257
 75
     1
175
     1
 42
1.0
 92
        8
 66
     7
 43
1.0
 76
     1
 77
     6
 78
     2
 67
     7
 79
     5
170
     0
171
     0
290
     0
174
     0
 93
        1
 44
50.0
173
     0
291
     1
 45
0.0
1001
ACAD
1000
AcDbSavedByObjectVersion
1070
     0
  0
VISUALSTYLE
  5
3A
102
{ACAD_XDICTIONARY
360
3C3
102
}
102
{ACAD_REACTORS
330
2A
102
}
330
2A
100
AcDbVisualStyle
  2

 70
    16
 71
     2
 72
     2
 73
     3
 90
        0
 40
-0.6
 41
-30.0
 62
     5
 63
     8
421
  8421504
 74
     1
 91
        4
 64
     7
 65
   257
 75
     1
175
     1
 42
1.0
 92
        8
 66
     8
424
  8421504
 43
1.0
 76
     1
 77
     6
 78
     2
 67
     7
 79
     5
170
     0
171
     0
290
     0
174
     0
 93
        1
 44
0.0
173
     0
291
     1
 45
0.0
1001
ACAD
1000
AcDbSavedByObjectVersion
1070
     0
  0
VISUALSTYLE
  5
34
102
{ACAD_XDICTIONARY
360
3B7
102
}
102
{ACAD_REACTORS
330
2A
102
}
330
2A
100
AcDbVisualStyle
  2

 70
     9
 71
     3
 72
     2
 73
     0
 90
        0
 40
-0.6
 41
-30.0
 62
     5
 63
     7
421
 16777215
 74
     2
 91
        2
 64
     7
 65
   257
 75
     1
175
     1
 42
179.0
 92
        8
 66
     7
 43
1.0
 76
     1
 77
     6
 78
     2
 67
     7
 79
     3
170
     0
171
     0
290
     0
174
     0
 93
        1
 44
0.0
173
     0
291
     0
 45
0.0
1001
ACAD
1000
AcDbSavedByObjectVersion
1070
     0
  0
VISUALSTYLE
  5
35
102
{ACAD_XDICTIONARY
360
3B9
102
}
102
{ACAD_REACTORS
330
2A
102
}
330
2A
100
AcDbVisualStyle
  2

 70
    11
 71
     2
 72
     2
 73
     0
 90
        0
 40
-0.6
 41
-30.0
 62
     5
 63
     7
421
 16777215
 74
     1
 91
        4
 64
     7
 65
   257
 75
     1
175
     1
 42
1.0
 92
        8
 66
     7
 43
1.0
 76
     1
 77
     6
 78
     2
 67
     7
 79
     5
170
     0
171
     0
290
     0
174
     0
 93
        1
 44
-50.0
173
     0
291
     1
 45
0.0
1001
ACAD
1000
AcDbSavedByObjectVersion
1070
     0
  0
VISUALSTYLE
  5
3D
102
{ACAD_XDICTIONARY
360
3C9
102
}
102
{ACAD_REACTORS
330
2A
102
}
330
2A
100
AcDbVisualStyle
  2

 70
    22
 71
     2
 72
     2
 73
     0
 90
        0
 40
-0.6
 41
-30.0
 62
     5
 63
     7
421
 16777215
 74
     1
 91
        4
 64
     7
 65
   257
 75
     1
175
     1
 42
1.0
 92
        8
 66
     7
 43
1.0
 76
     1
 77
     6
 78
     2
 67
     7
 79
     5
170
     0
171
     0
290
     0
174
     0
 93
        1
 44
0.0
173
     0
291
     1
 45
0.0
1001
ACAD
1000
AcDbSavedByObjectVersion
1070
     0
  0
VISUALSTYLE
  5
39
102
{ACAD_XDICTIONARY
360
3C1
102
}
102
{ACAD_REACTORS
330
2A
102
}
330
2A
100
AcDbVisualStyle
  2

 70
    15
 71
     2
 72
     2
 73
     0
 90
        0
 40
-0.6
 41
-30.0
 62
     5
 63
     7
421
 16777215
 74
     1
 91
        4
 64
     7
 65
   257
 75
     1
175
     1
 42
1.0
 92
        8
 66
     7
 43
1.0
 76
     1
 77
     6
 78
     2
 67
     7
 79
     5
170
     0
171
     0
290
     0
174
     0
 93
        1
 44
0.0
173
     0
291
     1
 45
0.0
1001
ACAD
1000
AcDbSavedByObjectVersion
1070
     0
  0
VISUALSTYLE
  5
2B
102
{ACAD_XDICTIONARY
360
3A5
102
}
102
{ACAD_REACTORS
330
2A
102
}
330
2A
100
AcDbVisualStyle
  2

 70
     0
 71
     2
 72
     1
 73
     1
 90
        2
 40
-0.6
 41
30.0
 62
     5
 63
     7
421
 16777215
 74
     0
 91
        0
 64
     7
 65
   257
 75
     1
175
     1
 42
1.0
 92
        8
 66
     7
 43
1.0
 76
     1
 77
     6
 78
     2
 67
     7
 79
     5
170
     0
171
     0
290
     0
174
     0
 93
       13
 44
0.0
173
     0
291
     1
 45
0.0
1001
ACAD
1000
AcDbSavedByObjectVersion
1070
     0
  0
VISUALSTYLE
  5
2C
102
{ACAD_XDICTIONARY
360
3A7
102
}
102
{ACAD_REACTORS
330
2A
102
}
330
2A
100
AcDbVisualStyle
  2

 70
     1
 71
     2
 72
     1
 73
     1
 90
        2
 40
-0.6
 41
30.0
 62
     5
 63
     7
421
 16777215
 74
     1
 91
        0
 64
     7
 65
   257
 75
     1
175
     1
 42
1.0
 92
        0
 66
   257
 43
1.0
 76
     1
 77
     6
 78
     2
 67
     7
 79
     5
170
     0
171
     0
290
     0
174
     0
 93
       13
 44
0.0
173
     0
291
     1
 45
0.0
1001
ACAD
1000
AcDbSavedByObjectVersion
1070
     0
  0
VISUALSTYLE
  5
2D
102
{ACAD_XDICTIONARY
360
3A9
102
}
102
{ACAD_REACTORS
330
2A
102
}
330
2A
100
AcDbVisualStyle
  2

 70
     2
 71
     2
 72
     2
 73
     1
 90
        2
 40
-0.6
 41
30.0
 62
     5
 63
     7
421
 16777215
 74
     0
 91
        0
 64
     7
 65
   257
 75
     1
175
     1
 42
1.0
 92
        0
 66
     7
 43
1.0
 76
     1
 77
     6
 78
     2
 67
     7
 79
     5
170
     0
171
     0
290
     0
174
     0
 93
       13
 44
0.0
173
     0
291
     1
 45
0.0
1001
ACAD
1000
AcDbSavedByObjectVersion
1070
     0
  0
VISUALSTYLE
  5
2E
102
{ACAD_XDICTIONARY
360
3AB
102
}
102
{ACAD_REACTORS
330
2A
102
}
330
2A
100
AcDbVisualStyle
  2

 70
     3
 71
     2
 72
     2
 73
     1
 90
        2
 40
-0.6
 41
30.0
 62
     5
 63
     7
421
 16777215
 74
     1
 91
        0
 64
     7
 65
   257
 75
     1
175
     1
 42
1.0
 92
        0
 66
   257
 43
1.0
 76
     1
 77
     6
 78
     2
 67
     7
 79
     5
170
     0
171
     0
290
     0
174
     0
 93
       13
 44
0.0
173
     0
291
     1
 45
0.0
1001
ACAD
1000
AcDbSavedByObjectVersion
1070
     0
  0
VISUALSTYLE
  5
31
102
{ACAD_XDICTIONARY
360
3B1
102
}
102
{ACAD_REACTORS
330
2A
102
}
330
2A
100
AcDbVisualStyle
  2

 70
     6
 71
     1
 72
     2
 73
     2
 90
        0
 40
-0.6
 41
-30.0
 62
     5
 63
     7
421
 16777215
 74
     2
 91
        2
 64
     7
 65
   257
 75
     2
175
     1
 42
40.0
 92
        0
 66
   257
 43
1.0
 76
     1
 77
     6
 78
     2
 67
     7
 79
     3
170
     0
171
     0
290
     0
174
     0
 93
        1
 44
0.0
173
     0
291
     0
 45
0.0
1001
ACAD
1000
AcDbSavedByObjectVersion
1070
     0
  0
VISUALSTYLE
  5
3B
102
{ACAD_XDICTIONARY
360
3C5
102
}
102
{ACAD_REACTORS
330
2A
102
}
330
2A
100
AcDbVisualStyle
  2

 70
    20
 71
     2
 72
     2
 73
     0
 90
        0
 40
-0.6
 41
-30.0
 62
     5
 63
     7
421
 16777215
 74
     1
 91
        4
 64
     7
 65
   257
 75
     1
175
     1
 42
1.0
 92
       10
 66
     7
 43
1.0
 76
     1
 77
     6
 78
     2
 67
     7
 79
     5
170
     0
171
     0
290
     0
174
     0
 93
        1
 44
0.0
173
     0
291
     1
 45
0.0
1001
ACAD
1000
AcDbSavedByObjectVersion
1070
     0
  0
VISUALSTYLE
  5
38
102
{ACAD_XDICTIONARY
360
3BF
102
}
102
{ACAD_REACTORS
330
2A
102
}
330
2A
100
AcDbVisualStyle
  2

 70
    14
 71
     2
 72
     2
 73
     0
 90
        0
 40
-0.6
 41
-30.0
 62
     5
 63
     7
421
 16777215
 74
     1
 91
        4
 64
     7
 65
   257
 75
     7
175
     7
 42
1.0
 92
        8
 66
     7
 43
1.0
 76
     1
 77
     6
 78
     2
 67
     7
 79
     5
170
     0
171
     0
290
     0
174
     0
 93
        1
 44
0.0
173
     0
291
     1
 45
0.0
1001
ACAD
1000
AcDbSavedByObjectVersion
1070
     0
  0
VISUALSTYLE
  5
3C
102
{ACAD_XDICTIONARY
360
3C7
102
}
102
{ACAD_REACTORS
330
2A
102
}
330
2A
100
AcDbVisualStyle
  2

 70
    21
 71
     2
 72
     2
 73
     0
 90
        0
 40
-0.6
 41
-30.0
 62
     5
 63
     7
421
 16777215
 74
     1
 91
        4
 64
     7
 65
   257
 75
     1
175
     1
 42
1.0
 92
        9
 66
     7
 43
1.0
 76
     1
 77
     6
 78
     2
 67
     7
 79
     5
170
     0
171
     0
290
     0
174
     0
 93
        1
 44
0.0
173
     0
291
     1
 45
0.0
1001
ACAD
1000
AcDbSavedByObjectVersion
1070
     0
  0
VISUALSTYLE
  5
33
102
{ACAD_XDICTIONARY
360
3B5
102
}
102
{ACAD_REACTORS
330
2A
102
}
330
2A
100
AcDbVisualStyle
  2

 70
     8
 71
     2
 72
     3
 73
     0
 90
        2
 40
-0.6
 41
30.0
 62
     5
 63
     7
421
 16777215
 74
     0
 91
        0
 64
     7
 65
   257
 75
     1
175
     1
 42
1.0
 92
        8
 66
   257
 43
1.0
 76
     1
 77
     6
 78
     2
 67
     7
 79
     3
170
     0
171
     0
290
     0
174
     0
 93
       13
 44
0.0
173
     0
291
     0
 45
0.0
1001
ACAD
1000
AcDbSavedByObjectVersion
1070
     0
  0
VISUALSTYLE
  5
42
102
{ACAD_XDICTIONARY
360
3D3
102
}
102
{ACAD_REACTORS
330
2A
102
}
330
2A
100
AcDbVisualStyle
  2

 70
    27
 71
     2
 72
     2
 73
     1
 90
        2
 40
-0.6
 41
30.0
 62
     5
 63
     7
421
 16777215
 74
     0
 91
        4
 64
     7
 65
   257
 75
     1
175
     1
 42
1.0
 92
        8
 66
   257
 43
1.0
 76
     1
 77
     6
 78
     2
 67
     8
425
  7895160
 79
     3
170
     0
171
     0
290
     0
174
     0
 93
        5
 44
0.0
173
     0
291
     0
 45
0.0
1001
ACAD
1000
AcDbSavedByObjectVersion
1070
     0
  0
VISUALSTYLE
  5
41
102
{ACAD_XDICTIONARY
360
3D1
102
}
102
{ACAD_REACTORS
330
2A
102
}
330
2A
100
AcDbVisualStyle
  2

 70
    26
 71
     2
 72
     2
 73
     1
 90
        2
 40
-0.6
 41
30.0
 62
     5
 63
     7
421
 16777215
 74
     1
 91
       10
 64
     7
 65
   257
 75
     2
175
     1
 42
1.0
 92
        8
 66
   257
 43
1.0
 76
     1
 77
     6
 78
     2
 67
     7
 79
     3
170
     0
171
     0
290
     0
174
     0
 93
        5
 44
0.0
173
     0
291
     0
 45
0.0
1001
ACAD
1000
AcDbSavedByObjectVersion
1070
     0
  0
VISUALSTYLE
  5
3E
102
{ACAD_XDICTIONARY
360
3CB
102
}
102
{ACAD_REACTORS
330
2A
102
}
330
2A
100
AcDbVisualStyle
  2

 70
    23
 71
     2
 72
     2
 73
     3
 90
        0
 40
-0.6
 41
-30.0
 62
     5
 63
     7
421
 16777215
 74
     2
 91
        2
 64
     7
 65
     7
 75
     1
175
     1
 42
40.0
 92
        8
 66
     7
 43
1.0
 76
     1
 77
     6
 78
     2
 67
     7
 79
     3
170
     0
171
     0
290
     0
174
     0
 93
        1
 44
0.0
173
     0
291
     0
 45
0.0
1001
ACAD
1000
AcDbSavedByObjectVersion
1070
     0
  0
VISUALSTYLE
  5
3F
102
{ACAD_XDICTIONARY
360
3CD
102
}
102
{ACAD_REACTORS
330
2A
102
}
330
2A
100
AcDbVisualStyle
  2

 70
    24
 71
     1
 72
     2
 73
     2
 90
        0
 40
-0.6
 41
-30.0
 62
     5
 63
     7
421
 16777215
 74
     2
 91
        2
 64
     7
 65
     7
 75
     1
175
     1
 42
40.0
 92
       11
 66
     7
 43
1.0
 76
     1
 77
     6
 78
     2
 67
     7
 79
     6
170
     0
171
     0
290
     0
174
     0
 93
        1
 44
0.0
173
     0
291
     0
 45
0.0
1001
ACAD
1000
AcDbSavedByObjectVersion
1070
     0
  0
VISUALSTYLE
  5
37
102
{ACAD_XDICTIONARY
360
3BD
102
}
102
{ACAD_REACTORS
330
2A
102
}
330
2A
100
AcDbVisualStyle
  2

 70
    13
 71
     2
 72
     2
 73
     0
 90
        0
 40
-0.6
 41
-30.0
 62
     5
 63
     7
421
 16777215
 74
     1
 91
        4
 64
     7
 65
   257
 75
     1
175
     1
 42
1.0
 92
       12
 66
     7
 43
1.0
 76
     1
 77
     6
 78
     2
 67
     7
 79
     5
170
     0
171
     0
290
     0
174
     0
 93
        1
 44
0.0
173
     0
291
     1
 45
0.0
1001
ACAD
1000
AcDbSavedByObjectVersion
1070
     0
  0
VISUALSTYLE
  5
30
102
{ACAD_XDICTIONARY
360
3AF
102
}
102
{ACAD_REACTORS
330
2A
102
}
330
2A
100
AcDbVisualStyle
  2

 70
     5
 71
     0
 72
     2
 73
     0
 90
        0
 40
-0.6
 41
-30.0
 62
     5
 63
     7
421
 16777215
 74
     1
 91
        4
 64
     7
 65
   257
 75
     1
175
     1
 42
1.0
 92
        0
 66
   257
 43
1.0
 76
     1
 77
     6
 78
     2
 67
     7
 79
     3
170
     0
171
     0
290
     0
174
     0
 93
        1
 44
0.0
173
     0
291
     0
 45
0.0
1001
ACAD
1000
AcDbSavedByObjectVersion
1070
     0
  0
VISUALSTYLE
  5
40
102
{ACAD_XDICTIONARY
360
3CF
102
}
102
{ACAD_REACTORS
330
2A
102
}
330
2A
100
AcDbVisualStyle
  2

 70
    25
 71
     2
 72
     2
 73
     1
 90
        1
 40
0.5
 41
-30.0
 62
     5
 63
     7
421
 16777215
 74
     1
 91
        0
 64
     7
 65
   257
 75
     1
175
     1
 42
1.0
 92
        8
 66
     7
 43
1.0
 76
     1
 77
     6
 78
     2
 67
     7
 79
     3
170
     0
171
     0
290
     0
174
     0
 93
       13
 44
0.0
173
     0
291
     0
 45
0.0
1001
ACAD
1000
AcDbSavedByObjectVersion
1070
     0
  0
DICTIONARYVAR
  5
2F3
102
{ACAD_REACTORS
330
2F2
102
}
330
2F2
100
DictionaryVariables
280
     0
  1
1:1
  0
DICTIONARYVAR
  5
334
102
{ACAD_REACTORS
330
2F2
102
}
330
2F2
100
DictionaryVariables
280
     0
  1
STANDARD
  0
DICTIONARYVAR
  5
333
102
{ACAD_REACTORS
330
2F2
102
}
330
2F2
100
DictionaryVariables
280
     0
  1
STANDARD
  0
DICTIONARYVAR
  5
39F
102
{ACAD_REACTORS
330
2F2
102
}
330
2F2
100
DictionaryVariables
280
     0
  1
Metric50
  0
DICTIONARYVAR
  5
3A0
102
{ACAD_REACTORS
330
2F2
102
}
330
2F2
100
DictionaryVariables
280
     0
  1
Metric50
  0
DICTIONARYVAR
  5
2F4
102
{ACAD_REACTORS
330
2F2
102
}
330
2F2
100
DictionaryVariables
280
     0
  1
1
  0
DICTIONARYVAR
  5
3A1
102
{ACAD_REACTORS
330
2F2
102
}
330
2F2
100
DictionaryVariables
280
     0
  1
2
  0
DICTIONARY
  5
3D8
330
33B
100
AcDbDictionary
280
     1
281
     1
  3
ACAD_XREC_ROUNDTRIP
360
3D9
  0
DICTIONARY
  5
328
330
45
100
AcDbDictionary
280
     1
281
     1
  3
ACAD_XREC_ROUNDTRIP
360
329
  0
DICTIONARY
  5
326
330
44
100
AcDbDictionary
280
     1
281
     1
  3
ACAD_XREC_ROUNDTRIP
360
327
  0
DICTIONARY
  5
32A
330
46
100
AcDbDictionary
280
     1
281
     1
  3
ACAD_XREC_ROUNDTRIP
360
32B
  0
DICTIONARY
  5
3D6
330
33A
100
AcDbDictionary
280
     1
281
     1
  3
ACAD_XREC_ROUNDTRIP
360
3D7
  0
DICTIONARY
  5
32C
330
6A
100
AcDbDictionary
280
     1
281
     1
  3
ACAD_ROUNDTRIP_2008_TABLESTYLE_CELLSTYLEMAP
360
3A3
  3
ACAD_XREC_ROUNDTRIP
360
3D5
  0
DICTIONARY
  5
3AD
330
2F
100
AcDbDictionary
280
     1
281
     1
  3
ACAD_XREC_ROUNDTRIP
360
3AE
  0
DICTIONARY
  5
3B3
330
32
100
AcDbDictionary
280
     1
281
     1
  3
ACAD_XREC_ROUNDTRIP
360
3B4
  0
DICTIONARY
  5
3BB
330
36
100
AcDbDictionary
280
     1
281
     1
  3
ACAD_XREC_ROUNDTRIP
360
3BC
  0
DICTIONARY
  5
3C3
330
3A
100
AcDbDictionary
280
     1
281
     1
  3
ACAD_XREC_ROUNDTRIP
360
3C4
  0
DICTIONARY
  5
3B7
330
34
100
AcDbDictionary
280
     1
281
     1
  3
ACAD_XREC_ROUNDTRIP
360
3B8
  0
DICTIONARY
  5
3B9
330
35
100
AcDbDictionary
280
     1
281
     1
  3
ACAD_XREC_ROUNDTRIP
360
3BA
  0
DICTIONARY
  5
3C9
330
3D
100
AcDbDictionary
280
     1
281
     1
  3
ACAD_XREC_ROUNDTRIP
360
3CA
  0
DICTIONARY
  5
3C1
330
39
100
AcDbDictionary
280
     1
281
     1
  3
ACAD_XREC_ROUNDTRIP
360
3C2
  0
DICTIONARY
  5
3A5
330
2B
100
AcDbDictionary
280
     1
281
     1
  3
ACAD_XREC_ROUNDTRIP
360
3A6
  0
DICTIONARY
  5
3A7
330
2C
100
AcDbDictionary
280
     1
281
     1
  3
ACAD_XREC_ROUNDTRIP
360
3A8
  0
DICTIONARY
  5
3A9
330
2D
100
AcDbDictionary
280
     1
281
     1
  3
ACAD_XREC_ROUNDTRIP
360
3AA
  0
DICTIONARY
  5
3AB
330
2E
100
AcDbDictionary
280
     1
281
     1
  3
ACAD_XREC_ROUNDTRIP
360
3AC
  0
DICTIONARY
  5
3B1
330
31
100
AcDbDictionary
280
     1
281
     1
  3
ACAD_XREC_ROUNDTRIP
360
3B2
  0
DICTIONARY
  5
3C5
330
3B
100
AcDbDictionary
280
     1
281
     1
  3
ACAD_XREC_ROUNDTRIP
360
3C6
  0
DICTIONARY
  5
3BF
330
38
100
AcDbDictionary
280
     1
281
     1
  3
ACAD_XREC_ROUNDTRIP
360
3C0
  0
DICTIONARY
  5
3C7
330
3C
100
AcDbDictionary
280
     1
281
     1
  3
ACAD_XREC_ROUNDTRIP
360
3C8
  0
DICTIONARY
  5
3B5
330
33
100
AcDbDictionary
280
     1
281
     1
  3
ACAD_XREC_ROUNDTRIP
360
3B6
  0
DICTIONARY
  5
3D3
330
42
100
AcDbDictionary
280
     1
281
     1
  3
ACAD_XREC_ROUNDTRIP
360
3D4
  0
DICTIONARY
  5
3D1
330
41
100
AcDbDictionary
280
     1
281
     1
  3
ACAD_XREC_ROUNDTRIP
360
3D2
  0
DICTIONARY
  5
3CB
330
3E
100
AcDbDictionary
280
     1
281
     1
  3
ACAD_XREC_ROUNDTRIP
360
3CC
  0
DICTIONARY
  5
3CD
330
3F
100
AcDbDictionary
280
     1
281
     1
  3
ACAD_XREC_ROUNDTRIP
360
3CE
  0
DICTIONARY
  5
3BD
330
37
100
AcDbDictionary
280
     1
281
     1
  3
ACAD_XREC_ROUNDTRIP
360
3BE
  0
DICTIONARY
  5
3AF
330
30
100
AcDbDictionary
280
     1
281
     1
  3
ACAD_XREC_ROUNDTRIP
360
3B0
  0
DICTIONARY
  5
3CF
330
40
100
AcDbDictionary
280
     1
281
     1
  3
ACAD_XREC_ROUNDTRIP
360
3D0
  0
XRECORD
  5
3D9
102
{ACAD_REACTORS
330
3D8
102
}
330
3D8
100
AcDbXrecord
280
     1
102
DISPLAYNAME
  1
Metric50
102
FLAGS
 90
        0
  0
XRECORD
  5
329
102
{ACAD_REACTORS
330
328
102
}
330
328
100
AcDbXrecord
280
     1
102
MATERIAL
148
0.0
149
0.0
149
0.0
 93
        0
 94
      127
282
     0
 72
     1
 77
     1
171
     1
175
     1
179
     1
273
     0
  0
XRECORD
  5
327
102
{ACAD_REACTORS
330
326
102
}
330
326
100
AcDbXrecord
280
     1
102
MATERIAL
148
0.0
149
0.0
149
0.0
 93
        0
 94
      127
282
     0
 72
     1
 77
     1
171
     1
175
     1
179
     1
273
     0
  0
XRECORD
  5
32B
102
{ACAD_REACTORS
330
32A
102
}
330
32A
100
AcDbXrecord
280
     1
102
MATERIAL
148
0.0
149
0.0
149
0.0
 93
        0
 94
      127
282
     0
 72
     1
 77
     1
171
     1
175
     1
179
     1
273
     0
  0
XRECORD
  5
3D7
102
{ACAD_REACTORS
330
3D6
102
}
330
3D6
100
AcDbXrecord
280
     1
102
DISPLAYNAME
  1
Metric50
102
FLAGS
 90
        0
  0
CELLSTYLEMAP
  5
3A3
102
{ACAD_REACTORS
330
32C
102
}
330
32C
100
AcDbCellStyleMap
 90
        3
300
CELLSTYLE
  1
TABLEFORMAT_BEGIN
 90
        5
170
     1
 91
        0
 92
    32768
 62
   257
 93
        1
300
CONTENTFORMAT
  1
CONTENTFORMAT_BEGIN
 90
        0
 91
        0
 92
        4
 93
        0
300

 40
0.0
140
1.0
 94
        5
 62
     0
340
11
144
0.25
309
CONTENTFORMAT_END
171
     1
301
MARGIN
  1
CELLMARGIN_BEGIN
 40
0.06
 40
0.06
 40
0.06
 40
0.06
 40
0.18
 40
0.18
309
CELLMARGIN_END
 94
        6
 95
        1
302
GRIDFORMAT
  1
GRIDFORMAT_BEGIN
 90
        0
 91
        1
 62
     0
 92
       -2
340
14
 93
        0
 40
0.045
309
GRIDFORMAT_END
 95
        2
302
GRIDFORMAT
  1
GRIDFORMAT_BEGIN
 90
        0
 91
        1
 62
     0
 92
       -2
340
14
 93
        0
 40
0.045
309
GRIDFORMAT_END
 95
        4
302
GRIDFORMAT
  1
GRIDFORMAT_BEGIN
 90
        0
 91
        1
 62
     0
 92
       -2
340
14
 93
        0
 40
0.045
309
GRIDFORMAT_END
 95
        8
302
GRIDFORMAT
  1
GRIDFORMAT_BEGIN
 90
        0
 91
        1
 62
     0
 92
       -2
340
14
 93
        0
 40
0.045
309
GRIDFORMAT_END
 95
       16
302
GRIDFORMAT
  1
GRIDFORMAT_BEGIN
 90
        0
 91
        1
 62
     0
 92
       -2
340
14
 93
        0
 40
0.045
309
GRIDFORMAT_END
 95
       32
302
GRIDFORMAT
  1
GRIDFORMAT_BEGIN
 90
        0
 91
        1
 62
     0
 92
       -2
340
14
 93
        0
 40
0.045
309
GRIDFORMAT_END
309
TABLEFORMAT_END
  1
CELLSTYLE_BEGIN
 90
        1
 91
        1
300
_TITLE
309
CELLSTYLE_END
300
CELLSTYLE
  1
TABLEFORMAT_BEGIN
 90
        5
170
     1
 91
        0
 92
        0
 62
   257
 93
        1
300
CONTENTFORMAT
  1
CONTENTFORMAT_BEGIN
 90
        0
 91
        0
 92
        4
 93
        0
300

 40
0.0
140
1.0
 94
        5
 62
     0
340
11
144
0.18
309
CONTENTFORMAT_END
171
     1
301
MARGIN
  1
CELLMARGIN_BEGIN
 40
0.06
 40
0.06
 40
0.06
 40
0.06
 40
0.18
 40
0.18
309
CELLMARGIN_END
 94
        6
 95
        1
302
GRIDFORMAT
  1
GRIDFORMAT_BEGIN
 90
        0
 91
        1
 62
     0
 92
       -2
340
14
 93
        0
 40
0.045
309
GRIDFORMAT_END
 95
        2
302
GRIDFORMAT
  1
GRIDFORMAT_BEGIN
 90
        0
 91
        1
 62
     0
 92
       -2
340
14
 93
        0
 40
0.045
309
GRIDFORMAT_END
 95
        4
302
GRIDFORMAT
  1
GRIDFORMAT_BEGIN
 90
        0
 91
        1
 62
     0
 92
       -2
340
14
 93
        0
 40
0.045
309
GRIDFORMAT_END
 95
        8
302
GRIDFORMAT
  1
GRIDFORMAT_BEGIN
 90
        0
 91
        1
 62
     0
 92
       -2
340
14
 93
        0
 40
0.045
309
GRIDFORMAT_END
 95
       16
302
GRIDFORMAT
  1
GRIDFORMAT_BEGIN
 90
        0
 91
        1
 62
     0
 92
       -2
340
14
 93
        0
 40
0.045
309
GRIDFORMAT_END
 95
       32
302
GRIDFORMAT
  1
GRIDFORMAT_BEGIN
 90
        0
 91
        1
 62
     0
 92
       -2
340
14
 93
        0
 40
0.045
309
GRIDFORMAT_END
309
TABLEFORMAT_END
  1
CELLSTYLE_BEGIN
 90
        2
 91
        1
300
_HEADER
309
CELLSTYLE_END
300
CELLSTYLE
  1
TABLEFORMAT_BEGIN
 90
        5
170
     1
 91
        0
 92
        0
 62
   257
 93
        1
300
CONTENTFORMAT
  1
CONTENTFORMAT_BEGIN
 90
        0
 91
        0
 92
        4
 93
        0
300

 40
0.0
140
1.0
 94
        2
 62
     0
340
11
144
0.18
309
CONTENTFORMAT_END
171
     1
301
MARGIN
  1
CELLMARGIN_BEGIN
 40
0.06
 40
0.06
 40
0.06
 40
0.06
 40
0.18
 40
0.18
309
CELLMARGIN_END
 94
        6
 95
        1
302
GRIDFORMAT
  1
GRIDFORMAT_BEGIN
 90
        0
 91
        1
 62
     0
 92
       -2
340
14
 93
        0
 40
0.045
309
GRIDFORMAT_END
 95
        2
302
GRIDFORMAT
  1
GRIDFORMAT_BEGIN
 90
        0
 91
        1
 62
     0
 92
       -2
340
14
 93
        0
 40
0.045
309
GRIDFORMAT_END
 95
        4
302
GRIDFORMAT
  1
GRIDFORMAT_BEGIN
 90
        0
 91
        1
 62
     0
 92
       -2
340
14
 93
        0
 40
0.045
309
GRIDFORMAT_END
 95
        8
302
GRIDFORMAT
  1
GRIDFORMAT_BEGIN
 90
        0
 91
        1
 62
     0
 92
       -2
340
14
 93
        0
 40
0.045
309
GRIDFORMAT_END
 95
       16
302
GRIDFORMAT
  1
GRIDFORMAT_BEGIN
 90
        0
 91
        1
 62
     0
 92
       -2
340
14
 93
        0
 40
0.045
309
GRIDFORMAT_END
 95
       32
302
GRIDFORMAT
  1
GRIDFORMAT_BEGIN
 90
        0
 91
        1
 62
     0
 92
       -2
340
14
 93
        0
 40
0.045
309
GRIDFORMAT_END
309
TABLEFORMAT_END
  1
CELLSTYLE_BEGIN
 90
        3
 91
        2
300
_DATA
309
CELLSTYLE_END
  0
XRECORD
  5
3D5
102
{ACAD_REACTORS
330
32C
102
}
330
32C
100
AcDbXrecord
280
     1
102
ACAD_ROUNDTRIP_PRE2007_TABLESTYLE
 90
        4
 91
        0
  1

 92
        4
 93
        0
  2

 94
        4
 95
        0
  3

  0
XRECORD
  5
3AE
102
{ACAD_REACTORS
330
3AD
102
}
330
3AD
100
AcDbXrecord
280
     1
102
RTVSPost2010Prop28
280
     1
102
RTVSPost2010PropOp28
 70
     1
102
RTVSPost2010Prop29
280
     1
102
RTVSPost2010PropOp29
 70
     1
102
RTVSPost2010Prop30
280
     0
102
RTVSPost2010PropOp30
 70
     1
102
RTVSPost2010Prop31
280
     0
102
RTVSPost2010PropOp31
 70
     1
102
RTVSPost2010Prop32
280
     0
102
RTVSPost2010PropOp32
 70
     1
102
RTVSPost2010Prop33
280
     0
102
RTVSPost2010PropOp33
 70
     1
102
RTVSPost2010Prop34
280
     0
102
RTVSPost2010PropOp34
 70
     1
102
RTVSPost2010Prop35
280
     0
102
RTVSPost2010PropOp35
 70
     1
102
RTVSPost2010Prop36
280
     0
102
RTVSPost2010PropOp36
 70
     1
102
RTVSPost2010Prop37
 90
       50
102
RTVSPost2010PropOp37
 70
     1
102
RTVSPost2010Prop38
140
0.0
102
RTVSPost2010PropOp38
 70
     1
102
RTVSPost2010Prop39
140
1.0
102
RTVSPost2010PropOp39
 70
     1
102
RTVSPost2010Prop40
 90
        0
102
RTVSPost2010PropOp40
 70
     1
102
RTVSPost2010Prop41ColorIndex
 90
       18
102
RTVSPost2010Prop41ColorRGB
 90
        0
102
RTVSPost2010PropOp41
 70
     1
102
RTVSPost2010Prop42
 90
       50
102
RTVSPost2010PropOp42
 70
     1
102
RTVSPost2010Prop43
 90
        3
102
RTVSPost2010PropOp43
 70
     1
102
RTVSPost2010Prop44ColorIndex
 90
        5
102
RTVSPost2010Prop44ColorRGB
 90
      255
102
RTVSPost2010PropOp44
 70
     1
102
RTVSPost2010Prop45
280
     0
102
RTVSPost2010PropOp45
 70
     1
102
RTVSPost2010Prop46
 90
       50
102
RTVSPost2010PropOp46
 70
     1
102
RTVSPost2010Prop47
 90
       50
102
RTVSPost2010PropOp47
 70
     1
102
RTVSPost2010Prop48
 90
       50
102
RTVSPost2010PropOp48
 70
     1
102
RTVSPost2010Prop49
280
     0
102
RTVSPost2010PropOp49
 70
     1
102
RTVSPost2010Prop50
 90
       50
102
RTVSPost2010PropOp50
 70
     1
102
RTVSPost2010Prop51ColorIndex
 90
      256
102
RTVSPost2010Prop51ColorRGB
 90
-16777216
102
RTVSPost2010PropOp51
 70
     0
102
RTVSPost2010Prop52
140
1.0
102
RTVSPost2010PropOp52
 70
     0
102
RTVSPost2010Prop53
 90
        2
102
RTVSPost2010PropOp53
 70
     1
102
RTVSPost2010Prop54
  1
strokes_ogs.tif
102
RTVSPost2010PropOp54
 70
     1
102
RTVSPost2010Prop55
280
     0
102
RTVSPost2010PropOp55
 70
     1
102
RTVSPost2010Prop56
140
1.0
102
RTVSPost2010PropOp56
 70
     1
102
RTVSPost2010Prop57
140
1.0
102
RTVSPost2010PropOp57
 70
     1
102
RTVSPropertyOp0
 70
     1
102
RTVSPropertyOp1
 70
     1
102
RTVSPropertyOp2
 70
     1
102
RTVSPropertyOp3
 70
     1
102
RTVSPropertyOp4
 70
     1
102
RTVSPropertyOp5
 70
     1
102
RTVSPropertyOp6
 70
     1
102
RTVSPropertyOp7
 70
     1
102
RTVSPropertyOp8
 70
     1
102
RTVSPropertyOp9
 70
     1
102
RTVSPropertyOp10
 70
     1
102
RTVSPropertyOp11
 70
     1
102
RTVSPropertyOp12
 70
     1
102
RTVSPropertyOp13
 70
     1
102
RTVSPropertyOp14
 70
     1
102
RTVSPropertyOp15
 70
     1
102
RTVSPropertyOp16
 70
     1
102
RTVSPropertyOp17
 70
     1
102
RTVSPropertyOp18
 70
     1
102
RTVSPropertyOp19
 70
     1
102
RTVSPropertyOp20
 70
     1
102
RTVSPropertyOp21
 70
     1
102
RTVSPropertyOp22
 70
     1
102
RTVSPropertyOp23
 70
     1
102
RTVSPropertyOp24
 70
     1
102
RTVSPropertyOp25
 70
     1
102
RTVSPropertyOp26
 70
     1
102
RTVSPropertyOp27
 70
     1
102
RTVSPropertyOp28
 70
     1
102
RTVSPropertyOp29
 70
     1
102
RTVSPropertyOp30
 70
     1
102
RTVSPropertyOp31
 70
     1
102
RTVSPropertyOp32
 70
     1
102
RTVSPropertyOp33
 70
     1
102
RTVSPropertyOp34
 70
     1
102
RTVSPropertyOp35
 70
     1
102
RTVSPropertyOp36
 70
     1
102
RTVSPropertyOp37
 70
     1
102
RTVSPropertyOp38
 70
     1
102
RTVSPropertyOp39
 70
     1
102
RTVSPropertyOp40
 70
     1
102
RTVSPropertyOp41
 70
     1
102
RTVSPropertyOp42
 70
     1
102
RTVSPropertyOp43
 70
     1
102
RTVSPropertyOp44
 70
     1
102
RTVSPropertyOp45
 70
     1
102
RTVSPropertyOp46
 70
     1
102
RTVSPropertyOp47
 70
     1
102
RTVSPropertyOp48
 70
     1
102
RTVSPropertyOp49
 70
     1
102
RTVSPropertyOp50
 70
     1
102
RTVSPropertyOp51
 70
     0
102
RTVSPropertyOp52
 70
     0
102
RTVSPropertyOp53
 70
     1
102
RTVSPropertyOp54
 70
     1
102
RTVSPropertyOp55
 70
     1
102
RTVSPropertyOp56
 70
     1
102
RTVSPropertyOp57
 70
     1
102
RTVSPropertyOp58
 70
     1
102
RTVSPropertyOp59
 70
     1
102
RTVSPropertyOp60
 70
     1
102
RTVSPropertyOp61
 70
     1
102
RTVSPropertyOp62
 70
     1
  0
XRECORD
  5
3B4
102
{ACAD_REACTORS
330
3B3
102
}
330
3B3
100
AcDbXrecord
280
     1
102
RTVSPost2010Prop28
280
     0
102
RTVSPost2010PropOp28
 70
     1
102
RTVSPost2010Prop29
280
     1
102
RTVSPost2010PropOp29
 70
     1
102
RTVSPost2010Prop30
280
     1
102
RTVSPost2010PropOp30
 70
     1
102
RTVSPost2010Prop31
280
     0
102
RTVSPost2010PropOp31
 70
     1
102
RTVSPost2010Prop32
280
     0
102
RTVSPost2010PropOp32
 70
     1
102
RTVSPost2010Prop33
280
     0
102
RTVSPost2010PropOp33
 70
     1
102
RTVSPost2010Prop34
280
     0
102
RTVSPost2010PropOp34
 70
     1
102
RTVSPost2010Prop35
280
     0
102
RTVSPost2010PropOp35
 70
     1
102
RTVSPost2010Prop36
280
     0
102
RTVSPost2010PropOp36
 70
     1
102
RTVSPost2010Prop37
 90
       50
102
RTVSPost2010PropOp37
 70
     1
102
RTVSPost2010Prop38
140
0.0
102
RTVSPost2010PropOp38
 70
     1
102
RTVSPost2010Prop39
140
1.0
102
RTVSPost2010PropOp39
 70
     1
102
RTVSPost2010Prop40
 90
        0
102
RTVSPost2010PropOp40
 70
     1
102
RTVSPost2010Prop41ColorIndex
 90
       18
102
RTVSPost2010Prop41ColorRGB
 90
        0
102
RTVSPost2010PropOp41
 70
     1
102
RTVSPost2010Prop42
 90
       50
102
RTVSPost2010PropOp42
 70
     1
102
RTVSPost2010Prop43
 90
        3
102
RTVSPost2010PropOp43
 70
     1
102
RTVSPost2010Prop44ColorIndex
 90
        5
102
RTVSPost2010Prop44ColorRGB
 90
      255
102
RTVSPost2010PropOp44
 70
     1
102
RTVSPost2010Prop45
280
     0
102
RTVSPost2010PropOp45
 70
     1
102
RTVSPost2010Prop46
 90
       50
102
RTVSPost2010PropOp46
 70
     1
102
RTVSPost2010Prop47
 90
       50
102
RTVSPost2010PropOp47
 70
     1
102
RTVSPost2010Prop48
 90
       50
102
RTVSPost2010PropOp48
 70
     1
102
RTVSPost2010Prop49
280
     0
102
RTVSPost2010PropOp49
 70
     1
102
RTVSPost2010Prop50
 90
       50
102
RTVSPost2010PropOp50
 70
     1
102
RTVSPost2010Prop51ColorIndex
 90
      256
102
RTVSPost2010Prop51ColorRGB
 90
-16777216
102
RTVSPost2010PropOp51
 70
     0
102
RTVSPost2010Prop52
140
1.0
102
RTVSPost2010PropOp52
 70
     0
102
RTVSPost2010Prop53
 90
        2
102
RTVSPost2010PropOp53
 70
     1
102
RTVSPost2010Prop54
  1
strokes_ogs.tif
102
RTVSPost2010PropOp54
 70
     1
102
RTVSPost2010Prop55
280
     0
102
RTVSPost2010PropOp55
 70
     1
102
RTVSPost2010Prop56
140
1.0
102
RTVSPost2010PropOp56
 70
     1
102
RTVSPost2010Prop57
140
1.0
102
RTVSPost2010PropOp57
 70
     1
102
RTVSPropertyOp0
 70
     1
102
RTVSPropertyOp1
 70
     1
102
RTVSPropertyOp2
 70
     1
102
RTVSPropertyOp3
 70
     1
102
RTVSPropertyOp4
 70
     1
102
RTVSPropertyOp5
 70
     1
102
RTVSPropertyOp6
 70
     1
102
RTVSPropertyOp7
 70
     1
102
RTVSPropertyOp8
 70
     1
102
RTVSPropertyOp9
 70
     1
102
RTVSPropertyOp10
 70
     1
102
RTVSPropertyOp11
 70
     1
102
RTVSPropertyOp12
 70
     1
102
RTVSPropertyOp13
 70
     1
102
RTVSPropertyOp14
 70
     1
102
RTVSPropertyOp15
 70
     1
102
RTVSPropertyOp16
 70
     1
102
RTVSPropertyOp17
 70
     1
102
RTVSPropertyOp18
 70
     1
102
RTVSPropertyOp19
 70
     1
102
RTVSPropertyOp20
 70
     1
102
RTVSPropertyOp21
 70
     1
102
RTVSPropertyOp22
 70
     1
102
RTVSPropertyOp23
 70
     1
102
RTVSPropertyOp24
 70
     1
102
RTVSPropertyOp25
 70
     1
102
RTVSPropertyOp26
 70
     1
102
RTVSPropertyOp27
 70
     1
102
RTVSPropertyOp28
 70
     1
102
RTVSPropertyOp29
 70
     1
102
RTVSPropertyOp30
 70
     1
102
RTVSPropertyOp31
 70
     1
102
RTVSPropertyOp32
 70
     1
102
RTVSPropertyOp33
 70
     1
102
RTVSPropertyOp34
 70
     1
102
RTVSPropertyOp35
 70
     1
102
RTVSPropertyOp36
 70
     1
102
RTVSPropertyOp37
 70
     1
102
RTVSPropertyOp38
 70
     1
102
RTVSPropertyOp39
 70
     1
102
RTVSPropertyOp40
 70
     1
102
RTVSPropertyOp41
 70
     1
102
RTVSPropertyOp42
 70
     1
102
RTVSPropertyOp43
 70
     1
102
RTVSPropertyOp44
 70
     1
102
RTVSPropertyOp45
 70
     1
102
RTVSPropertyOp46
 70
     1
102
RTVSPropertyOp47
 70
     1
102
RTVSPropertyOp48
 70
     1
102
RTVSPropertyOp49
 70
     1
102
RTVSPropertyOp50
 70
     1
102
RTVSPropertyOp51
 70
     0
102
RTVSPropertyOp52
 70
     0
102
RTVSPropertyOp53
 70
     1
102
RTVSPropertyOp54
 70
     1
102
RTVSPropertyOp55
 70
     1
102
RTVSPropertyOp56
 70
     1
102
RTVSPropertyOp57
 70
     1
102
RTVSPropertyOp58
 70
     1
102
RTVSPropertyOp59
 70
     1
102
RTVSPropertyOp60
 70
     1
102
RTVSPropertyOp61
 70
     1
102
RTVSPropertyOp62
 70
     1
  0
XRECORD
  5
3BC
102
{ACAD_REACTORS
330
3BB
102
}
330
3BB
100
AcDbXrecord
280
     1
102
RTVSPost2010Prop28
280
     0
102
RTVSPost2010PropOp28
 70
     1
102
RTVSPost2010Prop29
280
     1
102
RTVSPost2010PropOp29
 70
     1
102
RTVSPost2010Prop30
280
     1
102
RTVSPost2010PropOp30
 70
     1
102
RTVSPost2010Prop31
280
     0
102
RTVSPost2010PropOp31
 70
     1
102
RTVSPost2010Prop32
280
     0
102
RTVSPost2010PropOp32
 70
     1
102
RTVSPost2010Prop33
280
     0
102
RTVSPost2010PropOp33
 70
     1
102
RTVSPost2010Prop34
280
     0
102
RTVSPost2010PropOp34
 70
     1
102
RTVSPost2010Prop35
280
     0
102
RTVSPost2010PropOp35
 70
     1
102
RTVSPost2010Prop36
280
     0
102
RTVSPost2010PropOp36
 70
     1
102
RTVSPost2010Prop37
 90
       50
102
RTVSPost2010PropOp37
 70
     1
102
RTVSPost2010Prop38
140
0.0
102
RTVSPost2010PropOp38
 70
     1
102
RTVSPost2010Prop39
140
1.0
102
RTVSPost2010PropOp39
 70
     1
102
RTVSPost2010Prop40
 90
        0
102
RTVSPost2010PropOp40
 70
     1
102
RTVSPost2010Prop41ColorIndex
 90
       18
102
RTVSPost2010Prop41ColorRGB
 90
        0
102
RTVSPost2010PropOp41
 70
     1
102
RTVSPost2010Prop42
 90
       50
102
RTVSPost2010PropOp42
 70
     1
102
RTVSPost2010Prop43
 90
        3
102
RTVSPost2010PropOp43
 70
     1
102
RTVSPost2010Prop44ColorIndex
 90
        5
102
RTVSPost2010Prop44ColorRGB
 90
      255
102
RTVSPost2010PropOp44
 70
     1
102
RTVSPost2010Prop45
280
     0
102
RTVSPost2010PropOp45
 70
     1
102
RTVSPost2010Prop46
 90
       50
102
RTVSPost2010PropOp46
 70
     1
102
RTVSPost2010Prop47
 90
       50
102
RTVSPost2010PropOp47
 70
     1
102
RTVSPost2010Prop48
 90
       50
102
RTVSPost2010PropOp48
 70
     1
102
RTVSPost2010Prop49
280
     0
102
RTVSPost2010PropOp49
 70
     1
102
RTVSPost2010Prop50
 90
       50
102
RTVSPost2010PropOp50
 70
     1
102
RTVSPost2010Prop51ColorIndex
 90
      256
102
RTVSPost2010Prop51ColorRGB
 90
-16777216
102
RTVSPost2010PropOp51
 70
     0
102
RTVSPost2010Prop52
140
1.0
102
RTVSPost2010PropOp52
 70
     0
102
RTVSPost2010Prop53
 90
        2
102
RTVSPost2010PropOp53
 70
     1
102
RTVSPost2010Prop54
  1
strokes_ogs.tif
102
RTVSPost2010PropOp54
 70
     1
102
RTVSPost2010Prop55
280
     0
102
RTVSPost2010PropOp55
 70
     1
102
RTVSPost2010Prop56
140
1.0
102
RTVSPost2010PropOp56
 70
     1
102
RTVSPost2010Prop57
140
1.0
102
RTVSPost2010PropOp57
 70
     1
102
RTVSPropertyOp0
 70
     1
102
RTVSPropertyOp1
 70
     1
102
RTVSPropertyOp2
 70
     1
102
RTVSPropertyOp3
 70
     1
102
RTVSPropertyOp4
 70
     1
102
RTVSPropertyOp5
 70
     1
102
RTVSPropertyOp6
 70
     1
102
RTVSPropertyOp7
 70
     1
102
RTVSPropertyOp8
 70
     1
102
RTVSPropertyOp9
 70
     1
102
RTVSPropertyOp10
 70
     1
102
RTVSPropertyOp11
 70
     1
102
RTVSPropertyOp12
 70
     1
102
RTVSPropertyOp13
 70
     1
102
RTVSPropertyOp14
 70
     1
102
RTVSPropertyOp15
 70
     1
102
RTVSPropertyOp16
 70
     1
102
RTVSPropertyOp17
 70
     1
102
RTVSPropertyOp18
 70
     1
102
RTVSPropertyOp19
 70
     1
102
RTVSPropertyOp20
 70
     1
102
RTVSPropertyOp21
 70
     1
102
RTVSPropertyOp22
 70
     1
102
RTVSPropertyOp23
 70
     1
102
RTVSPropertyOp24
 70
     1
102
RTVSPropertyOp25
 70
     1
102
RTVSPropertyOp26
 70
     1
102
RTVSPropertyOp27
 70
     1
102
RTVSPropertyOp28
 70
     1
102
RTVSPropertyOp29
 70
     1
102
RTVSPropertyOp30
 70
     1
102
RTVSPropertyOp31
 70
     1
102
RTVSPropertyOp32
 70
     1
102
RTVSPropertyOp33
 70
     1
102
RTVSPropertyOp34
 70
     1
102
RTVSPropertyOp35
 70
     1
102
RTVSPropertyOp36
 70
     1
102
RTVSPropertyOp37
 70
     1
102
RTVSPropertyOp38
 70
     1
102
RTVSPropertyOp39
 70
     1
102
RTVSPropertyOp40
 70
     1
102
RTVSPropertyOp41
 70
     1
102
RTVSPropertyOp42
 70
     1
102
RTVSPropertyOp43
 70
     1
102
RTVSPropertyOp44
 70
     1
102
RTVSPropertyOp45
 70
     1
102
RTVSPropertyOp46
 70
     1
102
RTVSPropertyOp47
 70
     1
102
RTVSPropertyOp48
 70
     1
102
RTVSPropertyOp49
 70
     1
102
RTVSPropertyOp50
 70
     1
102
RTVSPropertyOp51
 70
     0
102
RTVSPropertyOp52
 70
     0
102
RTVSPropertyOp53
 70
     1
102
RTVSPropertyOp54
 70
     1
102
RTVSPropertyOp55
 70
     1
102
RTVSPropertyOp56
 70
     1
102
RTVSPropertyOp57
 70
     1
102
RTVSPropertyOp58
 70
     1
102
RTVSPropertyOp59
 70
     1
102
RTVSPropertyOp60
 70
     1
102
RTVSPropertyOp61
 70
     1
102
RTVSPropertyOp62
 70
     1
  0
XRECORD
  5
3C4
102
{ACAD_REACTORS
330
3C3
102
}
330
3C3
100
AcDbXrecord
280
     1
102
RTVSPost2010Prop28
280
     0
102
RTVSPost2010PropOp28
 70
     1
102
RTVSPost2010Prop29
280
     1
102
RTVSPost2010PropOp29
 70
     1
102
RTVSPost2010Prop30
280
     1
102
RTVSPost2010PropOp30
 70
     1
102
RTVSPost2010Prop31
280
     0
102
RTVSPost2010PropOp31
 70
     1
102
RTVSPost2010Prop32
280
     0
102
RTVSPost2010PropOp32
 70
     1
102
RTVSPost2010Prop33
280
     0
102
RTVSPost2010PropOp33
 70
     1
102
RTVSPost2010Prop34
280
     0
102
RTVSPost2010PropOp34
 70
     1
102
RTVSPost2010Prop35
280
     0
102
RTVSPost2010PropOp35
 70
     1
102
RTVSPost2010Prop36
280
     0
102
RTVSPost2010PropOp36
 70
     1
102
RTVSPost2010Prop37
 90
       50
102
RTVSPost2010PropOp37
 70
     1
102
RTVSPost2010Prop38
140
0.0
102
RTVSPost2010PropOp38
 70
     1
102
RTVSPost2010Prop39
140
1.0
102
RTVSPost2010PropOp39
 70
     1
102
RTVSPost2010Prop40
 90
        0
102
RTVSPost2010PropOp40
 70
     1
102
RTVSPost2010Prop41ColorIndex
 90
       18
102
RTVSPost2010Prop41ColorRGB
 90
        0
102
RTVSPost2010PropOp41
 70
     1
102
RTVSPost2010Prop42
 90
       50
102
RTVSPost2010PropOp42
 70
     1
102
RTVSPost2010Prop43
 90
        3
102
RTVSPost2010PropOp43
 70
     1
102
RTVSPost2010Prop44ColorIndex
 90
        5
102
RTVSPost2010Prop44ColorRGB
 90
      255
102
RTVSPost2010PropOp44
 70
     1
102
RTVSPost2010Prop45
280
     0
102
RTVSPost2010PropOp45
 70
     1
102
RTVSPost2010Prop46
 90
       50
102
RTVSPost2010PropOp46
 70
     1
102
RTVSPost2010Prop47
 90
       50
102
RTVSPost2010PropOp47
 70
     1
102
RTVSPost2010Prop48
 90
       50
102
RTVSPost2010PropOp48
 70
     1
102
RTVSPost2010Prop49
280
     0
102
RTVSPost2010PropOp49
 70
     1
102
RTVSPost2010Prop50
 90
       50
102
RTVSPost2010PropOp50
 70
     1
102
RTVSPost2010Prop51ColorIndex
 90
      256
102
RTVSPost2010Prop51ColorRGB
 90
-16777216
102
RTVSPost2010PropOp51
 70
     0
102
RTVSPost2010Prop52
140
1.0
102
RTVSPost2010PropOp52
 70
     0
102
RTVSPost2010Prop53
 90
        2
102
RTVSPost2010PropOp53
 70
     1
102
RTVSPost2010Prop54
  1
strokes_ogs.tif
102
RTVSPost2010PropOp54
 70
     1
102
RTVSPost2010Prop55
280
     0
102
RTVSPost2010PropOp55
 70
     1
102
RTVSPost2010Prop56
140
1.0
102
RTVSPost2010PropOp56
 70
     1
102
RTVSPost2010Prop57
140
1.0
102
RTVSPost2010PropOp57
 70
     1
102
RTVSPropertyOp0
 70
     1
102
RTVSPropertyOp1
 70
     1
102
RTVSPropertyOp2
 70
     1
102
RTVSPropertyOp3
 70
     1
102
RTVSPropertyOp4
 70
     1
102
RTVSPropertyOp5
 70
     1
102
RTVSPropertyOp6
 70
     1
102
RTVSPropertyOp7
 70
     1
102
RTVSPropertyOp8
 70
     1
102
RTVSPropertyOp9
 70
     1
102
RTVSPropertyOp10
 70
     1
102
RTVSPropertyOp11
 70
     1
102
RTVSPropertyOp12
 70
     1
102
RTVSPropertyOp13
 70
     1
102
RTVSPropertyOp14
 70
     1
102
RTVSPropertyOp15
 70
     1
102
RTVSPropertyOp16
 70
     1
102
RTVSPropertyOp17
 70
     1
102
RTVSPropertyOp18
 70
     1
102
RTVSPropertyOp19
 70
     1
102
RTVSPropertyOp20
 70
     1
102
RTVSPropertyOp21
 70
     1
102
RTVSPropertyOp22
 70
     1
102
RTVSPropertyOp23
 70
     1
102
RTVSPropertyOp24
 70
     1
102
RTVSPropertyOp25
 70
     1
102
RTVSPropertyOp26
 70
     1
102
RTVSPropertyOp27
 70
     1
102
RTVSPropertyOp28
 70
     1
102
RTVSPropertyOp29
 70
     1
102
RTVSPropertyOp30
 70
     1
102
RTVSPropertyOp31
 70
     1
102
RTVSPropertyOp32
 70
     1
102
RTVSPropertyOp33
 70
     1
102
RTVSPropertyOp34
 70
     1
102
RTVSPropertyOp35
 70
     1
102
RTVSPropertyOp36
 70
     1
102
RTVSPropertyOp37
 70
     1
102
RTVSPropertyOp38
 70
     1
102
RTVSPropertyOp39
 70
     1
102
RTVSPropertyOp40
 70
     1
102
RTVSPropertyOp41
 70
     1
102
RTVSPropertyOp42
 70
     1
102
RTVSPropertyOp43
 70
     1
102
RTVSPropertyOp44
 70
     1
102
RTVSPropertyOp45
 70
     1
102
RTVSPropertyOp46
 70
     1
102
RTVSPropertyOp47
 70
     1
102
RTVSPropertyOp48
 70
     1
102
RTVSPropertyOp49
 70
     1
102
RTVSPropertyOp50
 70
     1
102
RTVSPropertyOp51
 70
     0
102
RTVSPropertyOp52
 70
     0
102
RTVSPropertyOp53
 70
     1
102
RTVSPropertyOp54
 70
     1
102
RTVSPropertyOp55
 70
     1
102
RTVSPropertyOp56
 70
     1
102
RTVSPropertyOp57
 70
     1
102
RTVSPropertyOp58
 70
     1
102
RTVSPropertyOp59
 70
     1
102
RTVSPropertyOp60
 70
     1
102
RTVSPropertyOp61
 70
     1
102
RTVSPropertyOp62
 70
     1
  0
XRECORD
  5
3B8
102
{ACAD_REACTORS
330
3B7
102
}
330
3B7
100
AcDbXrecord
280
     1
102
RTVSPost2010Prop28
280
     0
102
RTVSPost2010PropOp28
 70
     1
102
RTVSPost2010Prop29
280
     1
102
RTVSPost2010PropOp29
 70
     1
102
RTVSPost2010Prop30
280
     1
102
RTVSPost2010PropOp30
 70
     1
102
RTVSPost2010Prop31
280
     0
102
RTVSPost2010PropOp31
 70
     1
102
RTVSPost2010Prop32
280
     0
102
RTVSPost2010PropOp32
 70
     1
102
RTVSPost2010Prop33
280
     0
102
RTVSPost2010PropOp33
 70
     1
102
RTVSPost2010Prop34
280
     0
102
RTVSPost2010PropOp34
 70
     1
102
RTVSPost2010Prop35
280
     0
102
RTVSPost2010PropOp35
 70
     1
102
RTVSPost2010Prop36
280
     0
102
RTVSPost2010PropOp36
 70
     1
102
RTVSPost2010Prop37
 90
       50
102
RTVSPost2010PropOp37
 70
     1
102
RTVSPost2010Prop38
140
0.0
102
RTVSPost2010PropOp38
 70
     1
102
RTVSPost2010Prop39
140
1.0
102
RTVSPost2010PropOp39
 70
     1
102
RTVSPost2010Prop40
 90
        0
102
RTVSPost2010PropOp40
 70
     1
102
RTVSPost2010Prop41ColorIndex
 90
       18
102
RTVSPost2010Prop41ColorRGB
 90
        0
102
RTVSPost2010PropOp41
 70
     1
102
RTVSPost2010Prop42
 90
       50
102
RTVSPost2010PropOp42
 70
     1
102
RTVSPost2010Prop43
 90
        3
102
RTVSPost2010PropOp43
 70
     1
102
RTVSPost2010Prop44ColorIndex
 90
        5
102
RTVSPost2010Prop44ColorRGB
 90
      255
102
RTVSPost2010PropOp44
 70
     1
102
RTVSPost2010Prop45
280
     0
102
RTVSPost2010PropOp45
 70
     1
102
RTVSPost2010Prop46
 90
       50
102
RTVSPost2010PropOp46
 70
     1
102
RTVSPost2010Prop47
 90
       50
102
RTVSPost2010PropOp47
 70
     1
102
RTVSPost2010Prop48
 90
       50
102
RTVSPost2010PropOp48
 70
     1
102
RTVSPost2010Prop49
280
     0
102
RTVSPost2010PropOp49
 70
     1
102
RTVSPost2010Prop50
 90
       50
102
RTVSPost2010PropOp50
 70
     1
102
RTVSPost2010Prop51ColorIndex
 90
      256
102
RTVSPost2010Prop51ColorRGB
 90
-16777216
102
RTVSPost2010PropOp51
 70
     0
102
RTVSPost2010Prop52
140
1.0
102
RTVSPost2010PropOp52
 70
     0
102
RTVSPost2010Prop53
 90
        2
102
RTVSPost2010PropOp53
 70
     1
102
RTVSPost2010Prop54
  1
strokes_ogs.tif
102
RTVSPost2010PropOp54
 70
     1
102
RTVSPost2010Prop55
280
     0
102
RTVSPost2010PropOp55
 70
     1
102
RTVSPost2010Prop56
140
1.0
102
RTVSPost2010PropOp56
 70
     1
102
RTVSPost2010Prop57
140
1.0
102
RTVSPost2010PropOp57
 70
     1
102
RTVSPropertyOp0
 70
     1
102
RTVSPropertyOp1
 70
     1
102
RTVSPropertyOp2
 70
     1
102
RTVSPropertyOp3
 70
     1
102
RTVSPropertyOp4
 70
     1
102
RTVSPropertyOp5
 70
     1
102
RTVSPropertyOp6
 70
     1
102
RTVSPropertyOp7
 70
     1
102
RTVSPropertyOp8
 70
     1
102
RTVSPropertyOp9
 70
     1
102
RTVSPropertyOp10
 70
     1
102
RTVSPropertyOp11
 70
     1
102
RTVSPropertyOp12
 70
     1
102
RTVSPropertyOp13
 70
     1
102
RTVSPropertyOp14
 70
     1
102
RTVSPropertyOp15
 70
     1
102
RTVSPropertyOp16
 70
     1
102
RTVSPropertyOp17
 70
     1
102
RTVSPropertyOp18
 70
     1
102
RTVSPropertyOp19
 70
     1
102
RTVSPropertyOp20
 70
     1
102
RTVSPropertyOp21
 70
     1
102
RTVSPropertyOp22
 70
     1
102
RTVSPropertyOp23
 70
     1
102
RTVSPropertyOp24
 70
     1
102
RTVSPropertyOp25
 70
     1
102
RTVSPropertyOp26
 70
     1
102
RTVSPropertyOp27
 70
     1
102
RTVSPropertyOp28
 70
     1
102
RTVSPropertyOp29
 70
     1
102
RTVSPropertyOp30
 70
     1
102
RTVSPropertyOp31
 70
     1
102
RTVSPropertyOp32
 70
     1
102
RTVSPropertyOp33
 70
     1
102
RTVSPropertyOp34
 70
     1
102
RTVSPropertyOp35
 70
     1
102
RTVSPropertyOp36
 70
     1
102
RTVSPropertyOp37
 70
     1
102
RTVSPropertyOp38
 70
     1
102
RTVSPropertyOp39
 70
     1
102
RTVSPropertyOp40
 70
     1
102
RTVSPropertyOp41
 70
     1
102
RTVSPropertyOp42
 70
     1
102
RTVSPropertyOp43
 70
     1
102
RTVSPropertyOp44
 70
     1
102
RTVSPropertyOp45
 70
     1
102
RTVSPropertyOp46
 70
     1
102
RTVSPropertyOp47
 70
     1
102
RTVSPropertyOp48
 70
     1
102
RTVSPropertyOp49
 70
     1
102
RTVSPropertyOp50
 70
     1
102
RTVSPropertyOp51
 70
     0
102
RTVSPropertyOp52
 70
     0
102
RTVSPropertyOp53
 70
     1
102
RTVSPropertyOp54
 70
     1
102
RTVSPropertyOp55
 70
     1
102
RTVSPropertyOp56
 70
     1
102
RTVSPropertyOp57
 70
     1
102
RTVSPropertyOp58
 70
     1
102
RTVSPropertyOp59
 70
     1
102
RTVSPropertyOp60
 70
     1
102
RTVSPropertyOp61
 70
     1
102
RTVSPropertyOp62
 70
     1
  0
XRECORD
  5
3BA
102
{ACAD_REACTORS
330
3B9
102
}
330
3B9
100
AcDbXrecord
280
     1
102
RTVSPost2010Prop28
280
     0
102
RTVSPost2010PropOp28
 70
     1
102
RTVSPost2010Prop29
280
     1
102
RTVSPost2010PropOp29
 70
     1
102
RTVSPost2010Prop30
280
     1
102
RTVSPost2010PropOp30
 70
     1
102
RTVSPost2010Prop31
280
     0
102
RTVSPost2010PropOp31
 70
     1
102
RTVSPost2010Prop32
280
     0
102
RTVSPost2010PropOp32
 70
     1
102
RTVSPost2010Prop33
280
     0
102
RTVSPost2010PropOp33
 70
     1
102
RTVSPost2010Prop34
280
     0
102
RTVSPost2010PropOp34
 70
     1
102
RTVSPost2010Prop35
280
     0
102
RTVSPost2010PropOp35
 70
     1
102
RTVSPost2010Prop36
280
     0
102
RTVSPost2010PropOp36
 70
     1
102
RTVSPost2010Prop37
 90
       50
102
RTVSPost2010PropOp37
 70
     1
102
RTVSPost2010Prop38
140
0.0
102
RTVSPost2010PropOp38
 70
     1
102
RTVSPost2010Prop39
140
1.0
102
RTVSPost2010PropOp39
 70
     1
102
RTVSPost2010Prop40
 90
        0
102
RTVSPost2010PropOp40
 70
     1
102
RTVSPost2010Prop41ColorIndex
 90
       18
102
RTVSPost2010Prop41ColorRGB
 90
        0
102
RTVSPost2010PropOp41
 70
     1
102
RTVSPost2010Prop42
 90
       50
102
RTVSPost2010PropOp42
 70
     1
102
RTVSPost2010Prop43
 90
        3
102
RTVSPost2010PropOp43
 70
     1
102
RTVSPost2010Prop44ColorIndex
 90
        5
102
RTVSPost2010Prop44ColorRGB
 90
      255
102
RTVSPost2010PropOp44
 70
     1
102
RTVSPost2010Prop45
280
     0
102
RTVSPost2010PropOp45
 70
     1
102
RTVSPost2010Prop46
 90
       50
102
RTVSPost2010PropOp46
 70
     1
102
RTVSPost2010Prop47
 90
       50
102
RTVSPost2010PropOp47
 70
     1
102
RTVSPost2010Prop48
 90
       50
102
RTVSPost2010PropOp48
 70
     1
102
RTVSPost2010Prop49
280
     0
102
RTVSPost2010PropOp49
 70
     1
102
RTVSPost2010Prop50
 90
       50
102
RTVSPost2010PropOp50
 70
     1
102
RTVSPost2010Prop51ColorIndex
 90
      256
102
RTVSPost2010Prop51ColorRGB
 90
-16777216
102
RTVSPost2010PropOp51
 70
     0
102
RTVSPost2010Prop52
140
1.0
102
RTVSPost2010PropOp52
 70
     0
102
RTVSPost2010Prop53
 90
        2
102
RTVSPost2010PropOp53
 70
     1
102
RTVSPost2010Prop54
  1
strokes_ogs.tif
102
RTVSPost2010PropOp54
 70
     1
102
RTVSPost2010Prop55
280
     0
102
RTVSPost2010PropOp55
 70
     1
102
RTVSPost2010Prop56
140
1.0
102
RTVSPost2010PropOp56
 70
     1
102
RTVSPost2010Prop57
140
1.0
102
RTVSPost2010PropOp57
 70
     1
102
RTVSPropertyOp0
 70
     1
102
RTVSPropertyOp1
 70
     1
102
RTVSPropertyOp2
 70
     1
102
RTVSPropertyOp3
 70
     1
102
RTVSPropertyOp4
 70
     1
102
RTVSPropertyOp5
 70
     1
102
RTVSPropertyOp6
 70
     1
102
RTVSPropertyOp7
 70
     1
102
RTVSPropertyOp8
 70
     1
102
RTVSPropertyOp9
 70
     1
102
RTVSPropertyOp10
 70
     1
102
RTVSPropertyOp11
 70
     1
102
RTVSPropertyOp12
 70
     1
102
RTVSPropertyOp13
 70
     1
102
RTVSPropertyOp14
 70
     1
102
RTVSPropertyOp15
 70
     1
102
RTVSPropertyOp16
 70
     1
102
RTVSPropertyOp17
 70
     1
102
RTVSPropertyOp18
 70
     1
102
RTVSPropertyOp19
 70
     1
102
RTVSPropertyOp20
 70
     1
102
RTVSPropertyOp21
 70
     1
102
RTVSPropertyOp22
 70
     1
102
RTVSPropertyOp23
 70
     1
102
RTVSPropertyOp24
 70
     1
102
RTVSPropertyOp25
 70
     1
102
RTVSPropertyOp26
 70
     1
102
RTVSPropertyOp27
 70
     1
102
RTVSPropertyOp28
 70
     1
102
RTVSPropertyOp29
 70
     1
102
RTVSPropertyOp30
 70
     1
102
RTVSPropertyOp31
 70
     1
102
RTVSPropertyOp32
 70
     1
102
RTVSPropertyOp33
 70
     1
102
RTVSPropertyOp34
 70
     1
102
RTVSPropertyOp35
 70
     1
102
RTVSPropertyOp36
 70
     1
102
RTVSPropertyOp37
 70
     1
102
RTVSPropertyOp38
 70
     1
102
RTVSPropertyOp39
 70
     1
102
RTVSPropertyOp40
 70
     1
102
RTVSPropertyOp41
 70
     1
102
RTVSPropertyOp42
 70
     1
102
RTVSPropertyOp43
 70
     1
102
RTVSPropertyOp44
 70
     1
102
RTVSPropertyOp45
 70
     1
102
RTVSPropertyOp46
 70
     1
102
RTVSPropertyOp47
 70
     1
102
RTVSPropertyOp48
 70
     1
102
RTVSPropertyOp49
 70
     1
102
RTVSPropertyOp50
 70
     1
102
RTVSPropertyOp51
 70
     0
102
RTVSPropertyOp52
 70
     0
102
RTVSPropertyOp53
 70
     1
102
RTVSPropertyOp54
 70
     1
102
RTVSPropertyOp55
 70
     1
102
RTVSPropertyOp56
 70
     1
102
RTVSPropertyOp57
 70
     1
102
RTVSPropertyOp58
 70
     1
102
RTVSPropertyOp59
 70
     1
102
RTVSPropertyOp60
 70
     1
102
RTVSPropertyOp61
 70
     1
102
RTVSPropertyOp62
 70
     1
  0
XRECORD
  5
3CA
102
{ACAD_REACTORS
330
3C9
102
}
330
3C9
100
AcDbXrecord
280
     1
102
RTVSPost2010Prop28
280
     0
102
RTVSPost2010PropOp28
 70
     0
102
RTVSPost2010Prop29
280
     1
102
RTVSPost2010PropOp29
 70
     0
102
RTVSPost2010Prop30
280
     1
102
RTVSPost2010PropOp30
 70
     0
102
RTVSPost2010Prop31
280
     0
102
RTVSPost2010PropOp31
 70
     0
102
RTVSPost2010Prop32
280
     0
102
RTVSPost2010PropOp32
 70
     0
102
RTVSPost2010Prop33
280
     0
102
RTVSPost2010PropOp33
 70
     0
102
RTVSPost2010Prop34
280
     0
102
RTVSPost2010PropOp34
 70
     0
102
RTVSPost2010Prop35
280
     0
102
RTVSPost2010PropOp35
 70
     0
102
RTVSPost2010Prop36
280
     0
102
RTVSPost2010PropOp36
 70
     0
102
RTVSPost2010Prop37
 90
       50
102
RTVSPost2010PropOp37
 70
     0
102
RTVSPost2010Prop38
140
0.0
102
RTVSPost2010PropOp38
 70
     0
102
RTVSPost2010Prop39
140
1.0
102
RTVSPost2010PropOp39
 70
     0
102
RTVSPost2010Prop40
 90
        0
102
RTVSPost2010PropOp40
 70
     0
102
RTVSPost2010Prop41ColorIndex
 90
       18
102
RTVSPost2010Prop41ColorRGB
 90
        0
102
RTVSPost2010PropOp41
 70
     0
102
RTVSPost2010Prop42
 90
       50
102
RTVSPost2010PropOp42
 70
     0
102
RTVSPost2010Prop43
 90
        3
102
RTVSPost2010PropOp43
 70
     0
102
RTVSPost2010Prop44ColorIndex
 90
        5
102
RTVSPost2010Prop44ColorRGB
 90
      255
102
RTVSPost2010PropOp44
 70
     0
102
RTVSPost2010Prop45
280
     0
102
RTVSPost2010PropOp45
 70
     0
102
RTVSPost2010Prop46
 90
       50
102
RTVSPost2010PropOp46
 70
     0
102
RTVSPost2010Prop47
 90
       50
102
RTVSPost2010PropOp47
 70
     0
102
RTVSPost2010Prop48
 90
       50
102
RTVSPost2010PropOp48
 70
     0
102
RTVSPost2010Prop49
280
     0
102
RTVSPost2010PropOp49
 70
     0
102
RTVSPost2010Prop50
 90
       50
102
RTVSPost2010PropOp50
 70
     0
102
RTVSPost2010Prop51ColorIndex
 90
      256
102
RTVSPost2010Prop51ColorRGB
 90
-16777216
102
RTVSPost2010PropOp51
 70
     0
102
RTVSPost2010Prop52
140
1.0
102
RTVSPost2010PropOp52
 70
     0
102
RTVSPost2010Prop53
 90
        2
102
RTVSPost2010PropOp53
 70
     0
102
RTVSPost2010Prop54
  1
strokes_ogs.tif
102
RTVSPost2010PropOp54
 70
     0
102
RTVSPost2010Prop55
280
     0
102
RTVSPost2010PropOp55
 70
     0
102
RTVSPost2010Prop56
140
1.0
102
RTVSPost2010PropOp56
 70
     0
102
RTVSPost2010Prop57
140
1.0
102
RTVSPost2010PropOp57
 70
     0
102
RTVSPropertyOp0
 70
     0
102
RTVSPropertyOp1
 70
     0
102
RTVSPropertyOp2
 70
     0
102
RTVSPropertyOp3
 70
     0
102
RTVSPropertyOp4
 70
     0
102
RTVSPropertyOp5
 70
     0
102
RTVSPropertyOp6
 70
     0
102
RTVSPropertyOp7
 70
     0
102
RTVSPropertyOp8
 70
     0
102
RTVSPropertyOp9
 70
     0
102
RTVSPropertyOp10
 70
     0
102
RTVSPropertyOp11
 70
     0
102
RTVSPropertyOp12
 70
     0
102
RTVSPropertyOp13
 70
     0
102
RTVSPropertyOp14
 70
     2
102
RTVSPropertyOp15
 70
     0
102
RTVSPropertyOp16
 70
     0
102
RTVSPropertyOp17
 70
     0
102
RTVSPropertyOp18
 70
     0
102
RTVSPropertyOp19
 70
     0
102
RTVSPropertyOp20
 70
     0
102
RTVSPropertyOp21
 70
     0
102
RTVSPropertyOp22
 70
     0
102
RTVSPropertyOp23
 70
     0
102
RTVSPropertyOp24
 70
     0
102
RTVSPropertyOp25
 70
     0
102
RTVSPropertyOp26
 70
     0
102
RTVSPropertyOp27
 70
     0
102
RTVSPropertyOp28
 70
     0
102
RTVSPropertyOp29
 70
     0
102
RTVSPropertyOp30
 70
     0
102
RTVSPropertyOp31
 70
     0
102
RTVSPropertyOp32
 70
     0
102
RTVSPropertyOp33
 70
     0
102
RTVSPropertyOp34
 70
     0
102
RTVSPropertyOp35
 70
     0
102
RTVSPropertyOp36
 70
     0
102
RTVSPropertyOp37
 70
     0
102
RTVSPropertyOp38
 70
     0
102
RTVSPropertyOp39
 70
     0
102
RTVSPropertyOp40
 70
     0
102
RTVSPropertyOp41
 70
     0
102
RTVSPropertyOp42
 70
     0
102
RTVSPropertyOp43
 70
     0
102
RTVSPropertyOp44
 70
     0
102
RTVSPropertyOp45
 70
     0
102
RTVSPropertyOp46
 70
     0
102
RTVSPropertyOp47
 70
     0
102
RTVSPropertyOp48
 70
     0
102
RTVSPropertyOp49
 70
     0
102
RTVSPropertyOp50
 70
     0
102
RTVSPropertyOp51
 70
     0
102
RTVSPropertyOp52
 70
     0
102
RTVSPropertyOp53
 70
     0
102
RTVSPropertyOp54
 70
     0
102
RTVSPropertyOp55
 70
     0
102
RTVSPropertyOp56
 70
     0
102
RTVSPropertyOp57
 70
     0
102
RTVSPropertyOp58
 70
     1
102
RTVSPropertyOp59
 70
     1
102
RTVSPropertyOp60
 70
     1
102
RTVSPropertyOp61
 70
     1
102
RTVSPropertyOp62
 70
     1
  0
XRECORD
  5
3C2
102
{ACAD_REACTORS
330
3C1
102
}
330
3C1
100
AcDbXrecord
280
     1
102
RTVSPost2010Prop28
280
     0
102
RTVSPost2010PropOp28
 70
     1
102
RTVSPost2010Prop29
280
     1
102
RTVSPost2010PropOp29
 70
     1
102
RTVSPost2010Prop30
280
     1
102
RTVSPost2010PropOp30
 70
     1
102
RTVSPost2010Prop31
280
     0
102
RTVSPost2010PropOp31
 70
     1
102
RTVSPost2010Prop32
280
     0
102
RTVSPost2010PropOp32
 70
     1
102
RTVSPost2010Prop33
280
     0
102
RTVSPost2010PropOp33
 70
     1
102
RTVSPost2010Prop34
280
     0
102
RTVSPost2010PropOp34
 70
     1
102
RTVSPost2010Prop35
280
     0
102
RTVSPost2010PropOp35
 70
     1
102
RTVSPost2010Prop36
280
     0
102
RTVSPost2010PropOp36
 70
     1
102
RTVSPost2010Prop37
 90
       50
102
RTVSPost2010PropOp37
 70
     1
102
RTVSPost2010Prop38
140
0.0
102
RTVSPost2010PropOp38
 70
     1
102
RTVSPost2010Prop39
140
1.0
102
RTVSPost2010PropOp39
 70
     1
102
RTVSPost2010Prop40
 90
        0
102
RTVSPost2010PropOp40
 70
     1
102
RTVSPost2010Prop41ColorIndex
 90
       18
102
RTVSPost2010Prop41ColorRGB
 90
        0
102
RTVSPost2010PropOp41
 70
     1
102
RTVSPost2010Prop42
 90
       50
102
RTVSPost2010PropOp42
 70
     1
102
RTVSPost2010Prop43
 90
        3
102
RTVSPost2010PropOp43
 70
     1
102
RTVSPost2010Prop44ColorIndex
 90
        5
102
RTVSPost2010Prop44ColorRGB
 90
      255
102
RTVSPost2010PropOp44
 70
     1
102
RTVSPost2010Prop45
280
     0
102
RTVSPost2010PropOp45
 70
     1
102
RTVSPost2010Prop46
 90
       50
102
RTVSPost2010PropOp46
 70
     1
102
RTVSPost2010Prop47
 90
       50
102
RTVSPost2010PropOp47
 70
     1
102
RTVSPost2010Prop48
 90
       50
102
RTVSPost2010PropOp48
 70
     1
102
RTVSPost2010Prop49
280
     0
102
RTVSPost2010PropOp49
 70
     1
102
RTVSPost2010Prop50
 90
       50
102
RTVSPost2010PropOp50
 70
     1
102
RTVSPost2010Prop51ColorIndex
 90
      256
102
RTVSPost2010Prop51ColorRGB
 90
-16777216
102
RTVSPost2010PropOp51
 70
     0
102
RTVSPost2010Prop52
140
1.0
102
RTVSPost2010PropOp52
 70
     0
102
RTVSPost2010Prop53
 90
        2
102
RTVSPost2010PropOp53
 70
     1
102
RTVSPost2010Prop54
  1
strokes_ogs.tif
102
RTVSPost2010PropOp54
 70
     1
102
RTVSPost2010Prop55
280
     0
102
RTVSPost2010PropOp55
 70
     1
102
RTVSPost2010Prop56
140
1.0
102
RTVSPost2010PropOp56
 70
     1
102
RTVSPost2010Prop57
140
1.0
102
RTVSPost2010PropOp57
 70
     1
102
RTVSPropertyOp0
 70
     1
102
RTVSPropertyOp1
 70
     1
102
RTVSPropertyOp2
 70
     1
102
RTVSPropertyOp3
 70
     1
102
RTVSPropertyOp4
 70
     1
102
RTVSPropertyOp5
 70
     1
102
RTVSPropertyOp6
 70
     1
102
RTVSPropertyOp7
 70
     1
102
RTVSPropertyOp8
 70
     1
102
RTVSPropertyOp9
 70
     1
102
RTVSPropertyOp10
 70
     1
102
RTVSPropertyOp11
 70
     1
102
RTVSPropertyOp12
 70
     1
102
RTVSPropertyOp13
 70
     1
102
RTVSPropertyOp14
 70
     1
102
RTVSPropertyOp15
 70
     1
102
RTVSPropertyOp16
 70
     1
102
RTVSPropertyOp17
 70
     1
102
RTVSPropertyOp18
 70
     1
102
RTVSPropertyOp19
 70
     1
102
RTVSPropertyOp20
 70
     1
102
RTVSPropertyOp21
 70
     1
102
RTVSPropertyOp22
 70
     1
102
RTVSPropertyOp23
 70
     1
102
RTVSPropertyOp24
 70
     1
102
RTVSPropertyOp25
 70
     1
102
RTVSPropertyOp26
 70
     1
102
RTVSPropertyOp27
 70
     1
102
RTVSPropertyOp28
 70
     1
102
RTVSPropertyOp29
 70
     1
102
RTVSPropertyOp30
 70
     1
102
RTVSPropertyOp31
 70
     1
102
RTVSPropertyOp32
 70
     1
102
RTVSPropertyOp33
 70
     1
102
RTVSPropertyOp34
 70
     1
102
RTVSPropertyOp35
 70
     1
102
RTVSPropertyOp36
 70
     1
102
RTVSPropertyOp37
 70
     1
102
RTVSPropertyOp38
 70
     1
102
RTVSPropertyOp39
 70
     1
102
RTVSPropertyOp40
 70
     1
102
RTVSPropertyOp41
 70
     1
102
RTVSPropertyOp42
 70
     1
102
RTVSPropertyOp43
 70
     1
102
RTVSPropertyOp44
 70
     1
102
RTVSPropertyOp45
 70
     1
102
RTVSPropertyOp46
 70
     1
102
RTVSPropertyOp47
 70
     1
102
RTVSPropertyOp48
 70
     1
102
RTVSPropertyOp49
 70
     1
102
RTVSPropertyOp50
 70
     1
102
RTVSPropertyOp51
 70
     0
102
RTVSPropertyOp52
 70
     0
102
RTVSPropertyOp53
 70
     1
102
RTVSPropertyOp54
 70
     1
102
RTVSPropertyOp55
 70
     1
102
RTVSPropertyOp56
 70
     1
102
RTVSPropertyOp57
 70
     1
102
RTVSPropertyOp58
 70
     1
102
RTVSPropertyOp59
 70
     1
102
RTVSPropertyOp60
 70
     1
102
RTVSPropertyOp61
 70
     1
102
RTVSPropertyOp62
 70
     1
  0
XRECORD
  5
3A6
102
{ACAD_REACTORS
330
3A5
102
}
330
3A5
100
AcDbXrecord
280
     1
102
RTVSPost2010Prop28
280
     0
102
RTVSPost2010PropOp28
 70
     1
102
RTVSPost2010Prop29
280
     1
102
RTVSPost2010PropOp29
 70
     1
102
RTVSPost2010Prop30
280
     1
102
RTVSPost2010PropOp30
 70
     1
102
RTVSPost2010Prop31
280
     0
102
RTVSPost2010PropOp31
 70
     1
102
RTVSPost2010Prop32
280
     0
102
RTVSPost2010PropOp32
 70
     1
102
RTVSPost2010Prop33
280
     0
102
RTVSPost2010PropOp33
 70
     1
102
RTVSPost2010Prop34
280
     0
102
RTVSPost2010PropOp34
 70
     1
102
RTVSPost2010Prop35
280
     0
102
RTVSPost2010PropOp35
 70
     1
102
RTVSPost2010Prop36
280
     0
102
RTVSPost2010PropOp36
 70
     1
102
RTVSPost2010Prop37
 90
       50
102
RTVSPost2010PropOp37
 70
     1
102
RTVSPost2010Prop38
140
0.0
102
RTVSPost2010PropOp38
 70
     1
102
RTVSPost2010Prop39
140
1.0
102
RTVSPost2010PropOp39
 70
     1
102
RTVSPost2010Prop40
 90
        0
102
RTVSPost2010PropOp40
 70
     1
102
RTVSPost2010Prop41ColorIndex
 90
       18
102
RTVSPost2010Prop41ColorRGB
 90
        0
102
RTVSPost2010PropOp41
 70
     1
102
RTVSPost2010Prop42
 90
       50
102
RTVSPost2010PropOp42
 70
     1
102
RTVSPost2010Prop43
 90
        3
102
RTVSPost2010PropOp43
 70
     1
102
RTVSPost2010Prop44ColorIndex
 90
        5
102
RTVSPost2010Prop44ColorRGB
 90
      255
102
RTVSPost2010PropOp44
 70
     1
102
RTVSPost2010Prop45
280
     0
102
RTVSPost2010PropOp45
 70
     1
102
RTVSPost2010Prop46
 90
       50
102
RTVSPost2010PropOp46
 70
     1
102
RTVSPost2010Prop47
 90
       50
102
RTVSPost2010PropOp47
 70
     1
102
RTVSPost2010Prop48
 90
       50
102
RTVSPost2010PropOp48
 70
     1
102
RTVSPost2010Prop49
280
     0
102
RTVSPost2010PropOp49
 70
     1
102
RTVSPost2010Prop50
 90
       50
102
RTVSPost2010PropOp50
 70
     1
102
RTVSPost2010Prop51ColorIndex
 90
      256
102
RTVSPost2010Prop51ColorRGB
 90
-16777216
102
RTVSPost2010PropOp51
 70
     0
102
RTVSPost2010Prop52
140
1.0
102
RTVSPost2010PropOp52
 70
     0
102
RTVSPost2010Prop53
 90
        2
102
RTVSPost2010PropOp53
 70
     1
102
RTVSPost2010Prop54
  1
strokes_ogs.tif
102
RTVSPost2010PropOp54
 70
     1
102
RTVSPost2010Prop55
280
     0
102
RTVSPost2010PropOp55
 70
     1
102
RTVSPost2010Prop56
140
1.0
102
RTVSPost2010PropOp56
 70
     1
102
RTVSPost2010Prop57
140
1.0
102
RTVSPost2010PropOp57
 70
     1
102
RTVSPropertyOp0
 70
     1
102
RTVSPropertyOp1
 70
     1
102
RTVSPropertyOp2
 70
     1
102
RTVSPropertyOp3
 70
     1
102
RTVSPropertyOp4
 70
     1
102
RTVSPropertyOp5
 70
     1
102
RTVSPropertyOp6
 70
     1
102
RTVSPropertyOp7
 70
     1
102
RTVSPropertyOp8
 70
     1
102
RTVSPropertyOp9
 70
     1
102
RTVSPropertyOp10
 70
     1
102
RTVSPropertyOp11
 70
     1
102
RTVSPropertyOp12
 70
     1
102
RTVSPropertyOp13
 70
     1
102
RTVSPropertyOp14
 70
     1
102
RTVSPropertyOp15
 70
     1
102
RTVSPropertyOp16
 70
     1
102
RTVSPropertyOp17
 70
     1
102
RTVSPropertyOp18
 70
     1
102
RTVSPropertyOp19
 70
     1
102
RTVSPropertyOp20
 70
     1
102
RTVSPropertyOp21
 70
     1
102
RTVSPropertyOp22
 70
     1
102
RTVSPropertyOp23
 70
     1
102
RTVSPropertyOp24
 70
     1
102
RTVSPropertyOp25
 70
     1
102
RTVSPropertyOp26
 70
     1
102
RTVSPropertyOp27
 70
     1
102
RTVSPropertyOp28
 70
     1
102
RTVSPropertyOp29
 70
     1
102
RTVSPropertyOp30
 70
     1
102
RTVSPropertyOp31
 70
     1
102
RTVSPropertyOp32
 70
     1
102
RTVSPropertyOp33
 70
     1
102
RTVSPropertyOp34
 70
     1
102
RTVSPropertyOp35
 70
     1
102
RTVSPropertyOp36
 70
     1
102
RTVSPropertyOp37
 70
     1
102
RTVSPropertyOp38
 70
     1
102
RTVSPropertyOp39
 70
     1
102
RTVSPropertyOp40
 70
     1
102
RTVSPropertyOp41
 70
     1
102
RTVSPropertyOp42
 70
     1
102
RTVSPropertyOp43
 70
     1
102
RTVSPropertyOp44
 70
     1
102
RTVSPropertyOp45
 70
     1
102
RTVSPropertyOp46
 70
     1
102
RTVSPropertyOp47
 70
     1
102
RTVSPropertyOp48
 70
     1
102
RTVSPropertyOp49
 70
     1
102
RTVSPropertyOp50
 70
     1
102
RTVSPropertyOp51
 70
     0
102
RTVSPropertyOp52
 70
     0
102
RTVSPropertyOp53
 70
     1
102
RTVSPropertyOp54
 70
     1
102
RTVSPropertyOp55
 70
     1
102
RTVSPropertyOp56
 70
     1
102
RTVSPropertyOp57
 70
     1
102
RTVSPropertyOp58
 70
     1
102
RTVSPropertyOp59
 70
     1
102
RTVSPropertyOp60
 70
     1
102
RTVSPropertyOp61
 70
     1
102
RTVSPropertyOp62
 70
     1
  0
XRECORD
  5
3A8
102
{ACAD_REACTORS
330
3A7
102
}
330
3A7
100
AcDbXrecord
280
     1
102
RTVSPost2010Prop28
280
     0
102
RTVSPost2010PropOp28
 70
     1
102
RTVSPost2010Prop29
280
     1
102
RTVSPost2010PropOp29
 70
     1
102
RTVSPost2010Prop30
280
     1
102
RTVSPost2010PropOp30
 70
     1
102
RTVSPost2010Prop31
280
     0
102
RTVSPost2010PropOp31
 70
     1
102
RTVSPost2010Prop32
280
     0
102
RTVSPost2010PropOp32
 70
     1
102
RTVSPost2010Prop33
280
     0
102
RTVSPost2010PropOp33
 70
     1
102
RTVSPost2010Prop34
280
     0
102
RTVSPost2010PropOp34
 70
     1
102
RTVSPost2010Prop35
280
     0
102
RTVSPost2010PropOp35
 70
     1
102
RTVSPost2010Prop36
280
     0
102
RTVSPost2010PropOp36
 70
     1
102
RTVSPost2010Prop37
 90
       50
102
RTVSPost2010PropOp37
 70
     1
102
RTVSPost2010Prop38
140
0.0
102
RTVSPost2010PropOp38
 70
     1
102
RTVSPost2010Prop39
140
1.0
102
RTVSPost2010PropOp39
 70
     1
102
RTVSPost2010Prop40
 90
        0
102
RTVSPost2010PropOp40
 70
     1
102
RTVSPost2010Prop41ColorIndex
 90
       18
102
RTVSPost2010Prop41ColorRGB
 90
        0
102
RTVSPost2010PropOp41
 70
     1
102
RTVSPost2010Prop42
 90
       50
102
RTVSPost2010PropOp42
 70
     1
102
RTVSPost2010Prop43
 90
        3
102
RTVSPost2010PropOp43
 70
     1
102
RTVSPost2010Prop44ColorIndex
 90
        5
102
RTVSPost2010Prop44ColorRGB
 90
      255
102
RTVSPost2010PropOp44
 70
     1
102
RTVSPost2010Prop45
280
     0
102
RTVSPost2010PropOp45
 70
     1
102
RTVSPost2010Prop46
 90
       50
102
RTVSPost2010PropOp46
 70
     1
102
RTVSPost2010Prop47
 90
       50
102
RTVSPost2010PropOp47
 70
     1
102
RTVSPost2010Prop48
 90
       50
102
RTVSPost2010PropOp48
 70
     1
102
RTVSPost2010Prop49
280
     0
102
RTVSPost2010PropOp49
 70
     1
102
RTVSPost2010Prop50
 90
       50
102
RTVSPost2010PropOp50
 70
     1
102
RTVSPost2010Prop51ColorIndex
 90
      256
102
RTVSPost2010Prop51ColorRGB
 90
-16777216
102
RTVSPost2010PropOp51
 70
     0
102
RTVSPost2010Prop52
140
1.0
102
RTVSPost2010PropOp52
 70
     0
102
RTVSPost2010Prop53
 90
        2
102
RTVSPost2010PropOp53
 70
     1
102
RTVSPost2010Prop54
  1
strokes_ogs.tif
102
RTVSPost2010PropOp54
 70
     1
102
RTVSPost2010Prop55
280
     0
102
RTVSPost2010PropOp55
 70
     1
102
RTVSPost2010Prop56
140
1.0
102
RTVSPost2010PropOp56
 70
     1
102
RTVSPost2010Prop57
140
1.0
102
RTVSPost2010PropOp57
 70
     1
102
RTVSPropertyOp0
 70
     1
102
RTVSPropertyOp1
 70
     1
102
RTVSPropertyOp2
 70
     1
102
RTVSPropertyOp3
 70
     1
102
RTVSPropertyOp4
 70
     1
102
RTVSPropertyOp5
 70
     1
102
RTVSPropertyOp6
 70
     1
102
RTVSPropertyOp7
 70
     1
102
RTVSPropertyOp8
 70
     1
102
RTVSPropertyOp9
 70
     1
102
RTVSPropertyOp10
 70
     1
102
RTVSPropertyOp11
 70
     1
102
RTVSPropertyOp12
 70
     1
102
RTVSPropertyOp13
 70
     1
102
RTVSPropertyOp14
 70
     1
102
RTVSPropertyOp15
 70
     1
102
RTVSPropertyOp16
 70
     1
102
RTVSPropertyOp17
 70
     1
102
RTVSPropertyOp18
 70
     1
102
RTVSPropertyOp19
 70
     1
102
RTVSPropertyOp20
 70
     1
102
RTVSPropertyOp21
 70
     1
102
RTVSPropertyOp22
 70
     1
102
RTVSPropertyOp23
 70
     1
102
RTVSPropertyOp24
 70
     1
102
RTVSPropertyOp25
 70
     1
102
RTVSPropertyOp26
 70
     1
102
RTVSPropertyOp27
 70
     1
102
RTVSPropertyOp28
 70
     1
102
RTVSPropertyOp29
 70
     1
102
RTVSPropertyOp30
 70
     1
102
RTVSPropertyOp31
 70
     1
102
RTVSPropertyOp32
 70
     1
102
RTVSPropertyOp33
 70
     1
102
RTVSPropertyOp34
 70
     1
102
RTVSPropertyOp35
 70
     1
102
RTVSPropertyOp36
 70
     1
102
RTVSPropertyOp37
 70
     1
102
RTVSPropertyOp38
 70
     1
102
RTVSPropertyOp39
 70
     1
102
RTVSPropertyOp40
 70
     1
102
RTVSPropertyOp41
 70
     1
102
RTVSPropertyOp42
 70
     1
102
RTVSPropertyOp43
 70
     1
102
RTVSPropertyOp44
 70
     1
102
RTVSPropertyOp45
 70
     1
102
RTVSPropertyOp46
 70
     1
102
RTVSPropertyOp47
 70
     1
102
RTVSPropertyOp48
 70
     1
102
RTVSPropertyOp49
 70
     1
102
RTVSPropertyOp50
 70
     1
102
RTVSPropertyOp51
 70
     0
102
RTVSPropertyOp52
 70
     0
102
RTVSPropertyOp53
 70
     1
102
RTVSPropertyOp54
 70
     1
102
RTVSPropertyOp55
 70
     1
102
RTVSPropertyOp56
 70
     1
102
RTVSPropertyOp57
 70
     1
102
RTVSPropertyOp58
 70
     1
102
RTVSPropertyOp59
 70
     1
102
RTVSPropertyOp60
 70
     1
102
RTVSPropertyOp61
 70
     1
102
RTVSPropertyOp62
 70
     1
  0
XRECORD
  5
3AA
102
{ACAD_REACTORS
330
3A9
102
}
330
3A9
100
AcDbXrecord
280
     1
102
RTVSPost2010Prop28
280
     0
102
RTVSPost2010PropOp28
 70
     1
102
RTVSPost2010Prop29
280
     1
102
RTVSPost2010PropOp29
 70
     1
102
RTVSPost2010Prop30
280
     1
102
RTVSPost2010PropOp30
 70
     1
102
RTVSPost2010Prop31
280
     0
102
RTVSPost2010PropOp31
 70
     1
102
RTVSPost2010Prop32
280
     0
102
RTVSPost2010PropOp32
 70
     1
102
RTVSPost2010Prop33
280
     0
102
RTVSPost2010PropOp33
 70
     1
102
RTVSPost2010Prop34
280
     0
102
RTVSPost2010PropOp34
 70
     1
102
RTVSPost2010Prop35
280
     0
102
RTVSPost2010PropOp35
 70
     1
102
RTVSPost2010Prop36
280
     0
102
RTVSPost2010PropOp36
 70
     1
102
RTVSPost2010Prop37
 90
       50
102
RTVSPost2010PropOp37
 70
     1
102
RTVSPost2010Prop38
140
0.0
102
RTVSPost2010PropOp38
 70
     1
102
RTVSPost2010Prop39
140
1.0
102
RTVSPost2010PropOp39
 70
     1
102
RTVSPost2010Prop40
 90
        0
102
RTVSPost2010PropOp40
 70
     1
102
RTVSPost2010Prop41ColorIndex
 90
       18
102
RTVSPost2010Prop41ColorRGB
 90
        0
102
RTVSPost2010PropOp41
 70
     1
102
RTVSPost2010Prop42
 90
       50
102
RTVSPost2010PropOp42
 70
     1
102
RTVSPost2010Prop43
 90
        3
102
RTVSPost2010PropOp43
 70
     1
102
RTVSPost2010Prop44ColorIndex
 90
        5
102
RTVSPost2010Prop44ColorRGB
 90
      255
102
RTVSPost2010PropOp44
 70
     1
102
RTVSPost2010Prop45
280
     0
102
RTVSPost2010PropOp45
 70
     1
102
RTVSPost2010Prop46
 90
       50
102
RTVSPost2010PropOp46
 70
     1
102
RTVSPost2010Prop47
 90
       50
102
RTVSPost2010PropOp47
 70
     1
102
RTVSPost2010Prop48
 90
       50
102
RTVSPost2010PropOp48
 70
     1
102
RTVSPost2010Prop49
280
     0
102
RTVSPost2010PropOp49
 70
     1
102
RTVSPost2010Prop50
 90
       50
102
RTVSPost2010PropOp50
 70
     1
102
RTVSPost2010Prop51ColorIndex
 90
      256
102
RTVSPost2010Prop51ColorRGB
 90
-16777216
102
RTVSPost2010PropOp51
 70
     0
102
RTVSPost2010Prop52
140
1.0
102
RTVSPost2010PropOp52
 70
     0
102
RTVSPost2010Prop53
 90
        2
102
RTVSPost2010PropOp53
 70
     1
102
RTVSPost2010Prop54
  1
strokes_ogs.tif
102
RTVSPost2010PropOp54
 70
     1
102
RTVSPost2010Prop55
280
     0
102
RTVSPost2010PropOp55
 70
     1
102
RTVSPost2010Prop56
140
1.0
102
RTVSPost2010PropOp56
 70
     1
102
RTVSPost2010Prop57
140
1.0
102
RTVSPost2010PropOp57
 70
     1
102
RTVSPropertyOp0
 70
     1
102
RTVSPropertyOp1
 70
     1
102
RTVSPropertyOp2
 70
     1
102
RTVSPropertyOp3
 70
     1
102
RTVSPropertyOp4
 70
     1
102
RTVSPropertyOp5
 70
     1
102
RTVSPropertyOp6
 70
     1
102
RTVSPropertyOp7
 70
     1
102
RTVSPropertyOp8
 70
     1
102
RTVSPropertyOp9
 70
     1
102
RTVSPropertyOp10
 70
     1
102
RTVSPropertyOp11
 70
     1
102
RTVSPropertyOp12
 70
     1
102
RTVSPropertyOp13
 70
     1
102
RTVSPropertyOp14
 70
     1
102
RTVSPropertyOp15
 70
     1
102
RTVSPropertyOp16
 70
     1
102
RTVSPropertyOp17
 70
     1
102
RTVSPropertyOp18
 70
     1
102
RTVSPropertyOp19
 70
     1
102
RTVSPropertyOp20
 70
     1
102
RTVSPropertyOp21
 70
     1
102
RTVSPropertyOp22
 70
     1
102
RTVSPropertyOp23
 70
     1
102
RTVSPropertyOp24
 70
     1
102
RTVSPropertyOp25
 70
     1
102
RTVSPropertyOp26
 70
     1
102
RTVSPropertyOp27
 70
     1
102
RTVSPropertyOp28
 70
     1
102
RTVSPropertyOp29
 70
     1
102
RTVSPropertyOp30
 70
     1
102
RTVSPropertyOp31
 70
     1
102
RTVSPropertyOp32
 70
     1
102
RTVSPropertyOp33
 70
     1
102
RTVSPropertyOp34
 70
     1
102
RTVSPropertyOp35
 70
     1
102
RTVSPropertyOp36
 70
     1
102
RTVSPropertyOp37
 70
     1
102
RTVSPropertyOp38
 70
     1
102
RTVSPropertyOp39
 70
     1
102
RTVSPropertyOp40
 70
     1
102
RTVSPropertyOp41
 70
     1
102
RTVSPropertyOp42
 70
     1
102
RTVSPropertyOp43
 70
     1
102
RTVSPropertyOp44
 70
     1
102
RTVSPropertyOp45
 70
     1
102
RTVSPropertyOp46
 70
     1
102
RTVSPropertyOp47
 70
     1
102
RTVSPropertyOp48
 70
     1
102
RTVSPropertyOp49
 70
     1
102
RTVSPropertyOp50
 70
     1
102
RTVSPropertyOp51
 70
     0
102
RTVSPropertyOp52
 70
     0
102
RTVSPropertyOp53
 70
     1
102
RTVSPropertyOp54
 70
     1
102
RTVSPropertyOp55
 70
     1
102
RTVSPropertyOp56
 70
     1
102
RTVSPropertyOp57
 70
     1
102
RTVSPropertyOp58
 70
     1
102
RTVSPropertyOp59
 70
     1
102
RTVSPropertyOp60
 70
     1
102
RTVSPropertyOp61
 70
     1
102
RTVSPropertyOp62
 70
     1
  0
XRECORD
  5
3AC
102
{ACAD_REACTORS
330
3AB
102
}
330
3AB
100
AcDbXrecord
280
     1
102
RTVSPost2010Prop28
280
     0
102
RTVSPost2010PropOp28
 70
     1
102
RTVSPost2010Prop29
280
     1
102
RTVSPost2010PropOp29
 70
     1
102
RTVSPost2010Prop30
280
     1
102
RTVSPost2010PropOp30
 70
     1
102
RTVSPost2010Prop31
280
     0
102
RTVSPost2010PropOp31
 70
     1
102
RTVSPost2010Prop32
280
     0
102
RTVSPost2010PropOp32
 70
     1
102
RTVSPost2010Prop33
280
     0
102
RTVSPost2010PropOp33
 70
     1
102
RTVSPost2010Prop34
280
     0
102
RTVSPost2010PropOp34
 70
     1
102
RTVSPost2010Prop35
280
     0
102
RTVSPost2010PropOp35
 70
     1
102
RTVSPost2010Prop36
280
     0
102
RTVSPost2010PropOp36
 70
     1
102
RTVSPost2010Prop37
 90
       50
102
RTVSPost2010PropOp37
 70
     1
102
RTVSPost2010Prop38
140
0.0
102
RTVSPost2010PropOp38
 70
     1
102
RTVSPost2010Prop39
140
1.0
102
RTVSPost2010PropOp39
 70
     1
102
RTVSPost2010Prop40
 90
        0
102
RTVSPost2010PropOp40
 70
     1
102
RTVSPost2010Prop41ColorIndex
 90
       18
102
RTVSPost2010Prop41ColorRGB
 90
        0
102
RTVSPost2010PropOp41
 70
     1
102
RTVSPost2010Prop42
 90
       50
102
RTVSPost2010PropOp42
 70
     1
102
RTVSPost2010Prop43
 90
        3
102
RTVSPost2010PropOp43
 70
     1
102
RTVSPost2010Prop44ColorIndex
 90
        5
102
RTVSPost2010Prop44ColorRGB
 90
      255
102
RTVSPost2010PropOp44
 70
     1
102
RTVSPost2010Prop45
280
     0
102
RTVSPost2010PropOp45
 70
     1
102
RTVSPost2010Prop46
 90
       50
102
RTVSPost2010PropOp46
 70
     1
102
RTVSPost2010Prop47
 90
       50
102
RTVSPost2010PropOp47
 70
     1
102
RTVSPost2010Prop48
 90
       50
102
RTVSPost2010PropOp48
 70
     1
102
RTVSPost2010Prop49
280
     0
102
RTVSPost2010PropOp49
 70
     1
102
RTVSPost2010Prop50
 90
       50
102
RTVSPost2010PropOp50
 70
     1
102
RTVSPost2010Prop51ColorIndex
 90
      256
102
RTVSPost2010Prop51ColorRGB
 90
-16777216
102
RTVSPost2010PropOp51
 70
     0
102
RTVSPost2010Prop52
140
1.0
102
RTVSPost2010PropOp52
 70
     0
102
RTVSPost2010Prop53
 90
        2
102
RTVSPost2010PropOp53
 70
     1
102
RTVSPost2010Prop54
  1
strokes_ogs.tif
102
RTVSPost2010PropOp54
 70
     1
102
RTVSPost2010Prop55
280
     0
102
RTVSPost2010PropOp55
 70
     1
102
RTVSPost2010Prop56
140
1.0
102
RTVSPost2010PropOp56
 70
     1
102
RTVSPost2010Prop57
140
1.0
102
RTVSPost2010PropOp57
 70
     1
102
RTVSPropertyOp0
 70
     1
102
RTVSPropertyOp1
 70
     1
102
RTVSPropertyOp2
 70
     1
102
RTVSPropertyOp3
 70
     1
102
RTVSPropertyOp4
 70
     1
102
RTVSPropertyOp5
 70
     1
102
RTVSPropertyOp6
 70
     1
102
RTVSPropertyOp7
 70
     1
102
RTVSPropertyOp8
 70
     1
102
RTVSPropertyOp9
 70
     1
102
RTVSPropertyOp10
 70
     1
102
RTVSPropertyOp11
 70
     1
102
RTVSPropertyOp12
 70
     1
102
RTVSPropertyOp13
 70
     1
102
RTVSPropertyOp14
 70
     1
102
RTVSPropertyOp15
 70
     1
102
RTVSPropertyOp16
 70
     1
102
RTVSPropertyOp17
 70
     1
102
RTVSPropertyOp18
 70
     1
102
RTVSPropertyOp19
 70
     1
102
RTVSPropertyOp20
 70
     1
102
RTVSPropertyOp21
 70
     1
102
RTVSPropertyOp22
 70
     1
102
RTVSPropertyOp23
 70
     1
102
RTVSPropertyOp24
 70
     1
102
RTVSPropertyOp25
 70
     1
102
RTVSPropertyOp26
 70
     1
102
RTVSPropertyOp27
 70
     1
102
RTVSPropertyOp28
 70
     1
102
RTVSPropertyOp29
 70
     1
102
RTVSPropertyOp30
 70
     1
102
RTVSPropertyOp31
 70
     1
102
RTVSPropertyOp32
 70
     1
102
RTVSPropertyOp33
 70
     1
102
RTVSPropertyOp34
 70
     1
102
RTVSPropertyOp35
 70
     1
102
RTVSPropertyOp36
 70
     1
102
RTVSPropertyOp37
 70
     1
102
RTVSPropertyOp38
 70
     1
102
RTVSPropertyOp39
 70
     1
102
RTVSPropertyOp40
 70
     1
102
RTVSPropertyOp41
 70
     1
102
RTVSPropertyOp42
 70
     1
102
RTVSPropertyOp43
 70
     1
102
RTVSPropertyOp44
 70
     1
102
RTVSPropertyOp45
 70
     1
102
RTVSPropertyOp46
 70
     1
102
RTVSPropertyOp47
 70
     1
102
RTVSPropertyOp48
 70
     1
102
RTVSPropertyOp49
 70
     1
102
RTVSPropertyOp50
 70
     1
102
RTVSPropertyOp51
 70
     0
102
RTVSPropertyOp52
 70
     0
102
RTVSPropertyOp53
 70
     1
102
RTVSPropertyOp54
 70
     1
102
RTVSPropertyOp55
 70
     1
102
RTVSPropertyOp56
 70
     1
102
RTVSPropertyOp57
 70
     1
102
RTVSPropertyOp58
 70
     1
102
RTVSPropertyOp59
 70
     1
102
RTVSPropertyOp60
 70
     1
102
RTVSPropertyOp61
 70
     1
102
RTVSPropertyOp62
 70
     1
  0
XRECORD
  5
3B2
102
{ACAD_REACTORS
330
3B1
102
}
330
3B1
100
AcDbXrecord
280
     1
102
RTVSPost2010Prop28
280
     0
102
RTVSPost2010PropOp28
 70
     1
102
RTVSPost2010Prop29
280
     1
102
RTVSPost2010PropOp29
 70
     1
102
RTVSPost2010Prop30
280
     1
102
RTVSPost2010PropOp30
 70
     1
102
RTVSPost2010Prop31
280
     0
102
RTVSPost2010PropOp31
 70
     1
102
RTVSPost2010Prop32
280
     0
102
RTVSPost2010PropOp32
 70
     1
102
RTVSPost2010Prop33
280
     0
102
RTVSPost2010PropOp33
 70
     1
102
RTVSPost2010Prop34
280
     0
102
RTVSPost2010PropOp34
 70
     1
102
RTVSPost2010Prop35
280
     0
102
RTVSPost2010PropOp35
 70
     1
102
RTVSPost2010Prop36
280
     0
102
RTVSPost2010PropOp36
 70
     1
102
RTVSPost2010Prop37
 90
       50
102
RTVSPost2010PropOp37
 70
     1
102
RTVSPost2010Prop38
140
0.0
102
RTVSPost2010PropOp38
 70
     1
102
RTVSPost2010Prop39
140
1.0
102
RTVSPost2010PropOp39
 70
     1
102
RTVSPost2010Prop40
 90
        0
102
RTVSPost2010PropOp40
 70
     1
102
RTVSPost2010Prop41ColorIndex
 90
       18
102
RTVSPost2010Prop41ColorRGB
 90
        0
102
RTVSPost2010PropOp41
 70
     1
102
RTVSPost2010Prop42
 90
       50
102
RTVSPost2010PropOp42
 70
     1
102
RTVSPost2010Prop43
 90
        3
102
RTVSPost2010PropOp43
 70
     1
102
RTVSPost2010Prop44ColorIndex
 90
        5
102
RTVSPost2010Prop44ColorRGB
 90
      255
102
RTVSPost2010PropOp44
 70
     1
102
RTVSPost2010Prop45
280
     0
102
RTVSPost2010PropOp45
 70
     1
102
RTVSPost2010Prop46
 90
       50
102
RTVSPost2010PropOp46
 70
     1
102
RTVSPost2010Prop47
 90
       50
102
RTVSPost2010PropOp47
 70
     1
102
RTVSPost2010Prop48
 90
       50
102
RTVSPost2010PropOp48
 70
     1
102
RTVSPost2010Prop49
280
     0
102
RTVSPost2010PropOp49
 70
     1
102
RTVSPost2010Prop50
 90
       50
102
RTVSPost2010PropOp50
 70
     1
102
RTVSPost2010Prop51ColorIndex
 90
      256
102
RTVSPost2010Prop51ColorRGB
 90
-16777216
102
RTVSPost2010PropOp51
 70
     0
102
RTVSPost2010Prop52
140
1.0
102
RTVSPost2010PropOp52
 70
     0
102
RTVSPost2010Prop53
 90
        2
102
RTVSPost2010PropOp53
 70
     1
102
RTVSPost2010Prop54
  1
strokes_ogs.tif
102
RTVSPost2010PropOp54
 70
     1
102
RTVSPost2010Prop55
280
     0
102
RTVSPost2010PropOp55
 70
     1
102
RTVSPost2010Prop56
140
1.0
102
RTVSPost2010PropOp56
 70
     1
102
RTVSPost2010Prop57
140
1.0
102
RTVSPost2010PropOp57
 70
     1
102
RTVSPropertyOp0
 70
     1
102
RTVSPropertyOp1
 70
     1
102
RTVSPropertyOp2
 70
     1
102
RTVSPropertyOp3
 70
     1
102
RTVSPropertyOp4
 70
     1
102
RTVSPropertyOp5
 70
     1
102
RTVSPropertyOp6
 70
     1
102
RTVSPropertyOp7
 70
     1
102
RTVSPropertyOp8
 70
     1
102
RTVSPropertyOp9
 70
     1
102
RTVSPropertyOp10
 70
     1
102
RTVSPropertyOp11
 70
     1
102
RTVSPropertyOp12
 70
     1
102
RTVSPropertyOp13
 70
     1
102
RTVSPropertyOp14
 70
     1
102
RTVSPropertyOp15
 70
     1
102
RTVSPropertyOp16
 70
     1
102
RTVSPropertyOp17
 70
     1
102
RTVSPropertyOp18
 70
     1
102
RTVSPropertyOp19
 70
     1
102
RTVSPropertyOp20
 70
     1
102
RTVSPropertyOp21
 70
     1
102
RTVSPropertyOp22
 70
     1
102
RTVSPropertyOp23
 70
     1
102
RTVSPropertyOp24
 70
     1
102
RTVSPropertyOp25
 70
     1
102
RTVSPropertyOp26
 70
     1
102
RTVSPropertyOp27
 70
     1
102
RTVSPropertyOp28
 70
     1
102
RTVSPropertyOp29
 70
     1
102
RTVSPropertyOp30
 70
     1
102
RTVSPropertyOp31
 70
     1
102
RTVSPropertyOp32
 70
     1
102
RTVSPropertyOp33
 70
     1
102
RTVSPropertyOp34
 70
     1
102
RTVSPropertyOp35
 70
     1
102
RTVSPropertyOp36
 70
     1
102
RTVSPropertyOp37
 70
     1
102
RTVSPropertyOp38
 70
     1
102
RTVSPropertyOp39
 70
     1
102
RTVSPropertyOp40
 70
     1
102
RTVSPropertyOp41
 70
     1
102
RTVSPropertyOp42
 70
     1
102
RTVSPropertyOp43
 70
     1
102
RTVSPropertyOp44
 70
     1
102
RTVSPropertyOp45
 70
     1
102
RTVSPropertyOp46
 70
     1
102
RTVSPropertyOp47
 70
     1
102
RTVSPropertyOp48
 70
     1
102
RTVSPropertyOp49
 70
     1
102
RTVSPropertyOp50
 70
     1
102
RTVSPropertyOp51
 70
     0
102
RTVSPropertyOp52
 70
     0
102
RTVSPropertyOp53
 70
     1
102
RTVSPropertyOp54
 70
     1
102
RTVSPropertyOp55
 70
     1
102
RTVSPropertyOp56
 70
     1
102
RTVSPropertyOp57
 70
     1
102
RTVSPropertyOp58
 70
     1
102
RTVSPropertyOp59
 70
     1
102
RTVSPropertyOp60
 70
     1
102
RTVSPropertyOp61
 70
     1
102
RTVSPropertyOp62
 70
     1
  0
XRECORD
  5
3C6
102
{ACAD_REACTORS
330
3C5
102
}
330
3C5
100
AcDbXrecord
280
     1
102
RTVSPost2010Prop28
280
     0
102
RTVSPost2010PropOp28
 70
     0
102
RTVSPost2010Prop29
280
     1
102
RTVSPost2010PropOp29
 70
     0
102
RTVSPost2010Prop30
280
     1
102
RTVSPost2010PropOp30
 70
     0
102
RTVSPost2010Prop31
280
     0
102
RTVSPost2010PropOp31
 70
     0
102
RTVSPost2010Prop32
280
     0
102
RTVSPost2010PropOp32
 70
     0
102
RTVSPost2010Prop33
280
     0
102
RTVSPost2010PropOp33
 70
     0
102
RTVSPost2010Prop34
280
     0
102
RTVSPost2010PropOp34
 70
     0
102
RTVSPost2010Prop35
280
     0
102
RTVSPost2010PropOp35
 70
     0
102
RTVSPost2010Prop36
280
     0
102
RTVSPost2010PropOp36
 70
     0
102
RTVSPost2010Prop37
 90
       50
102
RTVSPost2010PropOp37
 70
     0
102
RTVSPost2010Prop38
140
0.0
102
RTVSPost2010PropOp38
 70
     0
102
RTVSPost2010Prop39
140
1.0
102
RTVSPost2010PropOp39
 70
     0
102
RTVSPost2010Prop40
 90
        0
102
RTVSPost2010PropOp40
 70
     0
102
RTVSPost2010Prop41ColorIndex
 90
       18
102
RTVSPost2010Prop41ColorRGB
 90
        0
102
RTVSPost2010PropOp41
 70
     0
102
RTVSPost2010Prop42
 90
       50
102
RTVSPost2010PropOp42
 70
     0
102
RTVSPost2010Prop43
 90
        3
102
RTVSPost2010PropOp43
 70
     0
102
RTVSPost2010Prop44ColorIndex
 90
        5
102
RTVSPost2010Prop44ColorRGB
 90
      255
102
RTVSPost2010PropOp44
 70
     0
102
RTVSPost2010Prop45
280
     0
102
RTVSPost2010PropOp45
 70
     0
102
RTVSPost2010Prop46
 90
       50
102
RTVSPost2010PropOp46
 70
     0
102
RTVSPost2010Prop47
 90
       50
102
RTVSPost2010PropOp47
 70
     0
102
RTVSPost2010Prop48
 90
       50
102
RTVSPost2010PropOp48
 70
     0
102
RTVSPost2010Prop49
280
     0
102
RTVSPost2010PropOp49
 70
     0
102
RTVSPost2010Prop50
 90
       50
102
RTVSPost2010PropOp50
 70
     0
102
RTVSPost2010Prop51ColorIndex
 90
      256
102
RTVSPost2010Prop51ColorRGB
 90
-16777216
102
RTVSPost2010PropOp51
 70
     0
102
RTVSPost2010Prop52
140
1.0
102
RTVSPost2010PropOp52
 70
     0
102
RTVSPost2010Prop53
 90
        2
102
RTVSPost2010PropOp53
 70
     0
102
RTVSPost2010Prop54
  1
strokes_ogs.tif
102
RTVSPost2010PropOp54
 70
     0
102
RTVSPost2010Prop55
280
     0
102
RTVSPost2010PropOp55
 70
     0
102
RTVSPost2010Prop56
140
1.0
102
RTVSPost2010PropOp56
 70
     0
102
RTVSPost2010Prop57
140
1.0
102
RTVSPost2010PropOp57
 70
     0
102
RTVSPropertyOp0
 70
     0
102
RTVSPropertyOp1
 70
     0
102
RTVSPropertyOp2
 70
     0
102
RTVSPropertyOp3
 70
     0
102
RTVSPropertyOp4
 70
     0
102
RTVSPropertyOp5
 70
     0
102
RTVSPropertyOp6
 70
     0
102
RTVSPropertyOp7
 70
     0
102
RTVSPropertyOp8
 70
     0
102
RTVSPropertyOp9
 70
     0
102
RTVSPropertyOp10
 70
     0
102
RTVSPropertyOp11
 70
     0
102
RTVSPropertyOp12
 70
     0
102
RTVSPropertyOp13
 70
     0
102
RTVSPropertyOp14
 70
     2
102
RTVSPropertyOp15
 70
     0
102
RTVSPropertyOp16
 70
     0
102
RTVSPropertyOp17
 70
     0
102
RTVSPropertyOp18
 70
     0
102
RTVSPropertyOp19
 70
     0
102
RTVSPropertyOp20
 70
     0
102
RTVSPropertyOp21
 70
     0
102
RTVSPropertyOp22
 70
     0
102
RTVSPropertyOp23
 70
     0
102
RTVSPropertyOp24
 70
     0
102
RTVSPropertyOp25
 70
     0
102
RTVSPropertyOp26
 70
     0
102
RTVSPropertyOp27
 70
     0
102
RTVSPropertyOp28
 70
     0
102
RTVSPropertyOp29
 70
     0
102
RTVSPropertyOp30
 70
     0
102
RTVSPropertyOp31
 70
     0
102
RTVSPropertyOp32
 70
     0
102
RTVSPropertyOp33
 70
     0
102
RTVSPropertyOp34
 70
     0
102
RTVSPropertyOp35
 70
     0
102
RTVSPropertyOp36
 70
     0
102
RTVSPropertyOp37
 70
     0
102
RTVSPropertyOp38
 70
     0
102
RTVSPropertyOp39
 70
     0
102
RTVSPropertyOp40
 70
     0
102
RTVSPropertyOp41
 70
     0
102
RTVSPropertyOp42
 70
     0
102
RTVSPropertyOp43
 70
     0
102
RTVSPropertyOp44
 70
     0
102
RTVSPropertyOp45
 70
     0
102
RTVSPropertyOp46
 70
     0
102
RTVSPropertyOp47
 70
     0
102
RTVSPropertyOp48
 70
     0
102
RTVSPropertyOp49
 70
     0
102
RTVSPropertyOp50
 70
     0
102
RTVSPropertyOp51
 70
     0
102
RTVSPropertyOp52
 70
     0
102
RTVSPropertyOp53
 70
     0
102
RTVSPropertyOp54
 70
     0
102
RTVSPropertyOp55
 70
     0
102
RTVSPropertyOp56
 70
     0
102
RTVSPropertyOp57
 70
     0
102
RTVSPropertyOp58
 70
     1
102
RTVSPropertyOp59
 70
     1
102
RTVSPropertyOp60
 70
     1
102
RTVSPropertyOp61
 70
     1
102
RTVSPropertyOp62
 70
     1
  0
XRECORD
  5
3C0
102
{ACAD_REACTORS
330
3BF
102
}
330
3BF
100
AcDbXrecord
280
     1
102
RTVSPost2010Prop28
280
     0
102
RTVSPost2010PropOp28
 70
     1
102
RTVSPost2010Prop29
280
     1
102
RTVSPost2010PropOp29
 70
     1
102
RTVSPost2010Prop30
280
     1
102
RTVSPost2010PropOp30
 70
     1
102
RTVSPost2010Prop31
280
     0
102
RTVSPost2010PropOp31
 70
     1
102
RTVSPost2010Prop32
280
     0
102
RTVSPost2010PropOp32
 70
     1
102
RTVSPost2010Prop33
280
     0
102
RTVSPost2010PropOp33
 70
     1
102
RTVSPost2010Prop34
280
     0
102
RTVSPost2010PropOp34
 70
     1
102
RTVSPost2010Prop35
280
     0
102
RTVSPost2010PropOp35
 70
     1
102
RTVSPost2010Prop36
280
     0
102
RTVSPost2010PropOp36
 70
     1
102
RTVSPost2010Prop37
 90
       50
102
RTVSPost2010PropOp37
 70
     1
102
RTVSPost2010Prop38
140
0.0
102
RTVSPost2010PropOp38
 70
     1
102
RTVSPost2010Prop39
140
1.0
102
RTVSPost2010PropOp39
 70
     1
102
RTVSPost2010Prop40
 90
        0
102
RTVSPost2010PropOp40
 70
     1
102
RTVSPost2010Prop41ColorIndex
 90
       18
102
RTVSPost2010Prop41ColorRGB
 90
        0
102
RTVSPost2010PropOp41
 70
     1
102
RTVSPost2010Prop42
 90
       50
102
RTVSPost2010PropOp42
 70
     1
102
RTVSPost2010Prop43
 90
        3
102
RTVSPost2010PropOp43
 70
     1
102
RTVSPost2010Prop44ColorIndex
 90
        5
102
RTVSPost2010Prop44ColorRGB
 90
      255
102
RTVSPost2010PropOp44
 70
     1
102
RTVSPost2010Prop45
280
     0
102
RTVSPost2010PropOp45
 70
     1
102
RTVSPost2010Prop46
 90
       50
102
RTVSPost2010PropOp46
 70
     1
102
RTVSPost2010Prop47
 90
       50
102
RTVSPost2010PropOp47
 70
     1
102
RTVSPost2010Prop48
 90
       50
102
RTVSPost2010PropOp48
 70
     1
102
RTVSPost2010Prop49
280
     0
102
RTVSPost2010PropOp49
 70
     1
102
RTVSPost2010Prop50
 90
       50
102
RTVSPost2010PropOp50
 70
     1
102
RTVSPost2010Prop51ColorIndex
 90
      256
102
RTVSPost2010Prop51ColorRGB
 90
-16777216
102
RTVSPost2010PropOp51
 70
     0
102
RTVSPost2010Prop52
140
1.0
102
RTVSPost2010PropOp52
 70
     0
102
RTVSPost2010Prop53
 90
        2
102
RTVSPost2010PropOp53
 70
     1
102
RTVSPost2010Prop54
  1
strokes_ogs.tif
102
RTVSPost2010PropOp54
 70
     1
102
RTVSPost2010Prop55
280
     0
102
RTVSPost2010PropOp55
 70
     1
102
RTVSPost2010Prop56
140
1.0
102
RTVSPost2010PropOp56
 70
     1
102
RTVSPost2010Prop57
140
1.0
102
RTVSPost2010PropOp57
 70
     1
102
RTVSPropertyOp0
 70
     1
102
RTVSPropertyOp1
 70
     1
102
RTVSPropertyOp2
 70
     1
102
RTVSPropertyOp3
 70
     1
102
RTVSPropertyOp4
 70
     1
102
RTVSPropertyOp5
 70
     1
102
RTVSPropertyOp6
 70
     1
102
RTVSPropertyOp7
 70
     1
102
RTVSPropertyOp8
 70
     1
102
RTVSPropertyOp9
 70
     1
102
RTVSPropertyOp10
 70
     1
102
RTVSPropertyOp11
 70
     1
102
RTVSPropertyOp12
 70
     1
102
RTVSPropertyOp13
 70
     1
102
RTVSPropertyOp14
 70
     1
102
RTVSPropertyOp15
 70
     1
102
RTVSPropertyOp16
 70
     1
102
RTVSPropertyOp17
 70
     1
102
RTVSPropertyOp18
 70
     1
102
RTVSPropertyOp19
 70
     1
102
RTVSPropertyOp20
 70
     1
102
RTVSPropertyOp21
 70
     1
102
RTVSPropertyOp22
 70
     1
102
RTVSPropertyOp23
 70
     1
102
RTVSPropertyOp24
 70
     1
102
RTVSPropertyOp25
 70
     1
102
RTVSPropertyOp26
 70
     1
102
RTVSPropertyOp27
 70
     1
102
RTVSPropertyOp28
 70
     1
102
RTVSPropertyOp29
 70
     1
102
RTVSPropertyOp30
 70
     1
102
RTVSPropertyOp31
 70
     1
102
RTVSPropertyOp32
 70
     1
102
RTVSPropertyOp33
 70
     1
102
RTVSPropertyOp34
 70
     1
102
RTVSPropertyOp35
 70
     1
102
RTVSPropertyOp36
 70
     1
102
RTVSPropertyOp37
 70
     1
102
RTVSPropertyOp38
 70
     1
102
RTVSPropertyOp39
 70
     1
102
RTVSPropertyOp40
 70
     1
102
RTVSPropertyOp41
 70
     1
102
RTVSPropertyOp42
 70
     1
102
RTVSPropertyOp43
 70
     1
102
RTVSPropertyOp44
 70
     1
102
RTVSPropertyOp45
 70
     1
102
RTVSPropertyOp46
 70
     1
102
RTVSPropertyOp47
 70
     1
102
RTVSPropertyOp48
 70
     1
102
RTVSPropertyOp49
 70
     1
102
RTVSPropertyOp50
 70
     1
102
RTVSPropertyOp51
 70
     0
102
RTVSPropertyOp52
 70
     0
102
RTVSPropertyOp53
 70
     1
102
RTVSPropertyOp54
 70
     1
102
RTVSPropertyOp55
 70
     1
102
RTVSPropertyOp56
 70
     1
102
RTVSPropertyOp57
 70
     1
102
RTVSPropertyOp58
 70
     1
102
RTVSPropertyOp59
 70
     1
102
RTVSPropertyOp60
 70
     1
102
RTVSPropertyOp61
 70
     1
102
RTVSPropertyOp62
 70
     1
  0
XRECORD
  5
3C8
102
{ACAD_REACTORS
330
3C7
102
}
330
3C7
100
AcDbXrecord
280
     1
102
RTVSPost2010Prop28
280
     0
102
RTVSPost2010PropOp28
 70
     0
102
RTVSPost2010Prop29
280
     1
102
RTVSPost2010PropOp29
 70
     0
102
RTVSPost2010Prop30
280
     1
102
RTVSPost2010PropOp30
 70
     0
102
RTVSPost2010Prop31
280
     0
102
RTVSPost2010PropOp31
 70
     0
102
RTVSPost2010Prop32
280
     0
102
RTVSPost2010PropOp32
 70
     0
102
RTVSPost2010Prop33
280
     0
102
RTVSPost2010PropOp33
 70
     0
102
RTVSPost2010Prop34
280
     0
102
RTVSPost2010PropOp34
 70
     0
102
RTVSPost2010Prop35
280
     0
102
RTVSPost2010PropOp35
 70
     0
102
RTVSPost2010Prop36
280
     0
102
RTVSPost2010PropOp36
 70
     0
102
RTVSPost2010Prop37
 90
       50
102
RTVSPost2010PropOp37
 70
     0
102
RTVSPost2010Prop38
140
0.0
102
RTVSPost2010PropOp38
 70
     0
102
RTVSPost2010Prop39
140
1.0
102
RTVSPost2010PropOp39
 70
     0
102
RTVSPost2010Prop40
 90
        0
102
RTVSPost2010PropOp40
 70
     0
102
RTVSPost2010Prop41ColorIndex
 90
       18
102
RTVSPost2010Prop41ColorRGB
 90
        0
102
RTVSPost2010PropOp41
 70
     0
102
RTVSPost2010Prop42
 90
       50
102
RTVSPost2010PropOp42
 70
     0
102
RTVSPost2010Prop43
 90
        3
102
RTVSPost2010PropOp43
 70
     0
102
RTVSPost2010Prop44ColorIndex
 90
        5
102
RTVSPost2010Prop44ColorRGB
 90
      255
102
RTVSPost2010PropOp44
 70
     0
102
RTVSPost2010Prop45
280
     0
102
RTVSPost2010PropOp45
 70
     0
102
RTVSPost2010Prop46
 90
       50
102
RTVSPost2010PropOp46
 70
     0
102
RTVSPost2010Prop47
 90
       50
102
RTVSPost2010PropOp47
 70
     0
102
RTVSPost2010Prop48
 90
       50
102
RTVSPost2010PropOp48
 70
     0
102
RTVSPost2010Prop49
280
     0
102
RTVSPost2010PropOp49
 70
     0
102
RTVSPost2010Prop50
 90
       50
102
RTVSPost2010PropOp50
 70
     0
102
RTVSPost2010Prop51ColorIndex
 90
      256
102
RTVSPost2010Prop51ColorRGB
 90
-16777216
102
RTVSPost2010PropOp51
 70
     0
102
RTVSPost2010Prop52
140
1.0
102
RTVSPost2010PropOp52
 70
     0
102
RTVSPost2010Prop53
 90
        2
102
RTVSPost2010PropOp53
 70
     0
102
RTVSPost2010Prop54
  1
strokes_ogs.tif
102
RTVSPost2010PropOp54
 70
     0
102
RTVSPost2010Prop55
280
     0
102
RTVSPost2010PropOp55
 70
     0
102
RTVSPost2010Prop56
140
1.0
102
RTVSPost2010PropOp56
 70
     0
102
RTVSPost2010Prop57
140
1.0
102
RTVSPost2010PropOp57
 70
     0
102
RTVSPropertyOp0
 70
     0
102
RTVSPropertyOp1
 70
     0
102
RTVSPropertyOp2
 70
     0
102
RTVSPropertyOp3
 70
     0
102
RTVSPropertyOp4
 70
     0
102
RTVSPropertyOp5
 70
     0
102
RTVSPropertyOp6
 70
     0
102
RTVSPropertyOp7
 70
     0
102
RTVSPropertyOp8
 70
     0
102
RTVSPropertyOp9
 70
     0
102
RTVSPropertyOp10
 70
     0
102
RTVSPropertyOp11
 70
     0
102
RTVSPropertyOp12
 70
     0
102
RTVSPropertyOp13
 70
     0
102
RTVSPropertyOp14
 70
     2
102
RTVSPropertyOp15
 70
     0
102
RTVSPropertyOp16
 70
     0
102
RTVSPropertyOp17
 70
     0
102
RTVSPropertyOp18
 70
     0
102
RTVSPropertyOp19
 70
     0
102
RTVSPropertyOp20
 70
     0
102
RTVSPropertyOp21
 70
     0
102
RTVSPropertyOp22
 70
     0
102
RTVSPropertyOp23
 70
     0
102
RTVSPropertyOp24
 70
     0
102
RTVSPropertyOp25
 70
     0
102
RTVSPropertyOp26
 70
     0
102
RTVSPropertyOp27
 70
     0
102
RTVSPropertyOp28
 70
     0
102
RTVSPropertyOp29
 70
     0
102
RTVSPropertyOp30
 70
     0
102
RTVSPropertyOp31
 70
     0
102
RTVSPropertyOp32
 70
     0
102
RTVSPropertyOp33
 70
     0
102
RTVSPropertyOp34
 70
     0
102
RTVSPropertyOp35
 70
     0
102
RTVSPropertyOp36
 70
     0
102
RTVSPropertyOp37
 70
     0
102
RTVSPropertyOp38
 70
     0
102
RTVSPropertyOp39
 70
     0
102
RTVSPropertyOp40
 70
     0
102
RTVSPropertyOp41
 70
     0
102
RTVSPropertyOp42
 70
     0
102
RTVSPropertyOp43
 70
     0
102
RTVSPropertyOp44
 70
     0
102
RTVSPropertyOp45
 70
     0
102
RTVSPropertyOp46
 70
     0
102
RTVSPropertyOp47
 70
     0
102
RTVSPropertyOp48
 70
     0
102
RTVSPropertyOp49
 70
     0
102
RTVSPropertyOp50
 70
     0
102
RTVSPropertyOp51
 70
     0
102
RTVSPropertyOp52
 70
     0
102
RTVSPropertyOp53
 70
     0
102
RTVSPropertyOp54
 70
     0
102
RTVSPropertyOp55
 70
     0
102
RTVSPropertyOp56
 70
     0
102
RTVSPropertyOp57
 70
     0
102
RTVSPropertyOp58
 70
     1
102
RTVSPropertyOp59
 70
     1
102
RTVSPropertyOp60
 70
     1
102
RTVSPropertyOp61
 70
     1
102
RTVSPropertyOp62
 70
     1
  0
XRECORD
  5
3B6
102
{ACAD_REACTORS
330
3B5
102
}
330
3B5
100
AcDbXrecord
280
     1
102
RTVSPost2010Prop28
280
     0
102
RTVSPost2010PropOp28
 70
     1
102
RTVSPost2010Prop29
280
     1
102
RTVSPost2010PropOp29
 70
     1
102
RTVSPost2010Prop30
280
     1
102
RTVSPost2010PropOp30
 70
     1
102
RTVSPost2010Prop31
280
     0
102
RTVSPost2010PropOp31
 70
     1
102
RTVSPost2010Prop32
280
     0
102
RTVSPost2010PropOp32
 70
     1
102
RTVSPost2010Prop33
280
     0
102
RTVSPost2010PropOp33
 70
     1
102
RTVSPost2010Prop34
280
     0
102
RTVSPost2010PropOp34
 70
     1
102
RTVSPost2010Prop35
280
     0
102
RTVSPost2010PropOp35
 70
     1
102
RTVSPost2010Prop36
280
     0
102
RTVSPost2010PropOp36
 70
     1
102
RTVSPost2010Prop37
 90
       50
102
RTVSPost2010PropOp37
 70
     1
102
RTVSPost2010Prop38
140
0.0
102
RTVSPost2010PropOp38
 70
     1
102
RTVSPost2010Prop39
140
1.0
102
RTVSPost2010PropOp39
 70
     1
102
RTVSPost2010Prop40
 90
        0
102
RTVSPost2010PropOp40
 70
     1
102
RTVSPost2010Prop41ColorIndex
 90
       18
102
RTVSPost2010Prop41ColorRGB
 90
        0
102
RTVSPost2010PropOp41
 70
     1
102
RTVSPost2010Prop42
 90
       50
102
RTVSPost2010PropOp42
 70
     1
102
RTVSPost2010Prop43
 90
        3
102
RTVSPost2010PropOp43
 70
     1
102
RTVSPost2010Prop44ColorIndex
 90
        5
102
RTVSPost2010Prop44ColorRGB
 90
      255
102
RTVSPost2010PropOp44
 70
     1
102
RTVSPost2010Prop45
280
     0
102
RTVSPost2010PropOp45
 70
     1
102
RTVSPost2010Prop46
 90
       50
102
RTVSPost2010PropOp46
 70
     1
102
RTVSPost2010Prop47
 90
       50
102
RTVSPost2010PropOp47
 70
     1
102
RTVSPost2010Prop48
 90
       50
102
RTVSPost2010PropOp48
 70
     1
102
RTVSPost2010Prop49
280
     0
102
RTVSPost2010PropOp49
 70
     1
102
RTVSPost2010Prop50
 90
       50
102
RTVSPost2010PropOp50
 70
     1
102
RTVSPost2010Prop51ColorIndex
 90
      256
102
RTVSPost2010Prop51ColorRGB
 90
-16777216
102
RTVSPost2010PropOp51
 70
     0
102
RTVSPost2010Prop52
140
1.0
102
RTVSPost2010PropOp52
 70
     0
102
RTVSPost2010Prop53
 90
        2
102
RTVSPost2010PropOp53
 70
     1
102
RTVSPost2010Prop54
  1
strokes_ogs.tif
102
RTVSPost2010PropOp54
 70
     1
102
RTVSPost2010Prop55
280
     0
102
RTVSPost2010PropOp55
 70
     1
102
RTVSPost2010Prop56
140
1.0
102
RTVSPost2010PropOp56
 70
     1
102
RTVSPost2010Prop57
140
1.0
102
RTVSPost2010PropOp57
 70
     1
102
RTVSPropertyOp0
 70
     1
102
RTVSPropertyOp1
 70
     1
102
RTVSPropertyOp2
 70
     1
102
RTVSPropertyOp3
 70
     1
102
RTVSPropertyOp4
 70
     1
102
RTVSPropertyOp5
 70
     1
102
RTVSPropertyOp6
 70
     1
102
RTVSPropertyOp7
 70
     1
102
RTVSPropertyOp8
 70
     1
102
RTVSPropertyOp9
 70
     1
102
RTVSPropertyOp10
 70
     1
102
RTVSPropertyOp11
 70
     1
102
RTVSPropertyOp12
 70
     1
102
RTVSPropertyOp13
 70
     1
102
RTVSPropertyOp14
 70
     1
102
RTVSPropertyOp15
 70
     1
102
RTVSPropertyOp16
 70
     1
102
RTVSPropertyOp17
 70
     1
102
RTVSPropertyOp18
 70
     1
102
RTVSPropertyOp19
 70
     1
102
RTVSPropertyOp20
 70
     1
102
RTVSPropertyOp21
 70
     1
102
RTVSPropertyOp22
 70
     1
102
RTVSPropertyOp23
 70
     1
102
RTVSPropertyOp24
 70
     1
102
RTVSPropertyOp25
 70
     1
102
RTVSPropertyOp26
 70
     1
102
RTVSPropertyOp27
 70
     1
102
RTVSPropertyOp28
 70
     1
102
RTVSPropertyOp29
 70
     1
102
RTVSPropertyOp30
 70
     1
102
RTVSPropertyOp31
 70
     1
102
RTVSPropertyOp32
 70
     1
102
RTVSPropertyOp33
 70
     1
102
RTVSPropertyOp34
 70
     1
102
RTVSPropertyOp35
 70
     1
102
RTVSPropertyOp36
 70
     1
102
RTVSPropertyOp37
 70
     1
102
RTVSPropertyOp38
 70
     1
102
RTVSPropertyOp39
 70
     1
102
RTVSPropertyOp40
 70
     1
102
RTVSPropertyOp41
 70
     1
102
RTVSPropertyOp42
 70
     1
102
RTVSPropertyOp43
 70
     1
102
RTVSPropertyOp44
 70
     1
102
RTVSPropertyOp45
 70
     1
102
RTVSPropertyOp46
 70
     1
102
RTVSPropertyOp47
 70
     1
102
RTVSPropertyOp48
 70
     1
102
RTVSPropertyOp49
 70
     1
102
RTVSPropertyOp50
 70
     1
102
RTVSPropertyOp51
 70
     0
102
RTVSPropertyOp52
 70
     0
102
RTVSPropertyOp53
 70
     1
102
RTVSPropertyOp54
 70
     1
102
RTVSPropertyOp55
 70
     1
102
RTVSPropertyOp56
 70
     1
102
RTVSPropertyOp57
 70
     1
102
RTVSPropertyOp58
 70
     1
102
RTVSPropertyOp59
 70
     1
102
RTVSPropertyOp60
 70
     1
102
RTVSPropertyOp61
 70
     1
102
RTVSPropertyOp62
 70
     1
  0
XRECORD
  5
3D4
102
{ACAD_REACTORS
330
3D3
102
}
330
3D3
100
AcDbXrecord
280
     1
102
RTVSPost2010Prop28
280
     0
102
RTVSPost2010PropOp28
 70
     1
102
RTVSPost2010Prop29
280
     1
102
RTVSPost2010PropOp29
 70
     1
102
RTVSPost2010Prop30
280
     1
102
RTVSPost2010PropOp30
 70
     1
102
RTVSPost2010Prop31
280
     0
102
RTVSPost2010PropOp31
 70
     1
102
RTVSPost2010Prop32
280
     0
102
RTVSPost2010PropOp32
 70
     1
102
RTVSPost2010Prop33
280
     0
102
RTVSPost2010PropOp33
 70
     1
102
RTVSPost2010Prop34
280
     0
102
RTVSPost2010PropOp34
 70
     1
102
RTVSPost2010Prop35
280
     0
102
RTVSPost2010PropOp35
 70
     1
102
RTVSPost2010Prop36
280
     0
102
RTVSPost2010PropOp36
 70
     1
102
RTVSPost2010Prop37
 90
       50
102
RTVSPost2010PropOp37
 70
     1
102
RTVSPost2010Prop38
140
0.0
102
RTVSPost2010PropOp38
 70
     1
102
RTVSPost2010Prop39
140
1.0
102
RTVSPost2010PropOp39
 70
     1
102
RTVSPost2010Prop40
 90
        0
102
RTVSPost2010PropOp40
 70
     1
102
RTVSPost2010Prop41ColorIndex
 90
       18
102
RTVSPost2010Prop41ColorRGB
 90
        0
102
RTVSPost2010PropOp41
 70
     1
102
RTVSPost2010Prop42
 90
       50
102
RTVSPost2010PropOp42
 70
     1
102
RTVSPost2010Prop43
 90
        3
102
RTVSPost2010PropOp43
 70
     1
102
RTVSPost2010Prop44ColorIndex
 90
        5
102
RTVSPost2010Prop44ColorRGB
 90
      255
102
RTVSPost2010PropOp44
 70
     1
102
RTVSPost2010Prop45
280
     0
102
RTVSPost2010PropOp45
 70
     1
102
RTVSPost2010Prop46
 90
       50
102
RTVSPost2010PropOp46
 70
     1
102
RTVSPost2010Prop47
 90
       50
102
RTVSPost2010PropOp47
 70
     1
102
RTVSPost2010Prop48
 90
       50
102
RTVSPost2010PropOp48
 70
     1
102
RTVSPost2010Prop49
280
     0
102
RTVSPost2010PropOp49
 70
     1
102
RTVSPost2010Prop50
 90
       50
102
RTVSPost2010PropOp50
 70
     1
102
RTVSPost2010Prop51ColorIndex
 90
      256
102
RTVSPost2010Prop51ColorRGB
 90
-16777216
102
RTVSPost2010PropOp51
 70
     0
102
RTVSPost2010Prop52
140
1.0
102
RTVSPost2010PropOp52
 70
     0
102
RTVSPost2010Prop53
 90
        2
102
RTVSPost2010PropOp53
 70
     1
102
RTVSPost2010Prop54
  1
strokes_ogs.tif
102
RTVSPost2010PropOp54
 70
     1
102
RTVSPost2010Prop55
280
     0
102
RTVSPost2010PropOp55
 70
     1
102
RTVSPost2010Prop56
140
1.0
102
RTVSPost2010PropOp56
 70
     1
102
RTVSPost2010Prop57
140
1.0
102
RTVSPost2010PropOp57
 70
     1
102
RTVSPropertyOp0
 70
     1
102
RTVSPropertyOp1
 70
     1
102
RTVSPropertyOp2
 70
     1
102
RTVSPropertyOp3
 70
     1
102
RTVSPropertyOp4
 70
     1
102
RTVSPropertyOp5
 70
     1
102
RTVSPropertyOp6
 70
     1
102
RTVSPropertyOp7
 70
     1
102
RTVSPropertyOp8
 70
     1
102
RTVSPropertyOp9
 70
     1
102
RTVSPropertyOp10
 70
     1
102
RTVSPropertyOp11
 70
     1
102
RTVSPropertyOp12
 70
     1
102
RTVSPropertyOp13
 70
     1
102
RTVSPropertyOp14
 70
     1
102
RTVSPropertyOp15
 70
     1
102
RTVSPropertyOp16
 70
     1
102
RTVSPropertyOp17
 70
     1
102
RTVSPropertyOp18
 70
     1
102
RTVSPropertyOp19
 70
     1
102
RTVSPropertyOp20
 70
     1
102
RTVSPropertyOp21
 70
     1
102
RTVSPropertyOp22
 70
     1
102
RTVSPropertyOp23
 70
     1
102
RTVSPropertyOp24
 70
     1
102
RTVSPropertyOp25
 70
     1
102
RTVSPropertyOp26
 70
     1
102
RTVSPropertyOp27
 70
     1
102
RTVSPropertyOp28
 70
     1
102
RTVSPropertyOp29
 70
     1
102
RTVSPropertyOp30
 70
     1
102
RTVSPropertyOp31
 70
     1
102
RTVSPropertyOp32
 70
     1
102
RTVSPropertyOp33
 70
     1
102
RTVSPropertyOp34
 70
     1
102
RTVSPropertyOp35
 70
     1
102
RTVSPropertyOp36
 70
     1
102
RTVSPropertyOp37
 70
     1
102
RTVSPropertyOp38
 70
     1
102
RTVSPropertyOp39
 70
     1
102
RTVSPropertyOp40
 70
     1
102
RTVSPropertyOp41
 70
     1
102
RTVSPropertyOp42
 70
     1
102
RTVSPropertyOp43
 70
     1
102
RTVSPropertyOp44
 70
     1
102
RTVSPropertyOp45
 70
     1
102
RTVSPropertyOp46
 70
     1
102
RTVSPropertyOp47
 70
     1
102
RTVSPropertyOp48
 70
     1
102
RTVSPropertyOp49
 70
     1
102
RTVSPropertyOp50
 70
     1
102
RTVSPropertyOp51
 70
     0
102
RTVSPropertyOp52
 70
     0
102
RTVSPropertyOp53
 70
     1
102
RTVSPropertyOp54
 70
     1
102
RTVSPropertyOp55
 70
     1
102
RTVSPropertyOp56
 70
     1
102
RTVSPropertyOp57
 70
     1
102
RTVSPropertyOp58
 70
     1
102
RTVSPropertyOp59
 70
     1
102
RTVSPropertyOp60
 70
     1
102
RTVSPropertyOp61
 70
     1
102
RTVSPropertyOp62
 70
     1
  0
XRECORD
  5
3D2
102
{ACAD_REACTORS
330
3D1
102
}
330
3D1
100
AcDbXrecord
280
     1
102
RTVSPost2010Prop28
280
     0
102
RTVSPost2010PropOp28
 70
     1
102
RTVSPost2010Prop29
280
     1
102
RTVSPost2010PropOp29
 70
     1
102
RTVSPost2010Prop30
280
     1
102
RTVSPost2010PropOp30
 70
     1
102
RTVSPost2010Prop31
280
     0
102
RTVSPost2010PropOp31
 70
     1
102
RTVSPost2010Prop32
280
     0
102
RTVSPost2010PropOp32
 70
     1
102
RTVSPost2010Prop33
280
     0
102
RTVSPost2010PropOp33
 70
     1
102
RTVSPost2010Prop34
280
     0
102
RTVSPost2010PropOp34
 70
     1
102
RTVSPost2010Prop35
280
     0
102
RTVSPost2010PropOp35
 70
     1
102
RTVSPost2010Prop36
280
     0
102
RTVSPost2010PropOp36
 70
     1
102
RTVSPost2010Prop37
 90
       50
102
RTVSPost2010PropOp37
 70
     1
102
RTVSPost2010Prop38
140
0.0
102
RTVSPost2010PropOp38
 70
     1
102
RTVSPost2010Prop39
140
1.0
102
RTVSPost2010PropOp39
 70
     1
102
RTVSPost2010Prop40
 90
        0
102
RTVSPost2010PropOp40
 70
     1
102
RTVSPost2010Prop41ColorIndex
 90
       18
102
RTVSPost2010Prop41ColorRGB
 90
        0
102
RTVSPost2010PropOp41
 70
     1
102
RTVSPost2010Prop42
 90
       50
102
RTVSPost2010PropOp42
 70
     1
102
RTVSPost2010Prop43
 90
        3
102
RTVSPost2010PropOp43
 70
     1
102
RTVSPost2010Prop44ColorIndex
 90
        5
102
RTVSPost2010Prop44ColorRGB
 90
      255
102
RTVSPost2010PropOp44
 70
     1
102
RTVSPost2010Prop45
280
     0
102
RTVSPost2010PropOp45
 70
     1
102
RTVSPost2010Prop46
 90
       50
102
RTVSPost2010PropOp46
 70
     1
102
RTVSPost2010Prop47
 90
       50
102
RTVSPost2010PropOp47
 70
     1
102
RTVSPost2010Prop48
 90
       50
102
RTVSPost2010PropOp48
 70
     1
102
RTVSPost2010Prop49
280
     0
102
RTVSPost2010PropOp49
 70
     1
102
RTVSPost2010Prop50
 90
       50
102
RTVSPost2010PropOp50
 70
     1
102
RTVSPost2010Prop51ColorIndex
 90
      256
102
RTVSPost2010Prop51ColorRGB
 90
-16777216
102
RTVSPost2010PropOp51
 70
     0
102
RTVSPost2010Prop52
140
1.0
102
RTVSPost2010PropOp52
 70
     0
102
RTVSPost2010Prop53
 90
        2
102
RTVSPost2010PropOp53
 70
     1
102
RTVSPost2010Prop54
  1
strokes_ogs.tif
102
RTVSPost2010PropOp54
 70
     1
102
RTVSPost2010Prop55
280
     0
102
RTVSPost2010PropOp55
 70
     1
102
RTVSPost2010Prop56
140
1.0
102
RTVSPost2010PropOp56
 70
     1
102
RTVSPost2010Prop57
140
1.0
102
RTVSPost2010PropOp57
 70
     1
102
RTVSPropertyOp0
 70
     1
102
RTVSPropertyOp1
 70
     1
102
RTVSPropertyOp2
 70
     1
102
RTVSPropertyOp3
 70
     1
102
RTVSPropertyOp4
 70
     1
102
RTVSPropertyOp5
 70
     1
102
RTVSPropertyOp6
 70
     1
102
RTVSPropertyOp7
 70
     1
102
RTVSPropertyOp8
 70
     1
102
RTVSPropertyOp9
 70
     1
102
RTVSPropertyOp10
 70
     1
102
RTVSPropertyOp11
 70
     1
102
RTVSPropertyOp12
 70
     1
102
RTVSPropertyOp13
 70
     1
102
RTVSPropertyOp14
 70
     1
102
RTVSPropertyOp15
 70
     1
102
RTVSPropertyOp16
 70
     1
102
RTVSPropertyOp17
 70
     1
102
RTVSPropertyOp18
 70
     1
102
RTVSPropertyOp19
 70
     1
102
RTVSPropertyOp20
 70
     1
102
RTVSPropertyOp21
 70
     1
102
RTVSPropertyOp22
 70
     1
102
RTVSPropertyOp23
 70
     1
102
RTVSPropertyOp24
 70
     1
102
RTVSPropertyOp25
 70
     1
102
RTVSPropertyOp26
 70
     1
102
RTVSPropertyOp27
 70
     1
102
RTVSPropertyOp28
 70
     1
102
RTVSPropertyOp29
 70
     1
102
RTVSPropertyOp30
 70
     1
102
RTVSPropertyOp31
 70
     1
102
RTVSPropertyOp32
 70
     1
102
RTVSPropertyOp33
 70
     1
102
RTVSPropertyOp34
 70
     1
102
RTVSPropertyOp35
 70
     1
102
RTVSPropertyOp36
 70
     1
102
RTVSPropertyOp37
 70
     1
102
RTVSPropertyOp38
 70
     1
102
RTVSPropertyOp39
 70
     1
102
RTVSPropertyOp40
 70
     1
102
RTVSPropertyOp41
 70
     1
102
RTVSPropertyOp42
 70
     1
102
RTVSPropertyOp43
 70
     1
102
RTVSPropertyOp44
 70
     1
102
RTVSPropertyOp45
 70
     1
102
RTVSPropertyOp46
 70
     1
102
RTVSPropertyOp47
 70
     1
102
RTVSPropertyOp48
 70
     1
102
RTVSPropertyOp49
 70
     1
102
RTVSPropertyOp50
 70
     1
102
RTVSPropertyOp51
 70
     0
102
RTVSPropertyOp52
 70
     0
102
RTVSPropertyOp53
 70
     1
102
RTVSPropertyOp54
 70
     1
102
RTVSPropertyOp55
 70
     1
102
RTVSPropertyOp56
 70
     1
102
RTVSPropertyOp57
 70
     1
102
RTVSPropertyOp58
 70
     1
102
RTVSPropertyOp59
 70
     1
102
RTVSPropertyOp60
 70
     1
102
RTVSPropertyOp61
 70
     1
102
RTVSPropertyOp62
 70
     1
  0
XRECORD
  5
3CC
102
{ACAD_REACTORS
330
3CB
102
}
330
3CB
100
AcDbXrecord
280
     1
102
RTVSPost2010Prop28
280
     0
102
RTVSPost2010PropOp28
 70
     1
102
RTVSPost2010Prop29
280
     1
102
RTVSPost2010PropOp29
 70
     1
102
RTVSPost2010Prop30
280
     1
102
RTVSPost2010PropOp30
 70
     1
102
RTVSPost2010Prop31
280
     0
102
RTVSPost2010PropOp31
 70
     1
102
RTVSPost2010Prop32
280
     0
102
RTVSPost2010PropOp32
 70
     1
102
RTVSPost2010Prop33
280
     0
102
RTVSPost2010PropOp33
 70
     1
102
RTVSPost2010Prop34
280
     0
102
RTVSPost2010PropOp34
 70
     1
102
RTVSPost2010Prop35
280
     0
102
RTVSPost2010PropOp35
 70
     1
102
RTVSPost2010Prop36
280
     0
102
RTVSPost2010PropOp36
 70
     1
102
RTVSPost2010Prop37
 90
       50
102
RTVSPost2010PropOp37
 70
     1
102
RTVSPost2010Prop38
140
0.0
102
RTVSPost2010PropOp38
 70
     1
102
RTVSPost2010Prop39
140
1.0
102
RTVSPost2010PropOp39
 70
     1
102
RTVSPost2010Prop40
 90
        0
102
RTVSPost2010PropOp40
 70
     1
102
RTVSPost2010Prop41ColorIndex
 90
       18
102
RTVSPost2010Prop41ColorRGB
 90
        0
102
RTVSPost2010PropOp41
 70
     1
102
RTVSPost2010Prop42
 90
       50
102
RTVSPost2010PropOp42
 70
     1
102
RTVSPost2010Prop43
 90
        3
102
RTVSPost2010PropOp43
 70
     1
102
RTVSPost2010Prop44ColorIndex
 90
        5
102
RTVSPost2010Prop44ColorRGB
 90
      255
102
RTVSPost2010PropOp44
 70
     1
102
RTVSPost2010Prop45
280
     0
102
RTVSPost2010PropOp45
 70
     1
102
RTVSPost2010Prop46
 90
       50
102
RTVSPost2010PropOp46
 70
     1
102
RTVSPost2010Prop47
 90
       50
102
RTVSPost2010PropOp47
 70
     1
102
RTVSPost2010Prop48
 90
       50
102
RTVSPost2010PropOp48
 70
     1
102
RTVSPost2010Prop49
280
     0
102
RTVSPost2010PropOp49
 70
     1
102
RTVSPost2010Prop50
 90
       50
102
RTVSPost2010PropOp50
 70
     1
102
RTVSPost2010Prop51ColorIndex
 90
      256
102
RTVSPost2010Prop51ColorRGB
 90
-16777216
102
RTVSPost2010PropOp51
 70
     0
102
RTVSPost2010Prop52
140
1.0
102
RTVSPost2010PropOp52
 70
     0
102
RTVSPost2010Prop53
 90
        2
102
RTVSPost2010PropOp53
 70
     1
102
RTVSPost2010Prop54
  1
strokes_ogs.tif
102
RTVSPost2010PropOp54
 70
     1
102
RTVSPost2010Prop55
280
     0
102
RTVSPost2010PropOp55
 70
     1
102
RTVSPost2010Prop56
140
1.0
102
RTVSPost2010PropOp56
 70
     1
102
RTVSPost2010Prop57
140
1.0
102
RTVSPost2010PropOp57
 70
     1
102
RTVSPropertyOp0
 70
     1
102
RTVSPropertyOp1
 70
     1
102
RTVSPropertyOp2
 70
     1
102
RTVSPropertyOp3
 70
     1
102
RTVSPropertyOp4
 70
     1
102
RTVSPropertyOp5
 70
     1
102
RTVSPropertyOp6
 70
     1
102
RTVSPropertyOp7
 70
     1
102
RTVSPropertyOp8
 70
     1
102
RTVSPropertyOp9
 70
     1
102
RTVSPropertyOp10
 70
     1
102
RTVSPropertyOp11
 70
     1
102
RTVSPropertyOp12
 70
     1
102
RTVSPropertyOp13
 70
     1
102
RTVSPropertyOp14
 70
     1
102
RTVSPropertyOp15
 70
     1
102
RTVSPropertyOp16
 70
     1
102
RTVSPropertyOp17
 70
     1
102
RTVSPropertyOp18
 70
     1
102
RTVSPropertyOp19
 70
     1
102
RTVSPropertyOp20
 70
     1
102
RTVSPropertyOp21
 70
     1
102
RTVSPropertyOp22
 70
     1
102
RTVSPropertyOp23
 70
     1
102
RTVSPropertyOp24
 70
     1
102
RTVSPropertyOp25
 70
     1
102
RTVSPropertyOp26
 70
     1
102
RTVSPropertyOp27
 70
     1
102
RTVSPropertyOp28
 70
     1
102
RTVSPropertyOp29
 70
     1
102
RTVSPropertyOp30
 70
     1
102
RTVSPropertyOp31
 70
     1
102
RTVSPropertyOp32
 70
     1
102
RTVSPropertyOp33
 70
     1
102
RTVSPropertyOp34
 70
     1
102
RTVSPropertyOp35
 70
     1
102
RTVSPropertyOp36
 70
     1
102
RTVSPropertyOp37
 70
     1
102
RTVSPropertyOp38
 70
     1
102
RTVSPropertyOp39
 70
     1
102
RTVSPropertyOp40
 70
     1
102
RTVSPropertyOp41
 70
     1
102
RTVSPropertyOp42
 70
     1
102
RTVSPropertyOp43
 70
     1
102
RTVSPropertyOp44
 70
     1
102
RTVSPropertyOp45
 70
     1
102
RTVSPropertyOp46
 70
     1
102
RTVSPropertyOp47
 70
     1
102
RTVSPropertyOp48
 70
     1
102
RTVSPropertyOp49
 70
     1
102
RTVSPropertyOp50
 70
     1
102
RTVSPropertyOp51
 70
     0
102
RTVSPropertyOp52
 70
     0
102
RTVSPropertyOp53
 70
     1
102
RTVSPropertyOp54
 70
     1
102
RTVSPropertyOp55
 70
     1
102
RTVSPropertyOp56
 70
     1
102
RTVSPropertyOp57
 70
     1
102
RTVSPropertyOp58
 70
     1
102
RTVSPropertyOp59
 70
     1
102
RTVSPropertyOp60
 70
     1
102
RTVSPropertyOp61
 70
     1
102
RTVSPropertyOp62
 70
     1
  0
XRECORD
  5
3CE
102
{ACAD_REACTORS
330
3CD
102
}
330
3CD
100
AcDbXrecord
280
     1
102
RTVSPost2010Prop28
280
     0
102
RTVSPost2010PropOp28
 70
     1
102
RTVSPost2010Prop29
280
     1
102
RTVSPost2010PropOp29
 70
     1
102
RTVSPost2010Prop30
280
     1
102
RTVSPost2010PropOp30
 70
     1
102
RTVSPost2010Prop31
280
     0
102
RTVSPost2010PropOp31
 70
     1
102
RTVSPost2010Prop32
280
     0
102
RTVSPost2010PropOp32
 70
     1
102
RTVSPost2010Prop33
280
     0
102
RTVSPost2010PropOp33
 70
     1
102
RTVSPost2010Prop34
280
     0
102
RTVSPost2010PropOp34
 70
     1
102
RTVSPost2010Prop35
280
     0
102
RTVSPost2010PropOp35
 70
     1
102
RTVSPost2010Prop36
280
     0
102
RTVSPost2010PropOp36
 70
     1
102
RTVSPost2010Prop37
 90
       50
102
RTVSPost2010PropOp37
 70
     1
102
RTVSPost2010Prop38
140
0.0
102
RTVSPost2010PropOp38
 70
     1
102
RTVSPost2010Prop39
140
1.0
102
RTVSPost2010PropOp39
 70
     1
102
RTVSPost2010Prop40
 90
        0
102
RTVSPost2010PropOp40
 70
     1
102
RTVSPost2010Prop41ColorIndex
 90
       18
102
RTVSPost2010Prop41ColorRGB
 90
        0
102
RTVSPost2010PropOp41
 70
     1
102
RTVSPost2010Prop42
 90
       50
102
RTVSPost2010PropOp42
 70
     1
102
RTVSPost2010Prop43
 90
        3
102
RTVSPost2010PropOp43
 70
     1
102
RTVSPost2010Prop44ColorIndex
 90
        5
102
RTVSPost2010Prop44ColorRGB
 90
      255
102
RTVSPost2010PropOp44
 70
     1
102
RTVSPost2010Prop45
280
     0
102
RTVSPost2010PropOp45
 70
     1
102
RTVSPost2010Prop46
 90
       50
102
RTVSPost2010PropOp46
 70
     1
102
RTVSPost2010Prop47
 90
       50
102
RTVSPost2010PropOp47
 70
     1
102
RTVSPost2010Prop48
 90
       50
102
RTVSPost2010PropOp48
 70
     1
102
RTVSPost2010Prop49
280
     0
102
RTVSPost2010PropOp49
 70
     1
102
RTVSPost2010Prop50
 90
       50
102
RTVSPost2010PropOp50
 70
     1
102
RTVSPost2010Prop51ColorIndex
 90
      256
102
RTVSPost2010Prop51ColorRGB
 90
-16777216
102
RTVSPost2010PropOp51
 70
     0
102
RTVSPost2010Prop52
140
1.0
102
RTVSPost2010PropOp52
 70
     0
102
RTVSPost2010Prop53
 90
        2
102
RTVSPost2010PropOp53
 70
     1
102
RTVSPost2010Prop54
  1
strokes_ogs.tif
102
RTVSPost2010PropOp54
 70
     1
102
RTVSPost2010Prop55
280
     0
102
RTVSPost2010PropOp55
 70
     1
102
RTVSPost2010Prop56
140
1.0
102
RTVSPost2010PropOp56
 70
     1
102
RTVSPost2010Prop57
140
1.0
102
RTVSPost2010PropOp57
 70
     1
102
RTVSPropertyOp0
 70
     1
102
RTVSPropertyOp1
 70
     1
102
RTVSPropertyOp2
 70
     1
102
RTVSPropertyOp3
 70
     1
102
RTVSPropertyOp4
 70
     1
102
RTVSPropertyOp5
 70
     1
102
RTVSPropertyOp6
 70
     1
102
RTVSPropertyOp7
 70
     1
102
RTVSPropertyOp8
 70
     1
102
RTVSPropertyOp9
 70
     1
102
RTVSPropertyOp10
 70
     1
102
RTVSPropertyOp11
 70
     1
102
RTVSPropertyOp12
 70
     1
102
RTVSPropertyOp13
 70
     1
102
RTVSPropertyOp14
 70
     1
102
RTVSPropertyOp15
 70
     1
102
RTVSPropertyOp16
 70
     1
102
RTVSPropertyOp17
 70
     1
102
RTVSPropertyOp18
 70
     1
102
RTVSPropertyOp19
 70
     1
102
RTVSPropertyOp20
 70
     1
102
RTVSPropertyOp21
 70
     1
102
RTVSPropertyOp22
 70
     1
102
RTVSPropertyOp23
 70
     1
102
RTVSPropertyOp24
 70
     1
102
RTVSPropertyOp25
 70
     1
102
RTVSPropertyOp26
 70
     1
102
RTVSPropertyOp27
 70
     1
102
RTVSPropertyOp28
 70
     1
102
RTVSPropertyOp29
 70
     1
102
RTVSPropertyOp30
 70
     1
102
RTVSPropertyOp31
 70
     1
102
RTVSPropertyOp32
 70
     1
102
RTVSPropertyOp33
 70
     1
102
RTVSPropertyOp34
 70
     1
102
RTVSPropertyOp35
 70
     1
102
RTVSPropertyOp36
 70
     1
102
RTVSPropertyOp37
 70
     1
102
RTVSPropertyOp38
 70
     1
102
RTVSPropertyOp39
 70
     1
102
RTVSPropertyOp40
 70
     1
102
RTVSPropertyOp41
 70
     1
102
RTVSPropertyOp42
 70
     1
102
RTVSPropertyOp43
 70
     1
102
RTVSPropertyOp44
 70
     1
102
RTVSPropertyOp45
 70
     1
102
RTVSPropertyOp46
 70
     1
102
RTVSPropertyOp47
 70
     1
102
RTVSPropertyOp48
 70
     1
102
RTVSPropertyOp49
 70
     1
102
RTVSPropertyOp50
 70
     1
102
RTVSPropertyOp51
 70
     0
102
RTVSPropertyOp52
 70
     0
102
RTVSPropertyOp53
 70
     1
102
RTVSPropertyOp54
 70
     1
102
RTVSPropertyOp55
 70
     1
102
RTVSPropertyOp56
 70
     1
102
RTVSPropertyOp57
 70
     1
102
RTVSPropertyOp58
 70
     1
102
RTVSPropertyOp59
 70
     1
102
RTVSPropertyOp60
 70
     1
102
RTVSPropertyOp61
 70
     1
102
RTVSPropertyOp62
 70
     1
  0
XRECORD
  5
3BE
102
{ACAD_REACTORS
330
3BD
102
}
330
3BD
100
AcDbXrecord
280
     1
102
RTVSPost2010Prop28
280
     0
102
RTVSPost2010PropOp28
 70
     1
102
RTVSPost2010Prop29
280
     1
102
RTVSPost2010PropOp29
 70
     1
102
RTVSPost2010Prop30
280
     1
102
RTVSPost2010PropOp30
 70
     1
102
RTVSPost2010Prop31
280
     0
102
RTVSPost2010PropOp31
 70
     1
102
RTVSPost2010Prop32
280
     0
102
RTVSPost2010PropOp32
 70
     1
102
RTVSPost2010Prop33
280
     0
102
RTVSPost2010PropOp33
 70
     1
102
RTVSPost2010Prop34
280
     0
102
RTVSPost2010PropOp34
 70
     1
102
RTVSPost2010Prop35
280
     0
102
RTVSPost2010PropOp35
 70
     1
102
RTVSPost2010Prop36
280
     0
102
RTVSPost2010PropOp36
 70
     1
102
RTVSPost2010Prop37
 90
       50
102
RTVSPost2010PropOp37
 70
     1
102
RTVSPost2010Prop38
140
0.0
102
RTVSPost2010PropOp38
 70
     1
102
RTVSPost2010Prop39
140
1.0
102
RTVSPost2010PropOp39
 70
     1
102
RTVSPost2010Prop40
 90
        0
102
RTVSPost2010PropOp40
 70
     1
102
RTVSPost2010Prop41ColorIndex
 90
       18
102
RTVSPost2010Prop41ColorRGB
 90
        0
102
RTVSPost2010PropOp41
 70
     1
102
RTVSPost2010Prop42
 90
       50
102
RTVSPost2010PropOp42
 70
     1
102
RTVSPost2010Prop43
 90
        3
102
RTVSPost2010PropOp43
 70
     1
102
RTVSPost2010Prop44ColorIndex
 90
        5
102
RTVSPost2010Prop44ColorRGB
 90
      255
102
RTVSPost2010PropOp44
 70
     1
102
RTVSPost2010Prop45
280
     0
102
RTVSPost2010PropOp45
 70
     1
102
RTVSPost2010Prop46
 90
       50
102
RTVSPost2010PropOp46
 70
     1
102
RTVSPost2010Prop47
 90
       50
102
RTVSPost2010PropOp47
 70
     1
102
RTVSPost2010Prop48
 90
       50
102
RTVSPost2010PropOp48
 70
     1
102
RTVSPost2010Prop49
280
     0
102
RTVSPost2010PropOp49
 70
     1
102
RTVSPost2010Prop50
 90
       50
102
RTVSPost2010PropOp50
 70
     1
102
RTVSPost2010Prop51ColorIndex
 90
      256
102
RTVSPost2010Prop51ColorRGB
 90
-16777216
102
RTVSPost2010PropOp51
 70
     0
102
RTVSPost2010Prop52
140
1.0
102
RTVSPost2010PropOp52
 70
     0
102
RTVSPost2010Prop53
 90
        2
102
RTVSPost2010PropOp53
 70
     1
102
RTVSPost2010Prop54
  1
strokes_ogs.tif
102
RTVSPost2010PropOp54
 70
     1
102
RTVSPost2010Prop55
280
     0
102
RTVSPost2010PropOp55
 70
     1
102
RTVSPost2010Prop56
140
1.0
102
RTVSPost2010PropOp56
 70
     1
102
RTVSPost2010Prop57
140
1.0
102
RTVSPost2010PropOp57
 70
     1
102
RTVSPropertyOp0
 70
     1
102
RTVSPropertyOp1
 70
     1
102
RTVSPropertyOp2
 70
     1
102
RTVSPropertyOp3
 70
     1
102
RTVSPropertyOp4
 70
     1
102
RTVSPropertyOp5
 70
     1
102
RTVSPropertyOp6
 70
     1
102
RTVSPropertyOp7
 70
     1
102
RTVSPropertyOp8
 70
     1
102
RTVSPropertyOp9
 70
     1
102
RTVSPropertyOp10
 70
     1
102
RTVSPropertyOp11
 70
     1
102
RTVSPropertyOp12
 70
     1
102
RTVSPropertyOp13
 70
     1
102
RTVSPropertyOp14
 70
     1
102
RTVSPropertyOp15
 70
     1
102
RTVSPropertyOp16
 70
     1
102
RTVSPropertyOp17
 70
     1
102
RTVSPropertyOp18
 70
     1
102
RTVSPropertyOp19
 70
     1
102
RTVSPropertyOp20
 70
     1
102
RTVSPropertyOp21
 70
     1
102
RTVSPropertyOp22
 70
     1
102
RTVSPropertyOp23
 70
     1
102
RTVSPropertyOp24
 70
     1
102
RTVSPropertyOp25
 70
     1
102
RTVSPropertyOp26
 70
     1
102
RTVSPropertyOp27
 70
     1
102
RTVSPropertyOp28
 70
     1
102
RTVSPropertyOp29
 70
     1
102
RTVSPropertyOp30
 70
     1
102
RTVSPropertyOp31
 70
     1
102
RTVSPropertyOp32
 70
     1
102
RTVSPropertyOp33
 70
     1
102
RTVSPropertyOp34
 70
     1
102
RTVSPropertyOp35
 70
     1
102
RTVSPropertyOp36
 70
     1
102
RTVSPropertyOp37
 70
     1
102
RTVSPropertyOp38
 70
     1
102
RTVSPropertyOp39
 70
     1
102
RTVSPropertyOp40
 70
     1
102
RTVSPropertyOp41
 70
     1
102
RTVSPropertyOp42
 70
     1
102
RTVSPropertyOp43
 70
     1
102
RTVSPropertyOp44
 70
     1
102
RTVSPropertyOp45
 70
     1
102
RTVSPropertyOp46
 70
     1
102
RTVSPropertyOp47
 70
     1
102
RTVSPropertyOp48
 70
     1
102
RTVSPropertyOp49
 70
     1
102
RTVSPropertyOp50
 70
     1
102
RTVSPropertyOp51
 70
     0
102
RTVSPropertyOp52
 70
     0
102
RTVSPropertyOp53
 70
     1
102
RTVSPropertyOp54
 70
     1
102
RTVSPropertyOp55
 70
     1
102
RTVSPropertyOp56
 70
     1
102
RTVSPropertyOp57
 70
     1
102
RTVSPropertyOp58
 70
     1
102
RTVSPropertyOp59
 70
     1
102
RTVSPropertyOp60
 70
     1
102
RTVSPropertyOp61
 70
     1
102
RTVSPropertyOp62
 70
     1
  0
XRECORD
  5
3B0
102
{ACAD_REACTORS
330
3AF
102
}
330
3AF
100
AcDbXrecord
280
     1
102
RTVSPost2010Prop28
280
     0
102
RTVSPost2010PropOp28
 70
     1
102
RTVSPost2010Prop29
280
     1
102
RTVSPost2010PropOp29
 70
     1
102
RTVSPost2010Prop30
280
     1
102
RTVSPost2010PropOp30
 70
     1
102
RTVSPost2010Prop31
280
     0
102
RTVSPost2010PropOp31
 70
     1
102
RTVSPost2010Prop32
280
     0
102
RTVSPost2010PropOp32
 70
     1
102
RTVSPost2010Prop33
280
     0
102
RTVSPost2010PropOp33
 70
     1
102
RTVSPost2010Prop34
280
     0
102
RTVSPost2010PropOp34
 70
     1
102
RTVSPost2010Prop35
280
     0
102
RTVSPost2010PropOp35
 70
     1
102
RTVSPost2010Prop36
280
     0
102
RTVSPost2010PropOp36
 70
     1
102
RTVSPost2010Prop37
 90
       50
102
RTVSPost2010PropOp37
 70
     1
102
RTVSPost2010Prop38
140
0.0
102
RTVSPost2010PropOp38
 70
     1
102
RTVSPost2010Prop39
140
1.0
102
RTVSPost2010PropOp39
 70
     1
102
RTVSPost2010Prop40
 90
        0
102
RTVSPost2010PropOp40
 70
     1
102
RTVSPost2010Prop41ColorIndex
 90
       18
102
RTVSPost2010Prop41ColorRGB
 90
        0
102
RTVSPost2010PropOp41
 70
     1
102
RTVSPost2010Prop42
 90
       50
102
RTVSPost2010PropOp42
 70
     1
102
RTVSPost2010Prop43
 90
        3
102
RTVSPost2010PropOp43
 70
     1
102
RTVSPost2010Prop44ColorIndex
 90
        5
102
RTVSPost2010Prop44ColorRGB
 90
      255
102
RTVSPost2010PropOp44
 70
     1
102
RTVSPost2010Prop45
280
     0
102
RTVSPost2010PropOp45
 70
     1
102
RTVSPost2010Prop46
 90
       50
102
RTVSPost2010PropOp46
 70
     1
102
RTVSPost2010Prop47
 90
       50
102
RTVSPost2010PropOp47
 70
     1
102
RTVSPost2010Prop48
 90
       50
102
RTVSPost2010PropOp48
 70
     1
102
RTVSPost2010Prop49
280
     0
102
RTVSPost2010PropOp49
 70
     1
102
RTVSPost2010Prop50
 90
       50
102
RTVSPost2010PropOp50
 70
     1
102
RTVSPost2010Prop51ColorIndex
 90
      256
102
RTVSPost2010Prop51ColorRGB
 90
-16777216
102
RTVSPost2010PropOp51
 70
     0
102
RTVSPost2010Prop52
140
1.0
102
RTVSPost2010PropOp52
 70
     0
102
RTVSPost2010Prop53
 90
        2
102
RTVSPost2010PropOp53
 70
     1
102
RTVSPost2010Prop54
  1
strokes_ogs.tif
102
RTVSPost2010PropOp54
 70
     1
102
RTVSPost2010Prop55
280
     0
102
RTVSPost2010PropOp55
 70
     1
102
RTVSPost2010Prop56
140
1.0
102
RTVSPost2010PropOp56
 70
     1
102
RTVSPost2010Prop57
140
1.0
102
RTVSPost2010PropOp57
 70
     1
102
RTVSPropertyOp0
 70
     1
102
RTVSPropertyOp1
 70
     1
102
RTVSPropertyOp2
 70
     1
102
RTVSPropertyOp3
 70
     1
102
RTVSPropertyOp4
 70
     1
102
RTVSPropertyOp5
 70
     1
102
RTVSPropertyOp6
 70
     1
102
RTVSPropertyOp7
 70
     1
102
RTVSPropertyOp8
 70
     1
102
RTVSPropertyOp9
 70
     1
102
RTVSPropertyOp10
 70
     1
102
RTVSPropertyOp11
 70
     1
102
RTVSPropertyOp12
 70
     1
102
RTVSPropertyOp13
 70
     1
102
RTVSPropertyOp14
 70
     1
102
RTVSPropertyOp15
 70
     1
102
RTVSPropertyOp16
 70
     1
102
RTVSPropertyOp17
 70
     1
102
RTVSPropertyOp18
 70
     1
102
RTVSPropertyOp19
 70
     1
102
RTVSPropertyOp20
 70
     1
102
RTVSPropertyOp21
 70
     1
102
RTVSPropertyOp22
 70
     1
102
RTVSPropertyOp23
 70
     1
102
RTVSPropertyOp24
 70
     1
102
RTVSPropertyOp25
 70
     1
102
RTVSPropertyOp26
 70
     1
102
RTVSPropertyOp27
 70
     1
102
RTVSPropertyOp28
 70
     1
102
RTVSPropertyOp29
 70
     1
102
RTVSPropertyOp30
 70
     1
102
RTVSPropertyOp31
 70
     1
102
RTVSPropertyOp32
 70
     1
102
RTVSPropertyOp33
 70
     1
102
RTVSPropertyOp34
 70
     1
102
RTVSPropertyOp35
 70
     1
102
RTVSPropertyOp36
 70
     1
102
RTVSPropertyOp37
 70
     1
102
RTVSPropertyOp38
 70
     1
102
RTVSPropertyOp39
 70
     1
102
RTVSPropertyOp40
 70
     1
102
RTVSPropertyOp41
 70
     1
102
RTVSPropertyOp42
 70
     1
102
RTVSPropertyOp43
 70
     1
102
RTVSPropertyOp44
 70
     1
102
RTVSPropertyOp45
 70
     1
102
RTVSPropertyOp46
 70
     1
102
RTVSPropertyOp47
 70
     1
102
RTVSPropertyOp48
 70
     1
102
RTVSPropertyOp49
 70
     1
102
RTVSPropertyOp50
 70
     1
102
RTVSPropertyOp51
 70
     0
102
RTVSPropertyOp52
 70
     0
102
RTVSPropertyOp53
 70
     1
102
RTVSPropertyOp54
 70
     1
102
RTVSPropertyOp55
 70
     1
102
RTVSPropertyOp56
 70
     1
102
RTVSPropertyOp57
 70
     1
102
RTVSPropertyOp58
 70
     1
102
RTVSPropertyOp59
 70
     1
102
RTVSPropertyOp60
 70
     1
102
RTVSPropertyOp61
 70
     1
102
RTVSPropertyOp62
 70
     1
  0
XRECORD
  5
3D0
102
{ACAD_REACTORS
330
3CF
102
}
330
3CF
100
AcDbXrecord
280
     1
102
RTVSPost2010Prop28
280
     0
102
RTVSPost2010PropOp28
 70
     1
102
RTVSPost2010Prop29
280
     1
102
RTVSPost2010PropOp29
 70
     1
102
RTVSPost2010Prop30
280
     1
102
RTVSPost2010PropOp30
 70
     1
102
RTVSPost2010Prop31
280
     0
102
RTVSPost2010PropOp31
 70
     1
102
RTVSPost2010Prop32
280
     0
102
RTVSPost2010PropOp32
 70
     1
102
RTVSPost2010Prop33
280
     0
102
RTVSPost2010PropOp33
 70
     1
102
RTVSPost2010Prop34
280
     0
102
RTVSPost2010PropOp34
 70
     1
102
RTVSPost2010Prop35
280
     0
102
RTVSPost2010PropOp35
 70
     1
102
RTVSPost2010Prop36
280
     0
102
RTVSPost2010PropOp36
 70
     1
102
RTVSPost2010Prop37
 90
       50
102
RTVSPost2010PropOp37
 70
     1
102
RTVSPost2010Prop38
140
0.0
102
RTVSPost2010PropOp38
 70
     1
102
RTVSPost2010Prop39
140
1.0
102
RTVSPost2010PropOp39
 70
     1
102
RTVSPost2010Prop40
 90
        0
102
RTVSPost2010PropOp40
 70
     1
102
RTVSPost2010Prop41ColorIndex
 90
       18
102
RTVSPost2010Prop41ColorRGB
 90
        0
102
RTVSPost2010PropOp41
 70
     1
102
RTVSPost2010Prop42
 90
       50
102
RTVSPost2010PropOp42
 70
     1
102
RTVSPost2010Prop43
 90
        3
102
RTVSPost2010PropOp43
 70
     1
102
RTVSPost2010Prop44ColorIndex
 90
        5
102
RTVSPost2010Prop44ColorRGB
 90
      255
102
RTVSPost2010PropOp44
 70
     1
102
RTVSPost2010Prop45
280
     0
102
RTVSPost2010PropOp45
 70
     1
102
RTVSPost2010Prop46
 90
       50
102
RTVSPost2010PropOp46
 70
     1
102
RTVSPost2010Prop47
 90
       50
102
RTVSPost2010PropOp47
 70
     1
102
RTVSPost2010Prop48
 90
       50
102
RTVSPost2010PropOp48
 70
     1
102
RTVSPost2010Prop49
280
     0
102
RTVSPost2010PropOp49
 70
     1
102
RTVSPost2010Prop50
 90
       50
102
RTVSPost2010PropOp50
 70
     1
102
RTVSPost2010Prop51ColorIndex
 90
      256
102
RTVSPost2010Prop51ColorRGB
 90
-16777216
102
RTVSPost2010PropOp51
 70
     0
102
RTVSPost2010Prop52
140
1.0
102
RTVSPost2010PropOp52
 70
     0
102
RTVSPost2010Prop53
 90
        2
102
RTVSPost2010PropOp53
 70
     1
102
RTVSPost2010Prop54
  1
strokes_ogs.tif
102
RTVSPost2010PropOp54
 70
     1
102
RTVSPost2010Prop55
280
     0
102
RTVSPost2010PropOp55
 70
     1
102
RTVSPost2010Prop56
140
1.0
102
RTVSPost2010PropOp56
 70
     1
102
RTVSPost2010Prop57
140
1.0
102
RTVSPost2010PropOp57
 70
     1
102
RTVSPropertyOp0
 70
     1
102
RTVSPropertyOp1
 70
     1
102
RTVSPropertyOp2
 70
     1
102
RTVSPropertyOp3
 70
     1
102
RTVSPropertyOp4
 70
     1
102
RTVSPropertyOp5
 70
     1
102
RTVSPropertyOp6
 70
     1
102
RTVSPropertyOp7
 70
     1
102
RTVSPropertyOp8
 70
     1
102
RTVSPropertyOp9
 70
     1
102
RTVSPropertyOp10
 70
     1
102
RTVSPropertyOp11
 70
     1
102
RTVSPropertyOp12
 70
     1
102
RTVSPropertyOp13
 70
     1
102
RTVSPropertyOp14
 70
     1
102
RTVSPropertyOp15
 70
     1
102
RTVSPropertyOp16
 70
     1
102
RTVSPropertyOp17
 70
     1
102
RTVSPropertyOp18
 70
     1
102
RTVSPropertyOp19
 70
     1
102
RTVSPropertyOp20
 70
     1
102
RTVSPropertyOp21
 70
     1
102
RTVSPropertyOp22
 70
     1
102
RTVSPropertyOp23
 70
     1
102
RTVSPropertyOp24
 70
     1
102
RTVSPropertyOp25
 70
     1
102
RTVSPropertyOp26
 70
     1
102
RTVSPropertyOp27
 70
     1
102
RTVSPropertyOp28
 70
     1
102
RTVSPropertyOp29
 70
     1
102
RTVSPropertyOp30
 70
     1
102
RTVSPropertyOp31
 70
     1
102
RTVSPropertyOp32
 70
     1
102
RTVSPropertyOp33
 70
     1
102
RTVSPropertyOp34
 70
     1
102
RTVSPropertyOp35
 70
     1
102
RTVSPropertyOp36
 70
     1
102
RTVSPropertyOp37
 70
     1
102
RTVSPropertyOp38
 70
     1
102
RTVSPropertyOp39
 70
     1
102
RTVSPropertyOp40
 70
     1
102
RTVSPropertyOp41
 70
     1
102
RTVSPropertyOp42
 70
     1
102
RTVSPropertyOp43
 70
     1
102
RTVSPropertyOp44
 70
     1
102
RTVSPropertyOp45
 70
     1
102
RTVSPropertyOp46
 70
     1
102
RTVSPropertyOp47
 70
     1
102
RTVSPropertyOp48
 70
     1
102
RTVSPropertyOp49
 70
     1
102
RTVSPropertyOp50
 70
     1
102
RTVSPropertyOp51
 70
     0
102
RTVSPropertyOp52
 70
     0
102
RTVSPropertyOp53
 70
     1
102
RTVSPropertyOp54
 70
     1
102
RTVSPropertyOp55
 70
     1
102
RTVSPropertyOp56
 70
     1
102
RTVSPropertyOp57
 70
     1
102
RTVSPropertyOp58
 70
     1
102
RTVSPropertyOp59
 70
     1
102
RTVSPropertyOp60
 70
     1
102
RTVSPropertyOp61
 70
     1
102
RTVSPropertyOp62
 70
     1
  0
ENDSEC
  0
EOF
