  0
SECTION
  2
HEADER
  9
$ACADVER
  1
AC1018
  9
$ACADMAINTVER
 70
   104
  9
$DWGCODEPAGE
  3
ANSI_1250
  9
$LASTSAVEDBY
  1
wq7085
  9
$INSBASE
 10
0.0
 20
0.0
 30
0.0
  9
$EXTMIN
 10
187.2502013333333
 20
118.534924
 30
0.0
  9
$EXTMAX
 10
445.1748969999999
 20
341.6963336666668
 30
0.0
  9
$LIMMIN
 10
-0.5
 20
-0.5
  9
$LIMMAX
 10
5.0
 20
5.0
  9
$ORTHOMODE
 70
     0
  9
$REGENMODE
 70
     1
  9
$FILLMODE
 70
     1
  9
$QTEXTMODE
 70
     0
  9
$MIRRTEXT
 70
     1
  9
$LTSCALE
 40
1.0
  9
$ATTMODE
 70
     1
  9
$TEXTSIZE
 40
0.2
  9
$TRACEWID
 40
0.05
  9
$TEXTSTYLE
  7
Standard
  9
$CLAYER
  8
0
  9
$CELTYPE
  6
ByLayer
  9
$CECOLOR
 62
   256
  9
$CELTSCALE
 40
1.0
  9
$DISPSILH
 70
     0
  9
$DIMSCALE
 40
1.0
  9
$DIMASZ
 40
0.18
  9
$DIMEXO
 40
0.0625
  9
$DIMDLI
 40
0.38
  9
$DIMRND
 40
0.0
  9
$DIMDLE
 40
0.0
  9
$DIMEXE
 40
0.18
  9
$DIMTP
 40
0.0
  9
$DIMTM
 40
0.0
  9
$DIMTXT
 40
0.18
  9
$DIMCEN
 40
0.09
  9
$DIMTSZ
 40
0.0
  9
$DIMTOL
 70
     0
  9
$DIMLIM
 70
     0
  9
$DIMTIH
 70
     1
  9
$DIMTOH
 70
     1
  9
$DIMSE1
 70
     0
  9
$DIMSE2
 70
     0
  9
$DIMTAD
 70
     0
  9
$DIMZIN
 70
     0
  9
$DIMBLK
  1

  9
$DIMASO
 70
     1
  9
$DIMSHO
 70
     1
  9
$DIMPOST
  1

  9
$DIMAPOST
  1

  9
$DIMALT
 70
     0
  9
$DIMALTD
 70
     2
  9
$DIMALTF
 40
25.4
  9
$DIMLFAC
 40
1.0
  9
$DIMTOFL
 70
     0
  9
$DIMTVP
 40
0.0
  9
$DIMTIX
 70
     0
  9
$DIMSOXD
 70
     0
  9
$DIMSAH
 70
     0
  9
$DIMBLK1
  1

  9
$DIMBLK2
  1

  9
$DIMSTYLE
  2
Standard
  9
$DIMCLRD
 70
     0
  9
$DIMCLRE
 70
     0
  9
$DIMCLRT
 70
     0
  9
$DIMTFAC
 40
1.0
  9
$DIMGAP
 40
0.09
  9
$DIMJUST
 70
     0
  9
$DIMSD1
 70
     0
  9
$DIMSD2
 70
     0
  9
$DIMTOLJ
 70
     1
  9
$DIMTZIN
 70
     0
  9
$DIMALTZ
 70
     0
  9
$DIMALTTZ
 70
     0
  9
$DIMUPT
 70
     0
  9
$DIMDEC
 70
     4
  9
$DIMTDEC
 70
     4
  9
$DIMALTU
 70
     2
  9
$DIMALTTD
 70
     2
  9
$DIMTXSTY
  7
Standard
  9
$DIMAUNIT
 70
     0
  9
$DIMADEC
 70
     0
  9
$DIMALTRND
 40
0.0
  9
$DIMAZIN
 70
     0
  9
$DIMDSEP
 70
    46
  9
$DIMATFIT
 70
     3
  9
$DIMFRAC
 70
     0
  9
$DIMLDRBLK
  1

  9
$DIMLUNIT
 70
     2
  9
$DIMLWD
 70
    -2
  9
$DIMLWE
 70
    -2
  9
$DIMTMOVE
 70
     0
  9
$LUNITS
 70
     2
  9
$LUPREC
 70
     4
  9
$SKETCHINC
 40
0.1
  9
$FILLETRAD
 40
0.5
  9
$AUNITS
 70
     0
  9
$AUPREC
 70
     0
  9
$MENU
  1
.
  9
$ELEVATION
 40
0.0
  9
$PELEVATION
 40
0.0
  9
$THICKNESS
 40
0.0
  9
$LIMCHECK
 70
     0
  9
$CHAMFERA
 40
0.0
  9
$CHAMFERB
 40
0.0
  9
$CHAMFERC
 40
0.0
  9
$CHAMFERD
 40
0.0
  9
$SKPOLY
 70
     0
  9
$TDCREATE
 40
2459089.326875000
  9
$TDUCREATE
 40
2459089.243547998
  9
$TDUPDATE
 40
2459089.327523148
  9
$TDUUPDATE
 40
2459089.244189815
  9
$TDINDWG
 40
0.0004282523
  9
$TDUSRTIMER
 40
0.0004282523
  9
$USRTIMER
 70
     1
  9
$ANGBASE
 50
0.0
  9
$ANGDIR
 70
     0
  9
$PDMODE
 70
     0
  9
$PDSIZE
 40
0.0
  9
$PLINEWID
 40
0.0
  9
$SPLFRAME
 70
     0
  9
$SPLINETYPE
 70
     6
  9
$SPLINESEGS
 70
     8
  9
$HANDSEED
  5
3A9
  9
$SURFTAB1
 70
     6
  9
$SURFTAB2
 70
     6
  9
$SURFTYPE
 70
     6
  9
$SURFU
 70
     6
  9
$SURFV
 70
     6
  9
$UCSBASE
  2

  9
$UCSNAME
  2

  9
$UCSORG
 10
274.404842
 20
288.907994
 30
0.0
  9
$UCSXDIR
 10
1.0
 20
0.0
 30
0.0
  9
$UCSYDIR
 10
0.0
 20
1.0
 30
0.0
  9
$UCSORTHOREF
  2

  9
$UCSORTHOVIEW
 70
     0
  9
$UCSORGTOP
 10
0.0
 20
0.0
 30
0.0
  9
$UCSORGBOTTOM
 10
0.0
 20
0.0
 30
0.0
  9
$UCSORGLEFT
 10
0.0
 20
0.0
 30
0.0
  9
$UCSORGRIGHT
 10
0.0
 20
0.0
 30
0.0
  9
$UCSORGFRONT
 10
0.0
 20
0.0
 30
0.0
  9
$UCSORGBACK
 10
0.0
 20
0.0
 30
0.0
  9
$PUCSBASE
  2

  9
$PUCSNAME
  2

  9
$PUCSORG
 10
0.0
 20
0.0
 30
0.0
  9
$PUCSXDIR
 10
1.0
 20
0.0
 30
0.0
  9
$PUCSYDIR
 10
0.0
 20
1.0
 30
0.0
  9
$PUCSORTHOREF
  2

  9
$PUCSORTHOVIEW
 70
     0
  9
$PUCSORGTOP
 10
0.0
 20
0.0
 30
0.0
  9
$PUCSORGBOTTOM
 10
0.0
 20
0.0
 30
0.0
  9
$PUCSORGLEFT
 10
0.0
 20
0.0
 30
0.0
  9
$PUCSORGRIGHT
 10
0.0
 20
0.0
 30
0.0
  9
$PUCSORGFRONT
 10
0.0
 20
0.0
 30
0.0
  9
$PUCSORGBACK
 10
0.0
 20
0.0
 30
0.0
  9
$USERI1
 70
     0
  9
$USERI2
 70
     0
  9
$USERI3
 70
     0
  9
$USERI4
 70
     0
  9
$USERI5
 70
     0
  9
$USERR1
 40
0.0
  9
$USERR2
 40
0.0
  9
$USERR3
 40
0.0
  9
$USERR4
 40
0.0
  9
$USERR5
 40
0.0
  9
$WORLDVIEW
 70
     1
  9
$SHADEDGE
 70
     3
  9
$SHADEDIF
 70
    70
  9
$TILEMODE
 70
     1
  9
$MAXACTVP
 70
    64
  9
$PINSBASE
 10
0.0
 20
0.0
 30
0.0
  9
$PLIMCHECK
 70
     0
  9
$PEXTMIN
 10
-0.5
 20
-0.5
 30
-0.5
  9
$PEXTMAX
 10
5.0
 20
5.0
 30
5.0
  9
$PLIMMIN
 10
-0.5
 20
-0.5
  9
$PLIMMAX
 10
5.0
 20
5.0
  9
$UNITMODE
 70
     0
  9
$VISRETAIN
 70
     1
  9
$PLINEGEN
 70
     0
  9
$PSLTSCALE
 70
     1
  9
$TREEDEPTH
 70
  3020
  9
$CMLSTYLE
  2
Standard
  9
$CMLJUST
 70
     0
  9
$CMLSCALE
 40
1.0
  9
$PROXYGRAPHICS
 70
     1
  9
$MEASUREMENT
 70
     1
  9
$CELWEIGHT
370
    13
  9
$ENDCAPS
280
     0
  9
$JOINSTYLE
280
     0
  9
$LWDISPLAY
290
     0
  9
$INSUNITS
 70
     4
  9
$HYPERLINKBASE
  1

  9
$STYLESHEET
  1

  9
$XEDIT
290
     1
  9
$CEPSNTYPE
380
     0
  9
$PSTYLEMODE
290
     1
  9
$FINGERPRINTGUID
  2
{251675A0-168D-4D1A-BB7B-124A62277FBB}
  9
$VERSIONGUID
  2
{20246CA2-4BE6-6E48-B94B-A0420589649C}
  9
$EXTNAMES
290
     1
  9
$PSVPSCALE
 40
0.0
  9
$OLESTARTUP
290
     0
  9
$SORTENTS
280
   127
  9
$INDEXCTL
280
     0
  9
$HIDETEXT
280
     1
  9
$XCLIPFRAME
290
     0
  9
$HALOGAP
280
     0
  9
$OBSCOLOR
 70
   257
  9
$OBSLTYPE
280
     0
  9
$INTERSECTIONDISPLAY
280
     0
  9
$INTERSECTIONCOLOR
 70
   257
  9
$DIMASSOC
280
     2
  9
$PROJECTNAME
  1

  0
ENDSEC
  0
SECTION
  2
CLASSES
  0
CLASS
  1
ACDBDICTIONARYWDFLT
  2
AcDbDictionaryWithDefault
  3
ObjectDBX Classes
 90
        0
 91
        1
280
     0
281
     0
  0
CLASS
  1
VISUALSTYLE
  2
AcDbVisualStyle
  3
ObjectDBX Classes
 90
     4095
 91
       24
280
     0
281
     0
  0
CLASS
  1
MATERIAL
  2
AcDbMaterial
  3
ObjectDBX Classes
 90
     1153
 91
        3
280
     0
281
     0
  0
CLASS
  1
SCALE
  2
AcDbScale
  3
ObjectDBX Classes
 90
     1153
 91
       33
280
     0
281
     0
  0
CLASS
  1
TABLESTYLE
  2
AcDbTableStyle
  3
ObjectDBX Classes
 90
     4095
 91
        1
280
     0
281
     0
  0
CLASS
  1
MLEADERSTYLE
  2
AcDbMLeaderStyle
  3
ACDB_MLEADERSTYLE_CLASS
 90
     4095
 91
        1
280
     0
281
     0
  0
CLASS
  1
SUN
  2
AcDbSun
  3
SCENEOE
 90
     1153
 91
        0
280
     0
281
     0
  0
CLASS
  1
DIMASSOC
  2
AcDbDimAssoc
  3
"AcDbDimAssoc|Product Desc:     AcDim ARX App For Dimension|Company:          Autodesk, Inc.|WEB Address:      www.autodesk.com"
 90
        0
 91
        7
280
     0
281
     0
  0
CLASS
  1
DICTIONARYVAR
  2
AcDbDictionaryVar
  3
ObjectDBX Classes
 90
        0
 91
        8
280
     0
281
     0
  0
CLASS
  1
CELLSTYLEMAP
  2
AcDbCellStyleMap
  3
ObjectDBX Classes
 90
     1152
 91
        2
280
     0
281
     0
  0
CLASS
  1
ACDBSECTIONVIEWSTYLE
  2
AcDbSectionViewStyle
  3
ObjectDBX Classes
 90
     1025
 91
        1
280
     0
281
     0
  0
CLASS
  1
ACDBDETAILVIEWSTYLE
  2
AcDbDetailViewStyle
  3
ObjectDBX Classes
 90
     1025
 91
        1
280
     0
281
     0
  0
CLASS
  1
SORTENTSTABLE
  2
AcDbSortentsTable
  3
ObjectDBX Classes
 90
        0
 91
        1
280
     0
281
     0
  0
ENDSEC
  0
SECTION
  2
TABLES
  0
TABLE
  2
VPORT
  5
8
330
0
100
AcDbSymbolTable
 70
    16
  0
VPORT
  5
29
330
8
100
AcDbSymbolTableRecord
100
AcDbViewportTableRecord
  2
*Active
 70
     0
 10
0.0
 20
0.0
 11
1.0
 21
1.0
 12
330.1658177290775
 22
292.4288071785883
 13
0.0
 23
0.0
 14
0.5
 24
0.5
 15
0.5
 25
0.5
 16
0.0
 26
0.0
 36
1.0
 17
0.0
 27
0.0
 37
0.0
 40
201.1835341710803
 41
2.292712066905615
 42
50.0
 43
460.542938
 44
-460.542938
 50
0.0
 51
0.0
 71
     0
 72
   100
 73
     1
 74
     3
 75
     0
 76
     0
 77
     0
 78
     0
281
     0
 65
     1
110
274.404842
120
288.907994
130
0.0
111
1.0
121
0.0
131
0.0
112
0.0
122
1.0
132
0.0
 79
     0
146
0.0
1001
ACAD_NAV_VCDISPLAY
1070
     3
  0
VPORT
  5
2AA
330
8
100
AcDbSymbolTableRecord
100
AcDbViewportTableRecord
  2
L1
 70
     0
 10
0.0
 20
0.0
 11
1.0
 21
1.0
 12
315.708344
 22
230.09376
 13
0.0
 23
0.0
 14
0.5
 24
0.5
 15
0.5
 25
0.5
 16
0.0
 26
0.0
 36
1.0
 17
0.0
 27
0.0
 37
0.0
 40
207.433333
 41
0.085602
 42
50.0
 43
460.542938
 44
-460.542938
 50
0.0
 51
0.0
 71
     0
 72
   100
 73
     1
 74
     3
 75
     0
 76
     0
 77
     0
 78
     0
281
     0
 65
     1
110
0.0
120
0.0
130
0.0
111
1.0
121
0.0
131
0.0
112
0.0
122
1.0
132
0.0
 79
     0
146
0.0
  0
VPORT
  5
2AB
330
8
100
AcDbSymbolTableRecord
100
AcDbViewportTableRecord
  2
L2
 70
     0
 10
0.0
 20
0.0
 11
0.5
 21
1.0
 12
0.0
 22
0.0
 13
0.0
 23
0.0
 14
0.5
 24
0.5
 15
0.5
 25
0.5
 16
0.0
 26
-1.0
 36
0.0
 17
0.0
 27
0.0
 37
0.0
 40
1316.18997
 41
0.013491
 42
50.0
 43
678.00864
 44
-678.00864
 50
0.0
 51
0.0
 71
     0
 72
   100
 73
     1
 74
     3
 75
     0
 76
     0
 77
     0
 78
     0
281
     0
 65
     1
110
0.0
120
0.0
130
0.0
111
1.0
121
0.0
131
0.0
112
0.0
122
1.0
132
0.0
 79
     0
146
0.0
  0
VPORT
  5
2AC
330
8
100
AcDbSymbolTableRecord
100
AcDbViewportTableRecord
  2
L2
 70
     0
 10
0.5
 20
0.0
 11
1.0
 21
1.0
 12
0.0
 22
0.0
 13
0.0
 23
0.0
 14
0.5
 24
0.5
 15
0.5
 25
0.5
 16
1.0
 26
0.0
 36
0.0
 17
0.0
 27
0.0
 37
0.0
 40
1316.18997
 41
0.013491
 42
50.0
 43
666.2177989999999
 44
-666.2177989999999
 50
0.0
 51
0.0
 71
     0
 72
   100
 73
     1
 74
     3
 75
     0
 76
     0
 77
     0
 78
     0
281
     0
 65
     1
110
0.0
120
0.0
130
0.0
111
1.0
121
0.0
131
0.0
112
0.0
122
1.0
132
0.0
 79
     0
146
0.0
  0
VPORT
  5
2AD
330
8
100
AcDbSymbolTableRecord
100
AcDbViewportTableRecord
  2
L3
 70
     0
 10
0.0
 20
0.5
 11
1.0
 21
1.0
 12
315.708344
 22
230.09376
 13
0.0
 23
0.0
 14
0.5
 24
0.5
 15
0.5
 25
0.5
 16
0.0
 26
0.0
 36
1.0
 17
0.0
 27
0.0
 37
0.0
 40
207.433333
 41
0.085602
 42
50.0
 43
460.542938
 44
-460.542938
 50
0.0
 51
0.0
 71
     0
 72
   100
 73
     1
 74
     3
 75
     0
 76
     0
 77
     0
 78
     0
281
     0
 65
     1
110
0.0
120
0.0
130
0.0
111
1.0
121
0.0
131
0.0
112
0.0
122
1.0
132
0.0
 79
     0
146
0.0
  0
VPORT
  5
2AE
330
8
100
AcDbSymbolTableRecord
100
AcDbViewportTableRecord
  2
L3
 70
     0
 10
0.0
 20
0.0
 11
1.0
 21
0.5
 12
0.0
 22
0.0
 13
0.0
 23
0.0
 14
0.5
 24
0.5
 15
0.5
 25
0.5
 16
0.0
 26
-1.0
 36
0.0
 17
0.0
 27
0.0
 37
0.0
 40
1316.18997
 41
0.013491
 42
50.0
 43
678.00864
 44
-678.00864
 50
0.0
 51
0.0
 71
     0
 72
   100
 73
     1
 74
     3
 75
     0
 76
     0
 77
     0
 78
     0
281
     0
 65
     1
110
0.0
120
0.0
130
0.0
111
1.0
121
0.0
131
0.0
112
0.0
122
1.0
132
0.0
 79
     0
146
0.0
  0
VPORT
  5
2AF
330
8
100
AcDbSymbolTableRecord
100
AcDbViewportTableRecord
  2
L4
 70
     0
 10
0.0
 20
0.5
 11
0.5
 21
1.0
 12
315.708344
 22
230.09376
 13
0.0
 23
0.0
 14
0.5
 24
0.5
 15
0.5
 25
0.5
 16
0.0
 26
0.0
 36
1.0
 17
0.0
 27
0.0
 37
0.0
 40
207.433333
 41
0.085602
 42
50.0
 43
460.542938
 44
-460.542938
 50
0.0
 51
0.0
 71
     0
 72
   100
 73
     1
 74
     3
 75
     0
 76
     0
 77
     0
 78
     0
281
     0
 65
     1
110
0.0
120
0.0
130
0.0
111
1.0
121
0.0
131
0.0
112
0.0
122
1.0
132
0.0
 79
     0
146
0.0
  0
VPORT
  5
2B0
330
8
100
AcDbSymbolTableRecord
100
AcDbViewportTableRecord
  2
L4
 70
     0
 10
0.0
 20
0.0
 11
0.5
 21
0.5
 12
0.0
 22
0.0
 13
0.0
 23
0.0
 14
0.5
 24
0.5
 15
0.5
 25
0.5
 16
0.0
 26
-1.0
 36
0.0
 17
0.0
 27
0.0
 37
0.0
 40
1316.18997
 41
0.013491
 42
50.0
 43
678.00864
 44
-678.00864
 50
0.0
 51
0.0
 71
     0
 72
   100
 73
     1
 74
     3
 75
     0
 76
     0
 77
     0
 78
     0
281
     0
 65
     1
110
0.0
120
0.0
130
0.0
111
1.0
121
0.0
131
0.0
112
0.0
122
1.0
132
0.0
 79
     0
146
0.0
  0
VPORT
  5
2B1
330
8
100
AcDbSymbolTableRecord
100
AcDbViewportTableRecord
  2
L4
 70
     0
 10
0.5
 20
0.0
 11
1.0
 21
0.5
 12
0.0
 22
0.0
 13
0.0
 23
0.0
 14
0.5
 24
0.5
 15
0.5
 25
0.5
 16
1.0
 26
0.0
 36
0.0
 17
0.0
 27
0.0
 37
0.0
 40
1316.18997
 41
0.013491
 42
50.0
 43
666.2177989999999
 44
-666.2177989999999
 50
0.0
 51
0.0
 71
     0
 72
   100
 73
     1
 74
     3
 75
     0
 76
     0
 77
     0
 78
     0
281
     0
 65
     1
110
0.0
120
0.0
130
0.0
111
1.0
121
0.0
131
0.0
112
0.0
122
1.0
132
0.0
 79
     0
146
0.0
  0
VPORT
  5
2B2
330
8
100
AcDbSymbolTableRecord
100
AcDbViewportTableRecord
  2
L4
 70
     0
 10
0.5
 20
0.5
 11
1.0
 21
1.0
 12
0.0
 22
0.0
 13
0.0
 23
0.0
 14
0.5
 24
0.5
 15
0.5
 25
0.5
 16
0.5773502691896259
 26
-0.5773502691896259
 36
0.5773502691896259
 17
0.0
 27
0.0
 37
0.0
 40
1292.532264
 41
0.013738
 42
50.0
 43
673.245608
 44
-673.245608
 50
0.0
 51
0.0
 71
     0
 72
   100
 73
     1
 74
     3
 75
     0
 76
     0
 77
     0
 78
     0
281
     0
 65
     1
110
0.0
120
0.0
130
0.0
111
1.0
121
0.0
131
0.0
112
0.0
122
1.0
132
0.0
 79
     0
146
0.0
  0
VPORT
  5
2B3
330
8
100
AcDbSymbolTableRecord
100
AcDbViewportTableRecord
  2
L6
 70
     0
 10
0.0
 20
0.5
 11
0.333333
 21
1.0
 12
0.0
 22
0.0
 13
0.0
 23
0.0
 14
0.5
 24
0.5
 15
0.5
 25
0.5
 16
0.7188730927569434
 26
-0.5850486126764433
 36
0.3754192287502549
 17
0.0
 27
0.0
 37
0.0
 40
1364.064247
 41
0.013018
 42
50.0
 43
706.2613849999999
 44
-706.2613849999999
 50
0.0
 51
0.0
 71
     0
 72
   100
 73
     1
 74
     3
 75
     0
 76
     0
 77
     0
 78
     0
281
     0
 65
     1
110
0.0
120
0.0
130
0.0
111
1.0
121
0.0
131
0.0
112
0.0
122
1.0
132
0.0
 79
     0
146
0.0
  0
VPORT
  5
2B4
330
8
100
AcDbSymbolTableRecord
100
AcDbViewportTableRecord
  2
L6
 70
     0
 10
0.0
 20
0.0
 11
0.333333
 21
0.5
 12
0.0
 22
0.0
 13
0.0
 23
0.0
 14
0.5
 24
0.5
 15
0.5
 25
0.5
 16
-1.0
 26
0.0
 36
0.0
 17
0.0
 27
0.0
 37
0.0
 40
1316.18997
 41
0.013491
 42
50.0
 43
666.2177989999999
 44
-666.2177989999999
 50
0.0
 51
0.0
 71
     0
 72
   100
 73
     1
 74
     3
 75
     0
 76
     0
 77
     0
 78
     0
281
     0
 65
     1
110
0.0
120
0.0
130
0.0
111
1.0
121
0.0
131
0.0
112
0.0
122
1.0
132
0.0
 79
     0
146
0.0
  0
VPORT
  5
2B5
330
8
100
AcDbSymbolTableRecord
100
AcDbViewportTableRecord
  2
L6
 70
     0
 10
0.333333
 20
0.5
 11
0.666667
 21
1.0
 12
315.708344
 22
230.09376
 13
0.0
 23
0.0
 14
0.5
 24
0.5
 15
0.5
 25
0.5
 16
0.0
 26
0.0
 36
1.0
 17
0.0
 27
0.0
 37
0.0
 40
207.433333
 41
0.085602
 42
50.0
 43
460.542938
 44
-460.542938
 50
0.0
 51
0.0
 71
     0
 72
   100
 73
     1
 74
     3
 75
     0
 76
     0
 77
     0
 78
     0
281
     0
 65
     1
110
0.0
120
0.0
130
0.0
111
1.0
121
0.0
131
0.0
112
0.0
122
1.0
132
0.0
 79
     0
146
0.0
  0
VPORT
  5
2B6
330
8
100
AcDbSymbolTableRecord
100
AcDbViewportTableRecord
  2
L6
 70
     0
 10
0.333333
 20
0.0
 11
0.666667
 21
0.5
 12
0.0
 22
0.0
 13
0.0
 23
0.0
 14
0.5
 24
0.5
 15
0.5
 25
0.5
 16
0.0
 26
-1.0
 36
0.0
 17
0.0
 27
0.0
 37
0.0
 40
1316.18997
 41
0.013491
 42
50.0
 43
678.00864
 44
-678.00864
 50
0.0
 51
0.0
 71
     0
 72
   100
 73
     1
 74
     3
 75
     0
 76
     0
 77
     0
 78
     0
281
     0
 65
     1
110
0.0
120
0.0
130
0.0
111
1.0
121
0.0
131
0.0
112
0.0
122
1.0
132
0.0
 79
     0
146
0.0
  0
VPORT
  5
2B7
330
8
100
AcDbSymbolTableRecord
100
AcDbViewportTableRecord
  2
L6
 70
     0
 10
0.666667
 20
0.5
 11
1.0
 21
1.0
 12
0.0
 22
0.0
 13
0.0
 23
0.0
 14
0.5
 24
0.5
 15
0.5
 25
0.5
 16
0.5773502691896259
 26
-0.5773502691896259
 36
0.5773502691896259
 17
0.0
 27
0.0
 37
0.0
 40
1292.532264
 41
0.013738
 42
50.0
 43
673.245608
 44
-673.245608
 50
0.0
 51
0.0
 71
     0
 72
   100
 73
     1
 74
     3
 75
     0
 76
     0
 77
     0
 78
     0
281
     0
 65
     1
110
0.0
120
0.0
130
0.0
111
1.0
121
0.0
131
0.0
112
0.0
122
1.0
132
0.0
 79
     0
146
0.0
  0
VPORT
  5
2B8
330
8
100
AcDbSymbolTableRecord
100
AcDbViewportTableRecord
  2
L6
 70
     0
 10
0.666667
 20
0.0
 11
1.0
 21
0.5
 12
0.0
 22
0.0
 13
0.0
 23
0.0
 14
0.5
 24
0.5
 15
0.5
 25
0.5
 16
1.0
 26
0.0
 36
0.0
 17
0.0
 27
0.0
 37
0.0
 40
1316.18997
 41
0.013491
 42
50.0
 43
666.2177989999999
 44
-666.2177989999999
 50
0.0
 51
0.0
 71
     0
 72
   100
 73
     1
 74
     3
 75
     0
 76
     0
 77
     0
 78
     0
281
     0
 65
     1
110
0.0
120
0.0
130
0.0
111
1.0
121
0.0
131
0.0
112
0.0
122
1.0
132
0.0
 79
     0
146
0.0
  0
ENDTAB
  0
TABLE
  2
LTYPE
  5
5
330
0
100
AcDbSymbolTable
 70
     7
  0
LTYPE
  5
14
330
5
100
AcDbSymbolTableRecord
100
AcDbLinetypeTableRecord
  2
ByBlock
 70
     0
  3

 72
    65
 73
     0
 40
0.0
  0
LTYPE
  5
15
330
5
100
AcDbSymbolTableRecord
100
AcDbLinetypeTableRecord
  2
ByLayer
 70
     0
  3

 72
    65
 73
     0
 40
0.0
  0
LTYPE
  5
16
330
5
100
AcDbSymbolTableRecord
100
AcDbLinetypeTableRecord
  2
Continuous
 70
     0
  3
Solid line
 72
    65
 73
     0
 40
0.0
  0
LTYPE
  5
6E
330
5
100
AcDbSymbolTableRecord
100
AcDbLinetypeTableRecord
  2
CENTER
 70
     0
  3
____ _ ____ _ ____ _ ____
 72
    65
 73
     4
 40
47.4
 49
22.0
 74
     4
 75
     0
340
0
 46
0.0
 50
0.0
 44
0.0
 45
0.0
 49
-8.5
 74
     4
 75
     0
340
0
 46
0.0
 50
0.0
 44
0.0
 45
0.0
 49
8.5
 74
     4
 75
     0
340
0
 46
0.0
 50
0.0
 44
0.0
 45
0.0
 49
-8.5
 74
     4
 75
     0
340
0
 46
0.0
 50
0.0
 44
0.0
 45
0.0
  0
LTYPE
  5
6F
330
5
100
AcDbSymbolTableRecord
100
AcDbLinetypeTableRecord
  2
DASHDOT
 70
     0
  3
_._._._._._._._._._._._._._._._.
 72
    65
 73
     4
 40
70.0
 49
31.0
 74
     4
 75
     0
340
0
 46
0.0
 50
0.0
 44
0.0
 45
0.0
 49
-13.0
 74
     4
 75
     0
340
0
 46
0.0
 50
0.0
 44
0.0
 45
0.0
 49
13.0
 74
     4
 75
     0
340
0
 46
0.0
 50
0.0
 44
0.0
 45
0.0
 49
-13.0
 74
     4
 75
     0
340
0
 46
0.0
 50
0.0
 44
0.0
 45
0.0
  0
LTYPE
  5
70
330
5
100
AcDbSymbolTableRecord
100
AcDbLinetypeTableRecord
  2
DASHED
 70
     0
  3
__ __ __ __ __ __ __ __ __
 72
    65
 73
     2
 40
25.72
 49
12.86
 74
     4
 75
     0
340
0
 46
0.0
 50
0.0
 44
0.0
 45
0.0
 49
-12.86
 74
     4
 75
     0
340
0
 46
0.0
 50
0.0
 44
0.0
 45
0.0
  0
LTYPE
  5
71
330
5
100
AcDbSymbolTableRecord
100
AcDbLinetypeTableRecord
  2
DOT
 70
     0
  3
.........................
 72
    65
 73
     2
 40
10.0
 49
0.0
 74
     4
 75
     0
340
0
 46
0.0
 50
0.0
 44
0.0
 45
0.0
 49
-10.0
 74
     4
 75
     0
340
0
 46
0.0
 50
0.0
 44
0.0
 45
0.0
  0
LTYPE
  5
72
330
5
100
AcDbSymbolTableRecord
100
AcDbLinetypeTableRecord
  2
PHANTOM
 70
     0
  3
____ _ _ ____ _ _ _____ _ _ ____
 72
    65
 73
     6
 40
50.5
 49
18.0
 74
     4
 75
     0
340
0
 46
0.0
 50
0.0
 44
0.0
 45
0.0
 49
-6.5
 74
     4
 75
     0
340
0
 46
0.0
 50
0.0
 44
0.0
 45
0.0
 49
6.5
 74
     4
 75
     0
340
0
 46
0.0
 50
0.0
 44
0.0
 45
0.0
 49
-6.5
 74
     4
 75
     0
340
0
 46
0.0
 50
0.0
 44
0.0
 45
0.0
 49
6.5
 74
     4
 75
     0
340
0
 46
0.0
 50
0.0
 44
0.0
 45
0.0
 49
-6.5
 74
     4
 75
     0
340
0
 46
0.0
 50
0.0
 44
0.0
 45
0.0
  0
LTYPE
  5
34B
330
5
100
AcDbSymbolTableRecord
100
AcDbLinetypeTableRecord
  2
CENTER2
 70
     0
  3
Center (.5x) ___ _ ___ _ ___ _ ___ _ ___ _ ___
 72
    65
 73
     4
 40
1.125
 49
0.75
 74
     0
 49
-0.125
 74
     0
 49
0.125
 74
     0
 49
-0.125
 74
     0
  0
ENDTAB
  0
TABLE
  2
LAYER
  5
2
330
0
100
AcDbSymbolTable
 70
    22
  0
LAYER
  5
10
102
{ACAD_XDICTIONARY
360
356
102
}
330
2
100
AcDbSymbolTableRecord
100
AcDbLayerTableRecord
  2
0
 70
     0
 62
     7
  6
Continuous
370
    -3
390
F
  0
LAYER
  5
204
330
2
100
AcDbSymbolTableRecord
100
AcDbLayerTableRecord
  2
Defpoints
 70
     0
 62
     7
  6
Continuous
290
     0
370
    -3
390
F
  0
LAYER
  5
348
102
{ACAD_XDICTIONARY
360
358
102
}
330
2
100
AcDbSymbolTableRecord
100
AcDbLayerTableRecord
  2
1
 70
     0
 62
     4
  6
Continuous
370
    -3
390
F
  0
LAYER
  5
349
102
{ACAD_XDICTIONARY
360
35A
102
}
330
2
100
AcDbSymbolTableRecord
100
AcDbLayerTableRecord
  2
2
 70
     0
 62
     7
  6
Continuous
370
    -3
390
F
  0
LAYER
  5
34A
102
{ACAD_XDICTIONARY
360
35C
102
}
330
2
100
AcDbSymbolTableRecord
100
AcDbLayerTableRecord
  2
4
 70
     0
 62
     2
  6
CENTER2
370
    -3
390
F
  0
LAYER
  5
34C
102
{ACAD_XDICTIONARY
360
35E
102
}
330
2
100
AcDbSymbolTableRecord
100
AcDbLayerTableRecord
  2
SK1
 70
     0
 62
     4
  6
Continuous
370
    -3
390
F
  0
LAYER
  5
34D
102
{ACAD_XDICTIONARY
360
360
102
}
330
2
100
AcDbSymbolTableRecord
100
AcDbLayerTableRecord
  2
SK2
 70
     0
 62
     7
  6
Continuous
370
    -3
390
F
  0
LAYER
  5
34F
102
{ACAD_XDICTIONARY
360
362
102
}
330
2
100
AcDbSymbolTableRecord
100
AcDbLayerTableRecord
  2
SK4
 70
     0
 62
     2
  6
CENTER2
370
    -3
390
F
  0
LAYER
  5
350
102
{ACAD_XDICTIONARY
360
364
102
}
330
2
100
AcDbSymbolTableRecord
100
AcDbLayerTableRecord
  2
SK6
 70
     0
 62
     5
  6
Continuous
370
    -3
390
F
  0
LAYER
  5
351
102
{ACAD_XDICTIONARY
360
366
102
}
330
2
100
AcDbSymbolTableRecord
100
AcDbLayerTableRecord
  2
CUT
 70
     0
 62
     1
  6
Continuous
370
    -3
390
F
  0
LAYER
  5
352
102
{ACAD_XDICTIONARY
360
368
102
}
330
2
100
AcDbSymbolTableRecord
100
AcDbLayerTableRecord
  2
NOCUT
 70
     0
 62
     7
  6
Continuous
370
    -3
390
F
  0
LAYER
  5
353
102
{ACAD_XDICTIONARY
360
36A
102
}
330
2
100
AcDbSymbolTableRecord
100
AcDbLayerTableRecord
  2
80
 70
     0
 62
     6
  6
Continuous
370
    -3
390
F
  0
LAYER
  5
354
102
{ACAD_XDICTIONARY
360
36C
102
}
330
2
100
AcDbSymbolTableRecord
100
AcDbLayerTableRecord
  2
81
 70
     0
 62
     3
  6
Continuous
370
    -3
390
F
  0
ENDTAB
  0
TABLE
  2
STYLE
  5
3
330
0
100
AcDbSymbolTable
 70
     3
  0
STYLE
  5
11
330
3
100
AcDbSymbolTableRecord
100
AcDbTextStyleTableRecord
  2
Standard
 70
     0
 40
0.0
 41
1.0
 50
0.0
 71
     0
 42
0.2
  3
txt
  4

  0
STYLE
  5
1F8
330
3
100
AcDbSymbolTableRecord
100
AcDbTextStyleTableRecord
  2
cesky
 70
     0
 40
0.0
 41
1.0
 50
0.0
 71
     0
 42
0.2
  3
simplex.shx
  4

  0
STYLE
  5
1F9
330
3
100
AcDbSymbolTableRecord
100
AcDbTextStyleTableRecord
  2
DWGDirectTextStyle
 70
     0
 40
0.0
 41
1.0
 50
0.0
 71
     0
 42
0.2
  3
simplex
  4

  0
ENDTAB
  0
TABLE
  2
VIEW
  5
6
330
0
100
AcDbSymbolTable
 70
     0
  0
ENDTAB
  0
TABLE
  2
UCS
  5
7
330
0
100
AcDbSymbolTable
 70
     0
  0
ENDTAB
  0
TABLE
  2
APPID
  5
9
330
0
100
AcDbSymbolTable
 70
     7
  0
APPID
  5
12
330
9
100
AcDbSymbolTableRecord
100
AcDbRegAppTableRecord
  2
ACAD
 70
     0
  0
APPID
  5
200
330
9
100
AcDbSymbolTableRecord
100
AcDbRegAppTableRecord
  2
ACAD_DSTYLE_DIMBREAK
 70
     0
  0
APPID
  5
2B9
330
9
100
AcDbSymbolTableRecord
100
AcDbRegAppTableRecord
  2
ACAD_DSTYLE_DIM_LINETYPE
 70
     0
  0
APPID
  5
2BA
330
9
100
AcDbSymbolTableRecord
100
AcDbRegAppTableRecord
  2
ACAD_DSTYLE_DIM_EXT1_LINETYPE
 70
     0
  0
APPID
  5
2BB
330
9
100
AcDbSymbolTableRecord
100
AcDbRegAppTableRecord
  2
ACAD_DSTYLE_DIM_EXT2_LINETYPE
 70
     0
  0
APPID
  5
2FB
330
9
100
AcDbSymbolTableRecord
100
AcDbRegAppTableRecord
  2
ACAD_MLEADERVER
 70
     0
  0
APPID
  5
371
330
9
100
AcDbSymbolTableRecord
100
AcDbRegAppTableRecord
  2
ACAD_NAV_VCDISPLAY
 70
     0
  0
ENDTAB
  0
TABLE
  2
DIMSTYLE
  5
A
330
0
100
AcDbSymbolTable
 70
     1
100
AcDbDimStyleTable
 71
     0
  0
DIMSTYLE
105
27
330
A
100
AcDbSymbolTableRecord
100
AcDbDimStyleTableRecord
  2
Standard
 70
     0
340
11
1001
ACAD_DSTYLE_DIMBREAK
1070
   391
1040
6.349999999999999
  0
ENDTAB
  0
TABLE
  2
BLOCK_RECORD
  5
1
330
0
100
AcDbSymbolTable
 70
    16
  0
BLOCK_RECORD
  5
1F
102
{ACAD_XDICTIONARY
360
30B
102
}
330
1
100
AcDbSymbolTableRecord
100
AcDbBlockTableRecord
  2
*Model_Space
340
22
  0
BLOCK_RECORD
  5
1B
330
1
100
AcDbSymbolTableRecord
100
AcDbBlockTableRecord
  2
*Paper_Space
340
1E
  0
BLOCK_RECORD
  5
23
330
1
100
AcDbSymbolTableRecord
100
AcDbBlockTableRecord
  2
*Paper_Space0
340
26
  0
BLOCK_RECORD
  5
1FB
330
1
100
AcDbSymbolTableRecord
100
AcDbBlockTableRecord
  2
ASSORTED_DRAFT1
340
0
  0
BLOCK_RECORD
  5
205
330
1
100
AcDbSymbolTableRecord
100
AcDbBlockTableRecord
  2
*D2
340
0
  0
BLOCK_RECORD
  5
211
330
1
100
AcDbSymbolTableRecord
100
AcDbBlockTableRecord
  2
_U0
340
0
  0
BLOCK_RECORD
  5
21D
330
1
100
AcDbSymbolTableRecord
100
AcDbBlockTableRecord
  2
*D4
340
0
  0
BLOCK_RECORD
  5
228
330
1
100
AcDbSymbolTableRecord
100
AcDbBlockTableRecord
  2
_U1
340
0
  0
BLOCK_RECORD
  5
233
330
1
100
AcDbSymbolTableRecord
100
AcDbBlockTableRecord
  2
*D6
340
0
  0
BLOCK_RECORD
  5
23F
330
1
100
AcDbSymbolTableRecord
100
AcDbBlockTableRecord
  2
_U2
340
0
  0
BLOCK_RECORD
  5
24C
330
1
100
AcDbSymbolTableRecord
100
AcDbBlockTableRecord
  2
*D8
340
0
  0
BLOCK_RECORD
  5
258
330
1
100
AcDbSymbolTableRecord
100
AcDbBlockTableRecord
  2
_U3
340
0
  0
BLOCK_RECORD
  5
265
330
1
100
AcDbSymbolTableRecord
100
AcDbBlockTableRecord
  2
*D10
340
0
  0
BLOCK_RECORD
  5
271
330
1
100
AcDbSymbolTableRecord
100
AcDbBlockTableRecord
  2
_U4
340
0
  0
BLOCK_RECORD
  5
27D
330
1
100
AcDbSymbolTableRecord
100
AcDbBlockTableRecord
  2
*D12
340
0
  0
BLOCK_RECORD
  5
289
330
1
100
AcDbSymbolTableRecord
100
AcDbBlockTableRecord
  2
_U5
340
0
  0
BLOCK_RECORD
  5
295
330
1
100
AcDbSymbolTableRecord
100
AcDbBlockTableRecord
  2
*D14
340
0
  0
BLOCK_RECORD
  5
2A1
330
1
100
AcDbSymbolTableRecord
100
AcDbBlockTableRecord
  2
_U6
340
0
  0
ENDTAB
  0
ENDSEC
  0
SECTION
  2
BLOCKS
  0
BLOCK
  5
20
330
1F
100
AcDbEntity
  8
0
100
AcDbBlockBegin
  2
*Model_Space
 70
     0
 10
0.0
 20
0.0
 30
0.0
  3
*Model_Space
  1

  0
ENDBLK
  5
21
330
1F
100
AcDbEntity
  8
0
100
AcDbBlockEnd
  0
BLOCK
  5
1C
330
1B
100
AcDbEntity
 67
     1
  8
0
100
AcDbBlockBegin
  2
*Paper_Space
 70
     0
 10
0.0
 20
0.0
 30
0.0
  3
*Paper_Space
  1

  0
ENDBLK
  5
1D
330
1B
100
AcDbEntity
 67
     1
  8
0
100
AcDbBlockEnd
  0
BLOCK
  5
24
330
23
100
AcDbEntity
 67
     1
  8
0
100
AcDbBlockBegin
  2
*Paper_Space0
 70
     0
 10
0.0
 20
0.0
 30
0.0
  3
*Paper_Space0
  1

  0
ENDBLK
  5
25
330
23
100
AcDbEntity
 67
     1
  8
0
100
AcDbBlockEnd
  0
BLOCK
  5
1FE
330
1FB
100
AcDbEntity
  8
0
100
AcDbBlockBegin
  2
ASSORTED_DRAFT1
 70
     0
 10
0.0
 20
0.0
 30
0.0
  3
ASSORTED_DRAFT1
  1

  0
SOLID
  5
1FC
330
1FB
100
AcDbEntity
  8
0
 62
   254
370
    13
100
AcDbTrace
 10
270.185042
 20
164.534924
 30
0.0
 11
265.185046
 21
163.42645
 31
0.0
 12
265.1850379999999
 22
165.643397
 32
0.0
 13
270.185042
 23
164.534924
 33
0.0
  0
ENDBLK
  5
1FF
330
1FB
100
AcDbEntity
  8
0
100
AcDbBlockEnd
  0
BLOCK
  5
206
330
205
100
AcDbEntity
  8
0
100
AcDbBlockBegin
  2
*D2
 70
     1
 10
0.0
 20
0.0
 30
0.0
  3
*D2
  1

  0
LINE
  5
208
330
205
100
AcDbEntity
  8
0
 62
   254
370
    -2
100
AcDbLine
 10
427.4048419999999
 20
304.907994
 30
0.0
 11
427.4048419999999
 21
323.882273
 31
0.0
  0
LINE
  5
209
330
205
100
AcDbEntity
  8
0
 62
   254
370
    -2
100
AcDbLine
 10
274.404842
 20
288.907994
 30
0.0
 11
274.404842
 21
323.882273
 31
0.0
  0
LINE
  5
20A
330
205
100
AcDbEntity
  8
0
 62
   254
370
    -2
100
AcDbLine
 10
423.9048419999999
 20
322.882273
 30
0.0
 11
277.904842
 21
322.882273
 31
0.0
  0
SOLID
  5
20B
330
205
100
AcDbEntity
  8
0
 62
   254
100
AcDbTrace
 10
423.9048419999999
 20
322.29894
 30
0.0
 11
423.9048419999999
 21
323.465606
 31
0.0
 12
427.4048419999999
 22
322.882273
 32
0.0
 13
427.4048419999999
 23
322.882273
 33
0.0
  0
SOLID
  5
20C
330
205
100
AcDbEntity
  8
0
 62
   254
100
AcDbTrace
 10
277.904842
 20
323.465606
 30
0.0
 11
277.904842
 21
322.29894
 31
0.0
 12
274.404842
 22
322.882273
 32
0.0
 13
274.404842
 23
322.882273
 33
0.0
  0
MTEXT
  5
20D
330
205
100
AcDbEntity
  8
0
 62
   254
370
    13
100
AcDbMText
 10
350.904842
 20
328.132273
 30
0.0
 40
3.5
 41
0.0
 71
     5
 72
     1
  1
\A1;153
  7
cesky
 73
     1
 44
1.0
  0
POINT
  5
20E
330
205
100
AcDbEntity
  8
Defpoints
 62
     0
100
AcDbPoint
 10
427.4048419999999
 20
304.907994
 30
0.0
  0
POINT
  5
20F
330
205
100
AcDbEntity
  8
Defpoints
 62
     0
100
AcDbPoint
 10
274.404842
 20
288.907994
 30
0.0
  0
POINT
  5
210
330
205
100
AcDbEntity
  8
Defpoints
 62
     0
100
AcDbPoint
 10
274.404842
 20
322.882273
 30
0.0
  0
ENDBLK
  5
207
330
205
100
AcDbEntity
  8
0
100
AcDbBlockEnd
  0
BLOCK
  5
218
330
211
100
AcDbEntity
  8
0
100
AcDbBlockBegin
  2
_U0
 70
     0
 10
0.0
 20
0.0
 30
0.0
  3
_U0
  1

  0
ENDBLK
  5
219
330
211
100
AcDbEntity
  8
0
100
AcDbBlockEnd
  0
BLOCK
  5
21E
330
21D
100
AcDbEntity
  8
0
100
AcDbBlockBegin
  2
*D4
 70
     1
 10
0.0
 20
0.0
 30
0.0
  3
*D4
  1

  0
LINE
  5
220
330
21D
100
AcDbEntity
  8
0
 62
   254
370
    -2
100
AcDbLine
 10
290.703832
 20
288.907994
 30
0.0
 11
445.1748969999999
 21
288.907994
 31
0.0
  0
LINE
  5
221
330
21D
100
AcDbEntity
  8
0
 62
   254
370
    -2
100
AcDbLine
 10
330.83929
 20
304.907994
 30
0.0
 11
445.1748969999999
 21
304.907994
 31
0.0
  0
LINE
  5
222
330
21D
100
AcDbEntity
  8
0
 62
   254
370
    -2
100
AcDbLine
 10
444.1748969999999
 20
288.907994
 30
0.0
 11
444.1748969999999
 21
304.907994
 31
0.0
  0
SOLID
  5
223
330
21D
100
AcDbEntity
  8
0
 62
   254
100
AcDbTrace
 10
444.7582309999999
 20
301.407994
 30
0.0
 11
443.5915639999999
 21
301.407994
 31
0.0
 12
444.1748969999999
 22
304.907994
 32
0.0
 13
444.1748969999999
 23
304.907994
 33
0.0
  0
MTEXT
  5
224
330
21D
100
AcDbEntity
  8
0
 62
   254
370
    13
100
AcDbMText
 10
438.9248969999999
 20
279.07466
 30
0.0
 40
3.5
 41
0.0
 71
     5
 72
     1
  1
\A1;32
  7
cesky
 11
0.0
 21
1.0
 31
0.0
 73
     1
 44
1.0
  0
POINT
  5
225
330
21D
100
AcDbEntity
  8
Defpoints
 62
     0
100
AcDbPoint
 10
290.703832
 20
288.907994
 30
0.0
  0
POINT
  5
226
330
21D
100
AcDbEntity
  8
Defpoints
 62
     0
100
AcDbPoint
 10
330.83929
 20
304.907994
 30
0.0
  0
POINT
  5
227
330
21D
100
AcDbEntity
  8
Defpoints
 62
     0
100
AcDbPoint
 10
444.1748969999999
 20
304.907994
 30
0.0
  0
ENDBLK
  5
21F
330
21D
100
AcDbEntity
  8
0
100
AcDbBlockEnd
  0
BLOCK
  5
22E
330
228
100
AcDbEntity
  8
0
100
AcDbBlockBegin
  2
_U1
 70
     0
 10
0.0
 20
0.0
 30
0.0
  3
_U1
  1

  0
ENDBLK
  5
22F
330
228
100
AcDbEntity
  8
0
100
AcDbBlockEnd
  0
BLOCK
  5
234
330
233
100
AcDbEntity
  8
0
100
AcDbBlockBegin
  2
*D6
 70
     1
 10
0.0
 20
0.0
 30
0.0
  3
*D6
  1

  0
LINE
  5
236
330
233
100
AcDbEntity
  8
0
 62
    95
370
    -2
100
AcDbLine
 10
216.404842
 20
304.907994
 30
0.0
 11
203.66833
 21
304.907994
 31
0.0
  0
LINE
  5
237
330
233
100
AcDbEntity
  8
0
 62
    95
370
    -2
100
AcDbLine
 10
216.404842
 20
272.907994
 30
0.0
 11
203.66833
 21
272.907994
 31
0.0
  0
LINE
  5
238
330
233
100
AcDbEntity
  8
0
 62
    95
370
    -2
100
AcDbLine
 10
204.66833
 20
301.407994
 30
0.0
 11
204.66833
 21
276.407994
 31
0.0
  0
SOLID
  5
239
330
233
100
AcDbEntity
  8
0
 62
    95
100
AcDbTrace
 10
205.251663
 20
301.407994
 30
0.0
 11
204.084996
 21
301.407994
 31
0.0
 12
204.66833
 22
304.907994
 32
0.0
 13
204.66833
 23
304.907994
 33
0.0
  0
SOLID
  5
23A
330
233
100
AcDbEntity
  8
0
 62
    95
100
AcDbTrace
 10
204.084996
 20
276.407994
 30
0.0
 11
205.251663
 21
276.407994
 31
0.0
 12
204.66833
 22
272.907994
 32
0.0
 13
204.66833
 23
272.907994
 33
0.0
  0
MTEXT
  5
23B
330
233
100
AcDbEntity
  8
0
 62
    95
370
    13
100
AcDbMText
 10
199.41833
 20
288.907994
 30
0.0
 40
3.5
 41
0.0
 71
     5
 72
     1
  1
\A1;32
  7
cesky
 11
0.0
 21
1.0
 31
0.0
 73
     1
 44
1.0
  0
POINT
  5
23C
330
233
100
AcDbEntity
  8
Defpoints
 62
     0
100
AcDbPoint
 10
216.404842
 20
304.907994
 30
0.0
  0
POINT
  5
23D
330
233
100
AcDbEntity
  8
Defpoints
 62
     0
100
AcDbPoint
 10
216.404842
 20
272.907994
 30
0.0
  0
POINT
  5
23E
330
233
100
AcDbEntity
  8
Defpoints
 62
     0
100
AcDbPoint
 10
204.66833
 20
272.907994
 30
0.0
  0
ENDBLK
  5
235
330
233
100
AcDbEntity
  8
0
100
AcDbBlockEnd
  0
BLOCK
  5
247
330
23F
100
AcDbEntity
  8
0
100
AcDbBlockBegin
  2
_U2
 70
     0
 10
0.0
 20
0.0
 30
0.0
  3
_U2
  1

  0
ENDBLK
  5
248
330
23F
100
AcDbEntity
  8
0
100
AcDbBlockEnd
  0
BLOCK
  5
24D
330
24C
100
AcDbEntity
  8
0
100
AcDbBlockBegin
  2
*D8
 70
     1
 10
0.0
 20
0.0
 30
0.0
  3
*D8
  1

  0
LINE
  5
24F
330
24C
100
AcDbEntity
  8
0
 62
    95
370
    -2
100
AcDbLine
 10
277.154842
 20
309.907994
 30
0.0
 11
191.104285
 21
309.907994
 31
0.0
  0
LINE
  5
250
330
24C
100
AcDbEntity
  8
0
 62
    95
370
    -2
100
AcDbLine
 10
277.154842
 20
267.907994
 30
0.0
 11
191.104285
 21
267.907994
 31
0.0
  0
LINE
  5
251
330
24C
100
AcDbEntity
  8
0
 62
    95
370
    -2
100
AcDbLine
 10
192.104285
 20
306.407994
 30
0.0
 11
192.104285
 21
271.407994
 31
0.0
  0
SOLID
  5
252
330
24C
100
AcDbEntity
  8
0
 62
    95
100
AcDbTrace
 10
192.687618
 20
306.407994
 30
0.0
 11
191.520952
 21
306.407994
 31
0.0
 12
192.104285
 22
309.907994
 32
0.0
 13
192.104285
 23
309.907994
 33
0.0
  0
SOLID
  5
253
330
24C
100
AcDbEntity
  8
0
 62
    95
100
AcDbTrace
 10
191.520952
 20
271.407994
 30
0.0
 11
192.687618
 21
271.407994
 31
0.0
 12
192.104285
 22
267.907994
 32
0.0
 13
192.104285
 23
267.907994
 33
0.0
  0
MTEXT
  5
254
330
24C
100
AcDbEntity
  8
0
 62
    95
370
    13
100
AcDbMText
 10
186.854285
 20
288.907994
 30
0.0
 40
3.5
 41
0.0
 71
     5
 72
     1
  1
\A1;42
  7
cesky
 11
0.0
 21
1.0
 31
0.0
 73
     1
 44
1.0
  0
POINT
  5
255
330
24C
100
AcDbEntity
  8
Defpoints
 62
     0
100
AcDbPoint
 10
277.154842
 20
309.907994
 30
0.0
  0
POINT
  5
256
330
24C
100
AcDbEntity
  8
Defpoints
 62
     0
100
AcDbPoint
 10
277.154842
 20
267.907994
 30
0.0
  0
POINT
  5
257
330
24C
100
AcDbEntity
  8
Defpoints
 62
     0
100
AcDbPoint
 10
192.104285
 20
267.907994
 30
0.0
  0
ENDBLK
  5
24E
330
24C
100
AcDbEntity
  8
0
100
AcDbBlockEnd
  0
BLOCK
  5
260
330
258
100
AcDbEntity
  8
0
100
AcDbBlockBegin
  2
_U3
 70
     0
 10
0.0
 20
0.0
 30
0.0
  3
_U3
  1

  0
ENDBLK
  5
261
330
258
100
AcDbEntity
  8
0
100
AcDbBlockEnd
  0
BLOCK
  5
266
330
265
100
AcDbEntity
  8
0
100
AcDbBlockBegin
  2
*D10
 70
     1
 10
0.0
 20
0.0
 30
0.0
  3
*D10
  1

  0
LINE
  5
268
330
265
100
AcDbEntity
  8
0
 62
   254
370
    -2
100
AcDbLine
 10
427.4048419999999
 20
306.907994
 30
0.0
 11
427.4048419999999
 21
338.155501
 31
0.0
  0
LINE
  5
269
330
265
100
AcDbEntity
  8
0
 62
   254
370
    -2
100
AcDbLine
 10
214.404842
 20
302.907994
 30
0.0
 11
214.404842
 21
338.155501
 31
0.0
  0
LINE
  5
26A
330
265
100
AcDbEntity
  8
0
 62
   254
370
    -2
100
AcDbLine
 10
423.9048419999999
 20
337.155501
 30
0.0
 11
217.904842
 21
337.155501
 31
0.0
  0
SOLID
  5
26B
330
265
100
AcDbEntity
  8
0
 62
   254
100
AcDbTrace
 10
423.9048419999999
 20
336.572167
 30
0.0
 11
423.9048419999999
 21
337.738834
 31
0.0
 12
427.4048419999999
 22
337.155501
 32
0.0
 13
427.4048419999999
 23
337.155501
 33
0.0
  0
SOLID
  5
26C
330
265
100
AcDbEntity
  8
0
 62
   254
100
AcDbTrace
 10
217.904842
 20
337.738834
 30
0.0
 11
217.904842
 21
336.572167
 31
0.0
 12
214.404842
 22
337.155501
 32
0.0
 13
214.404842
 23
337.155501
 33
0.0
  0
MTEXT
  5
26D
330
265
100
AcDbEntity
  8
0
 62
   254
370
    13
100
AcDbMText
 10
320.904842
 20
342.405501
 30
0.0
 40
3.5
 41
0.0
 71
     5
 72
     1
  1
\A1;213
  7
cesky
 73
     1
 44
1.0
  0
POINT
  5
26E
330
265
100
AcDbEntity
  8
Defpoints
 62
     0
100
AcDbPoint
 10
427.4048419999999
 20
306.907994
 30
0.0
  0
POINT
  5
26F
330
265
100
AcDbEntity
  8
Defpoints
 62
     0
100
AcDbPoint
 10
214.404842
 20
302.907994
 30
0.0
  0
POINT
  5
270
330
265
100
AcDbEntity
  8
Defpoints
 62
     0
100
AcDbPoint
 10
214.404842
 20
337.155501
 30
0.0
  0
ENDBLK
  5
267
330
265
100
AcDbEntity
  8
0
100
AcDbBlockEnd
  0
BLOCK
  5
278
330
271
100
AcDbEntity
  8
0
100
AcDbBlockBegin
  2
_U4
 70
     0
 10
0.0
 20
0.0
 30
0.0
  3
_U4
  1

  0
ENDBLK
  5
279
330
271
100
AcDbEntity
  8
0
100
AcDbBlockEnd
  0
BLOCK
  5
27E
330
27D
100
AcDbEntity
  8
0
100
AcDbBlockBegin
  2
*D12
 70
     1
 10
0.0
 20
0.0
 30
0.0
  3
*D12
  1

  0
LINE
  5
280
330
27D
100
AcDbEntity
  8
0
 62
   254
370
    -2
100
AcDbLine
 10
274.404842
 20
288.907994
 30
0.0
 11
274.404842
 21
323.882273
 31
0.0
  0
LINE
  5
281
330
27D
100
AcDbEntity
  8
0
 62
   254
370
    -2
100
AcDbLine
 10
214.404842
 20
295.907994
 30
0.0
 11
214.404842
 21
323.882273
 31
0.0
  0
LINE
  5
282
330
27D
100
AcDbEntity
  8
0
 62
   254
370
    -2
100
AcDbLine
 10
270.904842
 20
322.882273
 30
0.0
 11
217.904842
 21
322.882273
 31
0.0
  0
SOLID
  5
283
330
27D
100
AcDbEntity
  8
0
 62
   254
100
AcDbTrace
 10
270.904842
 20
322.29894
 30
0.0
 11
270.904842
 21
323.465606
 31
0.0
 12
274.404842
 22
322.882273
 32
0.0
 13
274.404842
 23
322.882273
 33
0.0
  0
SOLID
  5
284
330
27D
100
AcDbEntity
  8
0
 62
   254
100
AcDbTrace
 10
217.904842
 20
323.465606
 30
0.0
 11
217.904842
 21
322.29894
 31
0.0
 12
214.404842
 22
322.882273
 32
0.0
 13
214.404842
 23
322.882273
 33
0.0
  0
MTEXT
  5
285
330
27D
100
AcDbEntity
  8
0
 62
   254
370
    13
100
AcDbMText
 10
244.404842
 20
328.132273
 30
0.0
 40
3.5
 41
0.0
 71
     5
 72
     1
  1
\A1;60
  7
cesky
 73
     1
 44
1.0
  0
POINT
  5
286
330
27D
100
AcDbEntity
  8
Defpoints
 62
     0
100
AcDbPoint
 10
274.404842
 20
288.907994
 30
0.0
  0
POINT
  5
287
330
27D
100
AcDbEntity
  8
Defpoints
 62
     0
100
AcDbPoint
 10
214.404842
 20
295.907994
 30
0.0
  0
POINT
  5
288
330
27D
100
AcDbEntity
  8
Defpoints
 62
     0
100
AcDbPoint
 10
214.404842
 20
322.882273
 30
0.0
  0
ENDBLK
  5
27F
330
27D
100
AcDbEntity
  8
0
100
AcDbBlockEnd
  0
BLOCK
  5
290
330
289
100
AcDbEntity
  8
0
100
AcDbBlockBegin
  2
_U5
 70
     0
 10
0.0
 20
0.0
 30
0.0
  3
_U5
  1

  0
ENDBLK
  5
291
330
289
100
AcDbEntity
  8
0
100
AcDbBlockEnd
  0
BLOCK
  5
296
330
295
100
AcDbEntity
  8
0
100
AcDbBlockBegin
  2
*D14
 70
     1
 10
0.0
 20
0.0
 30
0.0
  3
*D14
  1

  0
LINE
  5
298
330
295
100
AcDbEntity
  8
0
 62
   254
370
    -2
100
AcDbLine
 10
427.4048419999999
 20
304.907994
 30
0.0
 11
427.4048419999999
 21
312.992954
 31
0.0
  0
LINE
  5
299
330
295
100
AcDbEntity
  8
0
 62
   254
370
    -2
100
AcDbLine
 10
290.908791
 20
304.684579
 30
0.0
 11
290.908791
 21
312.992954
 31
0.0
  0
LINE
  5
29A
330
295
100
AcDbEntity
  8
0
 62
   254
370
    -2
100
AcDbLine
 10
423.9048419999999
 20
311.992954
 30
0.0
 11
294.408791
 21
311.992954
 31
0.0
  0
SOLID
  5
29B
330
295
100
AcDbEntity
  8
0
 62
   254
100
AcDbTrace
 10
423.9048419999999
 20
311.409621
 30
0.0
 11
423.9048419999999
 21
312.576287
 31
0.0
 12
427.4048419999999
 22
311.992954
 32
0.0
 13
427.4048419999999
 23
311.992954
 33
0.0
  0
SOLID
  5
29C
330
295
100
AcDbEntity
  8
0
 62
   254
100
AcDbTrace
 10
294.408791
 20
312.576287
 30
0.0
 11
294.408791
 21
311.409621
 31
0.0
 12
290.908791
 22
311.992954
 32
0.0
 13
290.908791
 23
311.992954
 33
0.0
  0
MTEXT
  5
29D
330
295
100
AcDbEntity
  8
0
 62
   254
370
    13
100
AcDbMText
 10
359.156816
 20
317.242954
 30
0.0
 40
3.5
 41
0.0
 71
     5
 72
     1
  1
\A1;136.5
  7
cesky
 73
     1
 44
1.0
  0
POINT
  5
29E
330
295
100
AcDbEntity
  8
Defpoints
 62
     0
100
AcDbPoint
 10
427.4048419999999
 20
304.907994
 30
0.0
  0
POINT
  5
29F
330
295
100
AcDbEntity
  8
Defpoints
 62
     0
100
AcDbPoint
 10
290.908791
 20
304.684579
 30
0.0
  0
POINT
  5
2A0
330
295
100
AcDbEntity
  8
Defpoints
 62
     0
100
AcDbPoint
 10
290.908791
 20
311.992954
 30
0.0
  0
ENDBLK
  5
297
330
295
100
AcDbEntity
  8
0
100
AcDbBlockEnd
  0
BLOCK
  5
2A8
330
2A1
100
AcDbEntity
  8
0
100
AcDbBlockBegin
  2
_U6
 70
     0
 10
0.0
 20
0.0
 30
0.0
  3
_U6
  1

  0
ENDBLK
  5
2A9
330
2A1
100
AcDbEntity
  8
0
100
AcDbBlockEnd
  0
ENDSEC
  0
SECTION
  2
ENTITIES
  0
POINT
  5
73
102
{ACAD_REACTORS
330
355
102
}
330
1F
100
AcDbEntity
  8
80
100
AcDbPoint
 10
274.404842
 20
288.907994
 30
0.0
  0
POINT
  5
76
330
1F
100
AcDbEntity
  8
4
 60
     1
100
AcDbPoint
 10
290.703832
 20
288.907994
 30
0.0
  0
POINT
  5
78
330
1F
100
AcDbEntity
  8
4
 60
     1
100
AcDbPoint
 10
426.914645
 20
288.907994
 30
0.0
  0
POINT
  5
79
330
1F
100
AcDbEntity
  8
SK4
 60
     1
100
AcDbPoint
 10
216.404842
 20
288.907994
 30
0.0
  0
POINT
  5
7A
330
1F
100
AcDbEntity
  8
SK4
 60
     1
100
AcDbPoint
 10
274.404842
 20
288.907994
 30
0.0
  0
POINT
  5
7B
330
1F
100
AcDbEntity
  8
SK6
 60
     1
100
AcDbPoint
 10
274.404842
 20
288.907994
 30
0.0
  0
POINT
  5
7C
330
1F
100
AcDbEntity
  8
SK6
 60
     1
100
AcDbPoint
 10
290.908791
 20
304.684579
 30
0.0
  0
LINE
  5
7D
330
1F
100
AcDbEntity
  8
1
100
AcDbLine
 10
423.296494
 20
300.482434
 30
0.0
 11
423.3274759999999
 21
300.588845
 31
0.0
  0
LINE
  5
7F
330
1F
100
AcDbEntity
  8
1
100
AcDbLine
 10
421.373779
 20
298.494325
 30
0.0
 11
421.343025
 21
298.3887
 31
0.0
  0
LINE
  5
80
330
1F
100
AcDbEntity
  8
1
100
AcDbLine
 10
414.985634
 20
294.474424
 30
0.0
 11
414.989757
 21
294.488582
 31
0.0
  0
LINE
  5
82
330
1F
100
AcDbEntity
  8
1
100
AcDbLine
 10
426.682658
 20
290.047775
 30
0.0
 11
426.1907579999999
 21
289.572752
 31
0.0
  0
LINE
  5
84
330
1F
100
AcDbEntity
  8
1
100
AcDbLine
 10
426.122838
 20
289.507163
 30
0.0
 11
426.1907579999999
 21
289.572752
 31
0.0
  0
LINE
  5
85
330
1F
100
AcDbEntity
  8
1
100
AcDbLine
 10
427.3880619999999
 20
288.77519
 30
0.0
 11
426.724553
 21
288.609759
 31
0.0
  0
LINE
  5
86
330
1F
100
AcDbEntity
  8
1
100
AcDbLine
 10
426.117037
 20
288.458288
 30
0.0
 11
426.724553
 21
288.609759
 31
0.0
  0
LINE
  5
87
330
1F
100
AcDbEntity
  8
1
100
AcDbLine
 10
425.9548559999999
 20
281.649853
 30
0.0
 11
426.5998399999999
 21
281.464907
 31
0.0
  0
LINE
  5
88
330
1F
100
AcDbEntity
  8
1
100
AcDbLine
 10
426.5998399999999
 20
281.464907
 30
0.0
 11
427.264067
 21
281.274443
 31
0.0
  0
LINE
  5
89
330
1F
100
AcDbEntity
  8
1
100
AcDbLine
 10
425.862191
 20
280.69776
 30
0.0
 11
426.032761
 21
280.52113
 31
0.0
  0
LINE
  5
8A
330
1F
100
AcDbEntity
  8
1
100
AcDbLine
 10
426.507783
 20
280.02923
 30
0.0
 11
426.032761
 21
280.52113
 31
0.0
  0
LINE
  5
8D
330
1F
100
AcDbEntity
  8
1
100
AcDbLine
 10
427.359382
 20
288.846592
 30
0.0
 11
426.728011
 21
289.985615
 31
0.0
  0
LINE
  5
8E
330
1F
100
AcDbEntity
  8
1
100
AcDbLine
 10
427.399861
 20
288.479483
 30
0.0
 11
427.275424
 21
281.350477
 31
0.0
  0
LINE
  5
8F
330
1F
100
AcDbEntity
  8
1
100
AcDbLine
 10
427.399861
 20
288.479483
 30
0.0
 11
427.3982219999999
 21
288.699171
 31
0.0
  0
LINE
  5
90
330
1F
100
AcDbEntity
  8
1
100
AcDbLine
 10
426.556683
 20
280.088314
 30
0.0
 11
426.67449
 21
280.273751
 31
0.0
  0
LINE
  5
91
330
1F
100
AcDbEntity
  8
1
100
AcDbLine
 10
427.2334059999999
 20
281.203944
 30
0.0
 11
426.67449
 21
280.273751
 31
0.0
  0
LINE
  5
92
330
1F
100
AcDbEntity
  8
1
100
AcDbLine
 10
426.623573
 20
290.096675
 30
0.0
 11
426.438136
 21
290.214481
 31
0.0
  0
LINE
  5
93
330
1F
100
AcDbEntity
  8
1
100
AcDbLine
 10
426.1827539999999
 20
290.36793
 30
0.0
 11
426.438136
 21
290.214481
 31
0.0
  0
LINE
  5
94
330
1F
100
AcDbEntity
  8
1
100
AcDbLine
 10
425.7907209999999
 20
279.620858
 30
0.0
 11
426.445624
 21
279.983876
 31
0.0
  0
LINE
  5
95
330
1F
100
AcDbEntity
  8
1
100
AcDbLine
 10
274.404842
 20
309.407994
 30
0.0
 11
274.404842
 21
288.907994
 31
0.0
  0
LINE
  5
96
330
1F
100
AcDbEntity
  8
1
100
AcDbLine
 10
274.404842
 20
288.907994
 30
0.0
 11
274.404842
 21
268.407994
 31
0.0
  0
LINE
  5
97
330
1F
100
AcDbEntity
  8
1
100
AcDbLine
 10
417.5618919999999
 20
304.29721
 30
0.0
 11
417.558093
 21
304.407097
 31
0.0
  0
LINE
  5
98
330
1F
100
AcDbEntity
  8
1
100
AcDbLine
 10
420.254055
 20
294.867003
 30
0.0
 11
426.4900909999999
 21
295.084421
 31
0.0
  0
LINE
  5
99
330
1F
100
AcDbEntity
  8
1
100
AcDbLine
 10
426.694842
 20
290.99217
 30
0.0
 11
426.694842
 21
291.092185
 31
0.0
  0
LINE
  5
9A
330
1F
100
AcDbEntity
  8
1
100
AcDbLine
 10
426.4913349999999
 20
294.936623
 30
0.0
 11
426.4900909999999
 21
295.084421
 31
0.0
  0
LINE
  5
9B
330
1F
100
AcDbEntity
  8
1
100
AcDbLine
 10
417.332735
 20
303.904398
 30
0.0
 11
417.318015
 21
304.330204
 31
0.0
  0
LINE
  5
9C
330
1F
100
AcDbEntity
  8
1
100
AcDbLine
 10
426.4110379999999
 20
294.398593
 30
0.0
 11
418.46784
 21
294.121656
 31
0.0
  0
LINE
  5
9D
330
1F
100
AcDbEntity
  8
1
100
AcDbLine
 10
426.4110379999999
 20
294.398593
 30
0.0
 11
424.542619
 21
291.302922
 31
0.0
  0
LINE
  5
9E
330
1F
100
AcDbEntity
  8
1
100
AcDbLine
 10
425.989678
 20
279.577912
 30
0.0
 11
425.813908
 21
279.580724
 31
0.0
  0
LINE
  5
9F
330
1F
100
AcDbEntity
  8
1
100
AcDbLine
 10
425.7967419999999
 20
280.081063
 30
0.0
 11
426.122841
 21
283.153494
 31
0.0
  0
LINE
  5
A0
330
1F
100
AcDbEntity
  8
1
100
AcDbLine
 10
426.122841
 20
283.153494
 30
0.0
 11
426.122841
 21
289.874346
 31
0.0
  0
LINE
  5
A1
330
1F
100
AcDbEntity
  8
1
100
AcDbLine
 10
426.193111
 20
290.373196
 30
0.0
 11
426.36918
 21
290.370122
 31
0.0
  0
LINE
  5
A2
330
1F
100
AcDbEntity
  8
1
100
AcDbLine
 10
279.404842
 20
267.907994
 30
0.0
 11
279.404842
 21
271.913267
 31
0.0
  0
LINE
  5
A3
330
1F
100
AcDbEntity
  8
1
100
AcDbLine
 10
279.404842
 20
309.907994
 30
0.0
 11
279.404842
 21
279.770341
 31
0.0
  0
LINE
  5
A4
330
1F
100
AcDbEntity
  8
1
100
AcDbLine
 10
426.4110379999999
 20
294.398593
 30
0.0
 11
426.4255709999999
 21
294.405258
 31
0.0
  0
LINE
  5
A5
330
1F
100
AcDbEntity
  8
1
100
AcDbLine
 10
426.828606
 20
304.043872
 30
0.0
 11
427.1153749999999
 21
296.084008
 31
0.0
  0
LINE
  5
A6
330
1F
100
AcDbEntity
  8
1
100
AcDbLine
 10
418.055789
 20
304.510099
 30
0.0
 11
426.028465
 21
304.788063
 31
0.0
  0
LINE
  5
A7
330
1F
100
AcDbEntity
  8
1
100
AcDbLine
 10
417.597979
 20
295.752187
 30
0.0
 11
417.3112099999999
 21
303.712052
 31
0.0
  0
LINE
  5
A8
330
1F
100
AcDbEntity
  8
1
100
AcDbLine
 10
426.3707959999999
 20
295.285961
 30
0.0
 11
418.3981199999999
 21
295.007996
 31
0.0
  0
LINE
  5
A9
330
1F
100
AcDbEntity
  8
1
100
AcDbLine
 10
418.587679
 20
303.258701
 30
0.0
 11
425.5820909999999
 21
303.502559
 31
0.0
  0
LINE
  5
AA
330
1F
100
AcDbEntity
  8
1
100
AcDbLine
 10
418.8392609999999
 20
296.275529
 30
0.0
 11
418.587679
 21
303.258701
 31
0.0
  0
LINE
  5
AB
330
1F
100
AcDbEntity
  8
1
100
AcDbLine
 10
425.833673
 20
296.519387
 30
0.0
 11
418.8392609999999
 21
296.275529
 31
0.0
  0
LINE
  5
AC
330
1F
100
AcDbEntity
  8
1
100
AcDbLine
 10
425.5820909999999
 20
303.502559
 30
0.0
 11
425.833673
 21
296.519387
 31
0.0
  0
LINE
  5
AD
330
1F
100
AcDbEntity
  8
1
100
AcDbLine
 10
422.101446
 20
298.202742
 30
0.0
 11
422.1321239999999
 21
298.308107
 31
0.0
  0
LINE
  5
AE
330
1F
100
AcDbEntity
  8
1
100
AcDbLine
 10
421.2586449999999
 20
300.9573
 30
0.0
 11
421.2895919999999
 21
301.063589
 31
0.0
  0
LINE
  5
AF
330
1F
100
AcDbEntity
  8
1
100
AcDbLine
 10
420.524182
 20
299.774579
 30
0.0
 11
420.493754
 21
299.670072
 31
0.0
  0
LINE
  5
B0
330
1F
100
AcDbEntity
  8
1
100
AcDbLine
 10
420.5932309999999
 20
299.764636
 30
0.0
 11
420.5623659999999
 21
299.658631
 31
0.0
  0
LINE
  5
B1
330
1F
100
AcDbEntity
  8
1
100
AcDbLine
 10
423.4279309999999
 20
298.99473
 30
0.0
 11
423.4583409999999
 21
299.099172
 31
0.0
  0
LINE
  5
B2
330
1F
100
AcDbEntity
  8
1
100
AcDbLine
 10
423.357101
 20
299.014631
 30
0.0
 11
423.387971
 21
299.120654
 31
0.0
  0
LINE
  5
B3
330
1F
100
AcDbEntity
  8
1
100
AcDbLine
 10
422.0999099999999
 20
298.219558
 30
0.0
 11
422.1307
 21
298.325308
 31
0.0
  0
LINE
  5
B4
330
1F
100
AcDbEntity
  8
1
100
AcDbLine
 10
410.902117
 20
296.309605
 30
0.0
 11
411.730897
 21
295.832184
 31
0.0
  0
LINE
  5
B5
330
1F
100
AcDbEntity
  8
1
100
AcDbLine
 10
414.9585379999999
 20
291.887884
 30
0.0
 11
414.9725169999999
 21
291.479325
 31
0.0
  0
LINE
  5
B6
330
1F
100
AcDbEntity
  8
1
100
AcDbLine
 10
424.946334
 20
294.383333
 30
0.0
 11
418.4598259999999
 21
294.157183
 31
0.0
  0
LINE
  5
B7
330
1F
100
AcDbEntity
  8
1
100
AcDbLine
 10
284.904842
 20
304.165266
 30
0.0
 11
284.904842
 21
286.20203
 31
0.0
  0
LINE
  5
B8
330
1F
100
AcDbEntity
  8
1
100
AcDbLine
 10
423.3624849999999
 20
300.621198
 30
0.0
 11
423.357264
 21
300.617806
 31
0.0
  0
LINE
  5
B9
330
1F
100
AcDbEntity
  8
1
100
AcDbLine
 10
426.53207
 20
295.103673
 30
0.0
 11
420.259287
 21
294.884975
 31
0.0
  0
LINE
  5
BA
330
1F
100
AcDbEntity
  8
1
100
AcDbLine
 10
420.254055
 20
294.867003
 30
0.0
 11
420.259287
 21
294.884975
 31
0.0
  0
LINE
  5
BB
330
1F
100
AcDbEntity
  8
1
100
AcDbLine
 10
426.36918
 20
290.370122
 30
0.0
 11
426.6526799999999
 21
290.754295
 31
0.0
  0
LINE
  5
BC
330
1F
100
AcDbEntity
  8
1
100
AcDbLine
 10
426.6526799999999
 20
290.992906
 30
0.0
 11
426.6526799999999
 21
290.754295
 31
0.0
  0
LINE
  5
BD
330
1F
100
AcDbEntity
  8
1
100
AcDbLine
 10
426.6526799999999
 20
290.992906
 30
0.0
 11
426.694842
 21
290.99217
 31
0.0
  0
LINE
  5
BE
330
1F
100
AcDbEntity
  8
1
100
AcDbLine
 10
426.694842
 20
295.382217
 30
0.0
 11
426.694842
 21
291.092185
 31
0.0
  0
LINE
  5
BF
330
1F
100
AcDbEntity
  8
1
100
AcDbLine
 10
426.53207
 20
295.103673
 30
0.0
 11
426.530186
 21
295.327611
 31
0.0
  0
LINE
  5
C0
330
1F
100
AcDbEntity
  8
1
100
AcDbLine
 10
426.53207
 20
295.103673
 30
0.0
 11
426.4900909999999
 21
295.084421
 31
0.0
  0
LINE
  5
C1
330
1F
100
AcDbEntity
  8
1
100
AcDbLine
 10
425.6604819999999
 20
273.407994
 30
0.0
 11
426.248277
 21
278.946057
 31
0.0
  0
LINE
  5
C2
330
1F
100
AcDbEntity
  8
1
100
AcDbLine
 10
426.248277
 20
278.946057
 30
0.0
 11
426.2061860000001
 21
278.94673
 31
0.0
  0
LINE
  5
C3
330
1F
100
AcDbEntity
  8
1
100
AcDbLine
 10
426.2314679999999
 20
279.184931
 30
0.0
 11
426.2061860000001
 21
278.94673
 31
0.0
  0
LINE
  5
C4
330
1F
100
AcDbEntity
  8
1
100
AcDbLine
 10
426.2314679999999
 20
279.184931
 30
0.0
 11
425.989678
 21
279.577912
 31
0.0
  0
LINE
  5
C5
330
1F
100
AcDbEntity
  8
1
100
AcDbLine
 10
424.672149
 20
283.153494
 30
0.0
 11
426.122841
 21
283.153494
 31
0.0
  0
LINE
  5
C6
330
1F
100
AcDbEntity
  8
SK1
100
AcDbLine
 10
216.404842
 20
304.907994
 30
0.0
 11
216.404842
 21
272.907994
 31
0.0
  0
LINE
  5
C7
330
1F
100
AcDbEntity
  8
SK1
100
AcDbLine
 10
214.404842
 20
302.907994
 30
0.0
 11
214.404842
 21
274.907994
 31
0.0
  0
LINE
  5
C8
330
1F
100
AcDbEntity
  8
1
100
AcDbLine
 10
417.326507
 20
297.59451
 30
0.0
 11
417.321275
 21
297.576539
 31
0.0
  0
LINE
  5
C9
330
1F
100
AcDbEntity
  8
1
100
AcDbLine
 10
417.326507
 20
297.59451
 30
0.0
 11
417.0936479999999
 21
304.330595
 31
0.0
  0
LINE
  5
CA
330
1F
100
AcDbEntity
  8
1
100
AcDbLine
 10
417.0889309999999
 20
304.297725
 30
0.0
 11
417.321275
 21
297.576539
 31
0.0
  0
LINE
  5
CB
330
1F
100
AcDbEntity
  8
1
100
AcDbLine
 10
425.6604819999999
 20
273.407994
 30
0.0
 11
401.843077
 21
273.407994
 31
0.0
  0
LINE
  5
CC
330
1F
100
AcDbEntity
  8
1
100
AcDbLine
 10
274.904842
 20
267.907994
 30
0.0
 11
274.904842
 21
288.907994
 31
0.0
  0
LINE
  5
CD
330
1F
100
AcDbEntity
  8
1
100
AcDbLine
 10
274.904842
 20
288.907994
 30
0.0
 11
274.904842
 21
309.907994
 31
0.0
  0
LINE
  5
CE
330
1F
100
AcDbEntity
  8
1
100
AcDbLine
 10
419.4327259999999
 20
300.572157
 30
0.0
 11
419.412274
 21
300.501914
 31
0.0
  0
LINE
  5
CF
330
1F
100
AcDbEntity
  8
1
100
AcDbLine
 10
424.692991
 20
298.964374
 30
0.0
 11
424.713443
 21
299.034617
 31
0.0
  0
LINE
  5
D0
330
1F
100
AcDbEntity
  8
1
100
AcDbLine
 10
279.404842
 20
267.907994
 30
0.0
 11
280.804337
 21
269.307488
 31
0.0
  0
LINE
  5
D1
330
1F
100
AcDbEntity
  8
1
100
AcDbLine
 10
280.804337
 20
308.508499
 30
0.0
 11
279.404842
 21
309.907994
 31
0.0
  0
LINE
  5
D2
330
1F
100
AcDbEntity
  8
SK1
100
AcDbLine
 10
214.404842
 20
274.907994
 30
0.0
 11
216.404842
 21
272.907994
 31
0.0
  0
LINE
  5
D3
330
1F
100
AcDbEntity
  8
SK1
100
AcDbLine
 10
216.404842
 20
304.907994
 30
0.0
 11
214.404842
 21
302.907994
 31
0.0
  0
LINE
  5
D4
330
1F
100
AcDbEntity
  8
SK1
100
AcDbLine
 10
274.404842
 20
304.907994
 30
0.0
 11
216.404842
 21
304.907994
 31
0.0
  0
LINE
  5
D5
330
1F
100
AcDbEntity
  8
1
100
AcDbLine
 10
274.904842
 20
267.907994
 30
0.0
 11
274.404842
 21
268.407994
 31
0.0
  0
LINE
  5
D6
330
1F
100
AcDbEntity
  8
1
100
AcDbLine
 10
274.404842
 20
309.407994
 30
0.0
 11
274.904842
 21
309.907994
 31
0.0
  0
LINE
  5
D7
330
1F
100
AcDbEntity
  8
1
100
AcDbLine
 10
279.404842
 20
309.907994
 30
0.0
 11
274.904842
 21
309.907994
 31
0.0
  0
LINE
  5
DA
330
1F
100
AcDbEntity
  8
80
100
AcDbLine
 10
275.404416
 20
288.907994
 30
0.0
 11
273.405268
 21
288.907994
 31
0.0
  0
LINE
  5
DB
330
1F
100
AcDbEntity
  8
1
100
AcDbLine
 10
426.734349
 20
288.533649
 30
0.0
 11
426.612285
 21
281.540629
 31
0.0
  0
LINE
  5
DC
330
1F
100
AcDbEntity
  8
1
100
AcDbLine
 10
426.237296
 20
289.511736
 30
0.0
 11
426.69747
 21
288.681559
 31
0.0
  0
LINE
  5
DD
330
1F
100
AcDbEntity
  8
1
100
AcDbLine
 10
426.1228349999999
 20
289.62654
 30
0.0
 11
426.131403
 21
289.621391
 31
0.0
  0
LINE
  5
DE
330
1F
100
AcDbEntity
  8
1
100
AcDbLine
 10
426.570267
 20
281.394096
 30
0.0
 11
426.0813999999999
 21
280.580484
 31
0.0
  0
LINE
  5
DF
330
1F
100
AcDbEntity
  8
1
100
AcDbLine
 10
425.971745
 20
280.474592
 30
0.0
 11
425.830174
 21
280.396117
 31
0.0
  0
LINE
  5
E0
330
1F
100
AcDbEntity
  8
1
100
AcDbLine
 10
290.703832
 20
273.407994
 30
0.0
 11
303.0438220000001
 21
273.407994
 31
0.0
  0
LINE
  5
E1
330
1F
100
AcDbEntity
  8
1
100
AcDbLine
 10
417.534572
 20
304.407994
 30
0.0
 11
405.6369749999999
 21
304.407994
 31
0.0
  0
LINE
  5
E2
330
1F
100
AcDbEntity
  8
1
100
AcDbLine
 10
303.463126
 20
304.407994
 30
0.0
 11
290.703832
 21
304.407994
 31
0.0
  0
LINE
  5
E3
330
1F
100
AcDbEntity
  8
1
100
AcDbLine
 10
420.8161549999999
 20
298.99361
 30
0.0
 11
420.847361
 21
299.100788
 31
0.0
  0
LINE
  5
E4
330
1F
100
AcDbEntity
  8
1
100
AcDbLine
 10
422.8857269999999
 20
298.702127
 30
0.0
 11
422.8542559999999
 21
298.594037
 31
0.0
  0
LINE
  5
E5
330
1F
100
AcDbEntity
  8
1
100
AcDbLine
 10
421.2395879999999
 20
300.833024
 30
0.0
 11
421.2710589999999
 21
300.941113
 31
0.0
  0
LINE
  5
E6
330
1F
100
AcDbEntity
  8
1
100
AcDbLine
 10
423.308894
 20
300.540629
 30
0.0
 11
423.277688
 21
300.433451
 31
0.0
  0
LINE
  5
E7
330
1F
100
AcDbEntity
  8
80
100
AcDbLine
 10
274.404842
 20
287.90842
 30
0.0
 11
274.404842
 21
289.907567
 31
0.0
  0
LINE
  5
E8
330
1F
100
AcDbEntity
  8
81
100
AcDbLine
 10
427.4048419999999
 20
306.907994
 30
0.0
 11
427.4048419999999
 21
302.907994
 31
0.0
  0
LINE
  5
E9
330
1F
100
AcDbEntity
  8
81
100
AcDbLine
 10
425.404842
 20
304.907994
 30
0.0
 11
429.404842
 21
304.907994
 31
0.0
  0
LINE
  5
EA
330
1F
100
AcDbEntity
  8
SK1
100
AcDbLine
 10
216.404842
 20
272.907994
 30
0.0
 11
274.404842
 21
272.907994
 31
0.0
  0
LINE
  5
EB
330
1F
100
AcDbEntity
  8
1
100
AcDbLine
 10
274.904842
 20
267.907994
 30
0.0
 11
279.404842
 21
267.907994
 31
0.0
  0
LINE
  5
116
330
1F
100
AcDbEntity
  8
NOCUT
100
AcDbLine
 10
279.404842
 20
309.907994
 30
0.0
 11
280.804337
 21
308.508499
 31
0.0
  0
LINE
  5
117
330
1F
100
AcDbEntity
  8
NOCUT
100
AcDbLine
 10
426.385213
 20
304.407994
 30
0.0
 11
426.694842
 21
295.612658
 31
0.0
  0
LINE
  5
118
330
1F
100
AcDbEntity
  8
NOCUT
100
AcDbLine
 10
426.694842
 20
295.612658
 30
0.0
 11
426.694842
 21
288.907994
 31
0.0
  0
LINE
  5
119
330
1F
100
AcDbEntity
  8
NOCUT
100
AcDbLine
 10
426.694842
 20
288.907994
 30
0.0
 11
214.404842
 21
288.907994
 31
0.0
  0
LINE
  5
11A
330
1F
100
AcDbEntity
  8
NOCUT
100
AcDbLine
 10
290.703832
 20
304.407994
 30
0.0
 11
426.385213
 21
304.407994
 31
0.0
  0
LINE
  5
11B
330
1F
100
AcDbEntity
  8
NOCUT
100
AcDbLine
 10
274.404842
 20
304.907994
 30
0.0
 11
274.404842
 21
309.407994
 31
0.0
  0
LINE
  5
11C
330
1F
100
AcDbEntity
  8
NOCUT
100
AcDbLine
 10
274.404842
 20
309.407994
 30
0.0
 11
274.904842
 21
309.907994
 31
0.0
  0
LINE
  5
11D
330
1F
100
AcDbEntity
  8
NOCUT
100
AcDbLine
 10
214.404842
 20
302.907994
 30
0.0
 11
216.404842
 21
304.907994
 31
0.0
  0
LINE
  5
11E
330
1F
100
AcDbEntity
  8
NOCUT
100
AcDbLine
 10
279.404842
 20
309.907994
 30
0.0
 11
274.904842
 21
309.907994
 31
0.0
  0
LINE
  5
11F
330
1F
100
AcDbEntity
  8
NOCUT
100
AcDbLine
 10
214.404842
 20
302.907994
 30
0.0
 11
214.404842
 21
288.907994
 31
0.0
  0
LINE
  5
120
330
1F
100
AcDbEntity
  8
NOCUT
100
AcDbLine
 10
274.404842
 20
304.907994
 30
0.0
 11
216.404842
 21
304.907994
 31
0.0
  0
CIRCLE
  5
129
330
1F
100
AcDbEntity
  8
1
100
AcDbCircle
 10
421.418941
 20
285.29888
 30
0.0
 40
1.35
  0
ARC
  5
12A
330
1F
100
AcDbEntity
  8
1
100
AcDbCircle
 10
421.418941
 20
285.29888
 30
0.0
 40
1.75
100
AcDbArc
 50
75.0
 51
345.0
  0
ARC
  5
12B
330
1F
100
AcDbEntity
  8
1
100
AcDbCircle
 10
290.703832
 20
259.407994
 30
0.0
 40
14.0
100
AcDbArc
 50
90.0
 51
135.0
  0
ARC
  5
12C
330
1F
100
AcDbEntity
  8
1
100
AcDbCircle
 10
290.703832
 20
318.407994
 30
0.0
 40
14.0
100
AcDbArc
 50
225.0
 51
270.0
  0
ARC
  5
13B
330
1F
100
AcDbEntity
  8
NOCUT
100
AcDbCircle
 10
290.703832
 20
318.407994
 30
0.0
 40
14.0
100
AcDbArc
 50
225.0
 51
270.0
  0
ELLIPSE
  5
13C
330
1F
100
AcDbEntity
  8
1
100
AcDbEllipse
 10
426.4734269999999
 20
289.845723
 30
0.0
 11
0.1593661330702229
 21
-0.2546671896240316
 31
0.0
210
0.0
220
0.0
230
1.0
 40
0.9668320000000001
 41
1.515965208533689
 42
2.029724467138476
  0
ELLIPSE
  5
13D
330
1F
100
AcDbEntity
  8
1
100
AcDbEllipse
 10
427.105838
 20
288.704824
 30
0.0
 11
0.1315188414155248
 21
-0.2701031954645638
 31
0.0
210
0.0
220
0.0
230
1.0
 40
0.9668319999999999
 41
1.111868186173391
 42
1.625627444759925
  0
ELLIPSE
  5
13E
330
1F
100
AcDbEntity
  8
1
100
AcDbEllipse
 10
418.072692
 20
288.907994
 30
0.0
 11
0.5180727103623303
 21
-15.49999667485272
 31
0.0
210
0.0
220
0.0
230
1.0
 40
0.01946
 41
3.029632160978301
 42
3.130186059561048
  0
ELLIPSE
  5
13F
330
1F
100
AcDbEntity
  8
1
100
AcDbEllipse
 10
418.859503
 20
296.299285
 30
0.0
 11
1.920260608856771
 21
-0.5591057092116122
 31
0.0
210
0.0
220
0.0
230
1.0
 40
0.998052
 41
5.648680162846031
 42
5.766932522207532
  0
ELLIPSE
  5
140
330
1F
100
AcDbEntity
  8
1
100
AcDbEllipse
 10
417.940587
 20
288.907994
 30
0.0
 11
0.4142345836613901
 21
-15.49989018481322
 31
0.0
210
0.0
220
0.0
230
1.0
 40
0.140844
 41
3.12707242886998
 42
3.238057336754988
  0
ELLIPSE
  5
141
330
1F
100
AcDbEntity
  8
1
100
AcDbEllipse
 10
275.070399
 20
288.907988
 30
0.0
 11
404.3301360681134
 21
15.11548355338076
 31
0.0
210
0.0
220
0.0
230
1.0
 40
0.008486
 41
5.074893178789112
 42
5.090734870318586
  0
ELLIPSE
  5
142
330
1F
100
AcDbEntity
  8
1
100
AcDbEllipse
 10
425.8668929999999
 20
280.07994
 30
0.0
 11
0.0538770024364421
 21
0.4991611425138426
 31
0.0
210
0.0
220
0.0
230
0.9999999999999998
 40
0.139171
 41
1.583568179257774
 42
3.154364506041881
  0
ELLIPSE
  5
143
330
1F
100
AcDbEntity
  8
1
100
AcDbEllipse
 10
426.193111
 20
289.87312
 30
0.0
 11
0.0001758288822682
 21
-0.5000776676664155
 31
0.0
210
0.0
220
0.0
230
0.9999999999999998
 40
0.140519
 41
3.139090475969513
 42
4.709886802763101
  0
ELLIPSE
  5
144
330
1F
100
AcDbEntity
  8
1
100
AcDbEllipse
 10
315.916574
 20
288.907994
 30
0.0
 11
54.01133014139471
 21
-12.0968804617086
 31
0.0
210
0.0
220
0.0
230
1.0
 40
0.179425
 41
4.284626571309294
 42
4.455798740174882
  0
ELLIPSE
  5
145
330
1F
100
AcDbEntity
  8
1
100
AcDbEllipse
 10
418.864735
 20
296.317256
 30
0.0
 11
-1.920260608856768
 21
0.5591057092116241
 31
0.0
210
0.0
220
0.0
230
1.0
 40
0.998052
 41
2.625339868617743
 42
2.756391476033016
  0
ELLIPSE
  5
146
330
1F
100
AcDbEntity
  8
1
100
AcDbEllipse
 10
422.362398
 20
298.686866
 30
0.0
 11
-0.5769369382086539
 21
0.1679817492062051
 31
0.0
210
0.0
220
0.0
230
1.0
 40
0.998052
 41
1.519089511726914
 42
2.783619555957141
  0
ELLIPSE
  5
147
330
1F
100
AcDbEntity
  8
1
100
AcDbEllipse
 10
422.196438
 20
298.210345
 30
0.0
 11
-0.091517145892373
 21
0.0266462575564896
 31
0.0
210
0.0
220
0.0
230
0.9999999999999998
 40
0.9980519999999998
 41
0.3187588192480329
 42
1.519089511727168
  0
ELLIPSE
  5
148
330
1F
100
AcDbEntity
  8
1
100
AcDbEllipse
 10
422.005955
 20
298.203703
 30
0.0
 11
-0.091517145892373
 21
0.0266462575564896
 31
0.0
210
0.0
220
0.0
230
0.9999999999999998
 40
0.9980519999999998
 41
3.460351472837803
 42
4.137083389718323
  0
ELLIPSE
  5
149
330
1F
100
AcDbEntity
  8
1
100
AcDbEllipse
 10
421.6234889999999
 20
297.874117
 30
0.0
 11
-0.5769369382086537
 21
0.167981749206205
 31
0.0
210
0.0
220
0.0
230
1.0
 40
0.998052
 41
4.137083389718458
 42
5.401613433948608
  0
ELLIPSE
  5
14A
330
1F
100
AcDbEntity
  8
1
100
AcDbEllipse
 10
422.046922
 20
299.71353
 30
0.0
 11
1.728234547971096
 21
-0.5031951382904513
 31
0.0
210
0.0
220
0.0
230
1.0
 40
0.9980519999999998
 41
0.0
 42
6.283185307179585
  0
ELLIPSE
  5
14B
330
1F
100
AcDbEntity
  8
1
100
AcDbEllipse
 10
422.052632
 20
299.733144
 30
0.0
 11
2.640358337178061
 21
-0.7687703501659669
 31
0.0
210
0.0
220
0.0
230
1.0
 40
0.9980519999999998
 41
0.0
 42
6.283185307179585
  0
ELLIPSE
  5
14C
330
1F
100
AcDbEntity
  8
1
100
AcDbEllipse
 10
422.2333499999999
 20
299.96692
 30
0.0
 11
2.971847526405752
 21
-0.8652871965691595
 31
0.0
210
0.0
220
0.0
230
1.0
 40
0.998052
 41
2.153743577478738
 42
6.283185307179585
  0
ELLIPSE
  5
14D
330
1F
100
AcDbEntity
  8
1
100
AcDbEllipse
 10
422.2333499999999
 20
299.96692
 30
0.0
 11
2.971847526405752
 21
-0.8652871965691595
 31
0.0
210
0.0
220
0.0
230
1.0
 40
0.998052
 41
0.0
 42
0.9878197277554383
  0
ELLIPSE
  5
14E
330
1F
100
AcDbEntity
  8
1
100
AcDbEllipse
 10
418.317006
 20
295.680743
 30
0.0
 11
0.9632000774515464
 21
1.033992036092264
 31
0.0
210
0.0
220
0.0
230
1.0
 40
0.019879
 41
0.9765435779179272
 42
1.531354610976144
  0
ELLIPSE
  5
14F
330
1F
100
AcDbEntity
  8
1
100
AcDbEllipse
 10
422.213554
 20
299.8989279999999
 30
0.0
 11
3.028958793588649
 21
-0.8819157913520719
 31
0.0
210
0.0
220
0.0
230
0.9999999999999998
 40
0.998052
 41
0.0
 42
6.283185307179585
  0
ELLIPSE
  5
150
330
1F
100
AcDbEntity
  8
1
100
AcDbEllipse
 10
426.3641419999999
 20
295.961303
 30
0.0
 11
1.034591726838809
 21
-0.9637587105927158
 31
0.0
210
0.0
220
0.0
230
1.0
 40
0.039416
 41
1.59064952277305
 42
2.145460555148754
  0
ELLIPSE
  5
151
330
1F
100
AcDbEntity
  8
1
100
AcDbEllipse
 10
418.0275589999999
 20
303.714948
 30
0.0
 11
1.034591726011758
 21
-0.9637587097603208
 31
0.0
210
0.0
220
0.0
230
1.0
 40
0.039416
 41
1.035838489144186
 42
1.5906495219585
  0
ELLIPSE
  5
152
330
1F
100
AcDbEntity
  8
1
100
AcDbEllipse
 10
426.074695
 20
303.995508
 30
0.0
 11
0.9632000788993959
 21
1.033992037624817
 31
0.0
210
0.0
220
0.0
230
1.0
 40
0.019879
 41
1.531354611566051
 42
2.086165643820443
  0
ELLIPSE
  5
153
330
1F
100
AcDbEntity
  8
1
100
AcDbEllipse
 10
422.2106759999999
 20
299.889044
 30
0.0
 11
-3.120423489392254
 21
0.9085467774688908
 31
0.0
210
0.0
220
0.0
230
1.0
 40
0.998052
 41
0.0
 42
6.283185307179585
  0
ELLIPSE
  5
154
330
1F
100
AcDbEntity
  8
1
100
AcDbEllipse
 10
257.86929
 20
288.907994
 30
0.0
 11
54.01133013030537
 21
-12.09688045822474
 31
0.0
210
0.0
220
0.0
230
1.0
 40
0.179425
 41
5.40537351649898
 42
5.527743589385523
  0
ELLIPSE
  5
155
330
1F
100
AcDbEntity
  8
1
100
AcDbEllipse
 10
416.159808
 20
292.453025
 30
0.0
 11
-4.060941752349623
 21
-0.1596483254520842
 31
0.0
210
0.0
220
0.0
230
1.0
 40
0.22151
 41
2.190393131010379
 42
4.090536222824677
  0
ELLIPSE
  5
156
330
1F
100
AcDbEntity
  8
1
100
AcDbEllipse
 10
424.0907289999999
 20
288.907993
 30
0.0
 11
26.59278303874689
 21
-15.29171037225839
 31
0.0
210
0.0
220
0.0
230
0.9999999999999998
 40
0.095233
 41
4.257108365775101
 42
4.290571704445301
  0
ELLIPSE
  5
157
330
1F
100
AcDbEntity
  8
1
100
AcDbEllipse
 10
418.01395
 20
306.727136
 30
0.0
 11
-12.09764183579764
 21
3.522365968033233
 31
0.0
210
0.0
220
0.0
230
1.0
 40
0.998052
 41
1.331467778459241
 42
1.889001414642
  0
ELLIPSE
  5
158
330
1F
100
AcDbEntity
  8
1
100
AcDbEllipse
 10
422.0730839999999
 20
299.803387
 30
0.0
 11
-2.640358337178056
 21
0.7687703501659833
 31
0.0
210
0.0
220
0.0
230
1.0
 40
0.9980519999999998
 41
3.141676065826231
 42
6.28317036898507
  0
ELLIPSE
  5
159
330
1F
100
AcDbEntity
  8
1
100
AcDbEllipse
 10
421.4236539999999
 20
298.337885
 30
0.0
 11
-0.0915171458923711
 21
0.026646257556489
 31
0.0
210
0.0
220
0.0
230
1.0
 40
0.998052
 41
5.401613433948701
 42
6.078345350829181
  0
ELLIPSE
  5
15A
330
1F
100
AcDbEntity
  8
1
100
AcDbEllipse
 10
421.2552650000001
 20
298.427222
 30
0.0
 11
-0.0915171458923709
 21
0.0266462575564889
 31
0.0
210
0.0
220
0.0
230
1.0
 40
0.998052
 41
1.736422004760418
 42
2.936752697239667
  0
ELLIPSE
  5
15B
330
1F
100
AcDbEntity
  8
1
100
AcDbEllipse
 10
421.3143639999999
 20
298.928368
 30
0.0
 11
-0.5769369382086539
 21
0.1679817492062051
 31
0.0
210
0.0
220
0.0
230
1.0
 40
0.998052
 41
0.471891960530337
 42
1.736422004760566
  0
ELLIPSE
  5
15C
330
1F
100
AcDbEntity
  8
1
100
AcDbEllipse
 10
420.817874
 20
298.834028
 30
0.0
 11
-0.091517145892373
 21
0.0266462575564896
 31
0.0
210
0.0
220
0.0
230
0.9999999999999998
 40
0.9980519999999998
 41
5.554746575231003
 42
6.755077267709653
  0
ELLIPSE
  5
15D
330
1F
100
AcDbEntity
  8
1
100
AcDbEllipse
 10
420.716699
 20
298.995406
 30
0.0
 11
-0.091517145892373
 21
0.0266462575564896
 31
0.0
210
0.0
220
0.0
230
0.9999999999999998
 40
0.9980519999999998
 41
2.413153921641321
 42
3.089885838521861
  0
ELLIPSE
  5
15E
330
1F
100
AcDbEntity
  8
1
100
AcDbEllipse
 10
420.239218
 20
299.161592
 30
0.0
 11
-0.5769369382086537
 21
0.167981749206205
 31
0.0
210
0.0
220
0.0
230
1.0
 40
0.998052
 41
3.089885838521823
 42
4.354415882752043
  0
ELLIPSE
  5
15F
330
1F
100
AcDbEntity
  8
1
100
AcDbEllipse
 10
420.541416
 20
299.565834
 30
0.0
 11
-0.0915171458923711
 21
0.026646257556489
 31
0.0
210
0.0
220
0.0
230
1.0
 40
0.998052
 41
4.354415882752381
 42
5.031147799632751
  0
ELLIPSE
  5
160
330
1F
100
AcDbEntity
  8
1
100
AcDbEllipse
 10
420.534565
 20
299.75601
 30
0.0
 11
-0.0915171458923709
 21
0.0266462575564889
 31
0.0
210
0.0
220
0.0
230
1.0
 40
0.998052
 41
0.6892244535640993
 42
1.88955514604324
  0
ELLIPSE
  5
161
330
1F
100
AcDbEntity
  8
1
100
AcDbEllipse
 10
420.998888
 20
299.9550319999999
 30
0.0
 11
-0.5769369382086539
 21
0.1679817492062051
 31
0.0
210
0.0
220
0.0
230
1.0
 40
0.998052
 41
5.707879716513307
 42
6.972409760743527
  0
ELLIPSE
  5
162
330
1F
100
AcDbEntity
  8
1
100
AcDbEllipse
 10
420.6683579999999
 20
300.337214
 30
0.0
 11
-0.091517145892373
 21
0.0266462575564896
 31
0.0
210
0.0
220
0.0
230
0.9999999999999998
 40
0.9980519999999998
 41
4.507549024034193
 42
5.707879716513292
  0
ELLIPSE
  5
163
330
1F
100
AcDbEntity
  8
1
100
AcDbEllipse
 10
420.757665
 20
300.505233
 30
0.0
 11
-0.091517145892373
 21
0.0266462575564896
 31
0.0
210
0.0
220
0.0
230
0.9999999999999998
 40
0.9980519999999998
 41
1.365956370444123
 42
2.042688287325306
  0
ELLIPSE
  5
164
330
1F
100
AcDbEntity
  8
1
100
AcDbEllipse
 10
420.6626509999999
 20
301.001006
 30
0.0
 11
-0.5769369382086537
 21
0.167981749206205
 31
0.0
210
0.0
220
0.0
230
1.0
 40
0.998052
 41
2.042688287325217
 42
3.307218331555428
  0
ELLIPSE
  5
165
330
1F
100
AcDbEntity
  8
1
100
AcDbEllipse
 10
421.1646839999999
 20
300.941479
 30
0.0
 11
-0.0915171458923711
 21
0.026646257556489
 31
0.0
210
0.0
220
0.0
230
1.0
 40
0.998052
 41
3.307218331555544
 42
3.983950248436086
  0
ELLIPSE
  5
166
330
1F
100
AcDbEntity
  8
1
100
AcDbEllipse
 10
421.3262209999999
 20
301.042319
 30
0.0
 11
-0.0915171458923709
 21
0.0266462575564889
 31
0.0
210
0.0
220
0.0
230
1.0
 40
0.998052
 41
5.925212209546918
 42
7.125542902025928
  0
ELLIPSE
  5
167
330
1F
100
AcDbEntity
  8
1
100
AcDbEllipse
 10
421.7314459999999
 20
300.740194
 30
0.0
 11
-0.5769369382086539
 21
0.1679817492062051
 31
0.0
210
0.0
220
0.0
230
1.0
 40
0.998052
 41
4.660682165316659
 42
5.925212209546928
  0
ELLIPSE
  5
168
330
1F
100
AcDbEntity
  8
1
100
AcDbEllipse
 10
421.8974059999998
 20
301.216716
 30
0.0
 11
-0.091517145892373
 21
0.0266462575564896
 31
0.0
210
0.0
220
0.0
230
0.9999999999999998
 40
0.9980519999999998
 41
3.460351472837662
 42
4.660682165316663
  0
ELLIPSE
  5
169
330
1F
100
AcDbEntity
  8
1
100
AcDbEllipse
 10
422.0878879999999
 20
301.223357
 30
0.0
 11
-0.091517145892373
 21
0.0266462575564896
 31
0.0
210
0.0
220
0.0
230
0.9999999999999998
 40
0.9980519999999998
 41
0.3187588192480813
 42
0.9954907361287396
  0
ELLIPSE
  5
16A
330
1F
100
AcDbEntity
  8
1
100
AcDbEllipse
 10
422.470354
 20
301.552944
 30
0.0
 11
-0.5769369382086537
 21
0.167981749206205
 31
0.0
210
0.0
220
0.0
230
1.0
 40
0.998052
 41
0.9954907361286132
 42
2.260020780358779
  0
ELLIPSE
  5
16B
330
1F
100
AcDbEntity
  8
1
100
AcDbEllipse
 10
422.67019
 20
301.089176
 30
0.0
 11
-0.0915171458923711
 21
0.026646257556489
 31
0.0
210
0.0
220
0.0
230
1.0
 40
0.998052
 41
2.260020780358861
 42
2.936752697239461
  0
ELLIPSE
  5
16C
330
1F
100
AcDbEntity
  8
1
100
AcDbEllipse
 10
422.838578
 20
300.999839
 30
0.0
 11
-0.0915171458923709
 21
0.0266462575564889
 31
0.0
210
0.0
220
0.0
230
1.0
 40
0.998052
 41
4.878014658350162
 42
6.078345350829036
  0
ELLIPSE
  5
16D
330
1F
100
AcDbEntity
  8
1
100
AcDbEllipse
 10
422.7794789999999
 20
300.498693
 30
0.0
 11
-0.5769369382086539
 21
0.1679817492062051
 31
0.0
210
0.0
220
0.0
230
1.0
 40
0.998052
 41
3.613484614120118
 42
4.878014658350311
  0
ELLIPSE
  5
16E
330
1F
100
AcDbEntity
  8
1
100
AcDbEllipse
 10
423.27597
 20
300.593032
 30
0.0
 11
-0.091517145892373
 21
0.0266462575564896
 31
0.0
210
0.0
220
0.0
230
0.9999999999999998
 40
0.9980519999999998
 41
2.41315392164141
 42
3.613484614119993
  0
ELLIPSE
  5
16F
330
1F
100
AcDbEntity
  8
1
100
AcDbEllipse
 10
423.377144
 20
300.431655
 30
0.0
 11
-0.091517145892373
 21
0.0266462575564896
 31
0.0
210
0.0
220
0.0
230
0.9999999999999998
 40
0.9980519999999998
 41
5.554746575231028
 42
6.231478492111804
  0
ELLIPSE
  5
170
330
1F
100
AcDbEntity
  8
1
100
AcDbEllipse
 10
423.8546249999999
 20
300.265469
 30
0.0
 11
-0.5769369382086537
 21
0.167981749206205
 31
0.0
210
0.0
220
0.0
230
1.0
 40
0.998052
 41
6.231478492111625
 42
7.496008536341799
  0
ELLIPSE
  5
171
330
1F
100
AcDbEntity
  8
1
100
AcDbEllipse
 10
423.5524269999999
 20
299.861227
 30
0.0
 11
-0.0915171458923711
 21
0.026646257556489
 31
0.0
210
0.0
220
0.0
230
1.0
 40
0.998052
 41
1.212823229162309
 42
1.88955514604291
  0
ELLIPSE
  5
172
330
1F
100
AcDbEntity
  8
1
100
AcDbEllipse
 10
423.559279
 20
299.671051
 30
0.0
 11
-0.0915171458923709
 21
0.0266462575564889
 31
0.0
210
0.0
220
0.0
230
1.0
 40
0.998052
 41
3.830817107153661
 42
5.031147799633034
  0
ELLIPSE
  5
173
330
1F
100
AcDbEntity
  8
1
100
AcDbEllipse
 10
423.094955
 20
299.472029
 30
0.0
 11
-0.5769369382086539
 21
0.1679817492062051
 31
0.0
210
0.0
220
0.0
230
1.0
 40
0.998052
 41
2.566287062923565
 42
3.830817107153713
  0
ELLIPSE
  5
174
330
1F
100
AcDbEntity
  8
1
100
AcDbEllipse
 10
423.425486
 20
299.089847
 30
0.0
 11
-0.091517145892373
 21
0.0266462575564896
 31
0.0
210
0.0
220
0.0
230
0.9999999999999998
 40
0.9980519999999998
 41
1.36595637044437
 42
2.566287062923248
  0
ELLIPSE
  5
175
330
1F
100
AcDbEntity
  8
1
100
AcDbEllipse
 10
423.336178
 20
298.921828
 30
0.0
 11
-0.091517145892373
 21
0.0266462575564896
 31
0.0
210
0.0
220
0.0
230
0.9999999999999998
 40
0.9980519999999998
 41
4.507549024034486
 42
5.184280940914999
  0
ELLIPSE
  5
176
330
1F
100
AcDbEntity
  8
1
100
AcDbEllipse
 10
423.4311929999999
 20
298.426055
 30
0.0
 11
-0.5769369382086537
 21
0.167981749206205
 31
0.0
210
0.0
220
0.0
230
1.0
 40
0.998052
 41
5.184280940915027
 42
6.448810985145173
  0
ELLIPSE
  5
177
330
1F
100
AcDbEntity
  8
1
100
AcDbEllipse
 10
422.9291589999999
 20
298.4855819999999
 30
0.0
 11
-0.0915171458923711
 21
0.026646257556489
 31
0.0
210
0.0
220
0.0
230
1.0
 40
0.998052
 41
0.1656256779657526
 42
0.842357594846343
  0
ELLIPSE
  5
178
330
1F
100
AcDbEntity
  8
1
100
AcDbEllipse
 10
422.7676219999999
 20
298.384742
 30
0.0
 11
-0.0915171458923709
 21
0.0266462575564889
 31
0.0
210
0.0
220
0.0
230
1.0
 40
0.998052
 41
2.783619555957229
 42
3.983950248436036
  0
ELLIPSE
  5
179
330
1F
100
AcDbEntity
  8
1
100
AcDbEllipse
 10
426.4213699999999
 20
294.904536
 30
0.0
 11
0.0003004688431268
 21
0.5003080940997439
 31
0.0
210
0.0
220
0.0
230
0.9999999999999998
 40
0.140095
 41
3.205856114032518
 42
4.776652440842551
  0
ELLIPSE
  5
17A
330
1F
100
AcDbEntity
  8
1
100
AcDbEllipse
 10
427.3056079999999
 20
288.907994
 30
0.0
 11
1.677700926013946
 21
15.49824703076721
 31
0.0
210
0.0
220
0.0
230
0.9999999999999998
 40
0.138944
 41
1.966199622727409
 42
3.156632395651095
  0
ELLIPSE
  5
17B
330
1F
100
AcDbEntity
  8
1
100
AcDbEllipse
 10
426.694842
 20
288.907994
 30
0.0
 11
0.0
 21
15.49999999969954
 31
0.0
210
0.0
220
0.0
230
0.9999999999999998
 40
0.140541
 41
1.415663339476766
 42
1.951159880674069
  0
ELLIPSE
  5
17C
330
1F
100
AcDbEntity
  8
1
100
AcDbEllipse
 10
418.932235
 20
296.549086
 30
0.0
 11
-1.920260608856768
 21
0.5591057092116241
 31
0.0
210
0.0
220
0.0
230
1.0
 40
0.998052
 41
0.0651734313057142
 42
1.889555020043254
  0
ELLIPSE
  5
17D
330
1F
100
AcDbEntity
  8
1
100
AcDbEllipse
 10
418.932235
 20
296.549086
 30
0.0
 11
-1.920260608856768
 21
0.5591057092116241
 31
0.0
210
0.0
220
0.0
230
1.0
 40
0.998052
 41
1.889555020043255
 42
2.593860668040892
  0
ELLIPSE
  5
17E
330
1F
100
AcDbEntity
  8
1
100
AcDbEllipse
 10
418.864735
 20
296.317256
 30
0.0
 11
-1.920260608856768
 21
0.5591057092116241
 31
0.0
210
0.0
220
0.0
230
1.0
 40
0.998052
 41
5.729902201158866
 42
5.872831053995007
  0
ELLIPSE
  5
17F
330
1F
100
AcDbEntity
  8
1
100
AcDbEllipse
 10
418.859503
 20
296.299285
 30
0.0
 11
1.920260608856771
 21
-0.5591057092116122
 31
0.0
210
0.0
220
0.0
230
1.0
 40
0.998052
 41
2.731238400405223
 42
4.39544400795085
  0
ELLIPSE
  5
180
330
1F
100
AcDbEntity
  8
1
100
AcDbEllipse
 10
417.6390959999999
 20
288.907455
 30
0.0
 11
0.5180918636758184
 21
-15.50053564302436
 31
0.0
210
0.0
220
0.0
230
1.0
 40
0.019459
 41
3.240916526850046
 42
3.260292905540846
  0
ELLIPSE
  5
181
330
1F
100
AcDbEntity
  8
1
100
AcDbEllipse
 10
364.334042
 20
288.906778
 30
0.0
 11
888.5691252614883
 21
-0.9289072391602481
 31
0.0
210
0.0
220
0.0
230
1.0
 40
0.017414
 41
1.511408989266073
 42
1.516636817962499
  0
ELLIPSE
  5
182
330
1F
100
AcDbEntity
  8
1
100
AcDbEllipse
 10
426.305732
 20
280.23846
 30
0.0
 11
0.2546671891084988
 21
0.1593661336467946
 31
0.0
210
0.0
220
0.0
230
1.0
 40
0.9668319999999999
 41
4.65755785947488
 42
5.171317118299751
  0
ELLIPSE
  5
183
330
1F
100
AcDbEntity
  8
1
100
AcDbEllipse
 10
426.969907
 20
281.358792
 30
0.0
 11
-0.2941597133632818
 21
0.0843489404830548
 31
0.0
210
0.0
220
0.0
230
0.9999999999999996
 40
0.9803469999999999
 41
2.884713024277104
 42
3.398472282902501
  0
ELLIPSE
  5
184
330
1F
100
AcDbEntity
  8
1
100
AcDbEllipse
 10
426.2487359999999
 20
281.565584
 30
0.0
 11
0.3598828545790591
 21
-0.0632201107826577
 31
0.0
210
0.0
220
0.0
230
1.0
 40
0.81881
 41
6.264719810210652
 42
6.411625125776597
  0
ELLIPSE
  5
185
330
1F
100
AcDbEntity
  8
1
100
AcDbEllipse
 10
426.37015
 20
288.521396
 30
0.0
 11
0.3618700015871561
 21
0.0506218685178214
 31
0.0
210
0.0
220
0.0
230
1.0
 40
0.81881
 41
6.154745501621637
 42
6.301650811622917
  0
ELLIPSE
  5
186
330
1F
100
AcDbEntity
  8
1
100
AcDbEllipse
 10
426.37015
 20
288.521396
 30
0.0
 11
0.3432777554416794
 21
0.1251912077472896
 31
0.0
210
0.0
220
0.0
230
1.0
 40
0.81881
 41
6.264719809555181
 42
6.411625123896619
  0
ELLIPSE
  5
187
330
1F
100
AcDbEntity
  8
1
100
AcDbEllipse
 10
425.928017
 20
289.3190259999999
 30
0.0
 11
0.2880776567786217
 21
0.2247748115760872
 31
0.0
210
0.0
220
0.0
230
1.0
 40
0.81881
 41
6.154745488539652
 42
6.301650803877831
  0
ELLIPSE
  5
188
330
1F
100
AcDbEntity
  8
1
100
AcDbEllipse
 10
425.928017
 20
289.3190259999999
 30
0.0
 11
0.2346916563274475
 21
0.2800576494323869
 31
0.0
210
0.0
220
0.0
230
1.0
 40
0.81881
 41
6.264719807741101
 42
6.411625120793017
  0
ELLIPSE
  5
189
330
1F
100
AcDbEntity
  8
1
100
AcDbEllipse
 10
425.7790349999999
 20
280.78387
 30
0.0
 11
0.2800576518840616
 21
-0.2346916581213194
 31
0.0
210
0.0
220
0.0
230
1.0
 40
0.81881
 41
6.264719807369742
 42
6.411625119811371
  0
ELLIPSE
  5
18A
330
1F
100
AcDbEntity
  8
1
100
AcDbEllipse
 10
426.2487359999999
 20
281.565584
 30
0.0
 11
0.3386995087006622
 21
-0.1370951536170648
 31
0.0
210
0.0
220
0.0
230
1.0
 40
0.8188100000000002
 41
6.154745479183331
 42
6.301650798357698
  0
ELLIPSE
  5
18B
330
1F
100
AcDbEntity
  8
1
100
AcDbEllipse
 10
425.7790349999999
 20
280.78387
 30
0.0
 11
0.2247748131101195
 21
-0.28807765928414
 31
0.0
210
0.0
220
0.0
230
1.0
 40
0.81881
 41
6.15474548979712
 42
6.301650804548317
  0
SPLINE
  5
193
330
1F
100
AcDbEntity
  8
1
100
AcDbSpline
210
0.0
220
0.0
230
1.0
 70
     8
 71
     3
 72
    36
 73
    32
 74
     0
 42
0.000000001
 43
0.0000000001
 40
0.0
 40
0.0
 40
0.0
 40
0.0
 40
0.0312604799750711
 40
0.0312604799750711
 40
0.0685196922837216
 40
0.0685196922837216
 40
0.1057789045923721
 40
0.1057789045923721
 40
0.1802973292096739
 40
0.1802973292096739
 40
0.2548157538269761
 40
0.2548157538269761
 40
0.3293341784442779
 40
0.3293341784442779
 40
0.40385260306158
 40
0.40385260306158
 40
0.4783710276788824
 40
0.4783710276788824
 40
0.552889452296185
 40
0.552889452296185
 40
0.6274078769134875
 40
0.6274078769134875
 40
0.7019263015307901
 40
0.7019263015307901
 40
0.7764447261480924
 40
0.7764447261480924
 40
0.8509631507653949
 40
0.8509631507653949
 40
0.9254815753826973
 40
0.9254815753826973
 40
1.0
 40
1.0
 40
1.0
 40
1.0
 10
344.9916836734256
 20
276.2721795325201
 30
0.0
 10
344.5925581575637
 20
276.2184420705438
 30
0.0
 10
344.1934476745434
 20
276.1654825348635
 30
0.0
 10
343.3186438268882
 20
276.0511630749604
 30
0.0
 10
342.8429502769035
 20
275.9901423298578
 30
0.0
 10
341.8915256993237
 20
275.8704490819945
 30
0.0
 10
341.4157990450834
 20
275.8117646186662
 30
0.0
 10
339.988621991431
 20
275.6390300098561
 30
0.0
 10
339.0371756490651
 20
275.5282893716027
 30
0.0
 10
337.1345178858771
 20
275.3149658106433
 30
0.0
 10
336.1833070598341
 20
275.2123832162212
 30
0.0
 10
334.2813026271317
 20
275.0149946242529
 30
0.0
 10
333.3305094634742
 20
274.9201895718484
 30
0.0
 10
331.4294629678134
 20
274.7382490576737
 30
0.0
 10
330.4792099039848
 20
274.6511150992509
 30
0.0
 10
328.5792957883161
 20
274.4846468715796
 30
0.0
 10
327.6296348199515
 20
274.4053145537547
 30
0.0
 10
325.7308813440402
 20
274.2547645085305
 30
0.0
 10
324.781788740088
 20
274.1835490251729
 30
0.0
 10
322.8840729374435
 20
274.0496687745756
 30
0.0
 10
321.9354494814809
 20
273.987006359105
 30
0.0
 10
320.0385028072353
 20
273.8707199152513
 30
0.0
 10
319.0901792015762
 20
273.8170981540798
 30
0.0
 10
317.1936027480202
 20
273.7193622021445
 30
0.0
 10
316.2453494212422
 20
273.6752500174244
 30
0.0
 10
314.3486368835307
 20
273.5969191492661
 30
0.0
 10
313.4001771441027
 20
273.562702069026
 30
0.0
 10
311.5027432528053
 20
273.504409435583
 30
0.0
 10
310.5537685636382
 20
273.4803349882616
 30
0.0
 10
308.6549805020337
 20
273.4423967834858
 30
0.0
 10
307.7051666196601
 20
273.428533591658
 30
0.0
 10
306.7547713111747
 20
273.4197082986269
 30
0.0
  0
SPLINE
  5
194
330
1F
100
AcDbEntity
  8
1
100
AcDbSpline
210
0.0
220
0.0
230
1.0
 70
     8
 71
     3
 72
    22
 73
    18
 74
     0
 42
0.000000001
 43
0.0000000001
 40
0.0
 40
0.0
 40
0.0
 40
0.0
 40
0.1492119762390621
 40
0.1492119762390621
 40
0.2984239524781243
 40
0.2984239524781243
 40
0.4476359287171864
 40
0.4476359287171864
 40
0.5968479049562485
 40
0.5968479049562485
 40
0.7460598811953107
 40
0.7460598811953107
 40
0.8952718574343727
 40
0.8952718574343727
 40
0.9698778455539031
 40
0.9698778455539031
 40
1.0
 40
1.0
 40
1.0
 40
1.0
 10
310.4720969695407
 20
273.8071920206375
 30
0.0
 10
311.7110361818517
 20
273.9413776388035
 30
0.0
 10
312.9493536001607
 20
274.0876908307574
 30
0.0
 10
315.426161377589
 20
274.4017290488517
 30
0.0
 10
316.6646561010352
 20
274.5694467995374
 30
0.0
 10
319.1432307070396
 20
274.9220680519956
 30
0.0
 10
320.3833158568203
 20
275.1069548037673
 30
0.0
 10
322.8663275104789
 20
275.4886540515601
 30
0.0
 10
324.1092597938335
 20
275.685436524453
 30
0.0
 10
326.5988980927687
 20
276.0853204472508
 30
0.0
 10
327.8449878645478
 20
276.288276216169
 30
0.0
 10
330.3401106527478
 20
276.6954657533923
 30
0.0
 10
331.589178039167
 20
276.8996538131294
 30
0.0
 10
333.4650441052017
 20
277.2050106299452
 30
0.0
 10
334.0907053093353
 20
277.3066650342348
 30
0.0
 10
334.9694583043015
 20
277.449196871193
 30
0.0
 10
335.2222631658957
 20
277.4901728707985
 30
0.0
 10
335.4751206617328
 20
277.5311389907664
 30
0.0
  0
SPLINE
  5
195
330
1F
100
AcDbEntity
  8
1
100
AcDbSpline
210
0.0
220
0.0
230
1.0
 70
     8
 71
     3
 72
     8
 73
     4
 74
     0
 42
0.000000001
 43
0.0000000001
 40
0.0
 40
0.0
 40
0.0
 40
0.0
 40
1.0
 40
1.0
 40
1.0
 40
1.0
 10
412.2023588497746
 20
295.5027330463863
 30
0.0
 10
412.0376147546008
 20
295.5941527000151
 30
0.0
 10
411.8744785815825
 20
295.689369650212
 30
0.0
 10
411.7128475960075
 20
295.788494333968
 30
0.0
  0
SPLINE
  5
196
330
1F
100
AcDbEntity
  8
1
100
AcDbSpline
210
0.0
220
0.0
230
1.0
 70
     8
 71
     3
 72
    45
 73
    41
 74
     0
 42
0.000000001
 43
0.0000000001
 40
0.0
 40
0.0
 40
0.0
 40
0.0
 40
0.1249999999999993
 40
0.1249999999999993
 40
0.2499999999999986
 40
0.2499999999999986
 40
0.3124999999999983
 40
0.3124999999999983
 40
0.3437499999999984
 40
0.3437499999999984
 40
0.3593749999999983
 40
0.3593749999999983
 40
0.3749999999999982
 40
0.4374999999999983
 40
0.4374999999999983
 40
0.4999999999999984
 40
0.4999999999999984
 40
0.5624999999999984
 40
0.5624999999999984
 40
0.6249999999999984
 40
0.6249999999999984
 40
0.640624999999999
 40
0.640624999999999
 40
0.6562499999999992
 40
0.6562499999999992
 40
0.6874999999999992
 40
0.6874999999999992
 40
0.7499999999999995
 40
0.7499999999999995
 40
0.8124999999999996
 40
0.8124999999999996
 40
0.8749999999999996
 40
0.8749999999999996
 40
0.8906249999999996
 40
0.8906249999999996
 40
0.9062499999999996
 40
0.9062499999999996
 40
0.9374999999999998
 40
0.9374999999999998
 40
1.0
 40
1.0
 40
1.0
 40
1.0
 10
280.8043368819074
 20
281.6226791734333
 30
0.0
 10
281.0987862379339
 20
281.9643056920386
 30
0.0
 10
281.4086709427519
 20
282.2871298494547
 30
0.0
 10
282.0609904031932
 20
282.8961882736177
 30
0.0
 10
282.4034064221702
 20
283.1824291057994
 30
0.0
 10
282.9438197232242
 20
283.5835600823518
 30
0.0
 10
283.1284357500533
 20
283.7125488500236
 30
0.0
 10
283.4125309726622
 20
283.8986748109848
 30
0.0
 10
283.5084258198132
 20
283.959489237041
 30
0.0
 10
283.6541322436453
 20
284.0488214296323
 30
0.0
 10
283.703028927664
 20
284.078293158622
 30
0.0
 10
283.8011616188605
 20
284.1364255624628
 30
0.0
 10
284.0475126588615
 20
284.2798331166766
 30
0.0
 10
284.2989936087047
 20
284.4136195874556
 30
0.0
 10
284.7082065748316
 20
284.6150926110165
 30
0.0
 10
284.9162341384141
 20
284.7095377799082
 30
0.0
 10
285.3395114530794
 20
284.8853370629348
 30
0.0
 10
285.5547602684235
 20
284.9666932952445
 30
0.0
 10
285.9929842857926
 20
285.1155221587983
 30
0.0
 10
286.215958118079
 20
285.1829980809753
 30
0.0
 10
286.4999191577027
 20
285.2579414789714
 30
0.0
 10
286.5569740055258
 20
285.2724590352306
 30
0.0
 10
286.671621314408
 20
285.3005292213122
 30
0.0
 10
286.7292724082876
 20
285.3140944771665
 30
0.0
 10
286.9024142417007
 20
285.3531655201439
 30
0.0
 10
287.0181944412964
 20
285.377076788023
 30
0.0
 10
287.3666023145499
 20
285.4423016258555
 30
0.0
 10
287.6002968283561
 20
285.4771175591661
 30
0.0
 10
288.0705976446393
 20
285.5286179898544
 30
0.0
 10
288.3072040764548
 20
285.5453042586968
 30
0.0
 10
288.7834079102242
 20
285.5593675111458
 30
0.0
 10
289.0230055064229
 20
285.5567470990918
 30
0.0
 10
289.3244261484385
 20
285.5403870247654
 30
0.0
 10
289.3848064688561
 20
285.5364595682556
 30
0.0
 10
289.5057608669255
 20
285.5272632240688
 30
0.0
 10
289.5662443810437
 20
285.5220002543486
 30
0.0
 10
289.7473295859199
 20
285.5042324756095
 30
0.0
 10
289.8677216926984
 20
285.4897378360225
 30
0.0
 10
290.2278683329816
 20
285.4381826080919
 30
0.0
 10
290.4665952947484
 20
285.3930595403674
 30
0.0
 10
290.7038318185191
 20
285.3367470878372
 30
0.0
  0
SPLINE
  5
197
330
1F
100
AcDbEntity
  8
1
100
AcDbSpline
210
0.0
220
0.0
230
1.0
 70
     8
 71
     3
 72
    26
 73
    22
 74
     0
 42
0.000000001
 43
0.0000000001
 40
0.0
 40
0.0
 40
0.0
 40
0.0
 40
0.1249999999999277
 40
0.1249999999999277
 40
0.2499999999998553
 40
0.2499999999998553
 40
0.3124999999998406
 40
0.3124999999998406
 40
0.3749999999998259
 40
0.3749999999998259
 40
0.4999999999998413
 40
0.4999999999998413
 40
0.6249999999998569
 40
0.6249999999998569
 40
0.6874999999998646
 40
0.6874999999998646
 40
0.7499999999998722
 40
0.7499999999998722
 40
0.8749999999999358
 40
0.8749999999999358
 40
1.0
 40
1.0
 40
1.0
 40
1.0
 10
420.0752333373968
 20
294.7129281696797
 30
0.0
 10
420.0174689934435
 20
294.6688300066633
 30
0.0
 10
419.9580544661566
 20
294.6281945410893
 30
0.0
 10
419.8358267327594
 20
294.5534333777138
 30
0.0
 10
419.7730162662272
 20
294.5193108825969
 30
0.0
 10
419.6760855497657
 20
294.4729906819421
 30
0.0
 10
419.6433076982862
 20
294.458364537961
 30
0.0
 10
419.5774789677141
 20
294.4310253958894
 30
0.0
 10
419.5443444110106
 20
294.4182703571792
 30
0.0
 10
419.4442127559431
 20
294.3827021354772
 30
0.0
 10
419.3764934631077
 20
294.3625712694542
 30
0.0
 10
419.2386432440831
 20
294.329571835493
 30
0.0
 10
419.1685092420887
 20
294.3167019698415
 30
0.0
 10
419.0610219541874
 20
294.3032842843622
 30
0.0
 10
419.0246495218988
 20
294.2997935108766
 30
0.0
 10
418.9524641964444
 20
294.2949665949872
 30
0.0
 10
418.9165351803742
 20
294.2936067831608
 30
0.0
 10
418.8092263497918
 20
294.2925953848695
 30
0.0
 10
418.738330069343
 20
294.2960039769892
 30
0.0
 10
418.5975686094218
 20
294.310623376288
 30
0.0
 10
418.5276974093127
 20
294.321829613007
 30
0.0
 10
418.4581663082416
 20
294.3369064686888
 30
0.0
  0
SPLINE
  5
198
330
1F
100
AcDbEntity
  8
1
100
AcDbSpline
210
0.0
220
0.0
230
1.0
 70
     8
 71
     3
 72
    26
 73
    22
 74
     0
 42
0.000000001
 43
0.0000000001
 40
0.0
 40
0.0
 40
0.0
 40
0.0
 40
0.1249999999999842
 40
0.2499999999999685
 40
0.3749999999999526
 40
0.3749999999999526
 40
0.437499999999951
 40
0.437499999999951
 40
0.4687499999999566
 40
0.4687499999999566
 40
0.499999999999962
 40
0.499999999999962
 40
0.6249999999999715
 40
0.7499999999999809
 40
0.7499999999999809
 40
0.7812499999999833
 40
0.7812499999999833
 40
0.8124999999999856
 40
0.8749999999999904
 40
0.8749999999999904
 40
1.0
 40
1.0
 40
1.0
 40
1.0
 10
418.4562642864809
 20
294.1212501496665
 30
0.0
 10
418.18501732802
 20
294.1117004977536
 30
0.0
 10
417.6439647577864
 20
294.1099192553803
 30
0.0
 10
416.8366379379023
 20
294.1582998222175
 30
0.0
 10
416.3012433130773
 20
294.2244148919331
 30
0.0
 10
415.9007651408358
 20
294.2867891093513
 30
0.0
 10
415.7674505237345
 20
294.3097134552596
 30
0.0
 10
415.5677481932955
 20
294.3473255615649
 30
0.0
 10
415.5012505903003
 20
294.3603966012588
 30
0.0
 10
415.3686336513023
 20
294.3875565190054
 30
0.0
 10
415.3024805007871
 20
294.4016516651243
 30
0.0
 10
414.9724887446061
 20
294.474693030389
 30
0.0
 10
414.4494505634236
 20
294.6079638525851
 30
0.0
 10
413.9362564466143
 20
294.7737668466769
 30
0.0
 10
413.6186092120389
 20
294.8875946751345
 30
0.0
 10
413.5552378618727
 20
294.910870357699
 30
0.0
 10
413.4290368454679
 20
294.9583559399334
 30
0.0
 10
413.2404606362899
 20
295.0310166240332
 30
0.0
 10
413.0540520892632
 20
295.1079519580726
 30
0.0
 10
412.6841119439618
 20
295.2674782183254
 30
0.0
 10
412.4413180484488
 20
295.3813648343336
 30
0.0
 10
412.2023588497746
 20
295.5027330463863
 30
0.0
  0
SPLINE
  5
199
330
1F
100
AcDbEntity
  8
1
100
AcDbSpline
210
0.0
220
0.0
230
1.0
 70
     8
 71
     3
 72
    26
 73
    22
 74
     0
 42
0.000000001
 43
0.0000000001
 40
0.0
 40
0.0
 40
0.0
 40
0.0
 40
0.12499999999998
 40
0.12499999999998
 40
0.2499999999999599
 40
0.2499999999999599
 40
0.2812499999999604
 40
0.2812499999999604
 40
0.3124999999999608
 40
0.3749999999999725
 40
0.3749999999999725
 40
0.499999999999985
 40
0.499999999999985
 40
0.5624999999999912
 40
0.5624999999999912
 40
0.6249999999999974
 40
0.6249999999999974
 40
0.7499999999999983
 40
0.8749999999999989
 40
0.8749999999999989
 40
1.0
 40
1.0
 40
1.0
 40
1.0
 10
411.8745076728353
 20
292.8581852576424
 30
0.0
 10
412.1216310086239
 20
292.7016740234926
 30
0.0
 10
412.3743247039765
 20
292.5545648145355
 30
0.0
 10
412.8907487964537
 20
292.2793745164173
 30
0.0
 10
413.1544786291947
 20
292.1512920044269
 30
0.0
 10
413.4910691461215
 20
292.0033561129086
 30
0.0
 10
413.5587663657308
 20
291.9743649626432
 30
0.0
 10
413.6945818151
 20
291.917722528236
 30
0.0
 10
413.8990063827395
 20
291.8347361095078
 30
0.0
 10
414.105524169471
 20
291.757668295356
 30
0.0
 10
414.5213324644453
 20
291.6114160699598
 30
0.0
 10
414.8022308810698
 20
291.5244155030531
 30
0.0
 10
415.2291169050807
 20
291.409812904174
 30
0.0
 10
415.3725092135498
 20
291.3742306278716
 30
0.0
 10
415.6595953244075
 20
291.3087593918276
 30
0.0
 10
415.8034305043953
 20
291.2788254814658
 30
0.0
 10
416.2357999140523
 20
291.1973305809872
 30
0.0
 10
416.8145933649951
 20
291.1107985596581
 30
0.0
 10
417.3979231745806
 20
291.068059127958
 30
0.0
 10
417.9835328179144
 20
291.0473701914558
 30
0.0
 10
418.2774774248563
 20
291.0480497486461
 30
0.0
 10
418.5725908659758
 20
291.0600335194804
 30
0.0
  0
SPLINE
  5
19A
330
1F
100
AcDbEntity
  8
1
100
AcDbSpline
210
0.0
220
0.0
230
1.0
 70
     8
 71
     3
 72
     8
 73
     4
 74
     0
 42
0.000000001
 43
0.0000000001
 40
0.0
 40
0.0
 40
0.0
 40
0.0
 40
1.0
 40
1.0
 40
1.0
 40
1.0
 10
418.4562642864808
 20
294.1212501496665
 30
0.0
 10
418.4601218188881
 20
294.1213859598224
 30
0.0
 10
418.4639804958811
 20
294.121521151151
 30
0.0
 10
418.4678403194753
 20
294.1216557225624
 30
0.0
  0
SPLINE
  5
19B
330
1F
100
AcDbEntity
  8
1
100
AcDbSpline
210
0.0
220
0.0
230
1.0
 70
     8
 71
     3
 72
    17
 73
    13
 74
     0
 42
0.000000001
 43
0.0000000001
 40
0.0
 40
0.0
 40
0.0
 40
0.0
 40
0.2500000000000082
 40
0.2500000000000082
 40
0.5000000000000164
 40
0.5000000000000164
 40
0.7500000000000245
 40
0.7500000000000245
 40
0.8125000000000223
 40
0.8125000000000223
 40
0.8750000000000202
 40
1.0
 40
1.0
 40
1.0
 40
1.0
 10
415.8958419452954
 20
291.7250182093969
 30
0.0
 10
415.5349062501316
 20
291.7758371130201
 30
0.0
 10
415.1818470595511
 20
291.838725232325
 30
0.0
 10
414.4886083127698
 20
291.9895212497326
 30
0.0
 10
414.1484075618938
 20
292.077471695565
 30
0.0
 10
413.4788661130888
 20
292.2801681491538
 30
0.0
 10
413.1495343426938
 20
292.3949089992304
 30
0.0
 10
412.7438997162372
 20
292.5565354133281
 30
0.0
 10
412.6630688887868
 20
292.5897770065661
 30
0.0
 10
412.502380155052
 20
292.6579604956074
 30
0.0
 10
412.2626622583903
 20
292.7628431736391
 30
0.0
 10
412.0267993225385
 20
292.8756686024213
 30
0.0
 10
411.8712108633033
 20
292.9545435641109
 30
0.0
  0
SPLINE
  5
19C
330
1F
100
AcDbEntity
  8
1
100
AcDbSpline
210
0.0
220
0.0
230
1.0
 70
     8
 71
     3
 72
    12
 73
     8
 74
     0
 42
0.000000001
 43
0.0000000001
 40
0.0
 40
0.0
 40
0.0
 40
0.0
 40
0.4999999999999998
 40
0.4999999999999998
 40
0.7499999999999999
 40
0.7499999999999999
 40
1.0
 40
1.0
 40
1.0
 40
1.0
 10
280.8043368819073
 20
281.6226791734337
 30
0.0
 10
280.5577167109839
 20
281.3365451110357
 30
0.0
 10
280.3174297614637
 20
281.0400341831773
 30
0.0
 10
279.967236743177
 20
280.5777594348349
 30
0.0
 10
279.8522153380675
 20
280.4207422534732
 30
0.0
 10
279.6257712563468
 20
280.1004080084415
 30
0.0
 10
279.5143478988705
 20
279.9370923923287
 30
0.0
 10
279.4048419452954
 20
279.7703408886902
 30
0.0
  0
SPLINE
  5
19D
330
1F
100
AcDbEntity
  8
1
100
AcDbSpline
210
0.0
220
0.0
230
1.0
 70
     8
 71
     3
 72
    18
 73
    14
 74
     0
 42
0.000000001
 43
0.0000000001
 40
0.0
 40
0.0
 40
0.0
 40
0.0
 40
0.2500000000000243
 40
0.2500000000000243
 40
0.5000000000000487
 40
0.5000000000000487
 40
0.750000000000073
 40
0.750000000000073
 40
0.812500000000033
 40
0.812500000000033
 40
0.8749999999999928
 40
0.8749999999999928
 40
1.0
 40
1.0
 40
1.0
 40
1.0
 10
418.4581663082418
 20
294.3369064686887
 30
0.0
 10
418.3932405890336
 20
294.3509847111363
 30
0.0
 10
418.3296023040543
 20
294.36819540148
 30
0.0
 10
418.2044638346851
 20
294.4086297111403
 30
0.0
 10
418.1429665251287
 20
294.4318545508303
 30
0.0
 10
418.0218224994171
 20
294.4843662454628
 30
0.0
 10
417.9621785333786
 20
294.5136513110735
 30
0.0
 10
417.8886384019313
 20
294.5542644537328
 30
0.0
 10
417.8739811468958
 20
294.5625882719033
 30
0.0
 10
417.8447644420867
 20
294.5796475028598
 30
0.0
 10
417.8302025655582
 20
294.5883854824452
 30
0.0
 10
417.7869656963501
 20
294.6150370158333
 30
0.0
 10
417.7586376950095
 20
294.633446154326
 30
0.0
 10
417.7308017740527
 20
294.6524773230676
 30
0.0
  0
SPLINE
  5
19E
330
1F
100
AcDbEntity
  8
1
100
AcDbSpline
210
0.0
220
0.0
230
1.0
 70
     8
 71
     3
 72
    10
 73
     6
 74
     0
 42
0.000000001
 43
0.0000000001
 40
0.0
 40
0.0
 40
0.0
 40
0.0
 40
0.5
 40
0.5
 40
1.0
 40
1.0
 40
1.0
 40
1.0
 10
412.5135695586727
 20
299.5490970905608
 30
0.0
 10
412.5005183819181
 20
300.342073929279
 30
0.0
 10
412.4891048409186
 20
301.1350740484037
 30
0.0
 10
412.4685588178786
 20
302.7211020815121
 30
0.0
 10
412.4594331117108
 20
303.5141283776532
 30
0.0
 10
412.4511382023251
 20
304.307163565796
 30
0.0
  0
SPLINE
  5
19F
330
1F
100
AcDbEntity
  8
1
100
AcDbSpline
210
0.0
220
0.0
230
1.0
 70
     8
 71
     3
 72
    48
 73
    44
 74
     0
 42
0.000000001
 43
0.0000000001
 40
0.0
 40
0.0
 40
0.0
 40
0.0
 40
0.0586166470121864
 40
0.0586166470121864
 40
0.1172332940243728
 40
0.1172332940243728
 40
0.1758499410365592
 40
0.1758499410365592
 40
0.205158264542653
 40
0.205158264542653
 40
0.2198124262957
 40
0.2198124262957
 40
0.2344665880487469
 40
0.2344665880487469
 40
0.2930832350609359
 40
0.2930832350609359
 40
0.351699882073125
 40
0.351699882073125
 40
0.410316529085314
 40
0.410316529085314
 40
0.4396248525914082
 40
0.4396248525914082
 40
0.4689331760975026
 40
0.4689331760975026
 40
0.5275498231096903
 40
0.5275498231096903
 40
0.5861664701218779
 40
0.5861664701218779
 40
0.7033997641462533
 40
0.7033997641462533
 40
0.7620164111584407
 40
0.7620164111584407
 40
0.8206330581706279
 40
0.8206330581706279
 40
0.8792497051828151
 40
0.8792497051828151
 40
0.908558028688909
 40
0.908558028688909
 40
0.9378663521950025
 40
0.9378663521950025
 40
0.99648299920719
 40
0.99648299920719
 40
1.0
 40
1.0
 40
1.0
 40
1.0
 10
412.4511382023249
 20
304.307163565796
 30
0.0
 10
411.3098043074142
 20
304.3449413243179
 30
0.0
 10
410.1643315840301
 20
304.3702343753955
 30
0.0
 10
407.8652643622578
 20
304.4019628908682
 30
0.0
 10
406.7116716722961
 20
304.4084027679372
 30
0.0
 10
404.3968641988325
 20
304.4075444341816
 30
0.0
 10
403.2356505669507
 20
304.4002483733672
 30
0.0
 10
401.4887096875303
 20
304.3820139992105
 30
0.0
 10
400.9055448625869
 20
304.3747120456726
 30
0.0
 10
400.0296142009202
 20
304.3622196817421
 30
0.0
 10
399.7374225978652
 20
304.3577981153758
 30
0.0
 10
399.1528551312833
 20
304.3484865728843
 30
0.0
 10
398.8604583397653
 20
304.3435963292122
 30
0.0
 10
397.3979356531602
 20
304.3180693558531
 30
0.0
 10
396.2261867090367
 20
304.2942512778515
 30
0.0
 10
393.8800188136454
 20
304.2415565745443
 30
0.0
 10
392.7056003518673
 20
304.2126791458219
 30
0.0
 10
390.3550535824656
 20
304.1504382956872
 30
0.0
 10
389.1789259457803
 20
304.1170749563923
 30
0.0
 10
387.4142853994306
 20
304.0632351118346
 30
0.0
 10
386.8260019015081
 20
304.0446418655983
 30
0.0
 10
385.6494205254347
 20
304.0060163224068
 30
0.0
 10
385.0611130353193
 20
303.9859953699509
 30
0.0
 10
383.2961671722711
 20
303.9237733709653
 30
0.0
 10
382.1195227433357
 20
303.8794174604119
 30
0.0
 10
379.7665030572682
 20
303.7846725220929
 30
0.0
 10
378.5901060132887
 20
303.734281186858
 30
0.0
 10
375.0614368558547
 20
303.5734628446339
 30
0.0
 10
372.7096980280816
 20
303.4534146083282
 30
0.0
 10
369.183662546887
 20
303.2511914624045
 30
0.0
 10
368.0085266023159
 20
303.1800839232933
 30
0.0
 10
365.659071788172
 20
303.02989207038
 30
0.0
 10
364.484847419322
 20
302.9508183380232
 30
0.0
 10
362.1375406620103
 20
302.783949152718
 30
0.0
 10
360.9644565764067
 20
302.6961604961953
 30
0.0
 10
359.2058454793001
 20
302.5571160049014
 30
0.0
 10
358.6198117258387
 20
302.5095376538638
 30
0.0
 10
357.448122695634
 20
302.4117311756722
 30
0.0
 10
356.8624731201073
 20
302.3614867905428
 30
0.0
 10
355.1060892126772
 20
302.2066420586526
 30
0.0
 10
353.9359132533084
 20
302.0979430007453
 30
0.0
 10
352.6961865471343
 20
301.9769288799432
 30
0.0
 10
352.6260155493845
 20
301.9700593093261
 30
0.0
 10
352.5558467631364
 20
301.9631700793466
 30
0.0
  0
SPLINE
  5
1A0
330
1F
100
AcDbEntity
  8
1
100
AcDbSpline
210
0.0
220
0.0
230
1.0
 70
    28
 71
     4
 72
    13
 73
     8
 74
     0
 42
0.000000001
 43
0.0000000001
 40
0.0
 40
0.0
 40
0.0
 40
0.0
 40
0.0
 40
0.1998599745394931
 40
0.1998599745394931
 40
0.1998599745394931
 40
1.0
 40
1.0
 40
1.0
 40
1.0
 40
1.0
 10
297.9048419452959
 20
283.2215324334203
 30
0.0
 41
0.9989730700415393
 10
297.9048419452959
 20
282.7480909699694
 30
0.0
 41
0.9998152064156196
 10
297.9048419452959
 20
282.2600530872442
 30
0.0
 41
1.000750313543089
 10
297.9048419452957
 20
281.7659301651223
 30
0.0
 41
1.001498006703475
 10
297.9048419452957
 20
279.3122916713281
 30
0.0
 41
1.001498006703475
 10
297.9048419452957
 20
276.9952620730997
 30
0.0
 41
0.9895139530756713
 10
297.9048419452957
 20
275.0235154914099
 30
0.0
 41
1.001498006703475
 10
297.9048419452957
 20
273.711397433429
 30
0.0
 41
1.001498006703475
  0
SPLINE
  5
1A1
330
1F
100
AcDbEntity
  8
1
100
AcDbSpline
210
0.0
220
0.0
230
1.0
 70
     8
 71
     3
 72
    56
 73
    52
 74
     0
 42
0.000000001
 43
0.0000000001
 40
0.0
 40
0.0
 40
0.0
 40
0.0
 40
0.0624999999999995
 40
0.0624999999999995
 40
0.1249999999999991
 40
0.1249999999999991
 40
0.1562499999999988
 40
0.1562499999999988
 40
0.1874999999999986
 40
0.1874999999999986
 40
0.2499999999999982
 40
0.2499999999999982
 40
0.3124999999999978
 40
0.3124999999999978
 40
0.3749999999999974
 40
0.3749999999999974
 40
0.4062499999999973
 40
0.4062499999999973
 40
0.4218749999999972
 40
0.4218749999999972
 40
0.437499999999997
 40
0.437499999999997
 40
0.4687499999999973
 40
0.4687499999999973
 40
0.4843749999999972
 40
0.4843749999999972
 40
0.499999999999997
 40
0.499999999999997
 40
0.5312499999999973
 40
0.5312499999999973
 40
0.5624999999999974
 40
0.5624999999999974
 40
0.5937499999999976
 40
0.5937499999999976
 40
0.6249999999999977
 40
0.6249999999999977
 40
0.6562499999999979
 40
0.6562499999999979
 40
0.6874999999999982
 40
0.6874999999999982
 40
0.7499999999999984
 40
0.7499999999999984
 40
0.8124999999999987
 40
0.8124999999999987
 40
0.8437499999999989
 40
0.8437499999999989
 40
0.8749999999999991
 40
0.8749999999999991
 40
0.9374999999999996
 40
0.9374999999999996
 40
1.0
 40
1.0
 40
1.0
 40
1.0
 10
300.1005222705218
 20
282.5729085200381
 30
0.0
 10
302.2258364524075
 20
282.2549706429105
 30
0.0
 10
304.3507934304073
 20
281.9406827860625
 30
0.0
 10
308.5997249329673
 20
281.3183560989153
 30
0.0
 10
310.7236972296745
 20
281.0103004847513
 30
0.0
 10
313.9086279131917
 20
280.5519528782785
 30
0.0
 10
314.9701127485359
 20
280.3997911849619
 30
0.0
 10
317.0926318762882
 20
280.0965951164475
 30
0.0
 10
318.1534770472172
 20
279.9455869693417
 30
0.0
 10
321.3346537555704
 20
279.4942170704137
 30
0.0
 10
323.4536219939101
 20
279.1954610313265
 30
0.0
 10
327.6873595005319
 20
278.6025729865225
 30
0.0
 10
329.8021218769853
 20
278.3084184787836
 30
0.0
 10
334.0270961671958
 20
277.7268336017594
 30
0.0
 10
336.1373003048076
 20
277.439388833995
 30
0.0
 10
339.2992665012191
 20
277.0166543433496
 30
0.0
 10
340.3527028261659
 20
276.877168646743
 30
0.0
 10
341.9320849215034
 20
276.6706898171776
 30
0.0
 10
342.4584170096711
 20
276.6023223824335
 30
0.0
 10
343.5108393288616
 20
276.4666264984242
 30
0.0
 10
344.0369337416406
 20
276.3993128301856
 30
0.0
 10
345.6150795031236
 20
276.1997113913493
 30
0.0
 10
346.6669998301374
 20
276.0698013139851
 30
0.0
 10
348.2453571721151
 20
275.8819227829101
 30
0.0
 10
348.771554176148
 20
275.8204513751426
 30
0.0
 10
349.8242081821617
 20
275.7000825180916
 30
0.0
 10
350.3506937340366
 20
275.6411817597962
 30
0.0
 10
351.9304660103513
 20
275.4686586428947
 30
0.0
 10
352.9839574220137
 20
275.3592524663592
 30
0.0
 10
355.0921575783173
 20
275.1525198997965
 30
0.0
 10
356.1468642187676
 20
275.0551826367096
 30
0.0
 10
358.2579874993285
 20
274.8727593709513
 30
0.0
 10
359.314422578624
 20
274.7876912746483
 30
0.0
 10
361.4287549832003
 20
274.6280731049429
 30
0.0
 10
362.4866515328151
 20
274.5535261280536
 30
0.0
 10
364.603723334355
 20
274.4137002725182
 30
0.0
 10
365.6628998900295
 20
274.3484273525561
 30
0.0
 10
367.7824278551701
 20
274.2262358369702
 30
0.0
 10
368.8427803638459
 20
274.1693210255494
 30
0.0
 10
372.0255026975148
 20
274.0100084044001
 30
0.0
 10
374.1495446638785
 20
273.9190207256836
 30
0.0
 10
378.4015984185056
 20
273.7625920409504
 30
0.0
 10
380.529614652857
 20
273.6971488763285
 30
0.0
 10
383.7240619465862
 20
273.6151154821392
 30
0.0
 10
384.7891716305245
 20
273.5904696613907
 30
0.0
 10
386.9196672688272
 20
273.546181919819
 30
0.0
 10
387.9850889734289
 20
273.5265385149888
 30
0.0
 10
391.1817969172911
 20
273.4746594039755
 30
0.0
 10
393.3135313909163
 20
273.4494537550486
 30
0.0
 10
397.5778188326882
 20
273.4161242817189
 30
0.0
 10
399.7103751840147
 20
273.4079935137005
 30
0.0
 10
401.8430766070923
 20
273.4079935137005
 30
0.0
  0
SPLINE
  5
1A2
330
1F
100
AcDbEntity
  8
1
100
AcDbSpline
210
0.0
220
0.0
230
1.0
 70
     8
 71
     3
 72
    78
 73
    74
 74
     0
 42
0.000000001
 43
0.0000000001
 40
0.0
 40
0.0
 40
0.0
 40
0.0
 40
0.0143575262804431
 40
0.0143575262804431
 40
0.0472122754044282
 40
0.0472122754044282
 40
0.0800670245284133
 40
0.0800670245284133
 40
0.1129217736523984
 40
0.1129217736523984
 40
0.1457765227763834
 40
0.1457765227763834
 40
0.1786312719003686
 40
0.1786312719003686
 40
0.2114860210243537
 40
0.2114860210243537
 40
0.2443407701483387
 40
0.2443407701483387
 40
0.2771955192723239
 40
0.2771955192723239
 40
0.3100502683963089
 40
0.3100502683963089
 40
0.3429050175202941
 40
0.3429050175202941
 40
0.3593323920822869
 40
0.3593323920822869
 40
0.3757597666442796
 40
0.3757597666442796
 40
0.4086145157682647
 40
0.4086145157682647
 40
0.4414692648922497
 40
0.4414692648922497
 40
0.4743240140162348
 40
0.4743240140162348
 40
0.50717876314022
 40
0.50717876314022
 40
0.5400335122642051
 40
0.5400335122642051
 40
0.5728882613881903
 40
0.5728882613881903
 40
0.6057430105121754
 40
0.6057430105121754
 40
0.6385977596361605
 40
0.6385977596361605
 40
0.6714525087601455
 40
0.6714525087601455
 40
0.7043072578841306
 40
0.7043072578841306
 40
0.7371620070081157
 40
0.7371620070081157
 40
0.770016756132101
 40
0.770016756132101
 40
0.8028715052560858
 40
0.8028715052560858
 40
0.8357262543800711
 40
0.8357262543800711
 40
0.8521536289420637
 40
0.8521536289420637
 40
0.8685810035040566
 40
0.8685810035040566
 40
0.8850083780660492
 40
0.8850083780660492
 40
0.901435752628042
 40
0.901435752628042
 40
0.9178631271900348
 40
0.9178631271900348
 40
0.9342905017520275
 40
0.9342905017520275
 40
0.9671452508760138
 40
0.9671452508760138
 40
0.9835726254380068
 40
0.9835726254380068
 40
1.0
 40
1.0
 40
1.0
 40
1.0
 10
303.463921124449
 20
304.4079906121526
 30
0.0
 10
303.9815288257222
 20
304.4080044404795
 30
0.0
 10
304.4990082127597
 20
304.4073949690869
 30
0.0
 10
306.2002459367076
 20
304.4032135351918
 30
0.0
 10
307.3834863636182
 20
304.3968408157758
 30
0.0
 10
309.748854214574
 20
304.3763419336844
 30
0.0
 10
310.9310510431224
 20
304.3622132977147
 30
0.0
 10
313.2941671092171
 20
304.3254971399193
 30
0.0
 10
314.475046928163
 20
304.302909625313
 30
0.0
 10
316.8356795895414
 20
304.2487329649308
 30
0.0
 10
318.0154326817758
 20
304.2171429737366
 30
0.0
 10
320.3740695905887
 20
304.144604265376
 30
0.0
 10
321.5529537626236
 20
304.1036551664102
 30
0.0
 10
323.9101293893319
 20
304.0122481447247
 30
0.0
 10
325.0884212804731
 20
303.9617904339738
 30
0.0
 10
327.4446957626892
 20
303.8514260799495
 30
0.0
 10
328.6226788250222
 20
303.7915202881629
 30
0.0
 10
330.9786121119986
 20
303.6625137772982
 30
0.0
 10
332.1565627843154
 20
303.5934144844748
 30
0.0
 10
334.5126867821712
 20
303.4464345623046
 30
0.0
 10
335.6908604755911
 20
303.3685557671292
 30
0.0
 10
338.0476525915607
 20
303.2045403756832
 30
0.0
 10
339.2262315750572
 20
303.1184081207399
 30
0.0
 10
340.9942021850933
 20
302.9834775556354
 30
0.0
 10
341.5835571248893
 20
302.9375445262305
 30
0.0
 10
342.7623494894159
 20
302.8438381334797
 30
0.0
 10
343.3517934242859
 20
302.796081028542
 30
0.0
 10
345.1202088292695
 20
302.6499925852486
 30
0.0
 10
346.2992318708904
 20
302.5487782031699
 30
0.0
 10
348.6570287292166
 20
302.3376224233112
 30
0.0
 10
349.8358066534368
 20
302.2276739458149
 30
0.0
 10
352.1930004390271
 20
301.998509056987
 30
0.0
 10
353.3712872391987
 20
301.8793038782499
 30
0.0
 10
355.7273807055573
 20
301.6318061217488
 30
0.0
 10
356.9051881517244
 20
301.5035101045783
 30
0.0
 10
359.2606532122188
 20
301.2386749691736
 30
0.0
 10
360.4383365395758
 20
301.1022138349352
 30
0.0
 10
362.7940409738989
 20
300.8226639293943
 30
0.0
 10
363.972104567824
 20
300.6795693959147
 30
0.0
 10
366.3285783762751
 20
300.3878194283765
 30
0.0
 10
367.5069662097538
 20
300.2391662611651
 30
0.0
 10
369.8641564812688
 20
299.9369330039295
 30
0.0
 10
371.0429578401126
 20
299.7833514896784
 30
0.0
 10
373.4009843901916
 20
299.4715074005275
 30
0.0
 10
374.5802088051363
 20
299.3132436102649
 30
0.0
 10
376.9390182769548
 20
298.9919429154871
 30
0.0
 10
378.1186312560639
 20
298.8289024901455
 30
0.0
 10
380.4777877720894
 20
298.4976785718885
 30
0.0
 10
381.6573650760956
 20
298.3294945339159
 30
0.0
 10
384.0163365213657
 20
297.9871812366875
 30
0.0
 10
385.1957321978589
 20
297.8130609696476
 30
0.0
 10
387.5540648703493
 20
297.4575154453939
 30
0.0
 10
388.733001976514
 20
297.2760968521361
 30
0.0
 10
391.0898825182537
 20
296.9031747506684
 30
0.0
 10
392.2677758813674
 20
296.7116366702411
 30
0.0
 10
394.0333015094234
 20
296.4155573518154
 30
0.0
 10
394.6216077733403
 20
296.3154124203841
 30
0.0
 10
395.7978286712062
 20
296.1122188318953
 30
0.0
 10
396.3857430484768
 20
296.0091686814022
 30
0.0
 10
397.5612336874736
 20
295.8003493266111
 30
0.0
 10
398.1488097084365
 20
295.6945786071015
 30
0.0
 10
399.3237258090873
 20
295.4807359107169
 30
0.0
 10
399.9110657091211
 20
295.3726626161152
 30
0.0
 10
401.0856669097158
 20
295.154909181017
 30
0.0
 10
401.6729281655789
 20
295.0452283036368
 30
0.0
 10
402.8475882755651
 20
294.8252632483463
 30
0.0
 10
403.4350053243976
 20
294.7149761458029
 30
0.0
 10
405.1976745894168
 20
294.3852265325767
 30
0.0
 10
406.3733592247291
 20
294.1667918443254
 30
0.0
 10
408.1395113858262
 20
293.8513717029838
 30
0.0
 10
408.7286700428783
 20
293.748296604347
 30
0.0
 10
409.9081669949691
 20
293.5480422727985
 30
0.0
 10
410.4985063553407
 20
293.4508694278891
 30
0.0
 10
411.0895645538621
 20
293.3574352139029
 30
0.0
  0
SPLINE
  5
1A3
330
1F
100
AcDbEntity
  8
1
100
AcDbSpline
210
0.0
220
0.0
230
1.0
 70
     8
 71
     3
 72
    31
 73
    27
 74
     0
 42
0.000000001
 43
0.0000000001
 40
0.0
 40
0.0
 40
0.0
 40
0.0
 40
0.1249999999999977
 40
0.1249999999999977
 40
0.2499999999999954
 40
0.2499999999999954
 40
0.3749999999999932
 40
0.3749999999999932
 40
0.4374999999999927
 40
0.4374999999999927
 40
0.4687499999999923
 40
0.4687499999999923
 40
0.499999999999992
 40
0.499999999999992
 40
0.6250000000000088
 40
0.6250000000000088
 40
0.7500000000000257
 40
0.7500000000000257
 40
0.7812500000000215
 40
0.7812500000000215
 40
0.7968750000000195
 40
0.7968750000000195
 40
0.8125000000000174
 40
0.875000000000012
 40
0.875000000000012
 40
1.0
 40
1.0
 40
1.0
 40
1.0
 10
410.5803992550618
 20
297.0708971413845
 30
0.0
 10
410.6959858018631
 20
297.1424115601336
 30
0.0
 10
410.8101210966832
 20
297.2168313440006
 30
0.0
 10
411.0348113480712
 20
297.3726450456969
 30
0.0
 10
411.1446524069992
 20
297.4535427267583
 30
0.0
 10
411.3583395857818
 20
297.622498379154
 30
0.0
 10
411.4621933092244
 20
297.710547268845
 30
0.0
 10
411.612418913354
 20
297.8492554125399
 30
0.0
 10
411.6615642595233
 20
297.8966020694224
 30
0.0
 10
411.7337044965486
 20
297.9695065407445
 30
0.0
 10
411.7575063413347
 20
297.994143357674
 30
0.0
 10
411.8043466546662
 20
298.0438722756013
 30
0.0
 10
411.8274064204772
 20
298.0689849620211
 30
0.0
 10
411.9408134008692
 20
298.1958514482198
 30
0.0
 10
412.0255325737012
 20
298.3014816906658
 30
0.0
 10
412.1799790343617
 20
298.5230681797488
 30
0.0
 10
412.2497455752903
 20
298.6389973899139
 30
0.0
 10
412.3246545743284
 20
298.7923802425807
 30
0.0
 10
412.3390151450544
 20
298.8234846988735
 30
0.0
 10
412.3595460050063
 20
298.8708370412863
 30
0.0
 10
412.3662224905829
 20
298.8867424410811
 30
0.0
 10
412.3791475133011
 20
298.9185987903425
 30
0.0
 10
412.4104415163806
 20
298.9984708371204
 30
0.0
 10
412.4365724933908
 20
299.0795146978443
 30
0.0
 10
412.4886928881073
 20
299.2764243943004
 30
0.0
 10
412.5093763016371
 20
299.4108894178344
 30
0.0
 10
412.5135695586728
 20
299.5490970905608
 30
0.0
  0
SPLINE
  5
1A4
330
1F
100
AcDbEntity
  8
1
100
AcDbSpline
210
0.0
220
0.0
230
1.0
 70
    12
 71
     3
 72
     9
 73
     5
 74
     0
 42
0.000000001
 43
0.0000000001
 40
0.0
 40
0.0
 40
0.0
 40
0.0
 40
0.3138805957715689
 40
1.0
 40
1.0
 40
1.0
 40
1.0
 10
375.0218840503054
 20
299.2526592733806
 30
0.0
 41
1.004895128519887
 10
378.9201728573087
 20
299.2031854067363
 30
0.0
 41
1.005825628717804
 10
391.3047919125815
 20
298.8841257098446
 30
0.0
 41
1.007560241208711
 10
404.1412302168555
 20
298.5990936762966
 30
0.0
 41
0.9950929878946695
 10
412.5135695586704
 20
299.5490970905606
 30
0.0
 41
0.9990960926261504
  0
SPLINE
  5
1A5
330
1F
100
AcDbEntity
  8
1
100
AcDbSpline
210
0.0
220
0.0
230
1.0
 70
     8
 71
     3
 72
    12
 73
     8
 74
     0
 42
0.000000001
 43
0.0000000001
 40
0.0
 40
0.0
 40
0.0
 40
0.0
 40
0.25
 40
0.25
 40
0.5
 40
0.5
 40
1.0
 40
1.0
 40
1.0
 40
1.0
 10
279.4048419452956
 20
271.9132673733133
 30
0.0
 10
279.5153865189928
 20
271.9210704821884
 30
0.0
 10
279.6277059667499
 20
271.9342436781399
 30
0.0
 10
279.8554859225898
 20
271.969999060992
 30
0.0
 10
279.9709471645257
 20
271.9925838753272
 30
0.0
 10
280.3215068980591
 20
272.0728067692581
 30
0.0
 10
280.5607721989041
 20
272.1428565332628
 30
0.0
 10
280.8043368819174
 20
272.22598461117
 30
0.0
  0
SPLINE
  5
1A6
330
1F
100
AcDbEntity
  8
1
100
AcDbSpline
210
0.0
220
0.0
230
1.0
 70
     8
 71
     3
 72
    30
 73
    26
 74
     0
 42
0.000000001
 43
0.0000000001
 40
0.0
 40
0.0
 40
0.0
 40
0.0
 40
0.1249999999999988
 40
0.1249999999999988
 40
0.1562499999999986
 40
0.1562499999999986
 40
0.1874999999999984
 40
0.1874999999999984
 40
0.2499999999999985
 40
0.2499999999999985
 40
0.3749999999999991
 40
0.3749999999999991
 40
0.4999999999999997
 40
0.4999999999999997
 40
0.625
 40
0.625
 40
0.7500000000000002
 40
0.7500000000000002
 40
0.8750000000000003
 40
0.8750000000000003
 40
0.90625
 40
0.90625
 40
0.9375
 40
0.9375
 40
1.0
 40
1.0
 40
1.0
 40
1.0
 10
287.6900561456793
 20
273.7159976054264
 30
0.0
 10
287.3504290074823
 20
273.6901118389287
 30
0.0
 10
287.015642261586
 20
273.6570001382105
 30
0.0
 10
286.6030681480104
 20
273.6076782528818
 30
0.0
 10
286.5208495573337
 20
273.5974166612344
 30
0.0
 10
286.3570042303126
 20
273.5761243889256
 30
0.0
 10
286.2753445575227
 20
273.565089067913
 30
0.0
 10
286.031468236169
 20
273.5308966413119
 30
0.0
 10
285.8708681739027
 20
273.5067274942218
 30
0.0
 10
285.3948557986362
 20
273.43049195156
 30
0.0
 10
285.0852203696576
 20
273.3747038535834
 30
0.0
 10
284.4807978598431
 20
273.2550979915436
 30
0.0
 10
284.1860140387259
 20
273.1912761775317
 30
0.0
 10
283.6110519802184
 20
273.0573350231471
 30
0.0
 10
283.3308755671832
 20
272.9872120107664
 30
0.0
 10
282.7851224067108
 20
272.8423567064293
 30
0.0
 10
282.5195465507439
 20
272.7676203252062
 30
0.0
 10
282.0031863839426
 20
272.615295901404
 30
0.0
 10
281.7524022865297
 20
272.5377023979638
 30
0.0
 10
281.448400588141
 20
272.4401570523682
 30
0.0
 10
281.3880746132064
 20
272.4206210687209
 30
0.0
 10
281.268379016949
 20
272.3815296497603
 30
0.0
 10
281.2090180826997
 20
272.3619768791579
 30
0.0
 10
281.0326972949361
 20
272.303449505563
 30
0.0
 10
280.91739234087
 20
272.2645701847571
 30
0.0
 10
280.8043368819174
 20
272.2259846111701
 30
0.0
  0
SPLINE
  5
1A7
330
1F
100
AcDbEntity
  8
1
100
AcDbSpline
210
0.0
220
0.0
230
1.0
 70
     8
 71
     3
 72
    53
 73
    49
 74
     0
 42
0.000000001
 43
0.0000000001
 40
0.0
 40
0.0
 40
0.0
 40
0.0
 40
0.0625
 40
0.0625
 40
0.1249999999999999
 40
0.1249999999999999
 40
0.1874999999999999
 40
0.1874999999999999
 40
0.2187499999999999
 40
0.2187499999999999
 40
0.2343749999999996
 40
0.2343749999999996
 40
0.2499999999999994
 40
0.2499999999999994
 40
0.3124999999999976
 40
0.3749999999999956
 40
0.3749999999999956
 40
0.4374999999999937
 40
0.4374999999999937
 40
0.4531249999999935
 40
0.4531249999999935
 40
0.4687499999999933
 40
0.4687499999999933
 40
0.4999999999999931
 40
0.4999999999999931
 40
0.5624999999999939
 40
0.5624999999999939
 40
0.6249999999999947
 40
0.6249999999999947
 40
0.6562499999999952
 40
0.6562499999999952
 40
0.6718749999999954
 40
0.6718749999999954
 40
0.6874999999999956
 40
0.6874999999999956
 40
0.749999999999996
 40
0.749999999999996
 40
0.8124999999999964
 40
0.8124999999999964
 40
0.8749999999999968
 40
0.8749999999999968
 40
0.8906249999999973
 40
0.8906249999999973
 40
0.906249999999998
 40
0.906249999999998
 40
0.9374999999999985
 40
0.9374999999999985
 40
1.0
 40
1.0
 40
1.0
 40
1.0
 10
279.4048419452957
 20
279.7703408886895
 30
0.0
 10
279.2500556327451
 20
279.608487283017
 30
0.0
 10
279.1039416687675
 20
279.4429076762243
 30
0.0
 10
278.8287187303675
 20
279.1048838353776
 30
0.0
 10
278.6996100861621
 20
278.932438791319
 30
0.0
 10
278.4584695745468
 20
278.581066500174
 30
0.0
 10
278.346436352043
 20
278.402139215846
 30
0.0
 10
278.1915648802151
 20
278.1290315787303
 30
0.0
 10
278.1421408801125
 20
278.0372081040136
 30
0.0
 10
278.0713849516573
 20
277.8982957206498
 30
0.0
 10
278.0483338198919
 20
277.851733211834
 30
0.0
 10
278.003536565627
 20
277.7585540505029
 30
0.0
 10
277.9817987003617
 20
277.7119591204687
 30
0.0
 10
277.8763869875668
 20
277.4789724248856
 30
0.0
 10
277.7286644595412
 20
277.1061241232494
 30
0.0
 10
277.6221324689143
 20
276.7337686640094
 30
0.0
 10
277.5363606769918
 20
276.3618961513555
 30
0.0
 10
277.5038530884366
 20
276.1762011986374
 30
0.0
 10
277.4766255814881
 20
275.9444879266383
 30
0.0
 10
277.4718518135624
 20
275.8981653752515
 30
0.0
 10
277.4636643517808
 20
275.8055623976425
 30
0.0
 10
277.4602492171219
 20
275.7592317382089
 30
0.0
 10
277.4521084232873
 20
275.6210683803395
 30
0.0
 10
277.449461929941
 20
275.5298569756354
 30
0.0
 10
277.4496990276207
 20
275.2588679844145
 30
0.0
 10
277.4607426510534
 20
275.0817335923392
 30
0.0
 10
277.5041431685178
 20
274.7343164338976
 30
0.0
 10
277.5365010358714
 20
274.5640340035846
 30
0.0
 10
277.60107159822
 20
274.3136468265786
 30
0.0
 10
277.6252713732205
 20
274.231024291312
 30
0.0
 10
277.6656275814743
 20
274.1083412543207
 30
0.0
 10
277.6797559971707
 20
274.0676553952302
 30
0.0
 10
277.7093756833256
 20
273.9866994496014
 30
0.0
 10
277.7248848870796
 20
273.9463886511301
 30
0.0
 10
277.8054538249085
 20
273.7468623332429
 30
0.0
 10
277.8797714459228
 20
273.593077704478
 30
0.0
 10
278.0472906941885
 20
273.2962952508216
 30
0.0
 10
278.1404950018423
 20
273.1532993430524
 30
0.0
 10
278.3454308698268
 20
272.8774201155877
 30
0.0
 10
278.4571632724263
 20
272.7445379300985
 30
0.0
 10
278.6084498320556
 20
272.5844349693256
 30
0.0
 10
278.6392892166633
 20
272.5527147210518
 30
0.0
 10
278.7021372446753
 20
272.4898682408578
 30
0.0
 10
278.7341403624768
 20
272.4587493672625
 30
0.0
 10
278.8315784218469
 20
272.3665789772379
 30
0.0
 10
278.8985449676276
 20
272.3066080013438
 30
0.0
 10
279.1053877812545
 20
272.1309389085644
 30
0.0
 10
279.2511962160298
 20
272.0194779406665
 30
0.0
 10
279.4048419452956
 20
271.9132673733136
 30
0.0
  0
SPLINE
  5
1A8
330
1F
100
AcDbEntity
  8
1
100
AcDbSpline
210
0.0
220
0.0
230
1.0
 70
     8
 71
     3
 72
    36
 73
    32
 74
     0
 42
0.000000001
 43
0.0000000001
 40
0.0
 40
0.0
 40
0.0
 40
0.0
 40
0.1250000000000731
 40
0.1250000000000731
 40
0.1875000000001096
 40
0.1875000000001096
 40
0.2187500000001258
 40
0.2187500000001258
 40
0.2500000000001421
 40
0.2500000000001421
 40
0.3750000000001898
 40
0.3750000000001898
 40
0.4062500000001933
 40
0.4062500000001933
 40
0.4375000000001969
 40
0.4375000000001969
 40
0.5000000000002009
 40
0.5000000000002009
 40
0.6250000000002146
 40
0.6250000000002146
 40
0.6562500000002291
 40
0.6562500000002291
 40
0.6875000000002436
 40
0.7500000000002072
 40
0.8125000000001707
 40
0.8125000000001707
 40
0.8437500000001193
 40
0.8437500000001193
 40
0.875000000000068
 40
0.875000000000068
 40
1.0
 40
1.0
 40
1.0
 40
1.0
 10
426.8286060818003
 20
304.0438722718281
 30
0.0
 10
426.826774484653
 20
304.0947120426399
 30
0.0
 10
426.8197948778956
 20
304.1444891104644
 30
0.0
 10
426.8020831099526
 20
304.2176596731746
 30
0.0
 10
426.7949620725879
 20
304.2417986119041
 30
0.0
 10
426.7824287100553
 20
304.2776247518145
 30
0.0
 10
426.7779284550046
 20
304.2895344909107
 30
0.0
 10
426.7683694331102
 20
304.3130520330122
 30
0.0
 10
426.7633171933565
 20
304.3246493666382
 30
0.0
 10
426.7367231971358
 20
304.3818471067808
 30
0.0
 10
426.7112225848991
 20
304.4251041323807
 30
0.0
 10
426.6741440241731
 20
304.4760957034153
 30
0.0
 10
426.6664657251017
 20
304.4861385835202
 30
0.0
 10
426.6505759841401
 20
304.5059087584244
 30
0.0
 10
426.6423493039903
 20
304.5156510778642
 30
0.0
 10
426.6171208026266
 20
304.5441026716248
 30
0.0
 10
426.5995019290779
 20
304.5621323549037
 30
0.0
 10
426.5443118828874
 20
304.613484893768
 30
0.0
 10
426.5044305516438
 20
304.6440985245516
 30
0.0
 10
426.4505857954896
 20
304.6776826879474
 30
0.0
 10
426.4396014528251
 20
304.6841688698011
 30
0.0
 10
426.4174653951039
 20
304.6965255064165
 30
0.0
 10
426.3839264417264
 20
304.7141908884185
 30
0.0
 10
426.3263823180028
 20
304.7393592465823
 30
0.0
 10
426.2786024393265
 20
304.7549636563527
 30
0.0
 10
426.2420973775659
 20
304.7649267293717
 30
0.0
 10
426.2298171222963
 20
304.767957171353
 30
0.0
 10
426.2050274369024
 20
304.7734229403325
 30
0.0
 10
426.1925017649604
 20
304.7758595274316
 30
0.0
 10
426.1298808677182
 20
304.7864205201124
 30
0.0
 10
426.0793810019663
 20
304.7898383025029
 30
0.0
 10
426.0284650116672
 20
304.7880631341545
 30
0.0
  0
SPLINE
  5
1A9
330
1F
100
AcDbEntity
  8
1
100
AcDbSpline
210
0.0
220
0.0
230
1.0
 70
     8
 71
     3
 72
    36
 73
    32
 74
     0
 42
0.000000001
 43
0.0000000001
 40
0.0
 40
0.0
 40
0.0
 40
0.0
 40
0.1249999999998687
 40
0.1249999999998687
 40
0.1874999999997696
 40
0.1874999999997696
 40
0.218749999999753
 40
0.218749999999753
 40
0.2499999999997364
 40
0.2499999999997364
 40
0.3749999999996024
 40
0.3749999999996024
 40
0.4062499999995828
 40
0.4062499999995828
 40
0.4374999999995632
 40
0.4374999999995632
 40
0.499999999999578
 40
0.499999999999578
 40
0.6249999999996076
 40
0.6249999999996076
 40
0.6562499999996259
 40
0.6562499999996259
 40
0.6874999999996442
 40
0.7499999999997074
 40
0.8124999999997706
 40
0.8124999999997706
 40
0.8437499999998133
 40
0.8437499999998133
 40
0.8749999999998559
 40
0.8749999999998559
 40
1.0
 40
1.0
 40
1.0
 40
1.0
 10
418.0557887655624
 20
304.5100985410879
 30
0.0
 10
418.004867165882
 20
304.5083231771703
 30
0.0
 10
417.9550154090793
 20
304.5014071516541
 30
0.0
 10
417.8817428574906
 20
304.4838010929516
 30
0.0
 10
417.8575716105123
 20
304.4767170292491
 30
0.0
 10
417.8216995765406
 20
304.4642417703856
 30
0.0
 10
417.8097749302273
 20
304.4597613793641
 30
0.0
 10
417.7862286557531
 20
304.4502426873275
 30
0.0
 10
417.7746175073841
 20
304.4452108917154
 30
0.0
 10
417.717353388374
 20
304.4187204806861
 30
0.0
 10
417.6740518032498
 20
304.3933070624726
 30
0.0
 10
417.6230150525912
 20
304.3563428207619
 30
0.0
 10
417.6129636674987
 20
304.3486876543233
 30
0.0
 10
417.5931775606063
 20
304.3328447244448
 30
0.0
 10
417.5834278053687
 20
304.3246417635179
 30
0.0
 10
417.5549557556147
 20
304.2994845094819
 30
0.0
 10
417.5369148175823
 20
304.2819134666877
 30
0.0
 10
417.4855354650163
 20
304.2268678828499
 30
0.0
 10
417.454913156539
 20
304.1870841436208
 30
0.0
 10
417.4213300402228
 20
304.133363037557
 30
0.0
 10
417.4148446732157
 20
304.1224035374337
 30
0.0
 10
417.4024908557748
 20
304.1003167952727
 30
0.0
 10
417.3848314855124
 20
304.0668514552369
 30
0.0
 10
417.3596819102386
 20
304.0094282510273
 30
0.0
 10
417.344101815688
 20
303.961743232453
 30
0.0
 10
417.3341605472715
 20
303.9253085953219
 30
0.0
 10
417.3311379693028
 20
303.9130516946292
 30
0.0
 10
417.3256891485761
 20
303.8883084720153
 30
0.0
 10
417.3232616606448
 20
303.8758059362879
 30
0.0
 10
417.3127488277516
 20
303.8132990098772
 30
0.0
 10
417.3093782826238
 20
303.7628857164871
 30
0.0
 10
417.3112096780075
 20
303.7120515460428
 30
0.0
  0
SPLINE
  5
1AA
330
1F
100
AcDbEntity
  8
1
100
AcDbSpline
210
0.0
220
0.0
230
1.0
 70
     8
 71
     3
 72
    36
 73
    32
 74
     0
 42
0.000000001
 43
0.0000000001
 40
0.0
 40
0.0
 40
0.0
 40
0.0
 40
0.1250000000000696
 40
0.1250000000000696
 40
0.1875000000001033
 40
0.1875000000001033
 40
0.2187500000001315
 40
0.2187500000001315
 40
0.2500000000001597
 40
0.2500000000001597
 40
0.3750000000002474
 40
0.3750000000002474
 40
0.4062500000002587
 40
0.4062500000002587
 40
0.4375000000002701
 40
0.4375000000002701
 40
0.500000000000293
 40
0.500000000000293
 40
0.6250000000003371
 40
0.6250000000003371
 40
0.6562500000003628
 40
0.6562500000003628
 40
0.6875000000003886
 40
0.7500000000003776
 40
0.8125000000003666
 40
0.8125000000003666
 40
0.843750000000328
 40
0.843750000000328
 40
0.8750000000002893
 40
0.8750000000002893
 40
1.0
 40
1.0
 40
1.0
 40
1.0
 10
417.5979785768801
 20
295.7521870553053
 30
0.0
 10
417.5998101740274
 20
295.7013472844936
 30
0.0
 10
417.6067897807848
 20
295.6515702166691
 30
0.0
 10
417.6245015487277
 20
295.578399653959
 30
0.0
 10
417.6316225860925
 20
295.5542607152295
 30
0.0
 10
417.644155948625
 20
295.518434575319
 30
0.0
 10
417.6486562036756
 20
295.5065248362228
 30
0.0
 10
417.6582152255702
 20
295.4830072941213
 30
0.0
 10
417.6632674653238
 20
295.4714099604953
 30
0.0
 10
417.6898614615444
 20
295.4142122203527
 30
0.0
 10
417.7153620737811
 20
295.3709551947528
 30
0.0
 10
417.7524406345074
 20
295.3199636237182
 30
0.0
 10
417.7601189335787
 20
295.3099207436133
 30
0.0
 10
417.7760086745403
 20
295.2901505687091
 30
0.0
 10
417.7842353546901
 20
295.2804082492694
 30
0.0
 10
417.809463856054
 20
295.2519566555087
 30
0.0
 10
417.8270827296024
 20
295.23392697223
 30
0.0
 10
417.882272775793
 20
295.1825744333655
 30
0.0
 10
417.9221541070365
 20
295.1519608025821
 30
0.0
 10
417.9759988631908
 20
295.1183766391862
 30
0.0
 10
417.9869832058553
 20
295.1118904573324
 30
0.0
 10
418.0091192635765
 20
295.099533820717
 30
0.0
 10
418.0426582169541
 20
295.081868438715
 30
0.0
 10
418.1002023406776
 20
295.0567000805511
 30
0.0
 10
418.1479822193538
 20
295.0410956707807
 30
0.0
 10
418.1844872811145
 20
295.0311325977618
 30
0.0
 10
418.1967675363841
 20
295.0281021557805
 30
0.0
 10
418.2215572217778
 20
295.0226363868011
 30
0.0
 10
418.2340828937198
 20
295.0201997997019
 30
0.0
 10
418.2967037909622
 20
295.0096388070211
 30
0.0
 10
418.3472036567141
 20
295.0062210246307
 30
0.0
 10
418.3981196470131
 20
295.0079961929791
 30
0.0
  0
SPLINE
  5
1AB
330
1F
100
AcDbEntity
  8
1
100
AcDbSpline
210
0.0
220
0.0
230
1.0
 70
     8
 71
     3
 72
    36
 73
    32
 74
     0
 42
0.000000001
 43
0.0000000001
 40
0.0
 40
0.0
 40
0.0
 40
0.0
 40
0.1249999999998688
 40
0.1249999999998688
 40
0.1874999999997694
 40
0.1874999999997694
 40
0.218749999999752
 40
0.218749999999752
 40
0.2499999999997347
 40
0.2499999999997347
 40
0.3749999999996642
 40
0.3749999999996642
 40
0.4062499999996608
 40
0.4062499999996608
 40
0.4374999999996574
 40
0.4374999999996574
 40
0.4999999999997032
 40
0.4999999999997032
 40
0.6249999999997966
 40
0.6249999999997966
 40
0.6562499999998294
 40
0.6562499999998294
 40
0.6874999999998622
 40
0.7499999999998991
 40
0.8124999999999362
 40
0.8124999999999362
 40
0.8437499999999445
 40
0.8437499999999445
 40
0.8749999999999529
 40
0.8749999999999529
 40
1.0
 40
1.0
 40
1.0
 40
1.0
 10
426.3707958931179
 20
295.2859607860457
 30
0.0
 10
426.4217174927983
 20
295.2877361499631
 30
0.0
 10
426.4715692496011
 20
295.2946521754795
 30
0.0
 10
426.5448418011896
 20
295.3122582341819
 30
0.0
 10
426.5690130481681
 20
295.3193422978844
 30
0.0
 10
426.6048850821398
 20
295.331817556748
 30
0.0
 10
426.616809728453
 20
295.3362979477695
 30
0.0
 10
426.6403560029271
 20
295.345816639806
 30
0.0
 10
426.6519671512961
 20
295.3508484354182
 30
0.0
 10
426.7092312703063
 20
295.3773388464473
 30
0.0
 10
426.7525328554306
 20
295.4027522646608
 30
0.0
 10
426.8035696060891
 20
295.4397165063716
 30
0.0
 10
426.8136209911817
 20
295.4473716728102
 30
0.0
 10
426.8334070980741
 20
295.4632146026888
 30
0.0
 10
426.8431568533116
 20
295.4714175636155
 30
0.0
 10
426.8716289030656
 20
295.4965748176517
 30
0.0
 10
426.8896698410981
 20
295.5141458604458
 30
0.0
 10
426.9410491936642
 20
295.5691914442837
 30
0.0
 10
426.9716715021415
 20
295.6089751835128
 30
0.0
 10
427.0052546184576
 20
295.6626962895765
 30
0.0
 10
427.0117399854647
 20
295.6736557896999
 30
0.0
 10
427.0240938029056
 20
295.6957425318609
 30
0.0
 10
427.0417531731679
 20
295.7292078718966
 30
0.0
 10
427.0669028518904
 20
295.7866310363077
 30
0.0
 10
427.0824828429923
 20
295.8343160946805
 30
0.0
 10
427.092424111409
 20
295.8707507318116
 30
0.0
 10
427.0954466893775
 20
295.8830076325043
 30
0.0
 10
427.1008955101042
 20
295.9077508551183
 30
0.0
 10
427.1033229980356
 20
295.9202533908456
 30
0.0
 10
427.1138358309285
 20
295.9827603172563
 30
0.0
 10
427.1172063760565
 20
296.0331736106464
 30
0.0
 10
427.1153749806729
 20
296.0840077810907
 30
0.0
  0
SPLINE
  5
1AC
330
1F
100
AcDbEntity
  8
1
100
AcDbSpline
210
0.0
220
0.0
230
1.0
 70
     8
 71
     3
 72
    12
 73
     8
 74
     0
 42
0.000000001
 43
0.0000000001
 40
0.0
 40
0.0
 40
0.0
 40
0.0
 40
0.25
 40
0.5
 40
0.75
 40
0.75
 40
1.0
 40
1.0
 40
1.0
 40
1.0
 10
295.6997430987598
 20
273.4575929311997
 30
0.0
 10
295.876648547174
 20
273.4519161236985
 30
0.0
 10
296.2336944362456
 20
273.4428225424077
 30
0.0
 10
296.7793437276106
 20
273.4342939402541
 30
0.0
 10
297.1501461309578
 20
273.4311959708303
 30
0.0
 10
297.5246568599389
 20
273.429148270233
 30
0.0
 10
297.7137662695906
 20
273.4286483804404
 30
0.0
 10
297.9048419452957
 20
273.4286483804404
 30
0.0
  0
SPLINE
  5
1AD
330
1F
100
AcDbEntity
  8
1
100
AcDbSpline
210
0.0
220
0.0
230
1.0
 70
     8
 71
     3
 72
    14
 73
    10
 74
     0
 42
0.000000001
 43
0.0000000001
 40
0.0
 40
0.0
 40
0.0
 40
0.0
 40
0.25
 40
0.25
 40
0.5
 40
0.5
 40
0.75
 40
0.75
 40
1.0
 40
1.0
 40
1.0
 40
1.0
 10
290.7038318185191
 20
273.7243676062345
 30
0.0
 10
290.4415169016569
 20
273.7434010171635
 30
0.0
 10
290.1823654858112
 20
273.7568448275456
 30
0.0
 10
289.669750944887
 20
273.7736817882911
 30
0.0
 10
289.4162889400448
 20
273.7770729593052
 30
0.0
 10
288.9145662904349
 20
273.7746650007885
 30
0.0
 10
288.6663064520012
 20
273.768864446543
 30
0.0
 10
288.1746214555566
 20
273.7487209250116
 30
0.0
 10
287.9311968866852
 20
273.7343769167732
 30
0.0
 10
287.690056145679
 20
273.7159976054264
 30
0.0
  0
SPLINE
  5
1AE
330
1F
100
AcDbEntity
  8
1
100
AcDbSpline
210
0.0
220
0.0
230
1.0
 70
     9
 71
     3
 72
   179
 73
   175
 74
     0
 42
0.000000001
 43
0.0000000001
 40
0.0
 40
0.0
 40
0.0
 40
0.0
 40
0.0156249999999981
 40
0.0156249999999981
 40
0.0234374999999978
 40
0.0234374999999978
 40
0.0312499999999976
 40
0.0312499999999976
 40
0.0468749999999966
 40
0.0468749999999966
 40
0.0546874999999964
 40
0.0546874999999964
 40
0.0624999999999962
 40
0.0624999999999962
 40
0.0781249999999949
 40
0.0781249999999949
 40
0.0937499999999937
 40
0.0937499999999937
 40
0.1015624999999934
 40
0.1015624999999934
 40
0.1093749999999931
 40
0.1093749999999931
 40
0.1249999999999916
 40
0.1249999999999916
 40
0.1328124999999911
 40
0.1328124999999911
 40
0.1406249999999906
 40
0.1406249999999906
 40
0.1562499999999895
 40
0.1562499999999895
 40
0.1718749999999883
 40
0.1718749999999883
 40
0.1796874999999877
 40
0.1796874999999877
 40
0.187499999999987
 40
0.187499999999987
 40
0.2031249999999853
 40
0.2031249999999853
 40
0.2109374999999846
 40
0.2109374999999846
 40
0.2187499999999838
 40
0.2187499999999838
 40
0.234374999999982
 40
0.234374999999982
 40
0.2499999999999801
 40
0.2499999999999801
 40
0.2578124999999792
 40
0.2578124999999792
 40
0.2656249999999784
 40
0.2656249999999784
 40
0.2812499999999767
 40
0.2812499999999767
 40
0.289062499999976
 40
0.289062499999976
 40
0.2968749999999752
 40
0.2968749999999752
 40
0.3124999999999738
 40
0.3124999999999738
 40
0.3281249999999724
 40
0.3281249999999724
 40
0.335937499999972
 40
0.335937499999972
 40
0.3437499999999715
 40
0.3437499999999715
 40
0.3593749999999706
 40
0.3593749999999706
 40
0.3671874999999704
 40
0.3671874999999704
 40
0.37499999999997
 40
0.37499999999997
 40
0.3906249999999691
 40
0.3906249999999691
 40
0.4062499999999682
 40
0.4062499999999682
 40
0.4140624999999679
 40
0.4140624999999679
 40
0.4218749999999674
 40
0.4218749999999674
 40
0.4374999999999673
 40
0.4374999999999673
 40
0.4453124999999673
 40
0.4453124999999673
 40
0.4531249999999671
 40
0.4609374999999671
 40
0.4609374999999671
 40
0.4687499999999671
 40
0.4687499999999671
 40
0.4843749999999656
 40
0.4843749999999656
 40
0.4921874999999656
 40
0.4921874999999656
 40
0.4999999999999656
 40
0.4999999999999656
 40
0.5156249999999665
 40
0.5156249999999665
 40
0.5234374999999666
 40
0.5234374999999666
 40
0.5312499999999668
 40
0.539062499999967
 40
0.539062499999967
 40
0.5468749999999672
 40
0.5468749999999672
 40
0.5624999999999684
 40
0.5624999999999684
 40
0.5781249999999697
 40
0.5781249999999697
 40
0.5937499999999708
 40
0.5937499999999708
 40
0.6015624999999714
 40
0.6015624999999714
 40
0.6093749999999721
 40
0.6171874999999726
 40
0.6171874999999726
 40
0.6249999999999733
 40
0.6249999999999733
 40
0.6406249999999742
 40
0.6406249999999742
 40
0.6562499999999751
 40
0.6562499999999751
 40
0.671874999999976
 40
0.671874999999976
 40
0.6796874999999768
 40
0.6796874999999768
 40
0.6874999999999777
 40
0.6953124999999784
 40
0.6953124999999784
 40
0.7031249999999793
 40
0.7031249999999793
 40
0.7187499999999805
 40
0.7187499999999805
 40
0.7343749999999817
 40
0.7343749999999817
 40
0.7499999999999828
 40
0.7499999999999828
 40
0.7578124999999835
 40
0.7578124999999835
 40
0.7656249999999841
 40
0.7656249999999841
 40
0.7812499999999853
 40
0.7968749999999865
 40
0.7968749999999865
 40
0.8046874999999873
 40
0.8046874999999873
 40
0.8124999999999882
 40
0.8124999999999882
 40
0.82812499999999
 40
0.82812499999999
 40
0.8359374999999909
 40
0.8359374999999909
 40
0.8437499999999918
 40
0.8437499999999918
 40
0.8593749999999925
 40
0.8593749999999925
 40
0.874999999999993
 40
0.874999999999993
 40
0.8828124999999939
 40
0.8828124999999939
 40
0.8906249999999944
 40
0.8906249999999944
 40
0.906249999999996
 40
0.906249999999996
 40
0.9140624999999971
 40
0.9140624999999971
 40
0.9218749999999982
 40
0.9218749999999982
 40
0.9374999999999994
 40
0.9374999999999994
 40
0.9531250000000007
 40
0.9531250000000007
 40
0.9609375000000007
 40
0.9609375000000007
 40
0.9687500000000007
 40
0.9687500000000007
 40
1.0
 40
1.0
 40
1.0
 40
1.0
 10
425.0798714072397
 20
283.3292508771858
 30
0.0
 10
425.0890207737069
 20
283.3283801716569
 30
0.0
 10
425.0981391319145
 20
283.3307226001469
 30
0.0
 10
425.1117704300589
 20
283.3390276320654
 30
0.0
 10
425.1163064756984
 20
283.3425959792618
 30
0.0
 10
425.1253630037139
 20
283.3513453682292
 30
0.0
 10
425.1298847373899
 20
283.3565307280038
 30
0.0
 10
425.1433530214675
 20
283.374429557359
 30
0.0
 10
425.1522273462131
 20
283.3895001237532
 30
0.0
 10
425.1653815417649
 20
283.4168278416545
 30
0.0
 10
425.1697456563743
 20
283.4267398818597
 30
0.0
 10
425.1783909423034
 20
283.4480852280328
 30
0.0
 10
425.1826692547578
 20
283.4595087578408
 30
0.0
 10
425.1953718551728
 20
283.4960208303041
 30
0.0
 10
425.2036641305705
 20
283.523345361664
 30
0.0
 10
425.2198921771843
 20
283.5840327839695
 30
0.0
 10
425.2277721847743
 20
283.6171924800122
 30
0.0
 10
425.2392178622602
 20
283.6710226801821
 30
0.0
 10
425.2429720203681
 20
283.689654442395
 30
0.0
 10
425.2503573755128
 20
283.7283039977218
 30
0.0
 10
425.2539907064193
 20
283.7483370965298
 30
0.0
 10
425.2646463529591
 20
283.8101947960607
 30
0.0
 10
425.2714443838821
 20
283.853869361439
 30
0.0
 10
425.281182731129
 20
283.9230361467395
 30
0.0
 10
425.2843562873319
 20
283.9467343082338
 30
0.0
 10
425.2905273344463
 20
283.9951958927163
 30
0.0
 10
425.2935228414915
 20
284.0199398589167
 30
0.0
 10
425.3022410796067
 20
284.0957012086929
 30
0.0
 10
425.3076961846964
 20
284.1482442977302
 30
0.0
 10
425.3178859082901
 20
284.2574378883904
 30
0.0
 10
425.3225827233639
 20
284.3136891438174
 30
0.0
 10
425.3290264861854
 20
284.4003970728684
 30
0.0
 10
425.331074606724
 20
284.429695654885
 30
0.0
 10
425.3349702239506
 20
284.4890887556582
 30
0.0
 10
425.3368179957027
 20
284.5191950150086
 30
0.0
 10
425.3420297015368
 20
284.6102111336362
 30
0.0
 10
425.3450739542496
 20
284.6719771478473
 30
0.0
 10
425.3489969028821
 20
284.7662542734769
 30
0.0
 10
425.3501985263572
 20
284.7979956782061
 30
0.0
 10
425.3523767056321
 20
284.861778268559
 30
0.0
 10
425.3533533842486
 20
284.8938110085236
 30
0.0
 10
425.3559488402085
 20
284.9903302243409
 30
0.0
 10
425.3572338477256
 20
285.0552366768292
 30
0.0
 10
425.3589078188261
 20
285.1861770579483
 30
0.0
 10
425.3592900314961
 20
285.2516890462968
 30
0.0
 10
425.3591900921562
 20
285.3499915783676
 30
0.0
 10
425.3590443819611
 20
285.3827663866763
 30
0.0
 10
425.3585272485315
 20
285.4483306581902
 30
0.0
 10
425.3581554383229
 20
285.4811184368422
 30
0.0
 10
425.3567078458774
 20
285.5789771531481
 30
0.0
 10
425.3552996890654
 20
285.6437213208088
 30
0.0
 10
425.3525253546876
 20
285.740097948925
 30
0.0
 10
425.3514884051178
 20
285.7721418688802
 30
0.0
 10
425.3492013876509
 20
285.8357165122149
 30
0.0
 10
425.3479515127069
 20
285.8672535980982
 30
0.0
 10
425.3438852241156
 20
285.9611198766478
 30
0.0
 10
425.3407518052304
 20
286.0227245401905
 30
0.0
 10
425.3336411816422
 20
286.1438624456237
 30
0.0
 10
425.3296899181198
 20
286.2029589383024
 30
0.0
 10
425.3231761642529
 20
286.2894212754023
 30
0.0
 10
425.3209069257965
 20
286.3178776610567
 30
0.0
 10
425.3161715352916
 20
286.3740581527109
 30
0.0
 10
425.3137062576388
 20
286.4017671310179
 30
0.0
 10
425.306053359329
 20
286.4833709730336
 30
0.0
 10
425.3005975855422
 20
286.535888669809
 30
0.0
 10
425.2918837783751
 20
286.6118411988438
 30
0.0
 10
425.2888867934731
 20
286.6367162577496
 30
0.0
 10
425.2827414244692
 20
286.6853028913908
 30
0.0
 10
425.2795917417257
 20
286.7090291295576
 30
0.0
 10
425.2699130376035
 20
286.7785164683754
 30
0.0
 10
425.2631501366222
 20
286.8226183270086
 30
0.0
 10
425.2490268044271
 20
286.9061587691884
 30
0.0
 10
425.2417112010148
 20
286.9453378285818
 30
0.0
 10
425.2303598188901
 20
287.0002495621228
 30
0.0
 10
425.2265129160996
 20
287.0179095152729
 30
0.0
 10
425.2186920247043
 20
287.0519326452625
 30
0.0
 10
425.2147218364141
 20
287.0682768325561
 30
0.0
 10
425.2026800009422
 20
287.1151206638128
 30
0.0
 10
425.1944596524013
 20
287.1435153236212
 30
0.0
 10
425.1818394860912
 20
287.1818413892917
 30
0.0
 10
425.177579624607
 20
287.1939156887689
 30
0.0
 10
425.1690025796007
 20
287.2165206128072
 30
0.0
 10
425.1603615387716
 20
287.2376059570413
 30
0.0
 10
425.1515929710907
 20
287.2556631782034
 30
0.0
 10
425.1427604153486
 20
287.2722010038615
 30
0.0
 10
425.1383081033813
 20
287.2797161714146
 30
0.0
 10
425.1248818518126
 20
287.2999172146452
 30
0.0
 10
425.1158720621022
 20
287.3102205175579
 30
0.0
 10
425.102269283848
 20
287.3209475933137
 30
0.0
 10
425.0977203159228
 20
287.323733897966
 30
0.0
 10
425.0885927007872
 20
287.327713656984
 30
0.0
 10
425.0840215087114
 20
287.3289020840026
 30
0.0
 10
425.070331094338
 20
287.3300599108392
 30
0.0
 10
425.0612168701679
 20
287.3276362393742
 30
0.0
 10
425.0475647360117
 20
287.3191762485303
 30
0.0
 10
425.0430130163504
 20
287.3155448722759
 30
0.0
 10
425.0339620704441
 20
287.3067000682127
 30
0.0
 10
425.0249538558808
 20
287.2962701743713
 30
0.0
 10
425.0160308784093
 20
287.2826784692331
 30
0.0
 10
425.007150716144
 20
287.2674985634805
 30
0.0
 10
425.0027270442414
 20
287.2591038062239
 30
0.0
 10
424.9895574639046
 20
287.2315865458288
 30
0.0
 10
424.9809351491206
 20
287.2101922717753
 30
0.0
 10
424.9640043838341
 20
287.161323194676
 30
0.0
 10
424.9556765759163
 20
287.1337641928853
 30
0.0
 10
424.9394989094636
 20
287.0730367588199
 30
0.0
 10
424.9316353031745
 20
287.0398464806799
 30
0.0
 10
424.9201798331103
 20
286.9857948801555
 30
0.0
 10
424.9164156768433
 20
286.9670499054341
 30
0.0
 10
424.9090418766463
 20
286.928332719691
 30
0.0
 10
424.9018127323628
 20
286.8883448160951
 30
0.0
 10
424.8948719116145
 20
286.8458241583525
 30
0.0
 10
424.8880758155046
 20
286.8020321790451
 30
0.0
 10
424.8847459208709
 20
286.7794699504802
 30
0.0
 10
424.875008711722
 20
286.7100930042988
 30
0.0
 10
424.8688623014728
 20
286.6616711046851
 30
0.0
 10
424.8572558464907
 20
286.5605097502388
 30
0.0
 10
424.8517851771351
 20
286.5076347960837
 30
0.0
 10
424.8416449976943
 20
286.3986054153898
 30
0.0
 10
424.8369632843931
 20
286.3423688668196
 30
0.0
 10
424.8305251553758
 20
286.2554229380686
 30
0.0
 10
424.8284762751391
 20
286.2259957178418
 30
0.0
 10
424.8245964092896
 20
286.1665995424565
 30
0.0
 10
424.8209283363117
 20
286.1065834820057
 30
0.0
 10
424.8176817400914
 20
286.045333824099
 30
0.0
 10
424.8146463708496
 20
285.9834659374079
 30
0.0
 10
424.8132325954507
 20
285.9521795685599
 30
0.0
 10
424.8093257899852
 20
285.8577501681673
 30
0.0
 10
424.8071664304296
 20
285.7940773624514
 30
0.0
 10
424.8037306795792
 20
285.6653039512165
 30
0.0
 10
424.8024543108821
 20
285.6000626362898
 30
0.0
 10
424.8008128220262
 20
285.4694664518922
 30
0.0
 10
424.8004423963553
 20
285.4039845328128
 30
0.0
 10
424.8005628867037
 20
285.3054856482395
 30
0.0
 10
424.8007165522653
 20
285.2726074171955
 30
0.0
 10
424.8012454514943
 20
285.2072928056972
 30
0.0
 10
424.8016206195455
 20
285.1747887746491
 30
0.0
 10
424.803072388599
 20
285.0777283511318
 30
0.0
 10
424.8058766030736
 20
284.9495168049093
 30
0.0
 10
424.8103934960404
 20
284.8236762304215
 30
0.0
 10
424.8144326362966
 20
284.7301976723949
 30
0.0
 10
424.8158877847011
 20
284.6991887280797
 30
0.0
 10
424.8190195594437
 20
284.6374774456939
 30
0.0
 10
424.8206905668617
 20
284.6068911454815
 30
0.0
 10
424.8259998754386
 20
284.5162418725664
 30
0.0
 10
424.8299403384169
 20
284.4571551325868
 30
0.0
 10
424.8364521633528
 20
284.3705433279788
 30
0.0
 10
424.8387256659781
 20
284.3419827794928
 30
0.0
 10
424.8434510674047
 20
284.2858212080901
 30
0.0
 10
424.84590497981
 20
284.2581901283681
 30
0.0
 10
424.853538676295
 20
284.1766377448158
 30
0.0
 10
424.8589944379346
 20
284.1240135698486
 30
0.0
 10
424.8706170546713
 20
284.0225367564588
 30
0.0
 10
424.8767471236096
 20
283.9739970957988
 30
0.0
 10
424.8864158102756
 20
283.9044542864824
 30
0.0
 10
424.8897177780232
 20
283.8818187740561
 30
0.0
 10
424.8964807978939
 20
283.8376450810988
 30
0.0
 10
424.8999406380908
 20
283.8161182311079
 30
0.0
 10
424.9105046989172
 20
283.7535195319205
 30
0.0
 10
424.9178102133083
 20
283.7143099133712
 30
0.0
 10
424.9291628516399
 20
283.6592812543061
 30
0.0
 10
424.933018100032
 20
283.6415485810444
 30
0.0
 10
424.9408312296372
 20
283.6074911784914
 30
0.0
 10
424.9447886277196
 20
283.5911653620179
 30
0.0
 10
424.9568124799231
 20
283.5442849260808
 30
0.0
 10
424.9650302290056
 20
283.5158223008705
 30
0.0
 10
424.9818736279242
 20
283.4645371988429
 30
0.0
 10
424.9904417676934
 20
283.4418934583908
 30
0.0
 10
425.0034919596933
 20
283.4124489532049
 30
0.0
 10
425.0078761702503
 20
283.403385651692
 30
0.0
 10
425.0167133314125
 20
283.3867719523653
 30
0.0
 10
425.0211706938508
 20
283.3792170755148
 30
0.0
 10
425.0434966550093
 20
283.3454594240939
 30
0.0
 10
425.0615726743054
 20
283.3309922882436
 30
0.0
 10
425.0798714072399
 20
283.3292508771858
 30
0.0
  0
SPLINE
  5
1AF
330
1F
100
AcDbEntity
  8
1
100
AcDbSpline
210
0.0
220
0.0
230
1.0
 70
     8
 71
     3
 72
    18
 73
    14
 74
     0
 42
0.000000001
 43
0.0000000001
 40
0.0
 40
0.0
 40
0.0
 40
0.0
 40
0.2500000000000001
 40
0.2500000000000001
 40
0.5000000000000002
 40
0.5000000000000002
 40
0.7500000000000004
 40
0.7500000000000004
 40
0.8124999999999934
 40
0.8124999999999934
 40
0.8749999999999864
 40
0.8749999999999864
 40
1.0
 40
1.0
 40
1.0
 40
1.0
 10
418.4967334780802
 20
293.2771738667931
 30
0.0
 10
418.2990594894522
 20
293.3006386673067
 30
0.0
 10
418.0955218801058
 20
293.3257283649746
 30
0.0
 10
417.6786707163538
 20
293.3815938304708
 30
0.0
 10
417.4653444103189
 20
293.4123575032779
 30
0.0
 10
417.0300533703485
 20
293.481482001113
 30
0.0
 10
416.8080830492812
 20
293.5198354137822
 30
0.0
 10
416.525613689386
 20
293.5735900721372
 30
0.0
 10
416.4688684121512
 20
293.5846314070378
 30
0.0
 10
416.3548808639596
 20
293.6073211323509
 30
0.0
 10
416.2977197985116
 20
293.6189536361557
 30
0.0
 10
416.1260063757881
 20
293.654689188412
 30
0.0
 10
416.0111168286336
 20
293.6796517712244
 30
0.0
 10
415.8958419452956
 20
293.7058209349663
 30
0.0
  0
SPLINE
  5
1B0
330
1F
100
AcDbEntity
  8
1
100
AcDbSpline
210
0.0
220
0.0
230
1.0
 70
     8
 71
     3
 72
    18
 73
    14
 74
     0
 42
0.000000001
 43
0.0000000001
 40
0.0
 40
0.0
 40
0.0
 40
0.0
 40
0.2500000000000063
 40
0.2500000000000063
 40
0.5000000000000127
 40
0.5000000000000127
 40
0.7500000000000191
 40
0.7500000000000191
 40
0.81250000000002
 40
0.81250000000002
 40
0.8750000000000211
 40
0.8750000000000211
 40
1.0
 40
1.0
 40
1.0
 40
1.0
 10
415.8958419452956
 20
291.7250182093968
 30
0.0
 10
416.1312589590058
 20
291.6973024875659
 30
0.0
 10
416.3635884857685
 20
291.679049217071
 30
0.0
 10
416.8216626426513
 20
291.6602760215283
 30
0.0
 10
417.0474105170016
 20
291.65975906909
 30
0.0
 10
417.4915142786463
 20
291.6756088771244
 30
0.0
 10
417.7098778998275
 20
291.691976760138
 30
0.0
 10
417.9773618762331
 20
291.7226271570507
 30
0.0
 10
418.0306248868578
 20
291.7292731054648
 30
0.0
 10
418.1363757446346
 20
291.7435520772152
 30
0.0
 10
418.1888001384463
 20
291.7511755823948
 30
0.0
 10
418.3446794455988
 20
291.7754611528652
 30
0.0
 10
418.4467429587455
 20
291.7935379141807
 30
0.0
 10
418.546814889399
 20
291.8134071755665
 30
0.0
  0
SPLINE
  5
1B1
330
1F
100
AcDbEntity
  8
1
100
AcDbSpline
210
0.0
220
0.0
230
1.0
 70
    24
 71
     3
 72
    12
 73
     8
 74
     0
 42
0.000000001
 43
0.0000000001
 40
0.0
 40
0.0
 40
0.0
 40
0.0
 40
0.3347420419009181
 40
0.3347420419009181
 40
0.6694840838018367
 40
0.6694840838018367
 40
1.0
 40
1.0
 40
1.0
 40
1.0
 10
415.8958419452956
 20
293.7058209351622
 30
0.0
 10
415.8958419452956
 20
293.4147890525567
 30
0.0
 10
415.8958419452956
 20
293.1441042475428
 30
0.0
 10
415.8958419452956
 20
292.6494472673534
 30
0.0
 10
415.8958419452956
 20
292.4254791908039
 30
0.0
 10
415.8958419452956
 20
292.0317448692376
 30
0.0
 10
415.8958419452957
 20
291.8613332241833
 30
0.0
 10
415.8958419452958
 20
291.7179699351659
 30
0.0
  0
SPLINE
  5
1B2
330
1F
100
AcDbEntity
  8
1
100
AcDbSpline
210
0.0
220
0.0
230
1.0
 70
     8
 71
     3
 72
    16
 73
    12
 74
     0
 42
0.000000001
 43
0.0000000001
 40
0.0
 40
0.0
 40
0.0
 40
0.0
 40
0.2499999999999897
 40
0.2499999999999897
 40
0.3749999999999913
 40
0.3749999999999913
 40
0.499999999999993
 40
0.499999999999993
 40
0.7499999999999964
 40
0.7499999999999964
 40
1.0
 40
1.0
 40
1.0
 40
1.0
 10
412.2023588497748
 20
295.5027330463862
 30
0.0
 10
412.4941859500121
 20
295.3063847635767
 30
0.0
 10
412.7893838635396
 20
295.1218246343671
 30
0.0
 10
413.2382592178159
 20
294.8619373132255
 30
0.0
 10
413.3889002882752
 20
294.7781413512636
 30
0.0
 10
413.6924241021374
 20
294.6161837609506
 30
0.0
 10
413.8454209472753
 20
294.5379689008498
 30
0.0
 10
414.3069061979915
 20
294.3124022547698
 30
0.0
 10
414.6180596334387
 20
294.1739718082261
 30
0.0
 10
415.2494465732051
 20
293.9213474806011
 30
0.0
 10
415.5696625449533
 20
293.8071436829175
 30
0.0
 10
415.8958419452956
 20
293.7058209349663
 30
0.0
  0
SPLINE
  5
1B3
330
1F
100
AcDbEntity
  8
1
100
AcDbSpline
210
0.0
220
0.0
230
1.0
 70
     8
 71
     3
 72
     8
 73
     4
 74
     0
 42
0.000000001
 43
0.0000000001
 40
0.0
 40
0.0
 40
0.0
 40
0.0
 40
1.0
 40
1.0
 40
1.0
 40
1.0
 10
291.535819436769
 20
285.1084086565218
 30
0.0
 10
291.263199135259
 20
285.1933241033923
 30
0.0
 10
290.9860163996142
 20
285.2697653871483
 30
0.0
 10
290.7038318185191
 20
285.3367470878371
 30
0.0
  0
SPLINE
  5
1B4
330
1F
100
AcDbEntity
  8
1
100
AcDbSpline
210
0.0
220
0.0
230
1.0
 70
     8
 71
     3
 72
    42
 73
    38
 74
     0
 42
0.000000001
 43
0.0000000001
 40
0.0
 40
0.0
 40
0.0
 40
0.0
 40
0.2499999999999356
 40
0.2499999999999356
 40
0.3749999999999249
 40
0.3749999999999249
 40
0.4374999999999397
 40
0.4374999999999397
 40
0.4999999999999546
 40
0.4999999999999546
 40
0.5624999999999693
 40
0.5624999999999693
 40
0.6249999999999841
 40
0.6249999999999841
 40
0.6874999999999988
 40
0.6874999999999988
 40
0.7500000000000135
 40
0.7500000000000135
 40
0.7812500000000103
 40
0.7812500000000103
 40
0.8125000000000072
 40
0.8125000000000072
 40
0.8437500000000039
 40
0.8437500000000039
 40
0.8750000000000008
 40
0.8750000000000008
 40
0.9062499999999975
 40
0.9062499999999975
 40
0.9218750000000081
 40
0.9218750000000081
 40
0.9375000000000188
 40
0.9375000000000188
 40
0.9687500000000092
 40
0.9687500000000092
 40
0.9843750000000047
 40
0.9843750000000047
 40
1.0
 40
1.0
 40
1.0
 40
1.0
 10
411.1795548493388
 20
296.1148104734318
 30
0.0
 10
411.0892620887116
 20
296.1699367406101
 30
0.0
 10
411.0026988900097
 20
296.2296539832266
 30
0.0
 10
410.8794052065521
 20
296.3274724039134
 30
0.0
 10
410.8394110031016
 20
296.3614663785719
 30
0.0
 10
410.7814156390381
 20
296.4149741530318
 30
0.0
 10
410.7624185771116
 20
296.4332320430647
 30
0.0
 10
410.7251899949114
 20
296.4707117489632
 30
0.0
 10
410.7069317609166
 20
296.4899632634563
 30
0.0
 10
410.6715157391589
 20
296.5293825607353
 30
0.0
 10
410.6543437330868
 20
296.5495595039404
 30
0.0
 10
410.6212922472941
 20
296.5910346487846
 30
0.0
 10
410.6053799127214
 20
296.6123750588516
 30
0.0
 10
410.5753481218981
 20
296.6562564657467
 30
0.0
 10
410.5612540569962
 20
296.678743392344
 30
0.0
 10
410.5355077663725
 20
296.7251503393628
 30
0.0
 10
410.5238380894419
 20
296.7490605304097
 30
0.0
 10
410.5090169588173
 20
296.7864836059513
 30
0.0
 10
410.5045150939611
 20
296.7992715943266
 30
0.0
 10
410.4967686876362
 20
296.8252451782329
 30
0.0
 10
410.4935229409093
 20
296.8384117165503
 30
0.0
 10
410.4886363764228
 20
296.8652002007687
 30
0.0
 10
410.4869932666003
 20
296.878913358646
 30
0.0
 10
410.4858840894781
 20
296.906315745261
 30
0.0
 10
410.4863982504674
 20
296.92002675635
 30
0.0
 10
410.4901702675396
 20
296.9474682676599
 30
0.0
 10
410.4935090257399
 20
296.9613507263111
 30
0.0
 10
410.5008468576015
 20
296.9811517444359
 30
0.0
 10
410.5036784780582
 20
296.9876116962534
 30
0.0
 10
410.5101526769804
 20
297.0002358553689
 30
0.0
 10
410.5138228070919
 20
297.0064390226275
 30
0.0
 10
410.5259136705688
 20
297.0242832256858
 30
0.0
 10
410.5353003813982
 20
297.0350472571395
 30
0.0
 10
410.5511318298902
 20
297.0496970929109
 30
0.0
 10
410.5567218919871
 20
297.054342682274
 30
0.0
 10
410.5682713752235
 20
297.0630304468873
 30
0.0
 10
410.5742462474706
 20
297.0670902211729
 30
0.0
 10
410.580399255061
 20
297.0708971413859
 30
0.0
  0
SPLINE
  5
1B5
330
1F
100
AcDbEntity
  8
1
100
AcDbSpline
210
0.0
220
0.0
230
1.0
 70
    12
 71
     2
 72
     6
 73
     3
 74
     0
 42
0.000000001
 43
0.0000000001
 40
0.0
 40
0.0
 40
0.0
 40
1.0
 40
1.0
 40
1.0
 10
300.1005222705218
 20
282.572908520038
 30
0.0
 41
0.5000001534016989
 10
300.1052331198408
 20
282.588577107196
 30
0.0
 41
0.4999998465983011
 10
300.1099407918317
 20
282.6042611997484
 30
0.0
 41
0.5000001534016989
  0
SPLINE
  5
1B6
330
1F
100
AcDbEntity
  8
1
100
AcDbSpline
210
0.0
220
0.0
230
1.0
 70
     8
 71
     3
 72
     8
 73
     4
 74
     0
 42
0.000000001
 43
0.0000000001
 40
0.0
 40
0.0
 40
0.0
 40
0.0
 40
1.0
 40
1.0
 40
1.0
 40
1.0
 10
411.8712108633032
 20
292.9545435641108
 30
0.0
 10
411.6122403198998
 20
293.0858276695652
 30
0.0
 10
411.3516211367936
 20
293.2202593174929
 30
0.0
 10
411.0895645538621
 20
293.3574352139029
 30
0.0
  0
SPLINE
  5
1B7
330
1F
100
AcDbEntity
  8
1
100
AcDbSpline
210
0.0
220
0.0
230
1.0
 70
     8
 71
     3
 72
    10
 73
     6
 74
     0
 42
0.000000001
 43
0.0000000001
 40
0.0
 40
0.0
 40
0.0
 40
0.0
 40
0.9443990352331191
 40
0.9443990352331191
 40
1.0
 40
1.0
 40
1.0
 40
1.0
 10
421.2904181205656
 20
301.0370171672785
 30
0.0
 10
421.2869219398596
 20
301.0065999735216
 30
0.0
 10
421.2810387758833
 20
300.9766411221814
 30
0.0
 10
421.2722853387742
 20
300.94537011683
 30
0.0
 10
421.2717903853376
 20
300.9436328960674
 30
0.0
 10
421.2712871378632
 20
300.9418971529715
 30
0.0
  0
SPLINE
  5
1B8
330
1F
100
AcDbEntity
  8
1
100
AcDbSpline
210
0.0
220
0.0
230
1.0
 70
     8
 71
     3
 72
    20
 73
    16
 74
     0
 42
0.000000001
 43
0.0000000001
 40
0.0
 40
0.0
 40
0.0
 40
0.0
 40
0.1250000000000835
 40
0.1250000000000835
 40
0.2500000000001671
 40
0.2500000000001671
 40
0.3750000000002505
 40
0.3750000000002505
 40
0.5000000000003341
 40
0.5000000000003341
 40
0.6250000000004175
 40
0.6250000000004175
 40
0.750000000000501
 40
0.750000000000501
 40
1.0
 40
1.0
 40
1.0
 40
1.0
 10
421.3701658445767
 20
298.488015818082
 30
0.0
 10
421.3679326812288
 20
298.4837681058973
 30
0.0
 10
421.3654083331968
 20
298.4797104382737
 30
0.0
 10
421.3597812098535
 20
298.4719727814336
 30
0.0
 10
421.3566699456721
 20
298.4682910021979
 30
0.0
 10
421.3500118257118
 20
298.4614814953962
 30
0.0
 10
421.3464493884066
 20
298.4583295247792
 30
0.0
 10
421.3388505548477
 20
298.4525398036567
 30
0.0
 10
421.3347795647855
 20
298.4498850559088
 30
0.0
 10
421.326338124542
 20
298.4452427846439
 30
0.0
 10
421.3219681130714
 20
298.4432468792376
 30
0.0
 10
421.3129272931614
 20
298.439912112273
 30
0.0
 10
421.3082248214897
 20
298.4385670161353
 30
0.0
 10
421.2938544935098
 20
298.4356394155491
 30
0.0
 10
421.2841312619659
 20
298.4351579548552
 30
0.0
 10
421.2742581485803
 20
298.436239757952
 30
0.0
  0
SPLINE
  5
1B9
330
1F
100
AcDbEntity
  8
1
100
AcDbSpline
210
0.0
220
0.0
230
1.0
 70
     8
 71
     3
 72
    18
 73
    14
 74
     0
 42
0.000000001
 43
0.0000000001
 40
0.0
 40
0.0
 40
0.0
 40
0.0
 40
0.2500000000000326
 40
0.2500000000000326
 40
0.3750000000000621
 40
0.3750000000000621
 40
0.5000000000000915
 40
0.5000000000000915
 40
0.6250000000001209
 40
0.6250000000001209
 40
0.7500000000001503
 40
0.7500000000001503
 40
1.0
 40
1.0
 40
1.0
 40
1.0
 10
422.1952840584801
 20
298.2240049248488
 30
0.0
 10
422.1859290888565
 20
298.2273556345542
 30
0.0
 10
422.1772174916096
 20
298.2321752128186
 30
0.0
 10
422.1657361392964
 20
298.241013483989
 30
0.0
 10
422.1621445989011
 20
298.2442405085426
 30
0.0
 10
422.1554364659827
 20
298.2512598776088
 30
0.0
 10
422.1523561869548
 20
298.2550225206127
 30
0.0
 10
422.1468588246533
 20
298.2628519192178
 30
0.0
 10
422.1444171697966
 20
298.266943932932
 30
0.0
 10
422.1401389667509
 20
298.2754766146912
 30
0.0
 10
422.1382929622063
 20
298.279954242049
 30
0.0
 10
422.1338174918678
 20
298.2935576608482
 30
0.0
 10
422.1321814420475
 20
298.3028899410214
 30
0.0
 10
422.1319028679096
 20
298.3124864130154
 30
0.0
  0
SPLINE
  5
1BA
330
1F
100
AcDbEntity
  8
1
100
AcDbSpline
210
0.0
220
0.0
230
1.0
 70
     8
 71
     3
 72
    10
 73
     6
 74
     0
 42
0.000000001
 43
0.0000000001
 40
0.0
 40
0.0
 40
0.0
 40
0.0
 40
0.5
 40
0.5
 40
1.0
 40
1.0
 40
1.0
 40
1.0
 10
421.3701658445767
 20
298.488015818082
 30
0.0
 10
421.3752702851355
 20
298.4977250023099
 30
0.0
 10
421.3818360189462
 20
298.5063950727559
 30
0.0
 10
421.397832429213
 20
298.5214803502128
 30
0.0
 10
421.4068859666538
 20
298.5275566419085
 30
0.0
 10
421.4170626989973
 20
298.5320807223974
 30
0.0
  0
SPLINE
  5
1BB
330
1F
100
AcDbEntity
  8
1
100
AcDbSpline
210
0.0
220
0.0
230
1.0
 70
     8
 71
     3
 72
    10
 73
     6
 74
     0
 42
0.000000001
 43
0.0000000001
 40
0.0
 40
0.0
 40
0.0
 40
0.0
 40
0.5
 40
0.5
 40
1.0
 40
1.0
 40
1.0
 40
1.0
 10
422.1091465375248
 20
298.3726017149293
 30
0.0
 10
422.1162987432198
 20
298.3640843314138
 30
0.0
 10
422.1217920305968
 20
298.35459745768
 30
0.0
 10
422.1295092463596
 20
298.3340585117072
 30
0.0
 10
422.1315847926994
 20
298.3234436392428
 30
0.0
 10
422.1319028679096
 20
298.3124864130154
 30
0.0
  0
SPLINE
  5
1BC
330
1F
100
AcDbEntity
  8
1
100
AcDbSpline
210
0.0
220
0.0
230
1.0
 70
     8
 71
     3
 72
    27
 73
    23
 74
     0
 42
0.000000001
 43
0.0000000001
 40
0.0
 40
0.0
 40
0.0
 40
0.0
 40
0.127238525748719
 40
0.127238525748719
 40
0.1908577886230794
 40
0.1908577886230794
 40
0.2544770514974398
 40
0.2544770514974398
 40
0.3817155772460603
 40
0.3817155772460603
 40
0.445334840120324
 40
0.445334840120324
 40
0.508954102994588
 40
0.508954102994588
 40
0.6361926287431203
 40
0.6361926287431203
 40
0.6998118916173866
 40
0.6998118916173866
 40
0.7634311544916527
 40
0.7634311544916527
 40
0.8906696802401851
 40
1.0
 40
1.0
 40
1.0
 40
1.0
 10
421.2742581485803
 20
298.436239757952
 30
0.0
 10
421.2426785193153
 20
298.4396999573238
 30
0.0
 10
421.2116757657733
 20
298.4456372881274
 30
0.0
 10
421.1660285183709
 20
298.4581983098558
 30
0.0
 10
421.1509562201104
 20
298.4629972944453
 30
0.0
 10
421.1211049980319
 20
298.4738435294129
 30
0.0
 10
421.1062860470838
 20
298.4799138905732
 30
0.0
 10
421.0629811679747
 20
298.499724754761
 30
0.0
 10
421.0354286890826
 20
298.5151165289406
 30
0.0
 10
420.9960456204099
 20
298.5414277541373
 30
0.0
 10
420.9832437095248
 20
298.5507379348426
 30
0.0
 10
420.9583048047906
 20
298.5704597498614
 30
0.0
 10
420.9461150385645
 20
298.580923800646
 30
0.0
 10
420.9111038994588
 20
298.6135294490239
 30
0.0
 10
420.889761885089
 20
298.6368953500987
 30
0.0
 10
420.8606564065477
 20
298.6743136275572
 30
0.0
 10
420.8514415122046
 20
298.68718319966
 30
0.0
 10
420.8339982205197
 20
298.7137262788032
 30
0.0
 10
420.8257418849369
 20
298.7274518178152
 30
0.0
 10
420.8026997012838
 20
298.7695029215791
 30
0.0
 10
420.7786606344122
 20
298.823224222299
 30
0.0
 10
420.7626619385771
 20
298.8797834225982
 30
0.0
 10
420.757030041023
 20
298.9065428453859
 30
0.0
  0
SPLINE
  5
1BD
330
1F
100
AcDbEntity
  8
1
100
AcDbSpline
210
0.0
220
0.0
230
1.0
 70
     8
 71
     3
 72
    24
 73
    20
 74
     0
 42
0.000000001
 43
0.0000000001
 40
0.0
 40
0.0
 40
0.0
 40
0.0
 40
0.1250000000001468
 40
0.1250000000001468
 40
0.2500000000002934
 40
0.2500000000002934
 40
0.312500000000314
 40
0.312500000000314
 40
0.3750000000003344
 40
0.3750000000003344
 40
0.5000000000002676
 40
0.5000000000002676
 40
0.6250000000002008
 40
0.6250000000002008
 40
0.7500000000001338
 40
0.7500000000001338
 40
0.8750000000000667
 40
0.8750000000000667
 40
1.0
 40
1.0
 40
1.0
 40
1.0
 10
421.4170626989973
 20
298.5320807223974
 30
0.0
 10
421.4458836240918
 20
298.5448931046525
 30
0.0
 10
421.4754424844633
 20
298.5553553975023
 30
0.0
 10
421.5360716466663
 20
298.5716019486139
 30
0.0
 10
421.5671411666165
 20
298.5773884687693
 30
0.0
 10
421.6150017587372
 20
298.5822859347045
 30
0.0
 10
421.6310659638243
 20
298.5832687714171
 30
0.0
 10
421.6630271893524
 20
298.5839174503828
 30
0.0
 10
421.6789830204137
 20
298.5835897866493
 30
0.0
 10
421.7267781403207
 20
298.5806507886726
 30
0.0
 10
421.7585959313746
 20
298.5760853967338
 30
0.0
 10
421.8218290462442
 20
298.5615046853811
 30
0.0
 10
421.8523206381594
 20
298.5517112308833
 30
0.0
 10
421.9111868680681
 20
298.5274018296152
 30
0.0
 10
421.9395717500184
 20
298.512878384391
 30
0.0
 10
421.99415484672
 20
298.4790416400062
 30
0.0
 10
422.0195609136568
 20
298.4602252014527
 30
0.0
 10
422.0669301636166
 20
298.4190667853485
 30
0.0
 10
422.0888914738437
 20
298.3967229654722
 30
0.0
 10
422.1091465375248
 20
298.3726017149293
 30
0.0
  0
SPLINE
  5
1BE
330
1F
100
AcDbEntity
  8
1
100
AcDbSpline
210
0.0
220
0.0
230
1.0
 70
     8
 71
     3
 72
    27
 73
    23
 74
     0
 42
0.000000001
 43
0.0000000001
 40
0.0
 40
0.0
 40
0.0
 40
0.0
 40
0.095490179707649
 40
0.095490179707649
 40
0.1600980240142511
 40
0.1600980240142511
 40
0.2247058683208533
 40
0.2247058683208533
 40
0.3539215569341496
 40
0.3539215569341496
 40
0.4185294012407468
 40
0.4185294012407468
 40
0.4831372455473441
 40
0.4831372455473441
 40
0.6123529341606481
 40
0.6123529341606481
 40
0.6769607784672439
 40
0.6769607784672439
 40
0.7415686227738397
 40
0.7415686227738397
 40
0.8707843113869198
 40
1.0
 40
1.0
 40
1.0
 40
1.0
 10
422.8588728975997
 20
298.4115633446003
 30
0.0
 10
422.8440987666024
 20
298.3932894718662
 30
0.0
 10
422.8283320253651
 20
298.3759667190007
 30
0.0
 10
422.8002535572451
 20
298.3485007485978
 30
0.0
 10
422.7884714733498
 20
298.337849416592
 30
0.0
 10
422.7639874406308
 20
298.3174297250638
 30
0.0
 10
422.7512454417016
 20
298.3076383952471
 30
0.0
 10
422.7122351624603
 20
298.2800687373983
 30
0.0
 10
422.6850269200091
 20
298.2639309858949
 30
0.0
 10
422.6424411769666
 20
298.2430338905895
 30
0.0
 10
422.6279489884434
 20
298.2366223512163
 30
0.0
 10
422.5983586244381
 20
298.2249301878237
 30
0.0
 10
422.583188703352
 20
298.2196302178826
 30
0.0
 10
422.5374318804571
 20
298.2056921783705
 30
0.0
 10
422.5065476056893
 20
298.1989527892043
 30
0.0
 10
422.4596692209566
 20
298.1925572052432
 30
0.0
 10
422.4439506609528
 20
298.1910472531297
 30
0.0
 10
422.4123264545101
 20
298.1892873711322
 30
0.0
 10
422.3963618739181
 20
298.1890394219949
 30
0.0
 10
422.3485988555471
 20
298.1902330369005
 30
0.0
 10
422.2859166625824
 20
298.1969076230563
 30
0.0
 10
422.2251615194151
 20
298.2133035861643
 30
0.0
 10
422.1952840584801
 20
298.2240049248488
 30
0.0
  0
SPLINE
  5
1BF
330
1F
100
AcDbEntity
  8
1
100
AcDbSpline
210
0.0
220
0.0
230
1.0
 70
     8
 71
     3
 72
    24
 73
    20
 74
     0
 42
0.000000001
 43
0.0000000001
 40
0.0
 40
0.0
 40
0.0
 40
0.0
 40
0.1302783204821208
 40
0.1302783204821208
 40
0.2605566409642415
 40
0.2605566409642415
 40
0.3256958012053019
 40
0.3256958012053019
 40
0.3908349614463623
 40
0.3908349614463623
 40
0.521113281928483
 40
0.521113281928483
 40
0.6513916024106038
 40
0.6513916024106038
 40
0.7816699228927245
 40
0.7816699228927245
 40
0.9119482433748451
 40
0.9119482433748451
 40
1.0
 40
1.0
 40
1.0
 40
1.0
 10
420.6294746623796
 20
299.7488068990239
 30
0.0
 10
420.6546468296012
 20
299.7306774261868
 30
0.0
 10
420.6781832749858
 20
299.7107023313936
 30
0.0
 10
420.7220307504805
 20
299.6670319032482
 30
0.0
 10
420.7423433028118
 20
299.643338423764
 30
0.0
 10
420.7702289727335
 20
299.6047529121553
 30
0.0
 10
420.7790285064991
 20
299.5914581699988
 30
0.0
 10
420.7954292881974
 20
299.5643268903092
 30
0.0
 10
420.8030652465578
 20
299.5504431327508
 30
0.0
 10
420.8242820761545
 20
299.5078345071379
 30
0.0
 10
420.8361988678415
 20
299.478109679202
 30
0.0
 10
420.8552249850076
 20
299.4161605315217
 30
0.0
 10
420.8620636407039
 20
299.3848463816761
 30
0.0
 10
420.8706951939701
 20
299.3215757120186
 30
0.0
 10
420.8724868045175
 20
299.2896068291467
 30
0.0
 10
420.8709249119626
 20
299.2250583711851
 30
0.0
 10
420.8675988028058
 20
299.1934193848105
 30
0.0
 10
420.8580801045573
 20
299.1413506721062
 30
0.0
 10
420.853164912873
 20
299.120611944505
 30
0.0
 10
420.8471711865262
 20
299.1001285619856
 30
0.0
  0
SPLINE
  5
1C0
330
1F
100
AcDbEntity
  8
1
100
AcDbSpline
210
0.0
220
0.0
230
1.0
 70
     8
 71
     3
 72
    10
 73
     6
 74
     0
 42
0.000000001
 43
0.0000000001
 40
0.0
 40
0.0
 40
0.0
 40
0.0
 40
0.5
 40
0.5
 40
1.0
 40
1.0
 40
1.0
 40
1.0
 10
420.5686969902957
 20
299.7663844485976
 30
0.0
 10
420.5795058119126
 20
299.7669932833311
 30
0.0
 10
420.590150161398
 20
299.7658165842729
 30
0.0
 10
420.6109276173937
 20
299.7598496833835
 30
0.0
 10
420.6205858935753
 20
299.7552087591092
 30
0.0
 10
420.6294746623796
 20
299.7488068990239
 30
0.0
  0
SPLINE
  5
1C1
330
1F
100
AcDbEntity
  8
1
100
AcDbSpline
210
0.0
220
0.0
230
1.0
 70
     8
 71
     3
 72
    20
 73
    16
 74
     0
 42
0.000000001
 43
0.0000000001
 40
0.0
 40
0.0
 40
0.0
 40
0.0
 40
0.124999999999996
 40
0.124999999999996
 40
0.249999999999992
 40
0.249999999999992
 40
0.3749999999999881
 40
0.3749999999999881
 40
0.4999999999999841
 40
0.4999999999999841
 40
0.6249999999999803
 40
0.6249999999999803
 40
0.7499999999999764
 40
0.7499999999999764
 40
1.0
 40
1.0
 40
1.0
 40
1.0
 10
420.5686969902957
 20
299.7663844485976
 30
0.0
 10
420.563968064787
 20
299.7661180796812
 30
0.0
 10
420.5592574733438
 20
299.7661987706576
 30
0.0
 10
420.5498728783398
 20
299.7670497868528
 30
0.0
 10
420.5451934842531
 20
299.7678264286324
 30
0.0
 10
420.5360927118372
 20
299.7700373286407
 30
0.0
 10
420.5316428791656
 20
299.7714725222709
 30
0.0
 10
420.5229482738438
 20
299.775013001056
 30
0.0
 10
420.5186719481352
 20
299.7771392158816
 30
0.0
 10
420.5105420231483
 20
299.7819901354538
 30
0.0
 10
420.506681086729
 20
299.784710374861
 30
0.0
 10
420.499371991085
 20
299.7907456234275
 30
0.0
 10
420.4959027295378
 20
299.7940847560265
 30
0.0
 10
420.4863130860046
 20
299.8048937846195
 30
0.0
 10
420.4811053986203
 20
299.8129762167445
 30
0.0
 10
420.477160100241
 20
299.8219883277665
 30
0.0
  0
SPLINE
  5
1C2
330
1F
100
AcDbEntity
  8
1
100
AcDbSpline
210
0.0
220
0.0
230
1.0
 70
     8
 71
     3
 72
    22
 73
    18
 74
     0
 42
0.000000001
 43
0.0000000001
 40
0.0
 40
0.0
 40
0.0
 40
0.0
 40
0.1355865800296762
 40
0.1355865800296762
 40
0.2076210316938437
 40
0.2076210316938437
 40
0.279655483358011
 40
0.279655483358011
 40
0.4237243866864089
 40
0.4237243866864089
 40
0.5677932900148067
 40
0.5677932900148067
 40
0.7118621933432045
 40
0.7118621933432045
 40
0.8559310966716022
 40
0.8559310966716022
 40
1.0
 40
1.0
 40
1.0
 40
1.0
 10
422.8856006355469
 20
298.7016916121863
 30
0.0
 10
422.8938752299881
 20
298.7302279986589
 30
0.0
 10
422.9042419021133
 20
298.7582930858856
 30
0.0
 10
422.9235626524336
 20
298.8005164300612
 30
0.0
 10
422.9308677568091
 20
298.8149324358256
 30
0.0
 10
422.9464974851353
 20
298.842950143797
 30
0.0
 10
422.9548465004759
 20
298.8566062790807
 30
0.0
 10
422.9814951962153
 20
298.8965178263235
 30
0.0
 10
423.0014198484058
 20
298.921760796329
 30
0.0
 10
423.0456275017504
 20
298.9691294949345
 30
0.0
 10
423.0692562241089
 20
298.9905664207072
 30
0.0
 10
423.1193972943268
 20
299.0292060579691
 30
0.0
 10
423.1459203931628
 20
299.0464134351644
 30
0.0
 10
423.2018852746178
 20
299.0765038394384
 30
0.0
 10
423.2305087407063
 20
299.0889522272624
 30
0.0
 10
423.2889895572606
 20
299.1090803725136
 30
0.0
 10
423.3188474994017
 20
299.1167575675089
 30
0.0
 10
423.3493490331628
 20
299.1220578825847
 30
0.0
  0
SPLINE
  5
1C3
330
1F
100
AcDbEntity
  8
1
100
AcDbSpline
210
0.0
220
0.0
230
1.0
 70
     8
 71
     3
 72
    10
 73
     6
 74
     0
 42
0.000000001
 43
0.0000000001
 40
0.0
 40
0.0
 40
0.0
 40
0.0
 40
0.5
 40
0.5
 40
1.0
 40
1.0
 40
1.0
 40
1.0
 10
423.3493490331628
 20
299.1220578825847
 30
0.0
 10
423.3601185142624
 20
299.123929317755
 30
0.0
 10
423.3708830416248
 20
299.1238757116444
 30
0.0
 10
423.3920986324828
 20
299.1201505262226
 30
0.0
 10
423.4021110537531
 20
299.1165718957225
 30
0.0
 10
423.4115382633806
 20
299.111299790667
 30
0.0
  0
SPLINE
  5
1C4
330
1F
100
AcDbEntity
  8
1
100
AcDbSpline
210
0.0
220
0.0
230
1.0
 70
     8
 71
     3
 72
    18
 73
    14
 74
     0
 42
0.000000001
 43
0.0000000001
 40
0.0
 40
0.0
 40
0.0
 40
0.0
 40
0.250000000000012
 40
0.250000000000012
 40
0.37500000000001
 40
0.37500000000001
 40
0.500000000000008
 40
0.500000000000008
 40
0.6250000000000061
 40
0.6250000000000061
 40
0.750000000000004
 40
0.750000000000004
 40
1.0
 40
1.0
 40
1.0
 40
1.0
 10
423.5179362914673
 20
299.1212929178847
 30
0.0
 10
423.5104477880208
 20
299.1149041919224
 30
0.0
 10
423.5020360973993
 20
299.1098150967561
 30
0.0
 10
423.4888445556348
 20
299.1043654851705
 30
0.0
 10
423.4843265111576
 20
299.1028945883719
 30
0.0
 10
423.4750477786482
 20
299.1006493895114
 30
0.0
 10
423.4703321346768
 20
299.0998917574817
 30
0.0
 10
423.4609720718614
 20
299.0991031591023
 30
0.0
 10
423.4562946105232
 20
299.0990639107952
 30
0.0
 10
423.4469456069573
 20
299.0996850251631
 30
0.0
 10
423.4422383200791
 20
299.1003559433162
 30
0.0
 10
423.4285036265648
 20
299.1033729362446
 30
0.0
 10
423.4197947845423
 20
299.1066823854457
 30
0.0
 10
423.4115382633806
 20
299.111299790667
 30
0.0
  0
SPLINE
  5
1C5
330
1F
100
AcDbEntity
  8
1
100
AcDbSpline
210
0.0
220
0.0
230
1.0
 70
     8
 71
     3
 72
    18
 73
    14
 74
     0
 42
0.000000001
 43
0.0000000001
 40
0.0
 40
0.0
 40
0.0
 40
0.0
 40
0.2743762671663407
 40
0.2743762671663407
 40
0.4115644007495182
 40
0.4115644007495182
 40
0.5487525343326957
 40
0.5487525343326957
 40
0.8231288014990358
 40
0.8231288014990358
 40
0.9603169350821902
 40
0.9603169350821902
 40
1.0
 40
1.0
 40
1.0
 40
1.0
 10
420.477160100241
 20
299.8219883277665
 30
0.0
 10
420.4645415392683
 20
299.8508124778028
 30
0.0
 10
420.4543354044529
 20
299.8804006274626
 30
0.0
 10
420.4425907511003
 20
299.9259030114555
 30
0.0
 10
420.4392726768613
 20
299.9412580522705
 30
0.0
 10
420.4338545373862
 20
299.9723497768285
 30
0.0
 10
420.4317546097357
 20
299.9881322659236
 30
0.0
 10
420.427399374535
 20
300.0353029018355
 30
0.0
 10
420.4270249375708
 20
300.0667282641201
 30
0.0
 10
420.4301971168911
 20
300.1138318840887
 30
0.0
 10
420.4318797114309
 20
300.1295273448004
 30
0.0
 10
420.4348715314233
 20
300.1497551884737
 30
0.0
 10
420.4355977514676
 20
300.1542990407352
 30
0.0
 10
420.4363776717816
 20
300.1588409794286
 30
0.0
  0
SPLINE
  5
1C6
330
1F
100
AcDbEntity
  8
1
100
AcDbSpline
210
0.0
220
0.0
230
1.0
 70
     8
 71
     3
 72
    13
 73
     9
 74
     0
 42
0.000000001
 43
0.0000000001
 40
0.0
 40
0.0
 40
0.0
 40
0.0
 40
0.117154933888502
 40
0.117154933888502
 40
0.2937239471108645
 40
0.2937239471108645
 40
0.6468619735554323
 40
1.0
 40
1.0
 40
1.0
 40
1.0
 10
423.6753744505014
 20
299.3336937802418
 30
0.0
 10
423.671192266577
 20
299.3241313437764
 30
0.0
 10
423.6667550466608
 20
299.3146722722245
 30
0.0
 10
423.6549854958231
 20
299.2912185025364
 30
0.0
 10
423.6472952522165
 20
299.2773064430965
 30
0.0
 10
423.6226357835353
 20
299.2366607532901
 30
0.0
 10
423.585913474632
 20
299.1858948827658
 30
0.0
 10
423.5418525824599
 20
299.1416968117031
 30
0.0
 10
423.5179362914673
 20
299.1212929178847
 30
0.0
  0
SPLINE
  5
1C7
330
1F
100
AcDbEntity
  8
1
100
AcDbSpline
210
0.0
220
0.0
230
1.0
 70
     8
 71
     3
 72
    10
 73
     6
 74
     0
 42
0.000000001
 43
0.0000000001
 40
0.0
 40
0.0
 40
0.0
 40
0.0
 40
0.5
 40
0.5
 40
1.0
 40
1.0
 40
1.0
 40
1.0
 10
421.2761593232148
 20
301.0973614417845
 30
0.0
 10
421.2819330276856
 20
301.0884954444997
 30
0.0
 10
421.2860777595619
 20
301.0788790263522
 30
0.0
 10
421.2909886584478
 20
301.0582698250089
 30
0.0
 10
421.291652588105
 20
301.0477571837396
 30
0.0
 10
421.2904181205656
 20
301.0370171672785
 30
0.0
  0
SPLINE
  5
1C8
330
1F
100
AcDbEntity
  8
1
100
AcDbSpline
210
0.0
220
0.0
230
1.0
 70
     8
 71
     3
 72
    10
 73
     6
 74
     0
 42
0.000000001
 43
0.0000000001
 40
0.0
 40
0.0
 40
0.0
 40
0.0
 40
0.702293686195109
 40
0.702293686195109
 40
1.0
 40
1.0
 40
1.0
 40
1.0
 10
421.2761593232148
 20
301.0973614417845
 30
0.0
 10
421.2736333952273
 20
301.1012402116093
 30
0.0
 10
421.2714173131188
 20
301.10527679446
 30
0.0
 10
421.2687001810413
 20
301.1112476302628
 30
0.0
 10
421.2679471217444
 20
301.1130546947383
 30
0.0
 10
421.2672527165266
 20
301.1148829403164
 30
0.0
  0
SPLINE
  5
1C9
330
1F
100
AcDbEntity
  8
1
100
AcDbSpline
210
0.0
220
0.0
230
1.0
 70
     8
 71
     3
 72
    10
 73
     6
 74
     0
 42
0.000000001
 43
0.0000000001
 40
0.0
 40
0.0
 40
0.0
 40
0.0
 40
0.5
 40
0.5
 40
1.0
 40
1.0
 40
1.0
 40
1.0
 10
423.3182086528213
 20
300.5697471583073
 30
0.0
 10
423.3217727661877
 20
300.5799504566501
 30
0.0
 10
423.3269829379074
 20
300.5891796501353
 30
0.0
 10
423.3403529273671
 20
300.6055466617838
 30
0.0
 10
423.3482228192387
 20
300.6123542727447
 30
0.0
 10
423.3572635729666
 20
300.6178061889204
 30
0.0
  0
SPLINE
  5
1CA
330
1F
100
AcDbEntity
  8
1
100
AcDbSpline
210
0.0
220
0.0
230
1.0
 70
     9
 71
     3
 72
   130
 73
   126
 74
     0
 42
0.000000001
 43
0.0000000001
 40
0.0
 40
0.0
 40
0.0
 40
0.0
 40
0.0312500000000525
 40
0.0312500000000525
 40
0.0468750000000796
 40
0.0468750000000796
 40
0.0625000000001067
 40
0.0625000000001067
 40
0.0937500000001644
 40
0.0937500000001644
 40
0.1093750000001933
 40
0.1093750000001933
 40
0.1250000000002221
 40
0.1250000000002221
 40
0.1562500000002734
 40
0.1562500000002734
 40
0.164062500000288
 40
0.164062500000288
 40
0.1718750000003028
 40
0.1718750000003028
 40
0.1875000000003242
 40
0.2031250000003457
 40
0.2031250000003457
 40
0.2109375000003521
 40
0.2109375000003521
 40
0.2187500000003585
 40
0.2187500000003585
 40
0.2500000000003754
 40
0.2500000000003754
 40
0.2656250000003794
 40
0.2656250000003794
 40
0.2734375000003769
 40
0.2734375000003769
 40
0.2812500000003744
 40
0.2812500000003744
 40
0.3125000000003558
 40
0.3125000000003558
 40
0.3203125000003532
 40
0.3203125000003532
 40
0.3281250000003506
 40
0.3281250000003506
 40
0.3437500000003454
 40
0.3593750000003402
 40
0.3593750000003402
 40
0.3671875000003376
 40
0.3671875000003376
 40
0.3750000000003351
 40
0.3750000000003351
 40
0.4062500000003428
 40
0.4062500000003428
 40
0.4218750000003443
 40
0.4218750000003443
 40
0.4296875000003471
 40
0.4296875000003471
 40
0.4375000000003498
 40
0.4375000000003498
 40
0.4687500000003674
 40
0.4687500000003674
 40
0.4765625000003714
 40
0.4765625000003714
 40
0.4843750000003754
 40
0.4843750000003754
 40
0.5000000000003829
 40
0.5000000000003829
 40
0.5312500000003985
 40
0.5312500000003985
 40
0.539062500000402
 40
0.539062500000402
 40
0.5468750000004056
 40
0.5468750000004056
 40
0.5625000000004127
 40
0.57812500000042
 40
0.57812500000042
 40
0.5859375000004214
 40
0.5859375000004214
 40
0.5937500000004228
 40
0.5937500000004228
 40
0.6250000000004336
 40
0.6250000000004336
 40
0.6406250000004424
 40
0.6406250000004424
 40
0.6484375000004434
 40
0.6484375000004434
 40
0.6562500000004445
 40
0.6562500000004445
 40
0.6875000000004485
 40
0.6875000000004485
 40
0.6953125000004473
 40
0.6953125000004473
 40
0.7031250000004463
 40
0.7031250000004463
 40
0.7187500000004354
 40
0.7187500000004354
 40
0.750000000000405
 40
0.750000000000405
 40
0.757812500000393
 40
0.757812500000393
 40
0.7656250000003809
 40
0.7656250000003809
 40
0.7812500000003567
 40
0.7968750000003326
 40
0.7968750000003326
 40
0.804687500000316
 40
0.804687500000316
 40
0.8125000000002996
 40
0.8125000000002996
 40
0.8437500000002337
 40
0.8437500000002337
 40
0.8515625000002192
 40
0.8515625000002192
 40
0.8593750000002044
 40
0.8593750000002044
 40
0.8750000000001817
 40
0.8750000000001817
 40
0.9062500000001367
 40
0.9062500000001367
 40
0.9375000000000916
 40
0.9375000000000916
 40
0.9531250000000691
 40
0.9531250000000691
 40
0.9609375000000579
 40
0.9609375000000579
 40
0.9687500000000465
 40
0.9687500000000465
 40
1.0
 40
1.0
 40
1.0
 40
1.0
 10
419.9691615337857
 20
285.324186265565
 30
0.0
 10
419.9708116217317
 20
285.4187197406728
 30
0.0
 10
419.9815986056334
 20
285.5118035260142
 30
0.0
 10
420.0111367262104
 20
285.6492873827371
 30
0.0
 10
420.0232245860701
 20
285.6947555879894
 30
0.0
 10
420.0520160171503
 20
285.7849436919348
 30
0.0
 10
420.0688161428694
 20
285.8298377315664
 30
0.0
 10
420.1252268085823
 20
285.9605545586888
 30
0.0
 10
420.170971465586
 20
286.043254768747
 30
0.0
 10
420.2517922573489
 20
286.1605760901318
 30
0.0
 10
420.280791126341
 20
286.1985671075751
 30
0.0
 10
420.3430177144611
 20
286.272127713771
 30
0.0
 10
420.3757270452622
 20
286.3070867263223
 30
0.0
 10
420.478494491894
 20
286.4066531672849
 30
0.0
 10
420.5531479883026
 20
286.4660005314429
 30
0.0
 10
420.654326544199
 20
286.5311320255962
 30
0.0
 10
420.6750021323691
 20
286.5437261938173
 30
0.0
 10
420.7169677815128
 20
286.5678641106275
 30
0.0
 10
420.7381723085724
 20
286.5793617972713
 30
0.0
 10
420.8024379050922
 20
286.6121732124004
 30
0.0
 10
420.889860848758
 20
286.6514455443393
 30
0.0
 10
420.980695721419
 20
286.6819031043478
 30
0.0
 10
421.0501173774001
 20
286.7013948259108
 30
0.0
 10
421.0734742405868
 20
286.7073324835252
 30
0.0
 10
421.1206282516988
 20
286.7180682050209
 30
0.0
 10
421.1444930177418
 20
286.7228765241151
 30
0.0
 10
421.2637944207468
 20
286.7438090186977
 30
0.0
 10
421.3594930987353
 20
286.7508368862342
 30
0.0
 10
421.5034163287418
 20
286.7472127208614
 30
0.0
 10
421.5514537450681
 20
286.7436261354789
 30
0.0
 10
421.6236073351375
 20
286.7345679657607
 30
0.0
 10
421.6476719253454
 20
286.7309300266035
 30
0.0
 10
421.6952843682337
 20
286.7225089628037
 30
0.0
 10
421.7189019344917
 20
286.7177182004724
 30
0.0
 10
421.836062206603
 20
286.6909127759769
 30
0.0
 10
421.9268496102851
 20
286.660426365423
 30
0.0
 10
422.0366285994412
 20
286.6109555789915
 30
0.0
 10
422.0583974167364
 20
286.600488073789
 30
0.0
 10
422.1015532307633
 20
286.5783832591807
 30
0.0
 10
422.1227792994583
 20
286.5668276084788
 30
0.0
 10
422.1853164101589
 20
286.5307427484264
 30
0.0
 10
422.2657588239885
 20
286.4788060168993
 30
0.0
 10
422.3404540503448
 20
286.4194151672414
 30
0.0
 10
422.3943072978234
 20
286.3720677304
 30
0.0
 10
422.4118963761143
 20
286.3558170408585
 30
0.0
 10
422.4463404099616
 20
286.3223675182386
 30
0.0
 10
422.4632386587542
 20
286.3051213147193
 30
0.0
 10
422.5452887179379
 20
286.2170896566823
 30
0.0
 10
422.6028344215286
 20
286.1414228026309
 30
0.0
 10
422.6775339223073
 20
286.0204678648645
 30
0.0
 10
422.7004830636681
 20
285.9788978202288
 30
0.0
 10
422.7319203651041
 20
285.9146343303592
 30
0.0
 10
422.7419173955906
 20
285.8928496473224
 30
0.0
 10
422.7607065518301
 20
285.8490905536921
 30
0.0
 10
422.7695232489987
 20
285.8270712458877
 30
0.0
 10
422.8107773569663
 20
285.7162935088862
 30
0.0
 10
422.834804264233
 20
285.6255115000297
 30
0.0
 10
422.8537690040464
 20
285.5094065573261
 30
0.0
 10
422.8570036895507
 20
285.4860529583008
 30
0.0
 10
422.8623407010586
 20
285.4390773221517
 30
0.0
 10
422.8644385035586
 20
285.4154595531266
 30
0.0
 10
422.8689737917324
 20
285.3449521312593
 30
0.0
 10
422.8696896208137
 20
285.2981573929958
 30
0.0
 10
422.8651264802147
 20
285.158386233328
 30
0.0
 10
422.8531994898305
 20
285.066018654065
 30
0.0
 10
422.826930642191
 20
284.9515825269227
 30
0.0
 10
422.8211028566781
 20
284.928759656282
 30
0.0
 10
422.8084243527658
 20
284.8836897587126
 30
0.0
 10
422.8015606822661
 20
284.8613827407238
 30
0.0
 10
422.7794213061062
 20
284.7951329713815
 30
0.0
 10
422.7457798354959
 20
284.7085871734132
 30
0.0
 10
422.7039760832533
 20
284.6255582050312
 30
0.0
 10
422.6695034033946
 20
284.564620413163
 30
0.0
 10
422.6574915973608
 20
284.5445305194781
 30
0.0
 10
422.6324043337505
 20
284.5048035224818
 30
0.0
 10
422.6193043779695
 20
284.4851363006078
 30
0.0
 10
422.5518051378911
 20
284.388960532991
 30
0.0
 10
422.491023255979
 20
284.3181119050858
 30
0.0
 10
422.3897380616535
 20
284.2208058946615
 30
0.0
 10
422.3542789064378
 20
284.1898757339192
 30
0.0
 10
422.2984357570082
 20
284.1458188759215
 30
0.0
 10
422.2793203373272
 20
284.1314839293584
 30
0.0
 10
422.2405123696258
 20
284.1038541914418
 30
0.0
 10
422.220826093005
 20
284.0905583610115
 30
0.0
 10
422.1210004753801
 20
284.0266362663718
 30
0.0
 10
422.0367191836563
 20
283.9836053892829
 30
0.0
 10
421.9257049054112
 20
283.940109259799
 30
0.0
 10
421.9032163395832
 20
283.9319294405442
 30
0.0
 10
421.8576535377884
 20
283.916632639594
 30
0.0
 10
421.8345082944308
 20
283.9094965665439
 30
0.0
 10
421.7647423643523
 20
283.8898893948698
 30
0.0
 10
421.7179040869918
 20
283.8792275307533
 30
0.0
 10
421.5764300667093
 20
283.8542802573688
 30
0.0
 10
421.4808444056691
 20
283.8469629926748
 30
0.0
 10
421.3597143517531
 20
283.8498877012312
 30
0.0
 10
421.3353730690291
 20
283.8510881498574
 30
0.0
 10
421.287108873664
 20
283.8546829349734
 30
0.0
 10
421.2631153330408
 20
283.8570770563667
 30
0.0
 10
421.1915421967275
 20
283.8660152465152
 30
0.0
 10
421.097196043169
 20
283.8826064549881
 30
0.0
 10
421.0049810557846
 20
283.9083962688428
 30
0.0
 10
420.9366278903114
 20
283.9312357864926
 30
0.0
 10
420.9139328733525
 20
283.9394509352644
 30
0.0
 10
420.8690265492481
 20
283.9569877821769
 30
0.0
 10
420.8469027976937
 20
283.9662723706788
 30
0.0
 10
420.7378868373511
 20
284.0152118757316
 30
0.0
 10
420.6557561233101
 20
284.0623416135447
 30
0.0
 10
420.5592348926901
 20
284.130990256406
 30
0.0
 10
420.5402406346348
 20
284.1452114155016
 30
0.0
 10
420.5028783788264
 20
284.1746492192721
 30
0.0
 10
420.4845223378389
 20
284.1898614460358
 30
0.0
 10
420.4309648903085
 20
284.2365029801409
 30
0.0
 10
420.3970696623271
 20
284.2690883194099
 30
0.0
 10
420.3006166618143
 20
284.3711848172749
 30
0.0
 10
420.2432412554911
 20
284.4449947357102
 30
0.0
 10
420.1425625376356
 20
284.6044391423492
 30
0.0
 10
420.1007705329535
 20
284.6876936550713
 30
0.0
 10
420.050377906208
 20
284.8175370355387
 30
0.0
 10
420.0356395463555
 20
284.8616601369706
 30
0.0
 10
420.0166792017028
 20
284.9291390278422
 30
0.0
 10
420.0108845563891
 20
284.9518480630049
 30
0.0
 10
420.0003678883848
 20
284.9977081678
 30
0.0
 10
419.9956716608229
 20
285.0207518128202
 30
0.0
 10
419.9750435977256
 20
285.1362026585741
 30
0.0
 10
419.9675114458398
 20
285.2296527904575
 30
0.0
 10
419.9691615337857
 20
285.324186265565
 30
0.0
  0
SPLINE
  5
1CB
330
1F
100
AcDbEntity
  8
1
100
AcDbSpline
210
0.0
220
0.0
230
1.0
 70
    12
 71
     2
 72
     6
 73
     3
 74
     0
 42
0.000000001
 43
0.0000000001
 40
0.0
 40
0.0
 40
0.0
 40
1.0
 40
1.0
 40
1.0
 10
417.0936484211987
 20
304.3305951893104
 30
0.0
 41
0.5000009243779957
 10
417.2058323040778
 20
304.3303997066538
 30
0.0
 41
0.4999990756220044
 10
417.3180150483693
 20
304.330203731514
 30
0.0
 41
0.5000009243779957
  0
SPLINE
  5
1D2
330
1F
100
AcDbEntity
  8
1
100
AcDbSpline
210
0.0
220
0.0
230
1.0
 70
     8
 71
     3
 72
     8
 73
     4
 74
     0
 42
0.000000001
 43
0.0000000001
 40
0.0
 40
0.0
 40
0.0
 40
0.0
 40
1.0
 40
1.0
 40
1.0
 40
1.0
 10
426.0081269389876
 20
280.4992402055162
 30
0.0
 10
426.0251824081699
 20
280.5131778142169
 30
0.0
 10
426.0409723155493
 20
280.5284259505285
 30
0.0
 10
426.0554966611258
 20
280.5449846144509
 30
0.0
  0
SPLINE
  5
1D3
330
1F
100
AcDbEntity
  8
1
100
AcDbSpline
210
0.0
220
0.0
230
1.0
 70
     8
 71
     3
 72
     8
 73
     4
 74
     0
 42
0.000000001
 43
0.0000000001
 40
0.0
 40
0.0
 40
0.0
 40
0.0
 40
1.0
 40
1.0
 40
1.0
 40
1.0
 10
426.5894505876547
 20
281.4336331788933
 30
0.0
 10
426.5972522528897
 20
281.4542312366872
 30
0.0
 10
426.6033026456478
 20
281.475331463783
 30
0.0
 10
426.6076017659293
 20
281.4969338601808
 30
0.0
  0
SPLINE
  5
1D4
330
1F
100
AcDbEntity
  8
1
100
AcDbSpline
210
0.0
220
0.0
230
1.0
 70
     8
 71
     3
 72
     8
 73
     4
 74
     0
 42
0.000000001
 43
0.0000000001
 40
0.0
 40
0.0
 40
0.0
 40
0.0
 40
1.0
 40
1.0
 40
1.0
 40
1.0
 10
426.7311931720171
 20
288.5774807728481
 30
0.0
 10
426.7276505834055
 20
288.5992200467837
 30
0.0
 10
426.7223402636891
 20
288.6205185758535
 30
0.0
 10
426.7152622128679
 20
288.6413763600573
 30
0.0
  0
SPLINE
  5
1D5
330
1F
100
AcDbEntity
  8
1
100
AcDbSpline
210
0.0
220
0.0
230
1.0
 70
     8
 71
     3
 72
     8
 73
     4
 74
     0
 42
0.000000001
 43
0.0000000001
 40
0.0
 40
0.0
 40
0.0
 40
0.0
 40
1.0
 40
1.0
 40
1.0
 40
1.0
 10
426.2126469442886
 20
289.5481183071029
 30
0.0
 10
426.1987093355878
 20
289.5651737762852
 30
0.0
 10
426.1834611992762
 20
289.5809636836645
 30
0.0
 10
426.166902535354
 20
289.5954880292411
 30
0.0
  0
SPLINE
  5
1D6
330
1F
100
AcDbEntity
  8
1
100
AcDbSpline
210
0.0
220
0.0
230
1.0
 70
    28
 71
     4
 72
    10
 73
     5
 74
     0
 42
0.000000001
 43
0.0000000001
 40
0.0
 40
0.0
 40
0.0
 40
0.0
 40
0.0
 40
1.0
 40
1.0
 40
1.0
 40
1.0
 40
1.0
 10
297.9048419452957
 20
273.4286483804404
 30
0.0
 41
1.001498006703475
 10
297.9048419452957
 20
273.4993356436875
 30
0.0
 41
1.001498006703475
 10
297.9048419452957
 20
273.5700229069346
 30
0.0
 41
1.001498006703475
 10
297.9048419452957
 20
273.6407101701818
 30
0.0
 41
1.001498006703475
 10
297.9048419452957
 20
273.711397433429
 30
0.0
 41
1.001498006703475
  0
SPLINE
  5
1D7
330
1F
100
AcDbEntity
  8
1
100
AcDbSpline
210
0.0
220
0.0
230
1.0
 70
     8
 71
     3
 72
     8
 73
     4
 74
     0
 42
0.000000001
 43
0.0000000001
 40
0.0
 40
0.0
 40
0.0
 40
0.0
 40
1.0
 40
1.0
 40
1.0
 40
1.0
 10
306.7547713111746
 20
273.4197082986269
 30
0.0
 10
307.9933466985654
 20
273.543422957472
 30
0.0
 10
309.2322616241877
 20
273.6730984553841
 30
0.0
 10
310.4720969695039
 20
273.8071920206371
 30
0.0
  0
SPLINE
  5
1D8
330
1F
100
AcDbEntity
  8
1
100
AcDbSpline
210
0.0
220
0.0
230
1.0
 70
     8
 71
     3
 72
    10
 73
     6
 74
     0
 42
0.000000001
 43
0.0000000001
 40
0.0
 40
0.0
 40
0.0
 40
0.0
 40
0.5
 40
0.5
 40
1.0
 40
1.0
 40
1.0
 40
1.0
 10
306.7547713111746
 20
273.4197082986269
 30
0.0
 10
305.2817316650251
 20
273.4102070348505
 30
0.0
 10
303.8078250303731
 20
273.4066798047599
 30
0.0
 10
300.8579538301542
 20
273.4101674541823
 30
0.0
 10
299.3819889769586
 20
273.4171812686038
 30
0.0
 10
297.9048419452957
 20
273.4286483804402
 30
0.0
  0
SPLINE
  5
1D9
330
1F
100
AcDbEntity
  8
1
100
AcDbSpline
210
0.0
220
0.0
230
1.0
 70
    12
 71
     3
 72
     8
 73
     4
 74
     0
 42
0.000000001
 43
0.0000000001
 40
0.0
 40
0.0
 40
0.0
 40
0.0
 40
1.0
 40
1.0
 40
1.0
 40
1.0
 10
297.9048419452957
 20
273.711397433429
 30
0.0
 41
1.001498006703475
 10
302.2284085656824
 20
273.7194076822358
 30
0.0
 41
1.00141873096274
 10
306.4030293531296
 20
273.7453496904356
 30
0.0
 41
1.001407460062821
 10
310.4720969695038
 20
273.8071920206371
 30
0.0
 41
1.001424932126679
  0
SPLINE
  5
1DA
330
1F
100
AcDbEntity
  8
1
100
AcDbSpline
210
0.0
220
0.0
230
1.0
 70
     8
 71
     3
 72
     8
 73
     4
 74
     0
 42
0.000000001
 43
0.0000000001
 40
0.0
 40
0.0
 40
0.0
 40
0.0
 40
1.0
 40
1.0
 40
1.0
 40
1.0
 10
300.1005222705218
 20
282.5729085200381
 30
0.0
 10
300.1006291425792
 20
282.5842066407943
 30
0.0
 10
300.1007360302764
 20
282.5955048018542
 30
0.0
 10
300.1008429336204
 20
282.6068030032349
 30
0.0
  0
SPLINE
  5
1DB
330
1F
100
AcDbEntity
  8
1
100
AcDbSpline
210
0.0
220
0.0
230
1.0
 70
     8
 71
     3
 72
     8
 73
     4
 74
     0
 42
0.000000001
 43
0.0000000001
 40
0.0
 40
0.0
 40
0.0
 40
0.0
 40
1.0
 40
1.0
 40
1.0
 40
1.0
 10
411.7128475960076
 20
295.7884943339681
 30
0.0
 10
411.5361732088553
 20
295.8968448008785
 30
0.0
 10
411.3584007642289
 20
296.0056200176357
 30
0.0
 10
411.1795548493388
 20
296.1148104734319
 30
0.0
  0
SPLINE
  5
1DC
330
1F
100
AcDbEntity
  8
1
100
AcDbSpline
210
0.0
220
0.0
230
1.0
 70
     8
 71
     3
 72
     8
 73
     4
 74
     0
 42
0.000000001
 43
0.0000000001
 40
0.0
 40
0.0
 40
0.0
 40
0.0
 40
1.0
 40
1.0
 40
1.0
 40
1.0
 10
423.3091295402601
 20
300.5414439774996
 30
0.0
 10
423.3119106766937
 20
300.5509468331261
 30
0.0
 10
423.3149369246253
 20
300.5603808965054
 30
0.0
 10
423.3182086528213
 20
300.5697471583073
 30
0.0
  0
LINE
  5
1F5
330
1F
100
AcDbEntity
  8
4
100
AcDbLine
 10
267.703832
 20
288.907994
 30
0.0
 11
431.714645
 21
288.907994
 31
0.0
  0
LINE
  5
1F6
330
1F
100
AcDbEntity
  8
SK4
100
AcDbLine
 10
210.904842
 20
288.907994
 30
0.0
 11
277.404842
 21
288.907994
 31
0.0
  0
MTEXT
  5
1F7
330
1F
100
AcDbEntity
  8
SK6
100
AcDbMText
 10
278.633586
 20
248.640145
 30
0.0
 40
3.5
 41
0.0
 71
     7
 72
     5
  1
\W0.7147;804D-32-128-S32
  7
cesky
 73
     2
 44
0.8433729999999998
  0
MTEXT
  5
30D
330
1F
100
AcDbEntity
  8
2
100
AcDbMText
 10
347.827842
 20
322.75644
 30
0.0
 40
3.5
 41
0.0
 71
     7
 72
     5
  1
\W0.7809;153
  7
cesky
 73
     2
 44
0.8433729999999998
  0
LINE
  5
30E
330
1F
100
AcDbEntity
  8
2
100
AcDbLine
 10
427.4048419999999
 20
304.907994
 30
0.0
 11
427.4048419999999
 21
323.882273
 31
0.0
  0
LINE
  5
30F
330
1F
100
AcDbEntity
  8
2
100
AcDbLine
 10
274.404842
 20
289.907567
 30
0.0
 11
274.404842
 21
323.882273
 31
0.0
  0
LINE
  5
310
330
1F
100
AcDbEntity
  8
2
100
AcDbLine
 10
427.4048419999999
 20
322.882273
 30
0.0
 11
274.404842
 21
322.882273
 31
0.0
  0
SOLID
  5
311
330
1F
100
AcDbEntity
  8
2
100
AcDbTrace
 10
427.4048419999999
 20
322.882273
 30
0.0
 11
423.904844
 21
322.265129
 31
0.0
 12
423.90484
 22
323.499418
 32
0.0
 13
423.90484
 23
323.499418
 33
0.0
  0
SOLID
  5
312
330
1F
100
AcDbEntity
  8
2
100
AcDbTrace
 10
274.404842
 20
322.882273
 30
0.0
 11
277.90484
 21
323.499418
 31
0.0
 12
277.904844
 22
322.265129
 32
0.0
 13
277.904844
 23
322.265129
 33
0.0
  0
MTEXT
  5
313
330
1F
100
AcDbEntity
  8
2
100
AcDbMText
 10
443.98748
 20
287.313192
 30
0.0
 40
3.5
 41
0.0
 71
     7
 72
     5
  1
\W0.7045;32
  7
cesky
 11
0.0000000000000001
 21
1.0
 31
0.0
 73
     2
 44
0.8433729999999998
  0
MTEXT
  5
314
330
1F
100
AcDbEntity
  8
2
100
AcDbMText
 10
443.98748
 20
280.575692
 30
0.0
 40
3.5
 41
0.0
 71
     7
 72
     5
  1
\W3.0115;\H2.63;%%c\H3.50;
  7
cesky
 11
0.0000000000000001
 21
1.0
 31
0.0
 73
     2
 44
0.8433729999999998
  0
LINE
  5
315
330
1F
100
AcDbEntity
  8
2
100
AcDbLine
 10
429.404842
 20
304.907994
 30
0.0
 11
445.1748969999999
 21
304.907994
 31
0.0
  0
LINE
  5
316
330
1F
100
AcDbEntity
  8
2
100
AcDbLine
 10
444.1748969999999
 20
304.907994
 30
0.0
 11
444.1748969999999
 21
280.418192
 31
0.0
  0
SOLID
  5
317
330
1F
100
AcDbEntity
  8
2
100
AcDbTrace
 10
444.1748969999999
 20
304.907994
 30
0.0
 11
444.7920419999999
 21
301.407996
 31
0.0
 12
443.557753
 22
301.407991
 32
0.0
 13
443.557753
 23
301.407991
 33
0.0
  0
MTEXT
  5
318
330
1F
100
AcDbEntity
  8
2
100
AcDbMText
 10
317.827842
 20
337.029667
 30
0.0
 40
3.5
 41
0.0
 71
     7
 72
     5
  1
\W0.7809;213
  7
cesky
 73
     2
 44
0.8433729999999998
  0
LINE
  5
319
330
1F
100
AcDbEntity
  8
2
100
AcDbLine
 10
427.4048419999999
 20
306.907994
 30
0.0
 11
427.4048419999999
 21
338.155501
 31
0.0
  0
LINE
  5
31A
330
1F
100
AcDbEntity
  8
2
100
AcDbLine
 10
214.404842
 20
302.907994
 30
0.0
 11
214.404842
 21
338.155501
 31
0.0
  0
LINE
  5
31B
330
1F
100
AcDbEntity
  8
2
100
AcDbLine
 10
427.4048419999999
 20
337.155501
 30
0.0
 11
214.404842
 21
337.155501
 31
0.0
  0
SOLID
  5
31C
330
1F
100
AcDbEntity
  8
2
100
AcDbTrace
 10
427.4048419999999
 20
337.155501
 30
0.0
 11
423.904844
 21
336.538356
 31
0.0
 12
423.90484
 22
337.772645
 32
0.0
 13
423.90484
 23
337.772645
 33
0.0
  0
SOLID
  5
31D
330
1F
100
AcDbEntity
  8
2
100
AcDbTrace
 10
214.404842
 20
337.155501
 30
0.0
 11
217.90484
 21
337.772645
 31
0.0
 12
217.904844
 22
336.538356
 32
0.0
 13
217.904844
 23
336.538356
 33
0.0
  0
MTEXT
  5
31E
330
1F
100
AcDbEntity
  8
2
100
AcDbMText
 10
242.590342
 20
322.75644
 30
0.0
 40
3.5
 41
0.0
 71
     7
 72
     5
  1
\W0.7045;60
  7
cesky
 73
     2
 44
0.8433729999999998
  0
LINE
  5
31F
330
1F
100
AcDbEntity
  8
2
100
AcDbLine
 10
274.404842
 20
288.907994
 30
0.0
 11
274.404842
 21
323.882273
 31
0.0
  0
LINE
  5
320
330
1F
100
AcDbEntity
  8
2
100
AcDbLine
 10
214.404842
 20
302.907994
 30
0.0
 11
214.404842
 21
323.882273
 31
0.0
  0
LINE
  5
321
330
1F
100
AcDbEntity
  8
2
100
AcDbLine
 10
274.404842
 20
322.882273
 30
0.0
 11
214.404842
 21
322.882273
 31
0.0
  0
SOLID
  5
322
330
1F
100
AcDbEntity
  8
2
100
AcDbTrace
 10
274.404842
 20
322.882273
 30
0.0
 11
270.904844
 21
322.265129
 31
0.0
 12
270.90484
 22
323.499418
 32
0.0
 13
270.90484
 23
323.499418
 33
0.0
  0
SOLID
  5
323
330
1F
100
AcDbEntity
  8
2
100
AcDbTrace
 10
214.404842
 20
322.882273
 30
0.0
 11
217.90484
 21
323.499418
 31
0.0
 12
217.904844
 22
322.265129
 32
0.0
 13
217.904844
 23
322.265129
 33
0.0
  0
MTEXT
  5
324
330
1F
100
AcDbEntity
  8
2
100
AcDbMText
 10
353.554816
 20
311.867121
 30
0.0
 40
3.5
 41
0.0
 71
     7
 72
     5
  1
\W0.8654;136,5
  7
cesky
 73
     2
 44
0.8433729999999998
  0
LINE
  5
325
330
1F
100
AcDbEntity
  8
2
100
AcDbLine
 10
427.4048419999999
 20
306.907994
 30
0.0
 11
427.4048419999999
 21
312.992954
 31
0.0
  0
LINE
  5
326
330
1F
100
AcDbEntity
  8
2
100
AcDbLine
 10
290.908791
 20
304.684579
 30
0.0
 11
290.908791
 21
312.992954
 31
0.0
  0
LINE
  5
327
330
1F
100
AcDbEntity
  8
2
100
AcDbLine
 10
427.4048419999999
 20
311.992954
 30
0.0
 11
290.908791
 21
311.992954
 31
0.0
  0
SOLID
  5
328
330
1F
100
AcDbEntity
  8
2
100
AcDbTrace
 10
427.4048419999999
 20
311.992954
 30
0.0
 11
423.904844
 21
311.37581
 31
0.0
 12
423.90484
 22
312.610098
 32
0.0
 13
423.90484
 23
312.610098
 33
0.0
  0
SOLID
  5
329
330
1F
100
AcDbEntity
  8
2
100
AcDbTrace
 10
290.908791
 20
311.992954
 30
0.0
 11
294.408788
 21
312.610098
 31
0.0
 12
294.408793
 22
311.37581
 32
0.0
 13
294.408793
 23
311.37581
 33
0.0
  0
MTEXT
  5
32A
330
1F
100
AcDbEntity
  8
SK2
100
AcDbMText
 10
204.480913
 20
290.434244
 30
0.0
 40
3.5
 41
0.0
 71
     7
 72
     5
  1
\W0.7045;32
  7
cesky
 11
0.0000000000000001
 21
1.0
 31
0.0
 73
     2
 44
0.8433729999999998
  0
MTEXT
  5
32B
330
1F
100
AcDbEntity
  8
SK2
100
AcDbMText
 10
204.480913
 20
283.696744
 30
0.0
 40
3.5
 41
0.0
 71
     7
 72
     5
  1
\W3.0115;\H2.63;%%c\H3.50;
  7
cesky
 11
0.0000000000000001
 21
1.0
 31
0.0
 73
     2
 44
0.8433729999999998
  0
LINE
  5
32C
330
1F
100
AcDbEntity
  8
SK2
100
AcDbLine
 10
216.404842
 20
304.907994
 30
0.0
 11
203.66833
 21
304.907994
 31
0.0
  0
LINE
  5
32D
330
1F
100
AcDbEntity
  8
SK2
100
AcDbLine
 10
216.404842
 20
272.907994
 30
0.0
 11
203.66833
 21
272.907994
 31
0.0
  0
LINE
  5
32E
330
1F
100
AcDbEntity
  8
SK2
100
AcDbLine
 10
204.66833
 20
304.907994
 30
0.0
 11
204.66833
 21
272.907994
 31
0.0
  0
SOLID
  5
32F
330
1F
100
AcDbEntity
  8
SK2
100
AcDbTrace
 10
204.66833
 20
304.907994
 30
0.0
 11
205.285474
 21
301.407996
 31
0.0
 12
204.051185
 22
301.407991
 32
0.0
 13
204.051185
 23
301.407991
 33
0.0
  0
SOLID
  5
330
330
1F
100
AcDbEntity
  8
SK2
100
AcDbTrace
 10
204.66833
 20
272.907994
 30
0.0
 11
204.051185
 21
276.407991
 31
0.0
 12
205.285474
 22
276.407996
 32
0.0
 13
205.285474
 23
276.407996
 33
0.0
  0
MTEXT
  5
331
330
1F
100
AcDbEntity
  8
SK2
100
AcDbMText
 10
191.916868
 20
290.434244
 30
0.0
 40
3.5
 41
0.0
 71
     7
 72
     5
  1
\W0.7045;42
  7
cesky
 11
0.0000000000000001
 21
1.0
 31
0.0
 73
     2
 44
0.8433729999999998
  0
MTEXT
  5
332
330
1F
100
AcDbEntity
  8
SK2
100
AcDbMText
 10
191.916868
 20
283.696744
 30
0.0
 40
3.5
 41
0.0
 71
     7
 72
     5
  1
\W3.0115;\H2.63;%%c\H3.50;
  7
cesky
 11
0.0000000000000001
 21
1.0
 31
0.0
 73
     2
 44
0.8433729999999998
  0
LINE
  5
333
330
1F
100
AcDbEntity
  8
SK2
100
AcDbLine
 10
274.904842
 20
309.907994
 30
0.0
 11
191.104285
 21
309.907994
 31
0.0
  0
LINE
  5
334
330
1F
100
AcDbEntity
  8
SK2
100
AcDbLine
 10
274.904842
 20
267.907994
 30
0.0
 11
191.104285
 21
267.907994
 31
0.0
  0
LINE
  5
335
330
1F
100
AcDbEntity
  8
SK2
100
AcDbLine
 10
192.104285
 20
309.907994
 30
0.0
 11
192.104285
 21
267.907994
 31
0.0
  0
SOLID
  5
336
330
1F
100
AcDbEntity
  8
SK2
100
AcDbTrace
 10
192.104285
 20
309.907994
 30
0.0
 11
192.721429
 21
306.407996
 31
0.0
 12
191.48714
 22
306.407991
 32
0.0
 13
191.48714
 23
306.407991
 33
0.0
  0
SOLID
  5
337
330
1F
100
AcDbEntity
  8
SK2
100
AcDbTrace
 10
192.104285
 20
267.907994
 30
0.0
 11
191.48714
 21
271.4079910000001
 31
0.0
 12
192.721429
 22
271.407996
 32
0.0
 13
192.721429
 23
271.407996
 33
0.0
  0
LINE
  5
338
330
1F
100
AcDbEntity
  8
CUT
100
AcDbLine
 10
427.2754235247552
 20
296.4661715315234
 30
0.0
 11
427.3998607906597
 21
289.3480174300097
 31
0.0
  0
LINE
  5
33B
330
1F
100
AcDbEntity
  8
CUT
100
AcDbLine
 10
426.8286060818003
 20
304.1627035294018
 30
0.0
 11
427.0928096814856
 21
296.8466642059478
 31
0.0
  0
LINE
  5
33D
330
1F
100
AcDbEntity
  8
CUT
100
AcDbLine
 10
418.0557887655624
 20
304.6107448953678
 30
0.0
 11
426.0284650116672
 21
304.905040926027
 31
0.0
  0
LINE
  5
33E
330
1F
100
AcDbEntity
  8
CUT
100
AcDbLine
 10
427.0928096814857
 20
296.8466642059478
 30
0.0
 11
427.2334058386329
 21
296.6126920349481
 31
0.0
  0
LINE
  5
33F
330
1F
100
AcDbEntity
  8
CUT
100
AcDbLine
 10
417.3112099999999
 20
288.907994
 30
0.0
 11
417.3112099999999
 21
303.810957
 31
0.0
  0
LINE
  5
340
330
1F
100
AcDbEntity
  8
CUT
100
AcDbLine
 10
427.399861
 20
288.907994
 30
0.0
 11
417.3112099999999
 21
288.907994
 31
0.0
  0
LINE
  5
341
330
1F
100
AcDbEntity
  8
CUT
100
AcDbLine
 10
427.399861
 20
289.348017
 30
0.0
 11
427.399861
 21
288.907994
 31
0.0
  0
ARC
  5
342
330
1F
100
AcDbEntity
  8
CUT
100
AcDbCircle
 10
418.0934745038793
 20
303.8295254182493
 30
0.0
 40
0.7824851693702259
100
AcDbArc
 50
95.52665292579892
 51
181.3597525587301
  0
ARC
  5
343
330
1F
100
AcDbEntity
  8
CUT
100
AcDbCircle
 10
418.0824802340981
 20
303.886331473164
 30
0.0
 40
0.724904987403
100
AcDbArc
 50
92.11014449641584
 51
95.09412825222005
  0
LINE
  5
344
330
1F
100
AcDbEntity
  8
CUT
100
AcDbLine
 10
427.2334058386331
 20
296.6126920349482
 30
0.0
 11
427.2334058386331
 21
296.6126920349482
 31
0.0
  0
ARC
  5
345
330
1F
100
AcDbEntity
  8
CUT
100
AcDbCircle
 10
426.9810600596472
 20
296.4610418757432
 30
0.0
 40
0.2944081570861762
100
AcDbArc
 50
0.9983503934388771
 51
31.00425685654644
  0
ARC
  5
346
330
1F
100
AcDbEntity
  8
CUT
100
AcDbCircle
 10
426.049073291788
 20
304.1242513126534
 30
0.0
 40
0.7810615350672103
100
AcDbArc
 50
6.975663356609778
 51
91.51192251266008
  0
ARC
  5
347
330
1F
100
AcDbEntity
  8
CUT
100
AcDbCircle
 10
426.1067617864092
 20
304.1366423297432
 30
0.0
 40
0.722314594145979
100
AcDbArc
 50
2.067687568951998
 51
6.55579313077524
  0
ENDSEC
  0
SECTION
  2
OBJECTS
  0
DICTIONARY
  5
C
330
0
100
AcDbDictionary
281
     1
  3
ACAD_CIP_PREVIOUS_PRODUCT_INFO
350
30A
  3
ACAD_COLOR
350
305
  3
ACAD_DETAILVIEWSTYLE
350
301
  3
ACAD_GROUP
350
D
  3
ACAD_LAYOUT
350
1A
  3
ACAD_MATERIAL
350
43
  3
ACAD_MLEADERSTYLE
350
6B
  3
ACAD_MLINESTYLE
350
17
  3
ACAD_PLOTSETTINGS
350
19
  3
ACAD_PLOTSTYLENAME
350
E
  3
ACAD_SCALELIST
350
47
  3
ACAD_SECTIONVIEWSTYLE
350
302
  3
ACAD_TABLESTYLE
350
69
  3
ACAD_VISUALSTYLE
350
2A
  3
ACDB_RECOMPOSE_DATA
350
373
  3
AcDbVariableDictionary
350
2BE
  0
DICTIONARY
  5
356
330
10
100
AcDbDictionary
280
     1
281
     1
  3
ADSK_XREC_LAYER_RECONCILED
360
357
  0
DICTIONARY
  5
358
330
348
100
AcDbDictionary
280
     1
281
     1
  3
ADSK_XREC_LAYER_RECONCILED
360
359
  0
DICTIONARY
  5
35A
330
349
100
AcDbDictionary
280
     1
281
     1
  3
ADSK_XREC_LAYER_RECONCILED
360
35B
  0
DICTIONARY
  5
35C
330
34A
100
AcDbDictionary
280
     1
281
     1
  3
ADSK_XREC_LAYER_RECONCILED
360
35D
  0
DICTIONARY
  5
35E
330
34C
100
AcDbDictionary
280
     1
281
     1
  3
ADSK_XREC_LAYER_RECONCILED
360
35F
  0
DICTIONARY
  5
360
330
34D
100
AcDbDictionary
280
     1
281
     1
  3
ADSK_XREC_LAYER_RECONCILED
360
361
  0
DICTIONARY
  5
362
330
34F
100
AcDbDictionary
280
     1
281
     1
  3
ADSK_XREC_LAYER_RECONCILED
360
363
  0
DICTIONARY
  5
364
330
350
100
AcDbDictionary
280
     1
281
     1
  3
ADSK_XREC_LAYER_RECONCILED
360
365
  0
DICTIONARY
  5
366
330
351
100
AcDbDictionary
280
     1
281
     1
  3
ADSK_XREC_LAYER_RECONCILED
360
367
  0
DICTIONARY
  5
368
330
352
100
AcDbDictionary
280
     1
281
     1
  3
ADSK_XREC_LAYER_RECONCILED
360
369
  0
DICTIONARY
  5
36A
330
353
100
AcDbDictionary
280
     1
281
     1
  3
ADSK_XREC_LAYER_RECONCILED
360
36B
  0
DICTIONARY
  5
36C
330
354
100
AcDbDictionary
280
     1
281
     1
  3
ADSK_XREC_LAYER_RECONCILED
360
36D
  0
DICTIONARY
  5
30B
330
1F
100
AcDbDictionary
280
     1
281
     1
  3
ACAD_SORTENTS
360
30C
  0
XRECORD
  5
30A
102
{ACAD_REACTORS
330
C
102
}
330
C
100
AcDbXrecord
280
     1
300
ACD
300
2019
300
87084ACD_2019_0F
  0
DICTIONARY
  5
305
102
{ACAD_REACTORS
330
C
102
}
330
C
100
AcDbDictionary
281
     1
  0
DICTIONARY
  5
301
102
{ACAD_REACTORS
330
C
102
}
330
C
100
AcDbDictionary
281
     1
  3
Metric50
350
307
  0
DICTIONARY
  5
D
102
{ACAD_REACTORS
330
C
102
}
330
C
100
AcDbDictionary
281
     1
  3
NULOVY_BOD
350
355
  0
DICTIONARY
  5
1A
102
{ACAD_REACTORS
330
C
102
}
330
C
100
AcDbDictionary
281
     1
  3
Layout1
350
1E
  3
Layout2
350
26
  3
Model
350
22
  0
DICTIONARY
  5
43
102
{ACAD_REACTORS
330
C
102
}
330
C
100
AcDbDictionary
281
     1
  3
ByBlock
350
45
  3
ByLayer
350
44
  3
Global
350
46
  0
DICTIONARY
  5
6B
102
{ACAD_REACTORS
330
C
102
}
330
C
100
AcDbDictionary
281
     1
  3
Standard
350
6C
  0
DICTIONARY
  5
17
102
{ACAD_REACTORS
330
C
102
}
330
C
100
AcDbDictionary
281
     1
  3
Standard
350
18
  0
DICTIONARY
  5
19
102
{ACAD_REACTORS
330
C
102
}
330
C
100
AcDbDictionary
281
     1
  0
ACDBDICTIONARYWDFLT
  5
E
102
{ACAD_REACTORS
330
C
102
}
330
C
100
AcDbDictionary
281
     1
  3
Normal
350
F
100
AcDbDictionaryWithDefault
340
F
  0
DICTIONARY
  5
47
102
{ACAD_REACTORS
330
C
102
}
330
C
100
AcDbDictionary
281
     1
  3
A0
350
48
  3
A1
350
49
  3
A2
350
4A
  3
A3
350
4B
  3
A4
350
4C
  3
A5
350
4D
  3
A6
350
4E
  3
A7
350
4F
  3
A8
350
50
  3
A9
350
51
  3
B0
350
52
  3
B1
350
53
  3
B2
350
54
  3
B3
350
55
  3
B4
350
56
  3
B5
350
57
  3
B6
350
58
  3
B7
350
59
  3
B8
350
5A
  3
B9
350
5B
  3
C0
350
5C
  3
C1
350
5D
  3
C2
350
5E
  3
C3
350
5F
  3
C4
350
60
  3
C5
350
61
  3
C6
350
62
  3
C7
350
63
  3
C8
350
64
  3
C9
350
65
  3
D0
350
66
  3
D1
350
67
  3
D2
350
68
  0
DICTIONARY
  5
302
102
{ACAD_REACTORS
330
C
102
}
330
C
100
AcDbDictionary
281
     1
  3
Metric50
350
306
  0
DICTIONARY
  5
69
102
{ACAD_REACTORS
330
C
102
}
330
C
100
AcDbDictionary
281
     1
  3
Standard
350
6A
  0
DICTIONARY
  5
2A
102
{ACAD_REACTORS
330
C
102
}
330
C
100
AcDbDictionary
281
     1
  3
2dWireframe
350
2F
  3
Basic
350
32
  3
Brighten
350
36
  3
ColorChange
350
3A
  3
Conceptual
350
34
  3
Dim
350
35
  3
EdgeColorOff
350
3D
  3
Facepattern
350
39
  3
Flat
350
2B
  3
FlatWithEdges
350
2C
  3
Gouraud
350
2D
  3
GouraudWithEdges
350
2E
  3
Hidden
350
31
  3
JitterOff
350
3B
  3
Linepattern
350
38
  3
OverhangOff
350
3C
  3
Realistic
350
33
  3
Shaded
350
42
  3
Shaded with edges
350
41
  3
Shades of Gray
350
3E
  3
Sketchy
350
3F
  3
Thicken
350
37
  3
Wireframe
350
30
  3
X-Ray
350
40
  0
XRECORD
  5
373
102
{ACAD_REACTORS
330
C
102
}
330
C
100
AcDbXrecord
280
     1
 90
        1
330
6A
  0
DICTIONARY
  5
2BE
102
{ACAD_REACTORS
330
C
102
}
330
C
100
AcDbDictionary
281
     1
  3
CANNOSCALE
350
2BF
  3
CMLEADERSTYLE
350
300
  3
CTABLESTYLE
350
2FF
  3
CVIEWDETAILSTYLE
350
36E
  3
CVIEWSECTIONSTYLE
350
36F
  3
MSLTSCALE
350
2C0
  3
XCLIPFRAME
350
370
  0
XRECORD
  5
357
102
{ACAD_REACTORS
330
356
102
}
330
356
100
AcDbXrecord
280
     1
290
     1
  0
XRECORD
  5
359
102
{ACAD_REACTORS
330
358
102
}
330
358
100
AcDbXrecord
280
     1
290
     1
  0
XRECORD
  5
35B
102
{ACAD_REACTORS
330
35A
102
}
330
35A
100
AcDbXrecord
280
     1
290
     1
  0
XRECORD
  5
35D
102
{ACAD_REACTORS
330
35C
102
}
330
35C
100
AcDbXrecord
280
     1
290
     1
  0
XRECORD
  5
35F
102
{ACAD_REACTORS
330
35E
102
}
330
35E
100
AcDbXrecord
280
     1
290
     1
  0
XRECORD
  5
361
102
{ACAD_REACTORS
330
360
102
}
330
360
100
AcDbXrecord
280
     1
290
     1
  0
XRECORD
  5
363
102
{ACAD_REACTORS
330
362
102
}
330
362
100
AcDbXrecord
280
     1
290
     1
  0
XRECORD
  5
365
102
{ACAD_REACTORS
330
364
102
}
330
364
100
AcDbXrecord
280
     1
290
     1
  0
XRECORD
  5
367
102
{ACAD_REACTORS
330
366
102
}
330
366
100
AcDbXrecord
280
     1
290
     1
  0
XRECORD
  5
369
102
{ACAD_REACTORS
330
368
102
}
330
368
100
AcDbXrecord
280
     1
290
     1
  0
XRECORD
  5
36B
102
{ACAD_REACTORS
330
36A
102
}
330
36A
100
AcDbXrecord
280
     1
290
     1
  0
XRECORD
  5
36D
102
{ACAD_REACTORS
330
36C
102
}
330
36C
100
AcDbXrecord
280
     1
290
     1
  0
SORTENTSTABLE
  5
30C
102
{ACAD_REACTORS
330
30B
102
}
330
30B
100
AcDbSortentsTable
330
1F
331
30D
  5
230
331
30E
  5
249
331
30F
  5
30D
331
310
  5
30E
331
311
  5
30F
331
312
  5
310
331
313
  5
311
331
314
  5
312
331
315
  5
313
331
316
  5
314
331
317
  5
315
331
318
  5
326
331
319
  5
327
331
31A
  5
328
331
31B
  5
329
331
31C
  5
32A
331
31D
  5
32B
331
31E
  5
32C
331
31F
  5
32D
331
320
  5
32E
331
321
  5
32F
331
322
  5
330
331
323
  5
331
331
324
  5
332
331
325
  5
333
331
326
  5
334
331
327
  5
335
331
328
  5
336
331
329
  5
337
331
32A
  5
318
331
32B
  5
319
331
32C
  5
31A
331
32D
  5
31B
331
32E
  5
31C
331
32F
  5
31D
331
330
  5
31E
331
331
  5
31F
331
332
  5
320
331
333
  5
321
331
334
  5
322
331
335
  5
323
331
336
  5
324
331
337
  5
325
331
33B
  5
340
331
33D
  5
343
331
33E
  5
344
331
33F
  5
345
331
340
  5
346
331
341
  5
347
331
342
  5
33B
331
343
  5
33D
331
344
  5
33E
331
345
  5
33F
331
346
  5
341
331
347
  5
342
  0
ACDBDETAILVIEWSTYLE
  5
307
102
{ACAD_XDICTIONARY
360
3A7
102
}
102
{ACAD_REACTORS
330
301
102
}
330
301
100
AcDbModelDocViewStyle
 70
     0
  3
Metric50
290
     0
100
AcDbDetailViewStyle
 70
     0
 71
     0
 90
        3
 71
     1
340
11
 62
   256
 40
5.0
340
0
 62
   256
 40
5.0
300

 40
0.0
280
     1
 71
     2
340
16
 90
       25
 62
   256
 71
     3
340
11
 62
   256
 40
5.0
 90
        0
 40
15.0
 90
        1
300
%<\AcVar ViewDetailId>% (%<\AcVar ViewScale \f "%sn">%)
 71
     4
340
16
 90
       25
 62
   256
340
16
 90
       25
 62
   256
280
     0
  0
GROUP
  5
355
102
{ACAD_REACTORS
330
D
102
}
330
D
100
AcDbGroup
300

 70
     0
 71
     1
340
73
  0
LAYOUT
  5
1E
102
{ACAD_REACTORS
330
1A
102
}
330
1A
100
AcDbPlotSettings
  1

  2
none_device
  4

  6

 40
0.0
 41
0.0
 42
0.0
 43
0.0
 44
0.0
 45
0.0
 46
0.0
 47
0.0
 48
0.0
 49
0.0
140
0.0
141
0.0
142
1.0
143
1.0
 70
   688
 72
     0
 73
     0
 74
     5
  7

 75
    16
147
1.0
 76
     0
 77
     2
 78
   300
148
0.0
149
0.0
100
AcDbLayout
  1
Layout1
 70
     1
 71
     1
 10
-0.5
 20
-0.5
 11
5.0
 21
5.0
 12
0.0
 22
0.0
 32
0.0
 14
-0.5
 24
-0.5
 34
-0.5
 15
5.0
 25
5.0
 35
5.0
146
0.0
 13
0.0
 23
0.0
 33
0.0
 16
1.0
 26
0.0
 36
0.0
 17
0.0
 27
1.0
 37
0.0
 76
     0
330
1B
  0
LAYOUT
  5
26
102
{ACAD_REACTORS
330
1A
102
}
330
1A
100
AcDbPlotSettings
  1

  2
none_device
  4

  6

 40
0.0
 41
0.0
 42
0.0
 43
0.0
 44
0.0
 45
0.0
 46
0.0
 47
0.0
 48
0.0
 49
0.0
140
0.0
141
0.0
142
1.0
143
1.0
 70
   688
 72
     0
 73
     0
 74
     5
  7

 75
    16
147
1.0
 76
     0
 77
     2
 78
   300
148
0.0
149
0.0
100
AcDbLayout
  1
Layout2
 70
     1
 71
     2
 10
0.0
 20
0.0
 11
0.0
 21
0.0
 12
0.0
 22
0.0
 32
0.0
 14
0.0
 24
0.0
 34
0.0
 15
0.0
 25
0.0
 35
0.0
146
0.0
 13
0.0
 23
0.0
 33
0.0
 16
1.0
 26
0.0
 36
0.0
 17
0.0
 27
1.0
 37
0.0
 76
     0
330
23
  0
LAYOUT
  5
22
102
{ACAD_REACTORS
330
1A
102
}
330
1A
100
AcDbPlotSettings
  1

  2
none_device
  4
Letter_(8.50_x_11.00_Inches)
  6

 40
6.349999999999999
 41
6.349999999999999
 42
6.350005
 43
6.350005
 44
215.9
 45
279.4
 46
0.0
 47
0.0
 48
0.0
 49
0.0
140
0.0
141
0.0
142
1.0
143
1.0
 70
  1712
 72
     0
 73
     0
 74
     0
  7

 75
     0
147
1.0
 76
     0
 77
     2
 78
   300
148
0.0
149
0.0
100
AcDbLayout
  1
Model
 70
     1
 71
     0
 10
-0.5
 20
-0.5
 11
5.0
 21
5.0
 12
0.0
 22
0.0
 32
0.0
 14
-0.5
 24
-0.5
 34
-0.5
 15
5.0
 25
5.0
 35
5.0
146
0.0
 13
0.0
 23
0.0
 33
0.0
 16
1.0
 26
0.0
 36
0.0
 17
0.0
 27
1.0
 37
0.0
 76
     0
330
1F
331
29
  0
MATERIAL
  5
45
102
{ACAD_XDICTIONARY
360
2F4
102
}
102
{ACAD_REACTORS
330
43
102
}
330
43
100
AcDbMaterial
  1
ByBlock
  0
MATERIAL
  5
44
102
{ACAD_XDICTIONARY
360
2F2
102
}
102
{ACAD_REACTORS
330
43
102
}
330
43
100
AcDbMaterial
  1
ByLayer
  0
MATERIAL
  5
46
102
{ACAD_XDICTIONARY
360
2F6
102
}
102
{ACAD_REACTORS
330
43
102
}
330
43
100
AcDbMaterial
  1
Global
  0
MLEADERSTYLE
  5
6C
102
{ACAD_REACTORS
330
6B
102
}
330
6B
100
AcDbMLeaderStyle
170
     2
171
     1
172
     0
 90
        2
 40
0.0
 41
0.0
173
     1
 91
-1056964608
340
14
 92
       -2
290
     1
 42
0.09
291
     1
 43
0.36
  3
Standard
 44
0.18
300

342
11
174
     1
178
     6
175
     1
176
     0
 93
-1056964608
 45
0.18
292
     0
297
     0
 46
0.18
 94
-1056964608
 47
1.0
 49
1.0
140
1.0
293
     1
141
0.0
294
     1
177
     0
142
1.0
295
     0
296
     0
143
0.125
1001
ACAD_MLEADERVER
1070
     2
  0
MLINESTYLE
  5
18
102
{ACAD_REACTORS
330
17
102
}
330
17
100
AcDbMlineStyle
  2
STANDARD
 70
     0
  3

 62
   256
 51
90.0
 52
90.0
 71
     2
 49
0.5
 62
   256
  6
BYLAYER
 49
-0.5
 62
   256
  6
BYLAYER
  0
ACDBPLACEHOLDER
  5
F
102
{ACAD_REACTORS
330
E
102
}
330
E
  0
SCALE
  5
48
102
{ACAD_REACTORS
330
47
102
}
330
47
100
AcDbScale
 70
     0
300
1:1
140
1.0
141
1.0
290
     1
  0
SCALE
  5
49
102
{ACAD_REACTORS
330
47
102
}
330
47
100
AcDbScale
 70
     0
300
1:2
140
1.0
141
2.0
290
     0
  0
SCALE
  5
4A
102
{ACAD_REACTORS
330
47
102
}
330
47
100
AcDbScale
 70
     0
300
1:4
140
1.0
141
4.0
290
     0
  0
SCALE
  5
4B
102
{ACAD_REACTORS
330
47
102
}
330
47
100
AcDbScale
 70
     0
300
1:5
140
1.0
141
5.0
290
     0
  0
SCALE
  5
4C
102
{ACAD_REACTORS
330
47
102
}
330
47
100
AcDbScale
 70
     0
300
1:8
140
1.0
141
8.0
290
     0
  0
SCALE
  5
4D
102
{ACAD_REACTORS
330
47
102
}
330
47
100
AcDbScale
 70
     0
300
1:10
140
1.0
141
10.0
290
     0
  0
SCALE
  5
4E
102
{ACAD_REACTORS
330
47
102
}
330
47
100
AcDbScale
 70
     0
300
1:16
140
1.0
141
16.0
290
     0
  0
SCALE
  5
4F
102
{ACAD_REACTORS
330
47
102
}
330
47
100
AcDbScale
 70
     0
300
1:20
140
1.0
141
20.0
290
     0
  0
SCALE
  5
50
102
{ACAD_REACTORS
330
47
102
}
330
47
100
AcDbScale
 70
     0
300
1:30
140
1.0
141
30.0
290
     0
  0
SCALE
  5
51
102
{ACAD_REACTORS
330
47
102
}
330
47
100
AcDbScale
 70
     0
300
1:40
140
1.0
141
40.0
290
     0
  0
SCALE
  5
52
102
{ACAD_REACTORS
330
47
102
}
330
47
100
AcDbScale
 70
     0
300
1:50
140
1.0
141
50.0
290
     0
  0
SCALE
  5
53
102
{ACAD_REACTORS
330
47
102
}
330
47
100
AcDbScale
 70
     0
300
1:100
140
1.0
141
100.0
290
     0
  0
SCALE
  5
54
102
{ACAD_REACTORS
330
47
102
}
330
47
100
AcDbScale
 70
     0
300
2:1
140
2.0
141
1.0
290
     0
  0
SCALE
  5
55
102
{ACAD_REACTORS
330
47
102
}
330
47
100
AcDbScale
 70
     0
300
4:1
140
4.0
141
1.0
290
     0
  0
SCALE
  5
56
102
{ACAD_REACTORS
330
47
102
}
330
47
100
AcDbScale
 70
     0
300
8:1
140
8.0
141
1.0
290
     0
  0
SCALE
  5
57
102
{ACAD_REACTORS
330
47
102
}
330
47
100
AcDbScale
 70
     0
300
10:1
140
10.0
141
1.0
290
     0
  0
SCALE
  5
58
102
{ACAD_REACTORS
330
47
102
}
330
47
100
AcDbScale
 70
     0
300
100:1
140
100.0
141
1.0
290
     0
  0
SCALE
  5
59
102
{ACAD_REACTORS
330
47
102
}
330
47
100
AcDbScale
 70
     0
300
1/128" = 1'-0"
140
0.007812
141
12.0
290
     0
  0
SCALE
  5
5A
102
{ACAD_REACTORS
330
47
102
}
330
47
100
AcDbScale
 70
     0
300
1/64" = 1'-0"
140
0.015625
141
12.0
290
     0
  0
SCALE
  5
5B
102
{ACAD_REACTORS
330
47
102
}
330
47
100
AcDbScale
 70
     0
300
1/32" = 1'-0"
140
0.03125
141
12.0
290
     0
  0
SCALE
  5
5C
102
{ACAD_REACTORS
330
47
102
}
330
47
100
AcDbScale
 70
     0
300
1/16" = 1'-0"
140
0.0625
141
12.0
290
     0
  0
SCALE
  5
5D
102
{ACAD_REACTORS
330
47
102
}
330
47
100
AcDbScale
 70
     0
300
3/32" = 1'-0"
140
0.09375
141
12.0
290
     0
  0
SCALE
  5
5E
102
{ACAD_REACTORS
330
47
102
}
330
47
100
AcDbScale
 70
     0
300
1/8" = 1'-0"
140
0.125
141
12.0
290
     0
  0
SCALE
  5
5F
102
{ACAD_REACTORS
330
47
102
}
330
47
100
AcDbScale
 70
     0
300
3/16" = 1'-0"
140
0.1875
141
12.0
290
     0
  0
SCALE
  5
60
102
{ACAD_REACTORS
330
47
102
}
330
47
100
AcDbScale
 70
     0
300
1/4" = 1'-0"
140
0.25
141
12.0
290
     0
  0
SCALE
  5
61
102
{ACAD_REACTORS
330
47
102
}
330
47
100
AcDbScale
 70
     0
300
3/8" = 1'-0"
140
0.375
141
12.0
290
     0
  0
SCALE
  5
62
102
{ACAD_REACTORS
330
47
102
}
330
47
100
AcDbScale
 70
     0
300
1/2" = 1'-0"
140
0.5
141
12.0
290
     0
  0
SCALE
  5
63
102
{ACAD_REACTORS
330
47
102
}
330
47
100
AcDbScale
 70
     0
300
3/4" = 1'-0"
140
0.75
141
12.0
290
     0
  0
SCALE
  5
64
102
{ACAD_REACTORS
330
47
102
}
330
47
100
AcDbScale
 70
     0
300
1" = 1'-0"
140
1.0
141
12.0
290
     0
  0
SCALE
  5
65
102
{ACAD_REACTORS
330
47
102
}
330
47
100
AcDbScale
 70
     0
300
1-1/2" = 1'-0"
140
1.5
141
12.0
290
     0
  0
SCALE
  5
66
102
{ACAD_REACTORS
330
47
102
}
330
47
100
AcDbScale
 70
     0
300
3" = 1'-0"
140
3.0
141
12.0
290
     0
  0
SCALE
  5
67
102
{ACAD_REACTORS
330
47
102
}
330
47
100
AcDbScale
 70
     0
300
6" = 1'-0"
140
6.0
141
12.0
290
     0
  0
SCALE
  5
68
102
{ACAD_REACTORS
330
47
102
}
330
47
100
AcDbScale
 70
     0
300
1'-0" = 1'-0"
140
12.0
141
12.0
290
     0
  0
ACDBSECTIONVIEWSTYLE
  5
306
102
{ACAD_XDICTIONARY
360
3A5
102
}
102
{ACAD_REACTORS
330
302
102
}
330
302
100
AcDbModelDocViewStyle
 70
     0
  3
Metric50
290
     0
100
AcDbSectionViewStyle
 70
     0
 71
     0
 90
      102
 71
     1
340
11
 62
   256
 40
5.0
340
0
340
0
 62
   256
 40
5.0
300
I, O, Q, S, X, Z
 40
10.0
 90
        0
 40
2.5
 90
        0
 71
     2
340
16
 90
       25
 62
   256
340
16
 90
       50
 62
   256
 40
5.0
 40
2.5
 40
5.0
 71
     3
340
11
 62
   256
 40
5.0
 90
        0
 40
15.0
 90
        1
300
%<\AcVar ViewSectionStartId>%-%<\AcVar ViewSectionEndId>% (%<\AcVar ViewScale \f "%sn">%)
 71
     4
 62
   256
 62
   257
300
ANSI31
 40
1.0
 90
        0
290
     0
290
     0
 90
        6
 40
0.0
 40
1.570796326794896
 40
0.2617993877991494
 40
1.308996938995747
 40
-0.2617993877991494
 40
1.832595714594046
  0
TABLESTYLE
  5
6A
102
{ACAD_XDICTIONARY
360
2F8
102
}
102
{ACAD_REACTORS
330
69
102
}
330
69
100
AcDbTableStyle
  3
Standard
 70
     0
 71
     0
 40
0.06
 41
0.06
280
     0
281
     0
  7
Standard
140
0.18
170
     2
 62
     0
 63
     7
283
     0
274
    -2
284
     1
 64
     0
275
    -2
285
     1
 65
     0
276
    -2
286
     1
 66
     0
277
    -2
287
     1
 67
     0
278
    -2
288
     1
 68
     0
279
    -2
289
     1
 69
     0
  7
Standard
140
0.25
170
     5
 62
     0
 63
     7
283
     0
274
    -2
284
     1
 64
     0
275
    -2
285
     1
 65
     0
276
    -2
286
     1
 66
     0
277
    -2
287
     1
 67
     0
278
    -2
288
     1
 68
     0
279
    -2
289
     1
 69
     0
  7
Standard
140
0.18
170
     5
 62
     0
 63
     7
283
     0
274
    -2
284
     1
 64
     0
275
    -2
285
     1
 65
     0
276
    -2
286
     1
 66
     0
277
    -2
287
     1
 67
     0
278
    -2
288
     1
 68
     0
279
    -2
289
     1
 69
     0
  0
VISUALSTYLE
  5
2F
102
{ACAD_XDICTIONARY
360
37C
102
}
102
{ACAD_REACTORS
330
2A
102
}
330
2A
100
AcDbVisualStyle
  2

 70
     4
 71
     0
 72
     2
 73
     0
 90
        0
 40
-0.6
 41
-30.0
 62
     5
 63
     7
421
 16777215
 74
     1
 91
        4
 64
     7
 65
   257
 75
     1
175
     1
 42
1.0
 92
        0
 66
   257
 43
1.0
 76
     1
 77
     6
 78
     2
 67
     7
 79
     5
170
     0
171
     0
290
     0
174
     0
 93
        1
 44
0.0
173
     0
291
     0
 45
0.0
1001
ACAD
1000
AcDbSavedByObjectVersion
1070
     0
  0
VISUALSTYLE
  5
32
102
{ACAD_XDICTIONARY
360
382
102
}
102
{ACAD_REACTORS
330
2A
102
}
330
2A
100
AcDbVisualStyle
  2

 70
     7
 71
     1
 72
     0
 73
     1
 90
        0
 40
-0.6
 41
-30.0
 62
     5
 63
     7
421
 16777215
 74
     0
 91
        4
 64
     7
 65
   257
 75
     1
175
     1
 42
1.0
 92
        8
 66
     7
 43
1.0
 76
     1
 77
     6
 78
     2
 67
     7
 79
     5
170
     0
171
     0
290
     0
174
     0
 93
        1
 44
0.0
173
     0
291
     1
 45
0.0
1001
ACAD
1000
AcDbSavedByObjectVersion
1070
     0
  0
VISUALSTYLE
  5
36
102
{ACAD_XDICTIONARY
360
38A
102
}
102
{ACAD_REACTORS
330
2A
102
}
330
2A
100
AcDbVisualStyle
  2

 70
    12
 71
     2
 72
     2
 73
     0
 90
        0
 40
-0.6
 41
-30.0
 62
     5
 63
     7
421
 16777215
 74
     1
 91
        4
 64
     7
 65
   257
 75
     1
175
     1
 42
1.0
 92
        8
 66
     7
 43
1.0
 76
     1
 77
     6
 78
     2
 67
     7
 79
     5
170
     0
171
     0
290
     0
174
     0
 93
        1
 44
50.0
173
     0
291
     1
 45
0.0
1001
ACAD
1000
AcDbSavedByObjectVersion
1070
     0
  0
VISUALSTYLE
  5
3A
102
{ACAD_XDICTIONARY
360
392
102
}
102
{ACAD_REACTORS
330
2A
102
}
330
2A
100
AcDbVisualStyle
  2

 70
    16
 71
     2
 72
     2
 73
     3
 90
        0
 40
-0.6
 41
-30.0
 62
     5
 63
     8
421
  8421504
 74
     1
 91
        4
 64
     7
 65
   257
 75
     1
175
     1
 42
1.0
 92
        8
 66
     8
424
  8421504
 43
1.0
 76
     1
 77
     6
 78
     2
 67
     7
 79
     5
170
     0
171
     0
290
     0
174
     0
 93
        1
 44
0.0
173
     0
291
     1
 45
0.0
1001
ACAD
1000
AcDbSavedByObjectVersion
1070
     0
  0
VISUALSTYLE
  5
34
102
{ACAD_XDICTIONARY
360
386
102
}
102
{ACAD_REACTORS
330
2A
102
}
330
2A
100
AcDbVisualStyle
  2

 70
     9
 71
     3
 72
     2
 73
     0
 90
        0
 40
-0.6
 41
-30.0
 62
     5
 63
     7
421
 16777215
 74
     2
 91
        2
 64
     7
 65
   257
 75
     1
175
     1
 42
179.0
 92
        8
 66
     7
 43
1.0
 76
     1
 77
     6
 78
     2
 67
     7
 79
     3
170
     0
171
     0
290
     0
174
     0
 93
        1
 44
0.0
173
     0
291
     0
 45
0.0
1001
ACAD
1000
AcDbSavedByObjectVersion
1070
     0
  0
VISUALSTYLE
  5
35
102
{ACAD_XDICTIONARY
360
388
102
}
102
{ACAD_REACTORS
330
2A
102
}
330
2A
100
AcDbVisualStyle
  2

 70
    11
 71
     2
 72
     2
 73
     0
 90
        0
 40
-0.6
 41
-30.0
 62
     5
 63
     7
421
 16777215
 74
     1
 91
        4
 64
     7
 65
   257
 75
     1
175
     1
 42
1.0
 92
        8
 66
     7
 43
1.0
 76
     1
 77
     6
 78
     2
 67
     7
 79
     5
170
     0
171
     0
290
     0
174
     0
 93
        1
 44
-50.0
173
     0
291
     1
 45
0.0
1001
ACAD
1000
AcDbSavedByObjectVersion
1070
     0
  0
VISUALSTYLE
  5
3D
102
{ACAD_XDICTIONARY
360
398
102
}
102
{ACAD_REACTORS
330
2A
102
}
330
2A
100
AcDbVisualStyle
  2

 70
    22
 71
     2
 72
     2
 73
     0
 90
        0
 40
-0.6
 41
-30.0
 62
     5
 63
     7
421
 16777215
 74
     1
 91
        4
 64
     7
 65
   257
 75
     1
175
     1
 42
1.0
 92
        8
 66
     7
 43
1.0
 76
     1
 77
     6
 78
     2
 67
     7
 79
     5
170
     0
171
     0
290
     0
174
     0
 93
        1
 44
0.0
173
     0
291
     1
 45
0.0
1001
ACAD
1000
AcDbSavedByObjectVersion
1070
     0
  0
VISUALSTYLE
  5
39
102
{ACAD_XDICTIONARY
360
390
102
}
102
{ACAD_REACTORS
330
2A
102
}
330
2A
100
AcDbVisualStyle
  2

 70
    15
 71
     2
 72
     2
 73
     0
 90
        0
 40
-0.6
 41
-30.0
 62
     5
 63
     7
421
 16777215
 74
     1
 91
        4
 64
     7
 65
   257
 75
     1
175
     1
 42
1.0
 92
        8
 66
     7
 43
1.0
 76
     1
 77
     6
 78
     2
 67
     7
 79
     5
170
     0
171
     0
290
     0
174
     0
 93
        1
 44
0.0
173
     0
291
     1
 45
0.0
1001
ACAD
1000
AcDbSavedByObjectVersion
1070
     0
  0
VISUALSTYLE
  5
2B
102
{ACAD_XDICTIONARY
360
374
102
}
102
{ACAD_REACTORS
330
2A
102
}
330
2A
100
AcDbVisualStyle
  2

 70
     0
 71
     2
 72
     1
 73
     1
 90
        2
 40
-0.6
 41
30.0
 62
     5
 63
     7
421
 16777215
 74
     0
 91
        0
 64
     7
 65
   257
 75
     1
175
     1
 42
1.0
 92
        8
 66
     7
 43
1.0
 76
     1
 77
     6
 78
     2
 67
     7
 79
     5
170
     0
171
     0
290
     0
174
     0
 93
       13
 44
0.0
173
     0
291
     1
 45
0.0
1001
ACAD
1000
AcDbSavedByObjectVersion
1070
     0
  0
VISUALSTYLE
  5
2C
102
{ACAD_XDICTIONARY
360
376
102
}
102
{ACAD_REACTORS
330
2A
102
}
330
2A
100
AcDbVisualStyle
  2

 70
     1
 71
     2
 72
     1
 73
     1
 90
        2
 40
-0.6
 41
30.0
 62
     5
 63
     7
421
 16777215
 74
     1
 91
        0
 64
     7
 65
   257
 75
     1
175
     1
 42
1.0
 92
        0
 66
   257
 43
1.0
 76
     1
 77
     6
 78
     2
 67
     7
 79
     5
170
     0
171
     0
290
     0
174
     0
 93
       13
 44
0.0
173
     0
291
     1
 45
0.0
1001
ACAD
1000
AcDbSavedByObjectVersion
1070
     0
  0
VISUALSTYLE
  5
2D
102
{ACAD_XDICTIONARY
360
378
102
}
102
{ACAD_REACTORS
330
2A
102
}
330
2A
100
AcDbVisualStyle
  2

 70
     2
 71
     2
 72
     2
 73
     1
 90
        2
 40
-0.6
 41
30.0
 62
     5
 63
     7
421
 16777215
 74
     0
 91
        0
 64
     7
 65
   257
 75
     1
175
     1
 42
1.0
 92
        0
 66
     7
 43
1.0
 76
     1
 77
     6
 78
     2
 67
     7
 79
     5
170
     0
171
     0
290
     0
174
     0
 93
       13
 44
0.0
173
     0
291
     1
 45
0.0
1001
ACAD
1000
AcDbSavedByObjectVersion
1070
     0
  0
VISUALSTYLE
  5
2E
102
{ACAD_XDICTIONARY
360
37A
102
}
102
{ACAD_REACTORS
330
2A
102
}
330
2A
100
AcDbVisualStyle
  2

 70
     3
 71
     2
 72
     2
 73
     1
 90
        2
 40
-0.6
 41
30.0
 62
     5
 63
     7
421
 16777215
 74
     1
 91
        0
 64
     7
 65
   257
 75
     1
175
     1
 42
1.0
 92
        0
 66
   257
 43
1.0
 76
     1
 77
     6
 78
     2
 67
     7
 79
     5
170
     0
171
     0
290
     0
174
     0
 93
       13
 44
0.0
173
     0
291
     1
 45
0.0
1001
ACAD
1000
AcDbSavedByObjectVersion
1070
     0
  0
VISUALSTYLE
  5
31
102
{ACAD_XDICTIONARY
360
380
102
}
102
{ACAD_REACTORS
330
2A
102
}
330
2A
100
AcDbVisualStyle
  2

 70
     6
 71
     1
 72
     2
 73
     2
 90
        0
 40
-0.6
 41
-30.0
 62
     5
 63
     7
421
 16777215
 74
     2
 91
        2
 64
     7
 65
   257
 75
     2
175
     1
 42
40.0
 92
        0
 66
   257
 43
1.0
 76
     1
 77
     6
 78
     2
 67
     7
 79
     3
170
     0
171
     0
290
     0
174
     0
 93
        1
 44
0.0
173
     0
291
     0
 45
0.0
1001
ACAD
1000
AcDbSavedByObjectVersion
1070
     0
  0
VISUALSTYLE
  5
3B
102
{ACAD_XDICTIONARY
360
394
102
}
102
{ACAD_REACTORS
330
2A
102
}
330
2A
100
AcDbVisualStyle
  2

 70
    20
 71
     2
 72
     2
 73
     0
 90
        0
 40
-0.6
 41
-30.0
 62
     5
 63
     7
421
 16777215
 74
     1
 91
        4
 64
     7
 65
   257
 75
     1
175
     1
 42
1.0
 92
       10
 66
     7
 43
1.0
 76
     1
 77
     6
 78
     2
 67
     7
 79
     5
170
     0
171
     0
290
     0
174
     0
 93
        1
 44
0.0
173
     0
291
     1
 45
0.0
1001
ACAD
1000
AcDbSavedByObjectVersion
1070
     0
  0
VISUALSTYLE
  5
38
102
{ACAD_XDICTIONARY
360
38E
102
}
102
{ACAD_REACTORS
330
2A
102
}
330
2A
100
AcDbVisualStyle
  2

 70
    14
 71
     2
 72
     2
 73
     0
 90
        0
 40
-0.6
 41
-30.0
 62
     5
 63
     7
421
 16777215
 74
     1
 91
        4
 64
     7
 65
   257
 75
     7
175
     7
 42
1.0
 92
        8
 66
     7
 43
1.0
 76
     1
 77
     6
 78
     2
 67
     7
 79
     5
170
     0
171
     0
290
     0
174
     0
 93
        1
 44
0.0
173
     0
291
     1
 45
0.0
1001
ACAD
1000
AcDbSavedByObjectVersion
1070
     0
  0
VISUALSTYLE
  5
3C
102
{ACAD_XDICTIONARY
360
396
102
}
102
{ACAD_REACTORS
330
2A
102
}
330
2A
100
AcDbVisualStyle
  2

 70
    21
 71
     2
 72
     2
 73
     0
 90
        0
 40
-0.6
 41
-30.0
 62
     5
 63
     7
421
 16777215
 74
     1
 91
        4
 64
     7
 65
   257
 75
     1
175
     1
 42
1.0
 92
        9
 66
     7
 43
1.0
 76
     1
 77
     6
 78
     2
 67
     7
 79
     5
170
     0
171
     0
290
     0
174
     0
 93
        1
 44
0.0
173
     0
291
     1
 45
0.0
1001
ACAD
1000
AcDbSavedByObjectVersion
1070
     0
  0
VISUALSTYLE
  5
33
102
{ACAD_XDICTIONARY
360
384
102
}
102
{ACAD_REACTORS
330
2A
102
}
330
2A
100
AcDbVisualStyle
  2

 70
     8
 71
     2
 72
     3
 73
     0
 90
        2
 40
-0.6
 41
30.0
 62
     5
 63
     7
421
 16777215
 74
     0
 91
        0
 64
     7
 65
   257
 75
     1
175
     1
 42
1.0
 92
        8
 66
   257
 43
1.0
 76
     1
 77
     6
 78
     2
 67
     7
 79
     3
170
     0
171
     0
290
     0
174
     0
 93
       13
 44
0.0
173
     0
291
     0
 45
0.0
1001
ACAD
1000
AcDbSavedByObjectVersion
1070
     0
  0
VISUALSTYLE
  5
42
102
{ACAD_XDICTIONARY
360
3A2
102
}
102
{ACAD_REACTORS
330
2A
102
}
330
2A
100
AcDbVisualStyle
  2

 70
    27
 71
     2
 72
     2
 73
     1
 90
        2
 40
-0.6
 41
30.0
 62
     5
 63
     7
421
 16777215
 74
     0
 91
        4
 64
     7
 65
   257
 75
     1
175
     1
 42
1.0
 92
        8
 66
   257
 43
1.0
 76
     1
 77
     6
 78
     2
 67
     8
425
  7895160
 79
     3
170
     0
171
     0
290
     0
174
     0
 93
        5
 44
0.0
173
     0
291
     0
 45
0.0
1001
ACAD
1000
AcDbSavedByObjectVersion
1070
     0
  0
VISUALSTYLE
  5
41
102
{ACAD_XDICTIONARY
360
3A0
102
}
102
{ACAD_REACTORS
330
2A
102
}
330
2A
100
AcDbVisualStyle
  2

 70
    26
 71
     2
 72
     2
 73
     1
 90
        2
 40
-0.6
 41
30.0
 62
     5
 63
     7
421
 16777215
 74
     1
 91
       10
 64
     7
 65
   257
 75
     2
175
     1
 42
1.0
 92
        8
 66
   257
 43
1.0
 76
     1
 77
     6
 78
     2
 67
     7
 79
     3
170
     0
171
     0
290
     0
174
     0
 93
        5
 44
0.0
173
     0
291
     0
 45
0.0
1001
ACAD
1000
AcDbSavedByObjectVersion
1070
     0
  0
VISUALSTYLE
  5
3E
102
{ACAD_XDICTIONARY
360
39A
102
}
102
{ACAD_REACTORS
330
2A
102
}
330
2A
100
AcDbVisualStyle
  2

 70
    23
 71
     2
 72
     2
 73
     3
 90
        0
 40
-0.6
 41
-30.0
 62
     5
 63
     7
421
 16777215
 74
     2
 91
        2
 64
     7
 65
     7
 75
     1
175
     1
 42
40.0
 92
        8
 66
     7
 43
1.0
 76
     1
 77
     6
 78
     2
 67
     7
 79
     3
170
     0
171
     0
290
     0
174
     0
 93
        1
 44
0.0
173
     0
291
     0
 45
0.0
1001
ACAD
1000
AcDbSavedByObjectVersion
1070
     0
  0
VISUALSTYLE
  5
3F
102
{ACAD_XDICTIONARY
360
39C
102
}
102
{ACAD_REACTORS
330
2A
102
}
330
2A
100
AcDbVisualStyle
  2

 70
    24
 71
     1
 72
     2
 73
     2
 90
        0
 40
-0.6
 41
-30.0
 62
     5
 63
     7
421
 16777215
 74
     2
 91
        2
 64
     7
 65
     7
 75
     1
175
     1
 42
40.0
 92
       11
 66
     7
 43
1.0
 76
     1
 77
     6
 78
     2
 67
     7
 79
     6
170
     0
171
     0
290
     0
174
     0
 93
        1
 44
0.0
173
     0
291
     0
 45
0.0
1001
ACAD
1000
AcDbSavedByObjectVersion
1070
     0
  0
VISUALSTYLE
  5
37
102
{ACAD_XDICTIONARY
360
38C
102
}
102
{ACAD_REACTORS
330
2A
102
}
330
2A
100
AcDbVisualStyle
  2

 70
    13
 71
     2
 72
     2
 73
     0
 90
        0
 40
-0.6
 41
-30.0
 62
     5
 63
     7
421
 16777215
 74
     1
 91
        4
 64
     7
 65
   257
 75
     1
175
     1
 42
1.0
 92
       12
 66
     7
 43
1.0
 76
     1
 77
     6
 78
     2
 67
     7
 79
     5
170
     0
171
     0
290
     0
174
     0
 93
        1
 44
0.0
173
     0
291
     1
 45
0.0
1001
ACAD
1000
AcDbSavedByObjectVersion
1070
     0
  0
VISUALSTYLE
  5
30
102
{ACAD_XDICTIONARY
360
37E
102
}
102
{ACAD_REACTORS
330
2A
102
}
330
2A
100
AcDbVisualStyle
  2

 70
     5
 71
     0
 72
     2
 73
     0
 90
        0
 40
-0.6
 41
-30.0
 62
     5
 63
     7
421
 16777215
 74
     1
 91
        4
 64
     7
 65
   257
 75
     1
175
     1
 42
1.0
 92
        0
 66
   257
 43
1.0
 76
     1
 77
     6
 78
     2
 67
     7
 79
     3
170
     0
171
     0
290
     0
174
     0
 93
        1
 44
0.0
173
     0
291
     0
 45
0.0
1001
ACAD
1000
AcDbSavedByObjectVersion
1070
     0
  0
VISUALSTYLE
  5
40
102
{ACAD_XDICTIONARY
360
39E
102
}
102
{ACAD_REACTORS
330
2A
102
}
330
2A
100
AcDbVisualStyle
  2

 70
    25
 71
     2
 72
     2
 73
     1
 90
        1
 40
0.5
 41
-30.0
 62
     5
 63
     7
421
 16777215
 74
     1
 91
        0
 64
     7
 65
   257
 75
     1
175
     1
 42
1.0
 92
        8
 66
     7
 43
1.0
 76
     1
 77
     6
 78
     2
 67
     7
 79
     3
170
     0
171
     0
290
     0
174
     0
 93
       13
 44
0.0
173
     0
291
     0
 45
0.0
1001
ACAD
1000
AcDbSavedByObjectVersion
1070
     0
  0
DICTIONARYVAR
  5
2BF
102
{ACAD_REACTORS
330
2BE
102
}
330
2BE
100
DictionaryVariables
280
     0
  1
1:1
  0
DICTIONARYVAR
  5
300
102
{ACAD_REACTORS
330
2BE
102
}
330
2BE
100
DictionaryVariables
280
     0
  1
STANDARD
  0
DICTIONARYVAR
  5
2FF
102
{ACAD_REACTORS
330
2BE
102
}
330
2BE
100
DictionaryVariables
280
     0
  1
STANDARD
  0
DICTIONARYVAR
  5
36E
102
{ACAD_REACTORS
330
2BE
102
}
330
2BE
100
DictionaryVariables
280
     0
  1
Metric50
  0
DICTIONARYVAR
  5
36F
102
{ACAD_REACTORS
330
2BE
102
}
330
2BE
100
DictionaryVariables
280
     0
  1
Metric50
  0
DICTIONARYVAR
  5
2C0
102
{ACAD_REACTORS
330
2BE
102
}
330
2BE
100
DictionaryVariables
280
     0
  1
1
  0
DICTIONARYVAR
  5
370
102
{ACAD_REACTORS
330
2BE
102
}
330
2BE
100
DictionaryVariables
280
     0
  1
2
  0
DICTIONARY
  5
3A7
330
307
100
AcDbDictionary
280
     1
281
     1
  3
ACAD_XREC_ROUNDTRIP
360
3A8
  0
DICTIONARY
  5
2F4
330
45
100
AcDbDictionary
280
     1
281
     1
  3
ACAD_XREC_ROUNDTRIP
360
2F5
  0
DICTIONARY
  5
2F2
330
44
100
AcDbDictionary
280
     1
281
     1
  3
ACAD_XREC_ROUNDTRIP
360
2F3
  0
DICTIONARY
  5
2F6
330
46
100
AcDbDictionary
280
     1
281
     1
  3
ACAD_XREC_ROUNDTRIP
360
2F7
  0
DICTIONARY
  5
3A5
330
306
100
AcDbDictionary
280
     1
281
     1
  3
ACAD_XREC_ROUNDTRIP
360
3A6
  0
DICTIONARY
  5
2F8
330
6A
100
AcDbDictionary
280
     1
281
     1
  3
ACAD_ROUNDTRIP_2008_TABLESTYLE_CELLSTYLEMAP
360
372
  3
ACAD_XREC_ROUNDTRIP
360
3A4
  0
DICTIONARY
  5
37C
330
2F
100
AcDbDictionary
280
     1
281
     1
  3
ACAD_XREC_ROUNDTRIP
360
37D
  0
DICTIONARY
  5
382
330
32
100
AcDbDictionary
280
     1
281
     1
  3
ACAD_XREC_ROUNDTRIP
360
383
  0
DICTIONARY
  5
38A
330
36
100
AcDbDictionary
280
     1
281
     1
  3
ACAD_XREC_ROUNDTRIP
360
38B
  0
DICTIONARY
  5
392
330
3A
100
AcDbDictionary
280
     1
281
     1
  3
ACAD_XREC_ROUNDTRIP
360
393
  0
DICTIONARY
  5
386
330
34
100
AcDbDictionary
280
     1
281
     1
  3
ACAD_XREC_ROUNDTRIP
360
387
  0
DICTIONARY
  5
388
330
35
100
AcDbDictionary
280
     1
281
     1
  3
ACAD_XREC_ROUNDTRIP
360
389
  0
DICTIONARY
  5
398
330
3D
100
AcDbDictionary
280
     1
281
     1
  3
ACAD_XREC_ROUNDTRIP
360
399
  0
DICTIONARY
  5
390
330
39
100
AcDbDictionary
280
     1
281
     1
  3
ACAD_XREC_ROUNDTRIP
360
391
  0
DICTIONARY
  5
374
330
2B
100
AcDbDictionary
280
     1
281
     1
  3
ACAD_XREC_ROUNDTRIP
360
375
  0
DICTIONARY
  5
376
330
2C
100
AcDbDictionary
280
     1
281
     1
  3
ACAD_XREC_ROUNDTRIP
360
377
  0
DICTIONARY
  5
378
330
2D
100
AcDbDictionary
280
     1
281
     1
  3
ACAD_XREC_ROUNDTRIP
360
379
  0
DICTIONARY
  5
37A
330
2E
100
AcDbDictionary
280
     1
281
     1
  3
ACAD_XREC_ROUNDTRIP
360
37B
  0
DICTIONARY
  5
380
330
31
100
AcDbDictionary
280
     1
281
     1
  3
ACAD_XREC_ROUNDTRIP
360
381
  0
DICTIONARY
  5
394
330
3B
100
AcDbDictionary
280
     1
281
     1
  3
ACAD_XREC_ROUNDTRIP
360
395
  0
DICTIONARY
  5
38E
330
38
100
AcDbDictionary
280
     1
281
     1
  3
ACAD_XREC_ROUNDTRIP
360
38F
  0
DICTIONARY
  5
396
330
3C
100
AcDbDictionary
280
     1
281
     1
  3
ACAD_XREC_ROUNDTRIP
360
397
  0
DICTIONARY
  5
384
330
33
100
AcDbDictionary
280
     1
281
     1
  3
ACAD_XREC_ROUNDTRIP
360
385
  0
DICTIONARY
  5
3A2
330
42
100
AcDbDictionary
280
     1
281
     1
  3
ACAD_XREC_ROUNDTRIP
360
3A3
  0
DICTIONARY
  5
3A0
330
41
100
AcDbDictionary
280
     1
281
     1
  3
ACAD_XREC_ROUNDTRIP
360
3A1
  0
DICTIONARY
  5
39A
330
3E
100
AcDbDictionary
280
     1
281
     1
  3
ACAD_XREC_ROUNDTRIP
360
39B
  0
DICTIONARY
  5
39C
330
3F
100
AcDbDictionary
280
     1
281
     1
  3
ACAD_XREC_ROUNDTRIP
360
39D
  0
DICTIONARY
  5
38C
330
37
100
AcDbDictionary
280
     1
281
     1
  3
ACAD_XREC_ROUNDTRIP
360
38D
  0
DICTIONARY
  5
37E
330
30
100
AcDbDictionary
280
     1
281
     1
  3
ACAD_XREC_ROUNDTRIP
360
37F
  0
DICTIONARY
  5
39E
330
40
100
AcDbDictionary
280
     1
281
     1
  3
ACAD_XREC_ROUNDTRIP
360
39F
  0
XRECORD
  5
3A8
102
{ACAD_REACTORS
330
3A7
102
}
330
3A7
100
AcDbXrecord
280
     1
102
DISPLAYNAME
  1
Metric50
102
FLAGS
 90
        0
  0
XRECORD
  5
2F5
102
{ACAD_REACTORS
330
2F4
102
}
330
2F4
100
AcDbXrecord
280
     1
102
MATERIAL
148
0.0
149
0.0
149
0.0
 93
        0
 94
      127
282
     0
 72
     1
 77
     1
171
     1
175
     1
179
     1
273
     0
  0
XRECORD
  5
2F3
102
{ACAD_REACTORS
330
2F2
102
}
330
2F2
100
AcDbXrecord
280
     1
102
MATERIAL
148
0.0
149
0.0
149
0.0
 93
        0
 94
      127
282
     0
 72
     1
 77
     1
171
     1
175
     1
179
     1
273
     0
  0
XRECORD
  5
2F7
102
{ACAD_REACTORS
330
2F6
102
}
330
2F6
100
AcDbXrecord
280
     1
102
MATERIAL
148
0.0
149
0.0
149
0.0
 93
        0
 94
      127
282
     0
 72
     1
 77
     1
171
     1
175
     1
179
     1
273
     0
  0
XRECORD
  5
3A6
102
{ACAD_REACTORS
330
3A5
102
}
330
3A5
100
AcDbXrecord
280
     1
102
DISPLAYNAME
  1
Metric50
102
FLAGS
 90
        0
  0
CELLSTYLEMAP
  5
372
102
{ACAD_REACTORS
330
2F8
102
}
330
2F8
100
AcDbCellStyleMap
 90
        3
300
CELLSTYLE
  1
TABLEFORMAT_BEGIN
 90
        5
170
     1
 91
        0
 92
    32768
 62
   257
 93
        1
300
CONTENTFORMAT
  1
CONTENTFORMAT_BEGIN
 90
        0
 91
        0
 92
        4
 93
        0
300

 40
0.0
140
1.0
 94
        5
 62
     0
340
11
144
0.25
309
CONTENTFORMAT_END
171
     1
301
MARGIN
  1
CELLMARGIN_BEGIN
 40
0.06
 40
0.06
 40
0.06
 40
0.06
 40
0.18
 40
0.18
309
CELLMARGIN_END
 94
        6
 95
        1
302
GRIDFORMAT
  1
GRIDFORMAT_BEGIN
 90
        0
 91
        1
 62
     0
 92
       -2
340
14
 93
        0
 40
0.045
309
GRIDFORMAT_END
 95
        2
302
GRIDFORMAT
  1
GRIDFORMAT_BEGIN
 90
        0
 91
        1
 62
     0
 92
       -2
340
14
 93
        0
 40
0.045
309
GRIDFORMAT_END
 95
        4
302
GRIDFORMAT
  1
GRIDFORMAT_BEGIN
 90
        0
 91
        1
 62
     0
 92
       -2
340
14
 93
        0
 40
0.045
309
GRIDFORMAT_END
 95
        8
302
GRIDFORMAT
  1
GRIDFORMAT_BEGIN
 90
        0
 91
        1
 62
     0
 92
       -2
340
14
 93
        0
 40
0.045
309
GRIDFORMAT_END
 95
       16
302
GRIDFORMAT
  1
GRIDFORMAT_BEGIN
 90
        0
 91
        1
 62
     0
 92
       -2
340
14
 93
        0
 40
0.045
309
GRIDFORMAT_END
 95
       32
302
GRIDFORMAT
  1
GRIDFORMAT_BEGIN
 90
        0
 91
        1
 62
     0
 92
       -2
340
14
 93
        0
 40
0.045
309
GRIDFORMAT_END
309
TABLEFORMAT_END
  1
CELLSTYLE_BEGIN
 90
        1
 91
        1
300
_TITLE
309
CELLSTYLE_END
300
CELLSTYLE
  1
TABLEFORMAT_BEGIN
 90
        5
170
     1
 91
        0
 92
        0
 62
   257
 93
        1
300
CONTENTFORMAT
  1
CONTENTFORMAT_BEGIN
 90
        0
 91
        0
 92
        4
 93
        0
300

 40
0.0
140
1.0
 94
        5
 62
     0
340
11
144
0.18
309
CONTENTFORMAT_END
171
     1
301
MARGIN
  1
CELLMARGIN_BEGIN
 40
0.06
 40
0.06
 40
0.06
 40
0.06
 40
0.18
 40
0.18
309
CELLMARGIN_END
 94
        6
 95
        1
302
GRIDFORMAT
  1
GRIDFORMAT_BEGIN
 90
        0
 91
        1
 62
     0
 92
       -2
340
14
 93
        0
 40
0.045
309
GRIDFORMAT_END
 95
        2
302
GRIDFORMAT
  1
GRIDFORMAT_BEGIN
 90
        0
 91
        1
 62
     0
 92
       -2
340
14
 93
        0
 40
0.045
309
GRIDFORMAT_END
 95
        4
302
GRIDFORMAT
  1
GRIDFORMAT_BEGIN
 90
        0
 91
        1
 62
     0
 92
       -2
340
14
 93
        0
 40
0.045
309
GRIDFORMAT_END
 95
        8
302
GRIDFORMAT
  1
GRIDFORMAT_BEGIN
 90
        0
 91
        1
 62
     0
 92
       -2
340
14
 93
        0
 40
0.045
309
GRIDFORMAT_END
 95
       16
302
GRIDFORMAT
  1
GRIDFORMAT_BEGIN
 90
        0
 91
        1
 62
     0
 92
       -2
340
14
 93
        0
 40
0.045
309
GRIDFORMAT_END
 95
       32
302
GRIDFORMAT
  1
GRIDFORMAT_BEGIN
 90
        0
 91
        1
 62
     0
 92
       -2
340
14
 93
        0
 40
0.045
309
GRIDFORMAT_END
309
TABLEFORMAT_END
  1
CELLSTYLE_BEGIN
 90
        2
 91
        1
300
_HEADER
309
CELLSTYLE_END
300
CELLSTYLE
  1
TABLEFORMAT_BEGIN
 90
        5
170
     1
 91
        0
 92
        0
 62
   257
 93
        1
300
CONTENTFORMAT
  1
CONTENTFORMAT_BEGIN
 90
        0
 91
        0
 92
        4
 93
        0
300

 40
0.0
140
1.0
 94
        2
 62
     0
340
11
144
0.18
309
CONTENTFORMAT_END
171
     1
301
MARGIN
  1
CELLMARGIN_BEGIN
 40
0.06
 40
0.06
 40
0.06
 40
0.06
 40
0.18
 40
0.18
309
CELLMARGIN_END
 94
        6
 95
        1
302
GRIDFORMAT
  1
GRIDFORMAT_BEGIN
 90
        0
 91
        1
 62
     0
 92
       -2
340
14
 93
        0
 40
0.045
309
GRIDFORMAT_END
 95
        2
302
GRIDFORMAT
  1
GRIDFORMAT_BEGIN
 90
        0
 91
        1
 62
     0
 92
       -2
340
14
 93
        0
 40
0.045
309
GRIDFORMAT_END
 95
        4
302
GRIDFORMAT
  1
GRIDFORMAT_BEGIN
 90
        0
 91
        1
 62
     0
 92
       -2
340
14
 93
        0
 40
0.045
309
GRIDFORMAT_END
 95
        8
302
GRIDFORMAT
  1
GRIDFORMAT_BEGIN
 90
        0
 91
        1
 62
     0
 92
       -2
340
14
 93
        0
 40
0.045
309
GRIDFORMAT_END
 95
       16
302
GRIDFORMAT
  1
GRIDFORMAT_BEGIN
 90
        0
 91
        1
 62
     0
 92
       -2
340
14
 93
        0
 40
0.045
309
GRIDFORMAT_END
 95
       32
302
GRIDFORMAT
  1
GRIDFORMAT_BEGIN
 90
        0
 91
        1
 62
     0
 92
       -2
340
14
 93
        0
 40
0.045
309
GRIDFORMAT_END
309
TABLEFORMAT_END
  1
CELLSTYLE_BEGIN
 90
        3
 91
        2
300
_DATA
309
CELLSTYLE_END
  0
XRECORD
  5
3A4
102
{ACAD_REACTORS
330
2F8
102
}
330
2F8
100
AcDbXrecord
280
     1
102
ACAD_ROUNDTRIP_PRE2007_TABLESTYLE
 90
        4
 91
        0
  1

 92
        4
 93
        0
  2

 94
        4
 95
        0
  3

  0
XRECORD
  5
37D
102
{ACAD_REACTORS
330
37C
102
}
330
37C
100
AcDbXrecord
280
     1
102
RTVSPost2010Prop28
280
     1
102
RTVSPost2010PropOp28
 70
     1
102
RTVSPost2010Prop29
280
     1
102
RTVSPost2010PropOp29
 70
     1
102
RTVSPost2010Prop30
280
     0
102
RTVSPost2010PropOp30
 70
     1
102
RTVSPost2010Prop31
280
     0
102
RTVSPost2010PropOp31
 70
     1
102
RTVSPost2010Prop32
280
     0
102
RTVSPost2010PropOp32
 70
     1
102
RTVSPost2010Prop33
280
     0
102
RTVSPost2010PropOp33
 70
     1
102
RTVSPost2010Prop34
280
     0
102
RTVSPost2010PropOp34
 70
     1
102
RTVSPost2010Prop35
280
     0
102
RTVSPost2010PropOp35
 70
     1
102
RTVSPost2010Prop36
280
     0
102
RTVSPost2010PropOp36
 70
     1
102
RTVSPost2010Prop37
 90
       50
102
RTVSPost2010PropOp37
 70
     1
102
RTVSPost2010Prop38
140
0.0
102
RTVSPost2010PropOp38
 70
     1
102
RTVSPost2010Prop39
140
1.0
102
RTVSPost2010PropOp39
 70
     1
102
RTVSPost2010Prop40
 90
        0
102
RTVSPost2010PropOp40
 70
     1
102
RTVSPost2010Prop41ColorIndex
 90
       18
102
RTVSPost2010Prop41ColorRGB
 90
        0
102
RTVSPost2010PropOp41
 70
     1
102
RTVSPost2010Prop42
 90
       50
102
RTVSPost2010PropOp42
 70
     1
102
RTVSPost2010Prop43
 90
        3
102
RTVSPost2010PropOp43
 70
     1
102
RTVSPost2010Prop44ColorIndex
 90
        5
102
RTVSPost2010Prop44ColorRGB
 90
      255
102
RTVSPost2010PropOp44
 70
     1
102
RTVSPost2010Prop45
280
     0
102
RTVSPost2010PropOp45
 70
     1
102
RTVSPost2010Prop46
 90
       50
102
RTVSPost2010PropOp46
 70
     1
102
RTVSPost2010Prop47
 90
       50
102
RTVSPost2010PropOp47
 70
     1
102
RTVSPost2010Prop48
 90
       50
102
RTVSPost2010PropOp48
 70
     1
102
RTVSPost2010Prop49
280
     0
102
RTVSPost2010PropOp49
 70
     1
102
RTVSPost2010Prop50
 90
       50
102
RTVSPost2010PropOp50
 70
     1
102
RTVSPost2010Prop51ColorIndex
 90
      256
102
RTVSPost2010Prop51ColorRGB
 90
-16777216
102
RTVSPost2010PropOp51
 70
     0
102
RTVSPost2010Prop52
140
1.0
102
RTVSPost2010PropOp52
 70
     0
102
RTVSPost2010Prop53
 90
        2
102
RTVSPost2010PropOp53
 70
     1
102
RTVSPost2010Prop54
  1
strokes_ogs.tif
102
RTVSPost2010PropOp54
 70
     1
102
RTVSPost2010Prop55
280
     0
102
RTVSPost2010PropOp55
 70
     1
102
RTVSPost2010Prop56
140
1.0
102
RTVSPost2010PropOp56
 70
     1
102
RTVSPost2010Prop57
140
1.0
102
RTVSPost2010PropOp57
 70
     1
102
RTVSPropertyOp0
 70
     1
102
RTVSPropertyOp1
 70
     1
102
RTVSPropertyOp2
 70
     1
102
RTVSPropertyOp3
 70
     1
102
RTVSPropertyOp4
 70
     1
102
RTVSPropertyOp5
 70
     1
102
RTVSPropertyOp6
 70
     1
102
RTVSPropertyOp7
 70
     1
102
RTVSPropertyOp8
 70
     1
102
RTVSPropertyOp9
 70
     1
102
RTVSPropertyOp10
 70
     1
102
RTVSPropertyOp11
 70
     1
102
RTVSPropertyOp12
 70
     1
102
RTVSPropertyOp13
 70
     1
102
RTVSPropertyOp14
 70
     1
102
RTVSPropertyOp15
 70
     1
102
RTVSPropertyOp16
 70
     1
102
RTVSPropertyOp17
 70
     1
102
RTVSPropertyOp18
 70
     1
102
RTVSPropertyOp19
 70
     1
102
RTVSPropertyOp20
 70
     1
102
RTVSPropertyOp21
 70
     1
102
RTVSPropertyOp22
 70
     1
102
RTVSPropertyOp23
 70
     1
102
RTVSPropertyOp24
 70
     1
102
RTVSPropertyOp25
 70
     1
102
RTVSPropertyOp26
 70
     1
102
RTVSPropertyOp27
 70
     1
102
RTVSPropertyOp28
 70
     1
102
RTVSPropertyOp29
 70
     1
102
RTVSPropertyOp30
 70
     1
102
RTVSPropertyOp31
 70
     1
102
RTVSPropertyOp32
 70
     1
102
RTVSPropertyOp33
 70
     1
102
RTVSPropertyOp34
 70
     1
102
RTVSPropertyOp35
 70
     1
102
RTVSPropertyOp36
 70
     1
102
RTVSPropertyOp37
 70
     1
102
RTVSPropertyOp38
 70
     1
102
RTVSPropertyOp39
 70
     1
102
RTVSPropertyOp40
 70
     1
102
RTVSPropertyOp41
 70
     1
102
RTVSPropertyOp42
 70
     1
102
RTVSPropertyOp43
 70
     1
102
RTVSPropertyOp44
 70
     1
102
RTVSPropertyOp45
 70
     1
102
RTVSPropertyOp46
 70
     1
102
RTVSPropertyOp47
 70
     1
102
RTVSPropertyOp48
 70
     1
102
RTVSPropertyOp49
 70
     1
102
RTVSPropertyOp50
 70
     1
102
RTVSPropertyOp51
 70
     0
102
RTVSPropertyOp52
 70
     0
102
RTVSPropertyOp53
 70
     1
102
RTVSPropertyOp54
 70
     1
102
RTVSPropertyOp55
 70
     1
102
RTVSPropertyOp56
 70
     1
102
RTVSPropertyOp57
 70
     1
102
RTVSPropertyOp58
 70
     1
102
RTVSPropertyOp59
 70
     1
102
RTVSPropertyOp60
 70
     1
102
RTVSPropertyOp61
 70
     1
102
RTVSPropertyOp62
 70
     1
  0
XRECORD
  5
383
102
{ACAD_REACTORS
330
382
102
}
330
382
100
AcDbXrecord
280
     1
102
RTVSPost2010Prop28
280
     0
102
RTVSPost2010PropOp28
 70
     1
102
RTVSPost2010Prop29
280
     1
102
RTVSPost2010PropOp29
 70
     1
102
RTVSPost2010Prop30
280
     1
102
RTVSPost2010PropOp30
 70
     1
102
RTVSPost2010Prop31
280
     0
102
RTVSPost2010PropOp31
 70
     1
102
RTVSPost2010Prop32
280
     0
102
RTVSPost2010PropOp32
 70
     1
102
RTVSPost2010Prop33
280
     0
102
RTVSPost2010PropOp33
 70
     1
102
RTVSPost2010Prop34
280
     0
102
RTVSPost2010PropOp34
 70
     1
102
RTVSPost2010Prop35
280
     0
102
RTVSPost2010PropOp35
 70
     1
102
RTVSPost2010Prop36
280
     0
102
RTVSPost2010PropOp36
 70
     1
102
RTVSPost2010Prop37
 90
       50
102
RTVSPost2010PropOp37
 70
     1
102
RTVSPost2010Prop38
140
0.0
102
RTVSPost2010PropOp38
 70
     1
102
RTVSPost2010Prop39
140
1.0
102
RTVSPost2010PropOp39
 70
     1
102
RTVSPost2010Prop40
 90
        0
102
RTVSPost2010PropOp40
 70
     1
102
RTVSPost2010Prop41ColorIndex
 90
       18
102
RTVSPost2010Prop41ColorRGB
 90
        0
102
RTVSPost2010PropOp41
 70
     1
102
RTVSPost2010Prop42
 90
       50
102
RTVSPost2010PropOp42
 70
     1
102
RTVSPost2010Prop43
 90
        3
102
RTVSPost2010PropOp43
 70
     1
102
RTVSPost2010Prop44ColorIndex
 90
        5
102
RTVSPost2010Prop44ColorRGB
 90
      255
102
RTVSPost2010PropOp44
 70
     1
102
RTVSPost2010Prop45
280
     0
102
RTVSPost2010PropOp45
 70
     1
102
RTVSPost2010Prop46
 90
       50
102
RTVSPost2010PropOp46
 70
     1
102
RTVSPost2010Prop47
 90
       50
102
RTVSPost2010PropOp47
 70
     1
102
RTVSPost2010Prop48
 90
       50
102
RTVSPost2010PropOp48
 70
     1
102
RTVSPost2010Prop49
280
     0
102
RTVSPost2010PropOp49
 70
     1
102
RTVSPost2010Prop50
 90
       50
102
RTVSPost2010PropOp50
 70
     1
102
RTVSPost2010Prop51ColorIndex
 90
      256
102
RTVSPost2010Prop51ColorRGB
 90
-16777216
102
RTVSPost2010PropOp51
 70
     0
102
RTVSPost2010Prop52
140
1.0
102
RTVSPost2010PropOp52
 70
     0
102
RTVSPost2010Prop53
 90
        2
102
RTVSPost2010PropOp53
 70
     1
102
RTVSPost2010Prop54
  1
strokes_ogs.tif
102
RTVSPost2010PropOp54
 70
     1
102
RTVSPost2010Prop55
280
     0
102
RTVSPost2010PropOp55
 70
     1
102
RTVSPost2010Prop56
140
1.0
102
RTVSPost2010PropOp56
 70
     1
102
RTVSPost2010Prop57
140
1.0
102
RTVSPost2010PropOp57
 70
     1
102
RTVSPropertyOp0
 70
     1
102
RTVSPropertyOp1
 70
     1
102
RTVSPropertyOp2
 70
     1
102
RTVSPropertyOp3
 70
     1
102
RTVSPropertyOp4
 70
     1
102
RTVSPropertyOp5
 70
     1
102
RTVSPropertyOp6
 70
     1
102
RTVSPropertyOp7
 70
     1
102
RTVSPropertyOp8
 70
     1
102
RTVSPropertyOp9
 70
     1
102
RTVSPropertyOp10
 70
     1
102
RTVSPropertyOp11
 70
     1
102
RTVSPropertyOp12
 70
     1
102
RTVSPropertyOp13
 70
     1
102
RTVSPropertyOp14
 70
     1
102
RTVSPropertyOp15
 70
     1
102
RTVSPropertyOp16
 70
     1
102
RTVSPropertyOp17
 70
     1
102
RTVSPropertyOp18
 70
     1
102
RTVSPropertyOp19
 70
     1
102
RTVSPropertyOp20
 70
     1
102
RTVSPropertyOp21
 70
     1
102
RTVSPropertyOp22
 70
     1
102
RTVSPropertyOp23
 70
     1
102
RTVSPropertyOp24
 70
     1
102
RTVSPropertyOp25
 70
     1
102
RTVSPropertyOp26
 70
     1
102
RTVSPropertyOp27
 70
     1
102
RTVSPropertyOp28
 70
     1
102
RTVSPropertyOp29
 70
     1
102
RTVSPropertyOp30
 70
     1
102
RTVSPropertyOp31
 70
     1
102
RTVSPropertyOp32
 70
     1
102
RTVSPropertyOp33
 70
     1
102
RTVSPropertyOp34
 70
     1
102
RTVSPropertyOp35
 70
     1
102
RTVSPropertyOp36
 70
     1
102
RTVSPropertyOp37
 70
     1
102
RTVSPropertyOp38
 70
     1
102
RTVSPropertyOp39
 70
     1
102
RTVSPropertyOp40
 70
     1
102
RTVSPropertyOp41
 70
     1
102
RTVSPropertyOp42
 70
     1
102
RTVSPropertyOp43
 70
     1
102
RTVSPropertyOp44
 70
     1
102
RTVSPropertyOp45
 70
     1
102
RTVSPropertyOp46
 70
     1
102
RTVSPropertyOp47
 70
     1
102
RTVSPropertyOp48
 70
     1
102
RTVSPropertyOp49
 70
     1
102
RTVSPropertyOp50
 70
     1
102
RTVSPropertyOp51
 70
     0
102
RTVSPropertyOp52
 70
     0
102
RTVSPropertyOp53
 70
     1
102
RTVSPropertyOp54
 70
     1
102
RTVSPropertyOp55
 70
     1
102
RTVSPropertyOp56
 70
     1
102
RTVSPropertyOp57
 70
     1
102
RTVSPropertyOp58
 70
     1
102
RTVSPropertyOp59
 70
     1
102
RTVSPropertyOp60
 70
     1
102
RTVSPropertyOp61
 70
     1
102
RTVSPropertyOp62
 70
     1
  0
XRECORD
  5
38B
102
{ACAD_REACTORS
330
38A
102
}
330
38A
100
AcDbXrecord
280
     1
102
RTVSPost2010Prop28
280
     0
102
RTVSPost2010PropOp28
 70
     1
102
RTVSPost2010Prop29
280
     1
102
RTVSPost2010PropOp29
 70
     1
102
RTVSPost2010Prop30
280
     1
102
RTVSPost2010PropOp30
 70
     1
102
RTVSPost2010Prop31
280
     0
102
RTVSPost2010PropOp31
 70
     1
102
RTVSPost2010Prop32
280
     0
102
RTVSPost2010PropOp32
 70
     1
102
RTVSPost2010Prop33
280
     0
102
RTVSPost2010PropOp33
 70
     1
102
RTVSPost2010Prop34
280
     0
102
RTVSPost2010PropOp34
 70
     1
102
RTVSPost2010Prop35
280
     0
102
RTVSPost2010PropOp35
 70
     1
102
RTVSPost2010Prop36
280
     0
102
RTVSPost2010PropOp36
 70
     1
102
RTVSPost2010Prop37
 90
       50
102
RTVSPost2010PropOp37
 70
     1
102
RTVSPost2010Prop38
140
0.0
102
RTVSPost2010PropOp38
 70
     1
102
RTVSPost2010Prop39
140
1.0
102
RTVSPost2010PropOp39
 70
     1
102
RTVSPost2010Prop40
 90
        0
102
RTVSPost2010PropOp40
 70
     1
102
RTVSPost2010Prop41ColorIndex
 90
       18
102
RTVSPost2010Prop41ColorRGB
 90
        0
102
RTVSPost2010PropOp41
 70
     1
102
RTVSPost2010Prop42
 90
       50
102
RTVSPost2010PropOp42
 70
     1
102
RTVSPost2010Prop43
 90
        3
102
RTVSPost2010PropOp43
 70
     1
102
RTVSPost2010Prop44ColorIndex
 90
        5
102
RTVSPost2010Prop44ColorRGB
 90
      255
102
RTVSPost2010PropOp44
 70
     1
102
RTVSPost2010Prop45
280
     0
102
RTVSPost2010PropOp45
 70
     1
102
RTVSPost2010Prop46
 90
       50
102
RTVSPost2010PropOp46
 70
     1
102
RTVSPost2010Prop47
 90
       50
102
RTVSPost2010PropOp47
 70
     1
102
RTVSPost2010Prop48
 90
       50
102
RTVSPost2010PropOp48
 70
     1
102
RTVSPost2010Prop49
280
     0
102
RTVSPost2010PropOp49
 70
     1
102
RTVSPost2010Prop50
 90
       50
102
RTVSPost2010PropOp50
 70
     1
102
RTVSPost2010Prop51ColorIndex
 90
      256
102
RTVSPost2010Prop51ColorRGB
 90
-16777216
102
RTVSPost2010PropOp51
 70
     0
102
RTVSPost2010Prop52
140
1.0
102
RTVSPost2010PropOp52
 70
     0
102
RTVSPost2010Prop53
 90
        2
102
RTVSPost2010PropOp53
 70
     1
102
RTVSPost2010Prop54
  1
strokes_ogs.tif
102
RTVSPost2010PropOp54
 70
     1
102
RTVSPost2010Prop55
280
     0
102
RTVSPost2010PropOp55
 70
     1
102
RTVSPost2010Prop56
140
1.0
102
RTVSPost2010PropOp56
 70
     1
102
RTVSPost2010Prop57
140
1.0
102
RTVSPost2010PropOp57
 70
     1
102
RTVSPropertyOp0
 70
     1
102
RTVSPropertyOp1
 70
     1
102
RTVSPropertyOp2
 70
     1
102
RTVSPropertyOp3
 70
     1
102
RTVSPropertyOp4
 70
     1
102
RTVSPropertyOp5
 70
     1
102
RTVSPropertyOp6
 70
     1
102
RTVSPropertyOp7
 70
     1
102
RTVSPropertyOp8
 70
     1
102
RTVSPropertyOp9
 70
     1
102
RTVSPropertyOp10
 70
     1
102
RTVSPropertyOp11
 70
     1
102
RTVSPropertyOp12
 70
     1
102
RTVSPropertyOp13
 70
     1
102
RTVSPropertyOp14
 70
     1
102
RTVSPropertyOp15
 70
     1
102
RTVSPropertyOp16
 70
     1
102
RTVSPropertyOp17
 70
     1
102
RTVSPropertyOp18
 70
     1
102
RTVSPropertyOp19
 70
     1
102
RTVSPropertyOp20
 70
     1
102
RTVSPropertyOp21
 70
     1
102
RTVSPropertyOp22
 70
     1
102
RTVSPropertyOp23
 70
     1
102
RTVSPropertyOp24
 70
     1
102
RTVSPropertyOp25
 70
     1
102
RTVSPropertyOp26
 70
     1
102
RTVSPropertyOp27
 70
     1
102
RTVSPropertyOp28
 70
     1
102
RTVSPropertyOp29
 70
     1
102
RTVSPropertyOp30
 70
     1
102
RTVSPropertyOp31
 70
     1
102
RTVSPropertyOp32
 70
     1
102
RTVSPropertyOp33
 70
     1
102
RTVSPropertyOp34
 70
     1
102
RTVSPropertyOp35
 70
     1
102
RTVSPropertyOp36
 70
     1
102
RTVSPropertyOp37
 70
     1
102
RTVSPropertyOp38
 70
     1
102
RTVSPropertyOp39
 70
     1
102
RTVSPropertyOp40
 70
     1
102
RTVSPropertyOp41
 70
     1
102
RTVSPropertyOp42
 70
     1
102
RTVSPropertyOp43
 70
     1
102
RTVSPropertyOp44
 70
     1
102
RTVSPropertyOp45
 70
     1
102
RTVSPropertyOp46
 70
     1
102
RTVSPropertyOp47
 70
     1
102
RTVSPropertyOp48
 70
     1
102
RTVSPropertyOp49
 70
     1
102
RTVSPropertyOp50
 70
     1
102
RTVSPropertyOp51
 70
     0
102
RTVSPropertyOp52
 70
     0
102
RTVSPropertyOp53
 70
     1
102
RTVSPropertyOp54
 70
     1
102
RTVSPropertyOp55
 70
     1
102
RTVSPropertyOp56
 70
     1
102
RTVSPropertyOp57
 70
     1
102
RTVSPropertyOp58
 70
     1
102
RTVSPropertyOp59
 70
     1
102
RTVSPropertyOp60
 70
     1
102
RTVSPropertyOp61
 70
     1
102
RTVSPropertyOp62
 70
     1
  0
XRECORD
  5
393
102
{ACAD_REACTORS
330
392
102
}
330
392
100
AcDbXrecord
280
     1
102
RTVSPost2010Prop28
280
     0
102
RTVSPost2010PropOp28
 70
     1
102
RTVSPost2010Prop29
280
     1
102
RTVSPost2010PropOp29
 70
     1
102
RTVSPost2010Prop30
280
     1
102
RTVSPost2010PropOp30
 70
     1
102
RTVSPost2010Prop31
280
     0
102
RTVSPost2010PropOp31
 70
     1
102
RTVSPost2010Prop32
280
     0
102
RTVSPost2010PropOp32
 70
     1
102
RTVSPost2010Prop33
280
     0
102
RTVSPost2010PropOp33
 70
     1
102
RTVSPost2010Prop34
280
     0
102
RTVSPost2010PropOp34
 70
     1
102
RTVSPost2010Prop35
280
     0
102
RTVSPost2010PropOp35
 70
     1
102
RTVSPost2010Prop36
280
     0
102
RTVSPost2010PropOp36
 70
     1
102
RTVSPost2010Prop37
 90
       50
102
RTVSPost2010PropOp37
 70
     1
102
RTVSPost2010Prop38
140
0.0
102
RTVSPost2010PropOp38
 70
     1
102
RTVSPost2010Prop39
140
1.0
102
RTVSPost2010PropOp39
 70
     1
102
RTVSPost2010Prop40
 90
        0
102
RTVSPost2010PropOp40
 70
     1
102
RTVSPost2010Prop41ColorIndex
 90
       18
102
RTVSPost2010Prop41ColorRGB
 90
        0
102
RTVSPost2010PropOp41
 70
     1
102
RTVSPost2010Prop42
 90
       50
102
RTVSPost2010PropOp42
 70
     1
102
RTVSPost2010Prop43
 90
        3
102
RTVSPost2010PropOp43
 70
     1
102
RTVSPost2010Prop44ColorIndex
 90
        5
102
RTVSPost2010Prop44ColorRGB
 90
      255
102
RTVSPost2010PropOp44
 70
     1
102
RTVSPost2010Prop45
280
     0
102
RTVSPost2010PropOp45
 70
     1
102
RTVSPost2010Prop46
 90
       50
102
RTVSPost2010PropOp46
 70
     1
102
RTVSPost2010Prop47
 90
       50
102
RTVSPost2010PropOp47
 70
     1
102
RTVSPost2010Prop48
 90
       50
102
RTVSPost2010PropOp48
 70
     1
102
RTVSPost2010Prop49
280
     0
102
RTVSPost2010PropOp49
 70
     1
102
RTVSPost2010Prop50
 90
       50
102
RTVSPost2010PropOp50
 70
     1
102
RTVSPost2010Prop51ColorIndex
 90
      256
102
RTVSPost2010Prop51ColorRGB
 90
-16777216
102
RTVSPost2010PropOp51
 70
     0
102
RTVSPost2010Prop52
140
1.0
102
RTVSPost2010PropOp52
 70
     0
102
RTVSPost2010Prop53
 90
        2
102
RTVSPost2010PropOp53
 70
     1
102
RTVSPost2010Prop54
  1
strokes_ogs.tif
102
RTVSPost2010PropOp54
 70
     1
102
RTVSPost2010Prop55
280
     0
102
RTVSPost2010PropOp55
 70
     1
102
RTVSPost2010Prop56
140
1.0
102
RTVSPost2010PropOp56
 70
     1
102
RTVSPost2010Prop57
140
1.0
102
RTVSPost2010PropOp57
 70
     1
102
RTVSPropertyOp0
 70
     1
102
RTVSPropertyOp1
 70
     1
102
RTVSPropertyOp2
 70
     1
102
RTVSPropertyOp3
 70
     1
102
RTVSPropertyOp4
 70
     1
102
RTVSPropertyOp5
 70
     1
102
RTVSPropertyOp6
 70
     1
102
RTVSPropertyOp7
 70
     1
102
RTVSPropertyOp8
 70
     1
102
RTVSPropertyOp9
 70
     1
102
RTVSPropertyOp10
 70
     1
102
RTVSPropertyOp11
 70
     1
102
RTVSPropertyOp12
 70
     1
102
RTVSPropertyOp13
 70
     1
102
RTVSPropertyOp14
 70
     1
102
RTVSPropertyOp15
 70
     1
102
RTVSPropertyOp16
 70
     1
102
RTVSPropertyOp17
 70
     1
102
RTVSPropertyOp18
 70
     1
102
RTVSPropertyOp19
 70
     1
102
RTVSPropertyOp20
 70
     1
102
RTVSPropertyOp21
 70
     1
102
RTVSPropertyOp22
 70
     1
102
RTVSPropertyOp23
 70
     1
102
RTVSPropertyOp24
 70
     1
102
RTVSPropertyOp25
 70
     1
102
RTVSPropertyOp26
 70
     1
102
RTVSPropertyOp27
 70
     1
102
RTVSPropertyOp28
 70
     1
102
RTVSPropertyOp29
 70
     1
102
RTVSPropertyOp30
 70
     1
102
RTVSPropertyOp31
 70
     1
102
RTVSPropertyOp32
 70
     1
102
RTVSPropertyOp33
 70
     1
102
RTVSPropertyOp34
 70
     1
102
RTVSPropertyOp35
 70
     1
102
RTVSPropertyOp36
 70
     1
102
RTVSPropertyOp37
 70
     1
102
RTVSPropertyOp38
 70
     1
102
RTVSPropertyOp39
 70
     1
102
RTVSPropertyOp40
 70
     1
102
RTVSPropertyOp41
 70
     1
102
RTVSPropertyOp42
 70
     1
102
RTVSPropertyOp43
 70
     1
102
RTVSPropertyOp44
 70
     1
102
RTVSPropertyOp45
 70
     1
102
RTVSPropertyOp46
 70
     1
102
RTVSPropertyOp47
 70
     1
102
RTVSPropertyOp48
 70
     1
102
RTVSPropertyOp49
 70
     1
102
RTVSPropertyOp50
 70
     1
102
RTVSPropertyOp51
 70
     0
102
RTVSPropertyOp52
 70
     0
102
RTVSPropertyOp53
 70
     1
102
RTVSPropertyOp54
 70
     1
102
RTVSPropertyOp55
 70
     1
102
RTVSPropertyOp56
 70
     1
102
RTVSPropertyOp57
 70
     1
102
RTVSPropertyOp58
 70
     1
102
RTVSPropertyOp59
 70
     1
102
RTVSPropertyOp60
 70
     1
102
RTVSPropertyOp61
 70
     1
102
RTVSPropertyOp62
 70
     1
  0
XRECORD
  5
387
102
{ACAD_REACTORS
330
386
102
}
330
386
100
AcDbXrecord
280
     1
102
RTVSPost2010Prop28
280
     0
102
RTVSPost2010PropOp28
 70
     1
102
RTVSPost2010Prop29
280
     1
102
RTVSPost2010PropOp29
 70
     1
102
RTVSPost2010Prop30
280
     1
102
RTVSPost2010PropOp30
 70
     1
102
RTVSPost2010Prop31
280
     0
102
RTVSPost2010PropOp31
 70
     1
102
RTVSPost2010Prop32
280
     0
102
RTVSPost2010PropOp32
 70
     1
102
RTVSPost2010Prop33
280
     0
102
RTVSPost2010PropOp33
 70
     1
102
RTVSPost2010Prop34
280
     0
102
RTVSPost2010PropOp34
 70
     1
102
RTVSPost2010Prop35
280
     0
102
RTVSPost2010PropOp35
 70
     1
102
RTVSPost2010Prop36
280
     0
102
RTVSPost2010PropOp36
 70
     1
102
RTVSPost2010Prop37
 90
       50
102
RTVSPost2010PropOp37
 70
     1
102
RTVSPost2010Prop38
140
0.0
102
RTVSPost2010PropOp38
 70
     1
102
RTVSPost2010Prop39
140
1.0
102
RTVSPost2010PropOp39
 70
     1
102
RTVSPost2010Prop40
 90
        0
102
RTVSPost2010PropOp40
 70
     1
102
RTVSPost2010Prop41ColorIndex
 90
       18
102
RTVSPost2010Prop41ColorRGB
 90
        0
102
RTVSPost2010PropOp41
 70
     1
102
RTVSPost2010Prop42
 90
       50
102
RTVSPost2010PropOp42
 70
     1
102
RTVSPost2010Prop43
 90
        3
102
RTVSPost2010PropOp43
 70
     1
102
RTVSPost2010Prop44ColorIndex
 90
        5
102
RTVSPost2010Prop44ColorRGB
 90
      255
102
RTVSPost2010PropOp44
 70
     1
102
RTVSPost2010Prop45
280
     0
102
RTVSPost2010PropOp45
 70
     1
102
RTVSPost2010Prop46
 90
       50
102
RTVSPost2010PropOp46
 70
     1
102
RTVSPost2010Prop47
 90
       50
102
RTVSPost2010PropOp47
 70
     1
102
RTVSPost2010Prop48
 90
       50
102
RTVSPost2010PropOp48
 70
     1
102
RTVSPost2010Prop49
280
     0
102
RTVSPost2010PropOp49
 70
     1
102
RTVSPost2010Prop50
 90
       50
102
RTVSPost2010PropOp50
 70
     1
102
RTVSPost2010Prop51ColorIndex
 90
      256
102
RTVSPost2010Prop51ColorRGB
 90
-16777216
102
RTVSPost2010PropOp51
 70
     0
102
RTVSPost2010Prop52
140
1.0
102
RTVSPost2010PropOp52
 70
     0
102
RTVSPost2010Prop53
 90
        2
102
RTVSPost2010PropOp53
 70
     1
102
RTVSPost2010Prop54
  1
strokes_ogs.tif
102
RTVSPost2010PropOp54
 70
     1
102
RTVSPost2010Prop55
280
     0
102
RTVSPost2010PropOp55
 70
     1
102
RTVSPost2010Prop56
140
1.0
102
RTVSPost2010PropOp56
 70
     1
102
RTVSPost2010Prop57
140
1.0
102
RTVSPost2010PropOp57
 70
     1
102
RTVSPropertyOp0
 70
     1
102
RTVSPropertyOp1
 70
     1
102
RTVSPropertyOp2
 70
     1
102
RTVSPropertyOp3
 70
     1
102
RTVSPropertyOp4
 70
     1
102
RTVSPropertyOp5
 70
     1
102
RTVSPropertyOp6
 70
     1
102
RTVSPropertyOp7
 70
     1
102
RTVSPropertyOp8
 70
     1
102
RTVSPropertyOp9
 70
     1
102
RTVSPropertyOp10
 70
     1
102
RTVSPropertyOp11
 70
     1
102
RTVSPropertyOp12
 70
     1
102
RTVSPropertyOp13
 70
     1
102
RTVSPropertyOp14
 70
     1
102
RTVSPropertyOp15
 70
     1
102
RTVSPropertyOp16
 70
     1
102
RTVSPropertyOp17
 70
     1
102
RTVSPropertyOp18
 70
     1
102
RTVSPropertyOp19
 70
     1
102
RTVSPropertyOp20
 70
     1
102
RTVSPropertyOp21
 70
     1
102
RTVSPropertyOp22
 70
     1
102
RTVSPropertyOp23
 70
     1
102
RTVSPropertyOp24
 70
     1
102
RTVSPropertyOp25
 70
     1
102
RTVSPropertyOp26
 70
     1
102
RTVSPropertyOp27
 70
     1
102
RTVSPropertyOp28
 70
     1
102
RTVSPropertyOp29
 70
     1
102
RTVSPropertyOp30
 70
     1
102
RTVSPropertyOp31
 70
     1
102
RTVSPropertyOp32
 70
     1
102
RTVSPropertyOp33
 70
     1
102
RTVSPropertyOp34
 70
     1
102
RTVSPropertyOp35
 70
     1
102
RTVSPropertyOp36
 70
     1
102
RTVSPropertyOp37
 70
     1
102
RTVSPropertyOp38
 70
     1
102
RTVSPropertyOp39
 70
     1
102
RTVSPropertyOp40
 70
     1
102
RTVSPropertyOp41
 70
     1
102
RTVSPropertyOp42
 70
     1
102
RTVSPropertyOp43
 70
     1
102
RTVSPropertyOp44
 70
     1
102
RTVSPropertyOp45
 70
     1
102
RTVSPropertyOp46
 70
     1
102
RTVSPropertyOp47
 70
     1
102
RTVSPropertyOp48
 70
     1
102
RTVSPropertyOp49
 70
     1
102
RTVSPropertyOp50
 70
     1
102
RTVSPropertyOp51
 70
     0
102
RTVSPropertyOp52
 70
     0
102
RTVSPropertyOp53
 70
     1
102
RTVSPropertyOp54
 70
     1
102
RTVSPropertyOp55
 70
     1
102
RTVSPropertyOp56
 70
     1
102
RTVSPropertyOp57
 70
     1
102
RTVSPropertyOp58
 70
     1
102
RTVSPropertyOp59
 70
     1
102
RTVSPropertyOp60
 70
     1
102
RTVSPropertyOp61
 70
     1
102
RTVSPropertyOp62
 70
     1
  0
XRECORD
  5
389
102
{ACAD_REACTORS
330
388
102
}
330
388
100
AcDbXrecord
280
     1
102
RTVSPost2010Prop28
280
     0
102
RTVSPost2010PropOp28
 70
     1
102
RTVSPost2010Prop29
280
     1
102
RTVSPost2010PropOp29
 70
     1
102
RTVSPost2010Prop30
280
     1
102
RTVSPost2010PropOp30
 70
     1
102
RTVSPost2010Prop31
280
     0
102
RTVSPost2010PropOp31
 70
     1
102
RTVSPost2010Prop32
280
     0
102
RTVSPost2010PropOp32
 70
     1
102
RTVSPost2010Prop33
280
     0
102
RTVSPost2010PropOp33
 70
     1
102
RTVSPost2010Prop34
280
     0
102
RTVSPost2010PropOp34
 70
     1
102
RTVSPost2010Prop35
280
     0
102
RTVSPost2010PropOp35
 70
     1
102
RTVSPost2010Prop36
280
     0
102
RTVSPost2010PropOp36
 70
     1
102
RTVSPost2010Prop37
 90
       50
102
RTVSPost2010PropOp37
 70
     1
102
RTVSPost2010Prop38
140
0.0
102
RTVSPost2010PropOp38
 70
     1
102
RTVSPost2010Prop39
140
1.0
102
RTVSPost2010PropOp39
 70
     1
102
RTVSPost2010Prop40
 90
        0
102
RTVSPost2010PropOp40
 70
     1
102
RTVSPost2010Prop41ColorIndex
 90
       18
102
RTVSPost2010Prop41ColorRGB
 90
        0
102
RTVSPost2010PropOp41
 70
     1
102
RTVSPost2010Prop42
 90
       50
102
RTVSPost2010PropOp42
 70
     1
102
RTVSPost2010Prop43
 90
        3
102
RTVSPost2010PropOp43
 70
     1
102
RTVSPost2010Prop44ColorIndex
 90
        5
102
RTVSPost2010Prop44ColorRGB
 90
      255
102
RTVSPost2010PropOp44
 70
     1
102
RTVSPost2010Prop45
280
     0
102
RTVSPost2010PropOp45
 70
     1
102
RTVSPost2010Prop46
 90
       50
102
RTVSPost2010PropOp46
 70
     1
102
RTVSPost2010Prop47
 90
       50
102
RTVSPost2010PropOp47
 70
     1
102
RTVSPost2010Prop48
 90
       50
102
RTVSPost2010PropOp48
 70
     1
102
RTVSPost2010Prop49
280
     0
102
RTVSPost2010PropOp49
 70
     1
102
RTVSPost2010Prop50
 90
       50
102
RTVSPost2010PropOp50
 70
     1
102
RTVSPost2010Prop51ColorIndex
 90
      256
102
RTVSPost2010Prop51ColorRGB
 90
-16777216
102
RTVSPost2010PropOp51
 70
     0
102
RTVSPost2010Prop52
140
1.0
102
RTVSPost2010PropOp52
 70
     0
102
RTVSPost2010Prop53
 90
        2
102
RTVSPost2010PropOp53
 70
     1
102
RTVSPost2010Prop54
  1
strokes_ogs.tif
102
RTVSPost2010PropOp54
 70
     1
102
RTVSPost2010Prop55
280
     0
102
RTVSPost2010PropOp55
 70
     1
102
RTVSPost2010Prop56
140
1.0
102
RTVSPost2010PropOp56
 70
     1
102
RTVSPost2010Prop57
140
1.0
102
RTVSPost2010PropOp57
 70
     1
102
RTVSPropertyOp0
 70
     1
102
RTVSPropertyOp1
 70
     1
102
RTVSPropertyOp2
 70
     1
102
RTVSPropertyOp3
 70
     1
102
RTVSPropertyOp4
 70
     1
102
RTVSPropertyOp5
 70
     1
102
RTVSPropertyOp6
 70
     1
102
RTVSPropertyOp7
 70
     1
102
RTVSPropertyOp8
 70
     1
102
RTVSPropertyOp9
 70
     1
102
RTVSPropertyOp10
 70
     1
102
RTVSPropertyOp11
 70
     1
102
RTVSPropertyOp12
 70
     1
102
RTVSPropertyOp13
 70
     1
102
RTVSPropertyOp14
 70
     1
102
RTVSPropertyOp15
 70
     1
102
RTVSPropertyOp16
 70
     1
102
RTVSPropertyOp17
 70
     1
102
RTVSPropertyOp18
 70
     1
102
RTVSPropertyOp19
 70
     1
102
RTVSPropertyOp20
 70
     1
102
RTVSPropertyOp21
 70
     1
102
RTVSPropertyOp22
 70
     1
102
RTVSPropertyOp23
 70
     1
102
RTVSPropertyOp24
 70
     1
102
RTVSPropertyOp25
 70
     1
102
RTVSPropertyOp26
 70
     1
102
RTVSPropertyOp27
 70
     1
102
RTVSPropertyOp28
 70
     1
102
RTVSPropertyOp29
 70
     1
102
RTVSPropertyOp30
 70
     1
102
RTVSPropertyOp31
 70
     1
102
RTVSPropertyOp32
 70
     1
102
RTVSPropertyOp33
 70
     1
102
RTVSPropertyOp34
 70
     1
102
RTVSPropertyOp35
 70
     1
102
RTVSPropertyOp36
 70
     1
102
RTVSPropertyOp37
 70
     1
102
RTVSPropertyOp38
 70
     1
102
RTVSPropertyOp39
 70
     1
102
RTVSPropertyOp40
 70
     1
102
RTVSPropertyOp41
 70
     1
102
RTVSPropertyOp42
 70
     1
102
RTVSPropertyOp43
 70
     1
102
RTVSPropertyOp44
 70
     1
102
RTVSPropertyOp45
 70
     1
102
RTVSPropertyOp46
 70
     1
102
RTVSPropertyOp47
 70
     1
102
RTVSPropertyOp48
 70
     1
102
RTVSPropertyOp49
 70
     1
102
RTVSPropertyOp50
 70
     1
102
RTVSPropertyOp51
 70
     0
102
RTVSPropertyOp52
 70
     0
102
RTVSPropertyOp53
 70
     1
102
RTVSPropertyOp54
 70
     1
102
RTVSPropertyOp55
 70
     1
102
RTVSPropertyOp56
 70
     1
102
RTVSPropertyOp57
 70
     1
102
RTVSPropertyOp58
 70
     1
102
RTVSPropertyOp59
 70
     1
102
RTVSPropertyOp60
 70
     1
102
RTVSPropertyOp61
 70
     1
102
RTVSPropertyOp62
 70
     1
  0
XRECORD
  5
399
102
{ACAD_REACTORS
330
398
102
}
330
398
100
AcDbXrecord
280
     1
102
RTVSPost2010Prop28
280
     0
102
RTVSPost2010PropOp28
 70
     0
102
RTVSPost2010Prop29
280
     1
102
RTVSPost2010PropOp29
 70
     0
102
RTVSPost2010Prop30
280
     1
102
RTVSPost2010PropOp30
 70
     0
102
RTVSPost2010Prop31
280
     0
102
RTVSPost2010PropOp31
 70
     0
102
RTVSPost2010Prop32
280
     0
102
RTVSPost2010PropOp32
 70
     0
102
RTVSPost2010Prop33
280
     0
102
RTVSPost2010PropOp33
 70
     0
102
RTVSPost2010Prop34
280
     0
102
RTVSPost2010PropOp34
 70
     0
102
RTVSPost2010Prop35
280
     0
102
RTVSPost2010PropOp35
 70
     0
102
RTVSPost2010Prop36
280
     0
102
RTVSPost2010PropOp36
 70
     0
102
RTVSPost2010Prop37
 90
       50
102
RTVSPost2010PropOp37
 70
     0
102
RTVSPost2010Prop38
140
0.0
102
RTVSPost2010PropOp38
 70
     0
102
RTVSPost2010Prop39
140
1.0
102
RTVSPost2010PropOp39
 70
     0
102
RTVSPost2010Prop40
 90
        0
102
RTVSPost2010PropOp40
 70
     0
102
RTVSPost2010Prop41ColorIndex
 90
       18
102
RTVSPost2010Prop41ColorRGB
 90
        0
102
RTVSPost2010PropOp41
 70
     0
102
RTVSPost2010Prop42
 90
       50
102
RTVSPost2010PropOp42
 70
     0
102
RTVSPost2010Prop43
 90
        3
102
RTVSPost2010PropOp43
 70
     0
102
RTVSPost2010Prop44ColorIndex
 90
        5
102
RTVSPost2010Prop44ColorRGB
 90
      255
102
RTVSPost2010PropOp44
 70
     0
102
RTVSPost2010Prop45
280
     0
102
RTVSPost2010PropOp45
 70
     0
102
RTVSPost2010Prop46
 90
       50
102
RTVSPost2010PropOp46
 70
     0
102
RTVSPost2010Prop47
 90
       50
102
RTVSPost2010PropOp47
 70
     0
102
RTVSPost2010Prop48
 90
       50
102
RTVSPost2010PropOp48
 70
     0
102
RTVSPost2010Prop49
280
     0
102
RTVSPost2010PropOp49
 70
     0
102
RTVSPost2010Prop50
 90
       50
102
RTVSPost2010PropOp50
 70
     0
102
RTVSPost2010Prop51ColorIndex
 90
      256
102
RTVSPost2010Prop51ColorRGB
 90
-16777216
102
RTVSPost2010PropOp51
 70
     0
102
RTVSPost2010Prop52
140
1.0
102
RTVSPost2010PropOp52
 70
     0
102
RTVSPost2010Prop53
 90
        2
102
RTVSPost2010PropOp53
 70
     0
102
RTVSPost2010Prop54
  1
strokes_ogs.tif
102
RTVSPost2010PropOp54
 70
     0
102
RTVSPost2010Prop55
280
     0
102
RTVSPost2010PropOp55
 70
     0
102
RTVSPost2010Prop56
140
1.0
102
RTVSPost2010PropOp56
 70
     0
102
RTVSPost2010Prop57
140
1.0
102
RTVSPost2010PropOp57
 70
     0
102
RTVSPropertyOp0
 70
     0
102
RTVSPropertyOp1
 70
     0
102
RTVSPropertyOp2
 70
     0
102
RTVSPropertyOp3
 70
     0
102
RTVSPropertyOp4
 70
     0
102
RTVSPropertyOp5
 70
     0
102
RTVSPropertyOp6
 70
     0
102
RTVSPropertyOp7
 70
     0
102
RTVSPropertyOp8
 70
     0
102
RTVSPropertyOp9
 70
     0
102
RTVSPropertyOp10
 70
     0
102
RTVSPropertyOp11
 70
     0
102
RTVSPropertyOp12
 70
     0
102
RTVSPropertyOp13
 70
     0
102
RTVSPropertyOp14
 70
     2
102
RTVSPropertyOp15
 70
     0
102
RTVSPropertyOp16
 70
     0
102
RTVSPropertyOp17
 70
     0
102
RTVSPropertyOp18
 70
     0
102
RTVSPropertyOp19
 70
     0
102
RTVSPropertyOp20
 70
     0
102
RTVSPropertyOp21
 70
     0
102
RTVSPropertyOp22
 70
     0
102
RTVSPropertyOp23
 70
     0
102
RTVSPropertyOp24
 70
     0
102
RTVSPropertyOp25
 70
     0
102
RTVSPropertyOp26
 70
     0
102
RTVSPropertyOp27
 70
     0
102
RTVSPropertyOp28
 70
     0
102
RTVSPropertyOp29
 70
     0
102
RTVSPropertyOp30
 70
     0
102
RTVSPropertyOp31
 70
     0
102
RTVSPropertyOp32
 70
     0
102
RTVSPropertyOp33
 70
     0
102
RTVSPropertyOp34
 70
     0
102
RTVSPropertyOp35
 70
     0
102
RTVSPropertyOp36
 70
     0
102
RTVSPropertyOp37
 70
     0
102
RTVSPropertyOp38
 70
     0
102
RTVSPropertyOp39
 70
     0
102
RTVSPropertyOp40
 70
     0
102
RTVSPropertyOp41
 70
     0
102
RTVSPropertyOp42
 70
     0
102
RTVSPropertyOp43
 70
     0
102
RTVSPropertyOp44
 70
     0
102
RTVSPropertyOp45
 70
     0
102
RTVSPropertyOp46
 70
     0
102
RTVSPropertyOp47
 70
     0
102
RTVSPropertyOp48
 70
     0
102
RTVSPropertyOp49
 70
     0
102
RTVSPropertyOp50
 70
     0
102
RTVSPropertyOp51
 70
     0
102
RTVSPropertyOp52
 70
     0
102
RTVSPropertyOp53
 70
     0
102
RTVSPropertyOp54
 70
     0
102
RTVSPropertyOp55
 70
     0
102
RTVSPropertyOp56
 70
     0
102
RTVSPropertyOp57
 70
     0
102
RTVSPropertyOp58
 70
     1
102
RTVSPropertyOp59
 70
     1
102
RTVSPropertyOp60
 70
     1
102
RTVSPropertyOp61
 70
     1
102
RTVSPropertyOp62
 70
     1
  0
XRECORD
  5
391
102
{ACAD_REACTORS
330
390
102
}
330
390
100
AcDbXrecord
280
     1
102
RTVSPost2010Prop28
280
     0
102
RTVSPost2010PropOp28
 70
     1
102
RTVSPost2010Prop29
280
     1
102
RTVSPost2010PropOp29
 70
     1
102
RTVSPost2010Prop30
280
     1
102
RTVSPost2010PropOp30
 70
     1
102
RTVSPost2010Prop31
280
     0
102
RTVSPost2010PropOp31
 70
     1
102
RTVSPost2010Prop32
280
     0
102
RTVSPost2010PropOp32
 70
     1
102
RTVSPost2010Prop33
280
     0
102
RTVSPost2010PropOp33
 70
     1
102
RTVSPost2010Prop34
280
     0
102
RTVSPost2010PropOp34
 70
     1
102
RTVSPost2010Prop35
280
     0
102
RTVSPost2010PropOp35
 70
     1
102
RTVSPost2010Prop36
280
     0
102
RTVSPost2010PropOp36
 70
     1
102
RTVSPost2010Prop37
 90
       50
102
RTVSPost2010PropOp37
 70
     1
102
RTVSPost2010Prop38
140
0.0
102
RTVSPost2010PropOp38
 70
     1
102
RTVSPost2010Prop39
140
1.0
102
RTVSPost2010PropOp39
 70
     1
102
RTVSPost2010Prop40
 90
        0
102
RTVSPost2010PropOp40
 70
     1
102
RTVSPost2010Prop41ColorIndex
 90
       18
102
RTVSPost2010Prop41ColorRGB
 90
        0
102
RTVSPost2010PropOp41
 70
     1
102
RTVSPost2010Prop42
 90
       50
102
RTVSPost2010PropOp42
 70
     1
102
RTVSPost2010Prop43
 90
        3
102
RTVSPost2010PropOp43
 70
     1
102
RTVSPost2010Prop44ColorIndex
 90
        5
102
RTVSPost2010Prop44ColorRGB
 90
      255
102
RTVSPost2010PropOp44
 70
     1
102
RTVSPost2010Prop45
280
     0
102
RTVSPost2010PropOp45
 70
     1
102
RTVSPost2010Prop46
 90
       50
102
RTVSPost2010PropOp46
 70
     1
102
RTVSPost2010Prop47
 90
       50
102
RTVSPost2010PropOp47
 70
     1
102
RTVSPost2010Prop48
 90
       50
102
RTVSPost2010PropOp48
 70
     1
102
RTVSPost2010Prop49
280
     0
102
RTVSPost2010PropOp49
 70
     1
102
RTVSPost2010Prop50
 90
       50
102
RTVSPost2010PropOp50
 70
     1
102
RTVSPost2010Prop51ColorIndex
 90
      256
102
RTVSPost2010Prop51ColorRGB
 90
-16777216
102
RTVSPost2010PropOp51
 70
     0
102
RTVSPost2010Prop52
140
1.0
102
RTVSPost2010PropOp52
 70
     0
102
RTVSPost2010Prop53
 90
        2
102
RTVSPost2010PropOp53
 70
     1
102
RTVSPost2010Prop54
  1
strokes_ogs.tif
102
RTVSPost2010PropOp54
 70
     1
102
RTVSPost2010Prop55
280
     0
102
RTVSPost2010PropOp55
 70
     1
102
RTVSPost2010Prop56
140
1.0
102
RTVSPost2010PropOp56
 70
     1
102
RTVSPost2010Prop57
140
1.0
102
RTVSPost2010PropOp57
 70
     1
102
RTVSPropertyOp0
 70
     1
102
RTVSPropertyOp1
 70
     1
102
RTVSPropertyOp2
 70
     1
102
RTVSPropertyOp3
 70
     1
102
RTVSPropertyOp4
 70
     1
102
RTVSPropertyOp5
 70
     1
102
RTVSPropertyOp6
 70
     1
102
RTVSPropertyOp7
 70
     1
102
RTVSPropertyOp8
 70
     1
102
RTVSPropertyOp9
 70
     1
102
RTVSPropertyOp10
 70
     1
102
RTVSPropertyOp11
 70
     1
102
RTVSPropertyOp12
 70
     1
102
RTVSPropertyOp13
 70
     1
102
RTVSPropertyOp14
 70
     1
102
RTVSPropertyOp15
 70
     1
102
RTVSPropertyOp16
 70
     1
102
RTVSPropertyOp17
 70
     1
102
RTVSPropertyOp18
 70
     1
102
RTVSPropertyOp19
 70
     1
102
RTVSPropertyOp20
 70
     1
102
RTVSPropertyOp21
 70
     1
102
RTVSPropertyOp22
 70
     1
102
RTVSPropertyOp23
 70
     1
102
RTVSPropertyOp24
 70
     1
102
RTVSPropertyOp25
 70
     1
102
RTVSPropertyOp26
 70
     1
102
RTVSPropertyOp27
 70
     1
102
RTVSPropertyOp28
 70
     1
102
RTVSPropertyOp29
 70
     1
102
RTVSPropertyOp30
 70
     1
102
RTVSPropertyOp31
 70
     1
102
RTVSPropertyOp32
 70
     1
102
RTVSPropertyOp33
 70
     1
102
RTVSPropertyOp34
 70
     1
102
RTVSPropertyOp35
 70
     1
102
RTVSPropertyOp36
 70
     1
102
RTVSPropertyOp37
 70
     1
102
RTVSPropertyOp38
 70
     1
102
RTVSPropertyOp39
 70
     1
102
RTVSPropertyOp40
 70
     1
102
RTVSPropertyOp41
 70
     1
102
RTVSPropertyOp42
 70
     1
102
RTVSPropertyOp43
 70
     1
102
RTVSPropertyOp44
 70
     1
102
RTVSPropertyOp45
 70
     1
102
RTVSPropertyOp46
 70
     1
102
RTVSPropertyOp47
 70
     1
102
RTVSPropertyOp48
 70
     1
102
RTVSPropertyOp49
 70
     1
102
RTVSPropertyOp50
 70
     1
102
RTVSPropertyOp51
 70
     0
102
RTVSPropertyOp52
 70
     0
102
RTVSPropertyOp53
 70
     1
102
RTVSPropertyOp54
 70
     1
102
RTVSPropertyOp55
 70
     1
102
RTVSPropertyOp56
 70
     1
102
RTVSPropertyOp57
 70
     1
102
RTVSPropertyOp58
 70
     1
102
RTVSPropertyOp59
 70
     1
102
RTVSPropertyOp60
 70
     1
102
RTVSPropertyOp61
 70
     1
102
RTVSPropertyOp62
 70
     1
  0
XRECORD
  5
375
102
{ACAD_REACTORS
330
374
102
}
330
374
100
AcDbXrecord
280
     1
102
RTVSPost2010Prop28
280
     0
102
RTVSPost2010PropOp28
 70
     1
102
RTVSPost2010Prop29
280
     1
102
RTVSPost2010PropOp29
 70
     1
102
RTVSPost2010Prop30
280
     1
102
RTVSPost2010PropOp30
 70
     1
102
RTVSPost2010Prop31
280
     0
102
RTVSPost2010PropOp31
 70
     1
102
RTVSPost2010Prop32
280
     0
102
RTVSPost2010PropOp32
 70
     1
102
RTVSPost2010Prop33
280
     0
102
RTVSPost2010PropOp33
 70
     1
102
RTVSPost2010Prop34
280
     0
102
RTVSPost2010PropOp34
 70
     1
102
RTVSPost2010Prop35
280
     0
102
RTVSPost2010PropOp35
 70
     1
102
RTVSPost2010Prop36
280
     0
102
RTVSPost2010PropOp36
 70
     1
102
RTVSPost2010Prop37
 90
       50
102
RTVSPost2010PropOp37
 70
     1
102
RTVSPost2010Prop38
140
0.0
102
RTVSPost2010PropOp38
 70
     1
102
RTVSPost2010Prop39
140
1.0
102
RTVSPost2010PropOp39
 70
     1
102
RTVSPost2010Prop40
 90
        0
102
RTVSPost2010PropOp40
 70
     1
102
RTVSPost2010Prop41ColorIndex
 90
       18
102
RTVSPost2010Prop41ColorRGB
 90
        0
102
RTVSPost2010PropOp41
 70
     1
102
RTVSPost2010Prop42
 90
       50
102
RTVSPost2010PropOp42
 70
     1
102
RTVSPost2010Prop43
 90
        3
102
RTVSPost2010PropOp43
 70
     1
102
RTVSPost2010Prop44ColorIndex
 90
        5
102
RTVSPost2010Prop44ColorRGB
 90
      255
102
RTVSPost2010PropOp44
 70
     1
102
RTVSPost2010Prop45
280
     0
102
RTVSPost2010PropOp45
 70
     1
102
RTVSPost2010Prop46
 90
       50
102
RTVSPost2010PropOp46
 70
     1
102
RTVSPost2010Prop47
 90
       50
102
RTVSPost2010PropOp47
 70
     1
102
RTVSPost2010Prop48
 90
       50
102
RTVSPost2010PropOp48
 70
     1
102
RTVSPost2010Prop49
280
     0
102
RTVSPost2010PropOp49
 70
     1
102
RTVSPost2010Prop50
 90
       50
102
RTVSPost2010PropOp50
 70
     1
102
RTVSPost2010Prop51ColorIndex
 90
      256
102
RTVSPost2010Prop51ColorRGB
 90
-16777216
102
RTVSPost2010PropOp51
 70
     0
102
RTVSPost2010Prop52
140
1.0
102
RTVSPost2010PropOp52
 70
     0
102
RTVSPost2010Prop53
 90
        2
102
RTVSPost2010PropOp53
 70
     1
102
RTVSPost2010Prop54
  1
strokes_ogs.tif
102
RTVSPost2010PropOp54
 70
     1
102
RTVSPost2010Prop55
280
     0
102
RTVSPost2010PropOp55
 70
     1
102
RTVSPost2010Prop56
140
1.0
102
RTVSPost2010PropOp56
 70
     1
102
RTVSPost2010Prop57
140
1.0
102
RTVSPost2010PropOp57
 70
     1
102
RTVSPropertyOp0
 70
     1
102
RTVSPropertyOp1
 70
     1
102
RTVSPropertyOp2
 70
     1
102
RTVSPropertyOp3
 70
     1
102
RTVSPropertyOp4
 70
     1
102
RTVSPropertyOp5
 70
     1
102
RTVSPropertyOp6
 70
     1
102
RTVSPropertyOp7
 70
     1
102
RTVSPropertyOp8
 70
     1
102
RTVSPropertyOp9
 70
     1
102
RTVSPropertyOp10
 70
     1
102
RTVSPropertyOp11
 70
     1
102
RTVSPropertyOp12
 70
     1
102
RTVSPropertyOp13
 70
     1
102
RTVSPropertyOp14
 70
     1
102
RTVSPropertyOp15
 70
     1
102
RTVSPropertyOp16
 70
     1
102
RTVSPropertyOp17
 70
     1
102
RTVSPropertyOp18
 70
     1
102
RTVSPropertyOp19
 70
     1
102
RTVSPropertyOp20
 70
     1
102
RTVSPropertyOp21
 70
     1
102
RTVSPropertyOp22
 70
     1
102
RTVSPropertyOp23
 70
     1
102
RTVSPropertyOp24
 70
     1
102
RTVSPropertyOp25
 70
     1
102
RTVSPropertyOp26
 70
     1
102
RTVSPropertyOp27
 70
     1
102
RTVSPropertyOp28
 70
     1
102
RTVSPropertyOp29
 70
     1
102
RTVSPropertyOp30
 70
     1
102
RTVSPropertyOp31
 70
     1
102
RTVSPropertyOp32
 70
     1
102
RTVSPropertyOp33
 70
     1
102
RTVSPropertyOp34
 70
     1
102
RTVSPropertyOp35
 70
     1
102
RTVSPropertyOp36
 70
     1
102
RTVSPropertyOp37
 70
     1
102
RTVSPropertyOp38
 70
     1
102
RTVSPropertyOp39
 70
     1
102
RTVSPropertyOp40
 70
     1
102
RTVSPropertyOp41
 70
     1
102
RTVSPropertyOp42
 70
     1
102
RTVSPropertyOp43
 70
     1
102
RTVSPropertyOp44
 70
     1
102
RTVSPropertyOp45
 70
     1
102
RTVSPropertyOp46
 70
     1
102
RTVSPropertyOp47
 70
     1
102
RTVSPropertyOp48
 70
     1
102
RTVSPropertyOp49
 70
     1
102
RTVSPropertyOp50
 70
     1
102
RTVSPropertyOp51
 70
     0
102
RTVSPropertyOp52
 70
     0
102
RTVSPropertyOp53
 70
     1
102
RTVSPropertyOp54
 70
     1
102
RTVSPropertyOp55
 70
     1
102
RTVSPropertyOp56
 70
     1
102
RTVSPropertyOp57
 70
     1
102
RTVSPropertyOp58
 70
     1
102
RTVSPropertyOp59
 70
     1
102
RTVSPropertyOp60
 70
     1
102
RTVSPropertyOp61
 70
     1
102
RTVSPropertyOp62
 70
     1
  0
XRECORD
  5
377
102
{ACAD_REACTORS
330
376
102
}
330
376
100
AcDbXrecord
280
     1
102
RTVSPost2010Prop28
280
     0
102
RTVSPost2010PropOp28
 70
     1
102
RTVSPost2010Prop29
280
     1
102
RTVSPost2010PropOp29
 70
     1
102
RTVSPost2010Prop30
280
     1
102
RTVSPost2010PropOp30
 70
     1
102
RTVSPost2010Prop31
280
     0
102
RTVSPost2010PropOp31
 70
     1
102
RTVSPost2010Prop32
280
     0
102
RTVSPost2010PropOp32
 70
     1
102
RTVSPost2010Prop33
280
     0
102
RTVSPost2010PropOp33
 70
     1
102
RTVSPost2010Prop34
280
     0
102
RTVSPost2010PropOp34
 70
     1
102
RTVSPost2010Prop35
280
     0
102
RTVSPost2010PropOp35
 70
     1
102
RTVSPost2010Prop36
280
     0
102
RTVSPost2010PropOp36
 70
     1
102
RTVSPost2010Prop37
 90
       50
102
RTVSPost2010PropOp37
 70
     1
102
RTVSPost2010Prop38
140
0.0
102
RTVSPost2010PropOp38
 70
     1
102
RTVSPost2010Prop39
140
1.0
102
RTVSPost2010PropOp39
 70
     1
102
RTVSPost2010Prop40
 90
        0
102
RTVSPost2010PropOp40
 70
     1
102
RTVSPost2010Prop41ColorIndex
 90
       18
102
RTVSPost2010Prop41ColorRGB
 90
        0
102
RTVSPost2010PropOp41
 70
     1
102
RTVSPost2010Prop42
 90
       50
102
RTVSPost2010PropOp42
 70
     1
102
RTVSPost2010Prop43
 90
        3
102
RTVSPost2010PropOp43
 70
     1
102
RTVSPost2010Prop44ColorIndex
 90
        5
102
RTVSPost2010Prop44ColorRGB
 90
      255
102
RTVSPost2010PropOp44
 70
     1
102
RTVSPost2010Prop45
280
     0
102
RTVSPost2010PropOp45
 70
     1
102
RTVSPost2010Prop46
 90
       50
102
RTVSPost2010PropOp46
 70
     1
102
RTVSPost2010Prop47
 90
       50
102
RTVSPost2010PropOp47
 70
     1
102
RTVSPost2010Prop48
 90
       50
102
RTVSPost2010PropOp48
 70
     1
102
RTVSPost2010Prop49
280
     0
102
RTVSPost2010PropOp49
 70
     1
102
RTVSPost2010Prop50
 90
       50
102
RTVSPost2010PropOp50
 70
     1
102
RTVSPost2010Prop51ColorIndex
 90
      256
102
RTVSPost2010Prop51ColorRGB
 90
-16777216
102
RTVSPost2010PropOp51
 70
     0
102
RTVSPost2010Prop52
140
1.0
102
RTVSPost2010PropOp52
 70
     0
102
RTVSPost2010Prop53
 90
        2
102
RTVSPost2010PropOp53
 70
     1
102
RTVSPost2010Prop54
  1
strokes_ogs.tif
102
RTVSPost2010PropOp54
 70
     1
102
RTVSPost2010Prop55
280
     0
102
RTVSPost2010PropOp55
 70
     1
102
RTVSPost2010Prop56
140
1.0
102
RTVSPost2010PropOp56
 70
     1
102
RTVSPost2010Prop57
140
1.0
102
RTVSPost2010PropOp57
 70
     1
102
RTVSPropertyOp0
 70
     1
102
RTVSPropertyOp1
 70
     1
102
RTVSPropertyOp2
 70
     1
102
RTVSPropertyOp3
 70
     1
102
RTVSPropertyOp4
 70
     1
102
RTVSPropertyOp5
 70
     1
102
RTVSPropertyOp6
 70
     1
102
RTVSPropertyOp7
 70
     1
102
RTVSPropertyOp8
 70
     1
102
RTVSPropertyOp9
 70
     1
102
RTVSPropertyOp10
 70
     1
102
RTVSPropertyOp11
 70
     1
102
RTVSPropertyOp12
 70
     1
102
RTVSPropertyOp13
 70
     1
102
RTVSPropertyOp14
 70
     1
102
RTVSPropertyOp15
 70
     1
102
RTVSPropertyOp16
 70
     1
102
RTVSPropertyOp17
 70
     1
102
RTVSPropertyOp18
 70
     1
102
RTVSPropertyOp19
 70
     1
102
RTVSPropertyOp20
 70
     1
102
RTVSPropertyOp21
 70
     1
102
RTVSPropertyOp22
 70
     1
102
RTVSPropertyOp23
 70
     1
102
RTVSPropertyOp24
 70
     1
102
RTVSPropertyOp25
 70
     1
102
RTVSPropertyOp26
 70
     1
102
RTVSPropertyOp27
 70
     1
102
RTVSPropertyOp28
 70
     1
102
RTVSPropertyOp29
 70
     1
102
RTVSPropertyOp30
 70
     1
102
RTVSPropertyOp31
 70
     1
102
RTVSPropertyOp32
 70
     1
102
RTVSPropertyOp33
 70
     1
102
RTVSPropertyOp34
 70
     1
102
RTVSPropertyOp35
 70
     1
102
RTVSPropertyOp36
 70
     1
102
RTVSPropertyOp37
 70
     1
102
RTVSPropertyOp38
 70
     1
102
RTVSPropertyOp39
 70
     1
102
RTVSPropertyOp40
 70
     1
102
RTVSPropertyOp41
 70
     1
102
RTVSPropertyOp42
 70
     1
102
RTVSPropertyOp43
 70
     1
102
RTVSPropertyOp44
 70
     1
102
RTVSPropertyOp45
 70
     1
102
RTVSPropertyOp46
 70
     1
102
RTVSPropertyOp47
 70
     1
102
RTVSPropertyOp48
 70
     1
102
RTVSPropertyOp49
 70
     1
102
RTVSPropertyOp50
 70
     1
102
RTVSPropertyOp51
 70
     0
102
RTVSPropertyOp52
 70
     0
102
RTVSPropertyOp53
 70
     1
102
RTVSPropertyOp54
 70
     1
102
RTVSPropertyOp55
 70
     1
102
RTVSPropertyOp56
 70
     1
102
RTVSPropertyOp57
 70
     1
102
RTVSPropertyOp58
 70
     1
102
RTVSPropertyOp59
 70
     1
102
RTVSPropertyOp60
 70
     1
102
RTVSPropertyOp61
 70
     1
102
RTVSPropertyOp62
 70
     1
  0
XRECORD
  5
379
102
{ACAD_REACTORS
330
378
102
}
330
378
100
AcDbXrecord
280
     1
102
RTVSPost2010Prop28
280
     0
102
RTVSPost2010PropOp28
 70
     1
102
RTVSPost2010Prop29
280
     1
102
RTVSPost2010PropOp29
 70
     1
102
RTVSPost2010Prop30
280
     1
102
RTVSPost2010PropOp30
 70
     1
102
RTVSPost2010Prop31
280
     0
102
RTVSPost2010PropOp31
 70
     1
102
RTVSPost2010Prop32
280
     0
102
RTVSPost2010PropOp32
 70
     1
102
RTVSPost2010Prop33
280
     0
102
RTVSPost2010PropOp33
 70
     1
102
RTVSPost2010Prop34
280
     0
102
RTVSPost2010PropOp34
 70
     1
102
RTVSPost2010Prop35
280
     0
102
RTVSPost2010PropOp35
 70
     1
102
RTVSPost2010Prop36
280
     0
102
RTVSPost2010PropOp36
 70
     1
102
RTVSPost2010Prop37
 90
       50
102
RTVSPost2010PropOp37
 70
     1
102
RTVSPost2010Prop38
140
0.0
102
RTVSPost2010PropOp38
 70
     1
102
RTVSPost2010Prop39
140
1.0
102
RTVSPost2010PropOp39
 70
     1
102
RTVSPost2010Prop40
 90
        0
102
RTVSPost2010PropOp40
 70
     1
102
RTVSPost2010Prop41ColorIndex
 90
       18
102
RTVSPost2010Prop41ColorRGB
 90
        0
102
RTVSPost2010PropOp41
 70
     1
102
RTVSPost2010Prop42
 90
       50
102
RTVSPost2010PropOp42
 70
     1
102
RTVSPost2010Prop43
 90
        3
102
RTVSPost2010PropOp43
 70
     1
102
RTVSPost2010Prop44ColorIndex
 90
        5
102
RTVSPost2010Prop44ColorRGB
 90
      255
102
RTVSPost2010PropOp44
 70
     1
102
RTVSPost2010Prop45
280
     0
102
RTVSPost2010PropOp45
 70
     1
102
RTVSPost2010Prop46
 90
       50
102
RTVSPost2010PropOp46
 70
     1
102
RTVSPost2010Prop47
 90
       50
102
RTVSPost2010PropOp47
 70
     1
102
RTVSPost2010Prop48
 90
       50
102
RTVSPost2010PropOp48
 70
     1
102
RTVSPost2010Prop49
280
     0
102
RTVSPost2010PropOp49
 70
     1
102
RTVSPost2010Prop50
 90
       50
102
RTVSPost2010PropOp50
 70
     1
102
RTVSPost2010Prop51ColorIndex
 90
      256
102
RTVSPost2010Prop51ColorRGB
 90
-16777216
102
RTVSPost2010PropOp51
 70
     0
102
RTVSPost2010Prop52
140
1.0
102
RTVSPost2010PropOp52
 70
     0
102
RTVSPost2010Prop53
 90
        2
102
RTVSPost2010PropOp53
 70
     1
102
RTVSPost2010Prop54
  1
strokes_ogs.tif
102
RTVSPost2010PropOp54
 70
     1
102
RTVSPost2010Prop55
280
     0
102
RTVSPost2010PropOp55
 70
     1
102
RTVSPost2010Prop56
140
1.0
102
RTVSPost2010PropOp56
 70
     1
102
RTVSPost2010Prop57
140
1.0
102
RTVSPost2010PropOp57
 70
     1
102
RTVSPropertyOp0
 70
     1
102
RTVSPropertyOp1
 70
     1
102
RTVSPropertyOp2
 70
     1
102
RTVSPropertyOp3
 70
     1
102
RTVSPropertyOp4
 70
     1
102
RTVSPropertyOp5
 70
     1
102
RTVSPropertyOp6
 70
     1
102
RTVSPropertyOp7
 70
     1
102
RTVSPropertyOp8
 70
     1
102
RTVSPropertyOp9
 70
     1
102
RTVSPropertyOp10
 70
     1
102
RTVSPropertyOp11
 70
     1
102
RTVSPropertyOp12
 70
     1
102
RTVSPropertyOp13
 70
     1
102
RTVSPropertyOp14
 70
     1
102
RTVSPropertyOp15
 70
     1
102
RTVSPropertyOp16
 70
     1
102
RTVSPropertyOp17
 70
     1
102
RTVSPropertyOp18
 70
     1
102
RTVSPropertyOp19
 70
     1
102
RTVSPropertyOp20
 70
     1
102
RTVSPropertyOp21
 70
     1
102
RTVSPropertyOp22
 70
     1
102
RTVSPropertyOp23
 70
     1
102
RTVSPropertyOp24
 70
     1
102
RTVSPropertyOp25
 70
     1
102
RTVSPropertyOp26
 70
     1
102
RTVSPropertyOp27
 70
     1
102
RTVSPropertyOp28
 70
     1
102
RTVSPropertyOp29
 70
     1
102
RTVSPropertyOp30
 70
     1
102
RTVSPropertyOp31
 70
     1
102
RTVSPropertyOp32
 70
     1
102
RTVSPropertyOp33
 70
     1
102
RTVSPropertyOp34
 70
     1
102
RTVSPropertyOp35
 70
     1
102
RTVSPropertyOp36
 70
     1
102
RTVSPropertyOp37
 70
     1
102
RTVSPropertyOp38
 70
     1
102
RTVSPropertyOp39
 70
     1
102
RTVSPropertyOp40
 70
     1
102
RTVSPropertyOp41
 70
     1
102
RTVSPropertyOp42
 70
     1
102
RTVSPropertyOp43
 70
     1
102
RTVSPropertyOp44
 70
     1
102
RTVSPropertyOp45
 70
     1
102
RTVSPropertyOp46
 70
     1
102
RTVSPropertyOp47
 70
     1
102
RTVSPropertyOp48
 70
     1
102
RTVSPropertyOp49
 70
     1
102
RTVSPropertyOp50
 70
     1
102
RTVSPropertyOp51
 70
     0
102
RTVSPropertyOp52
 70
     0
102
RTVSPropertyOp53
 70
     1
102
RTVSPropertyOp54
 70
     1
102
RTVSPropertyOp55
 70
     1
102
RTVSPropertyOp56
 70
     1
102
RTVSPropertyOp57
 70
     1
102
RTVSPropertyOp58
 70
     1
102
RTVSPropertyOp59
 70
     1
102
RTVSPropertyOp60
 70
     1
102
RTVSPropertyOp61
 70
     1
102
RTVSPropertyOp62
 70
     1
  0
XRECORD
  5
37B
102
{ACAD_REACTORS
330
37A
102
}
330
37A
100
AcDbXrecord
280
     1
102
RTVSPost2010Prop28
280
     0
102
RTVSPost2010PropOp28
 70
     1
102
RTVSPost2010Prop29
280
     1
102
RTVSPost2010PropOp29
 70
     1
102
RTVSPost2010Prop30
280
     1
102
RTVSPost2010PropOp30
 70
     1
102
RTVSPost2010Prop31
280
     0
102
RTVSPost2010PropOp31
 70
     1
102
RTVSPost2010Prop32
280
     0
102
RTVSPost2010PropOp32
 70
     1
102
RTVSPost2010Prop33
280
     0
102
RTVSPost2010PropOp33
 70
     1
102
RTVSPost2010Prop34
280
     0
102
RTVSPost2010PropOp34
 70
     1
102
RTVSPost2010Prop35
280
     0
102
RTVSPost2010PropOp35
 70
     1
102
RTVSPost2010Prop36
280
     0
102
RTVSPost2010PropOp36
 70
     1
102
RTVSPost2010Prop37
 90
       50
102
RTVSPost2010PropOp37
 70
     1
102
RTVSPost2010Prop38
140
0.0
102
RTVSPost2010PropOp38
 70
     1
102
RTVSPost2010Prop39
140
1.0
102
RTVSPost2010PropOp39
 70
     1
102
RTVSPost2010Prop40
 90
        0
102
RTVSPost2010PropOp40
 70
     1
102
RTVSPost2010Prop41ColorIndex
 90
       18
102
RTVSPost2010Prop41ColorRGB
 90
        0
102
RTVSPost2010PropOp41
 70
     1
102
RTVSPost2010Prop42
 90
       50
102
RTVSPost2010PropOp42
 70
     1
102
RTVSPost2010Prop43
 90
        3
102
RTVSPost2010PropOp43
 70
     1
102
RTVSPost2010Prop44ColorIndex
 90
        5
102
RTVSPost2010Prop44ColorRGB
 90
      255
102
RTVSPost2010PropOp44
 70
     1
102
RTVSPost2010Prop45
280
     0
102
RTVSPost2010PropOp45
 70
     1
102
RTVSPost2010Prop46
 90
       50
102
RTVSPost2010PropOp46
 70
     1
102
RTVSPost2010Prop47
 90
       50
102
RTVSPost2010PropOp47
 70
     1
102
RTVSPost2010Prop48
 90
       50
102
RTVSPost2010PropOp48
 70
     1
102
RTVSPost2010Prop49
280
     0
102
RTVSPost2010PropOp49
 70
     1
102
RTVSPost2010Prop50
 90
       50
102
RTVSPost2010PropOp50
 70
     1
102
RTVSPost2010Prop51ColorIndex
 90
      256
102
RTVSPost2010Prop51ColorRGB
 90
-16777216
102
RTVSPost2010PropOp51
 70
     0
102
RTVSPost2010Prop52
140
1.0
102
RTVSPost2010PropOp52
 70
     0
102
RTVSPost2010Prop53
 90
        2
102
RTVSPost2010PropOp53
 70
     1
102
RTVSPost2010Prop54
  1
strokes_ogs.tif
102
RTVSPost2010PropOp54
 70
     1
102
RTVSPost2010Prop55
280
     0
102
RTVSPost2010PropOp55
 70
     1
102
RTVSPost2010Prop56
140
1.0
102
RTVSPost2010PropOp56
 70
     1
102
RTVSPost2010Prop57
140
1.0
102
RTVSPost2010PropOp57
 70
     1
102
RTVSPropertyOp0
 70
     1
102
RTVSPropertyOp1
 70
     1
102
RTVSPropertyOp2
 70
     1
102
RTVSPropertyOp3
 70
     1
102
RTVSPropertyOp4
 70
     1
102
RTVSPropertyOp5
 70
     1
102
RTVSPropertyOp6
 70
     1
102
RTVSPropertyOp7
 70
     1
102
RTVSPropertyOp8
 70
     1
102
RTVSPropertyOp9
 70
     1
102
RTVSPropertyOp10
 70
     1
102
RTVSPropertyOp11
 70
     1
102
RTVSPropertyOp12
 70
     1
102
RTVSPropertyOp13
 70
     1
102
RTVSPropertyOp14
 70
     1
102
RTVSPropertyOp15
 70
     1
102
RTVSPropertyOp16
 70
     1
102
RTVSPropertyOp17
 70
     1
102
RTVSPropertyOp18
 70
     1
102
RTVSPropertyOp19
 70
     1
102
RTVSPropertyOp20
 70
     1
102
RTVSPropertyOp21
 70
     1
102
RTVSPropertyOp22
 70
     1
102
RTVSPropertyOp23
 70
     1
102
RTVSPropertyOp24
 70
     1
102
RTVSPropertyOp25
 70
     1
102
RTVSPropertyOp26
 70
     1
102
RTVSPropertyOp27
 70
     1
102
RTVSPropertyOp28
 70
     1
102
RTVSPropertyOp29
 70
     1
102
RTVSPropertyOp30
 70
     1
102
RTVSPropertyOp31
 70
     1
102
RTVSPropertyOp32
 70
     1
102
RTVSPropertyOp33
 70
     1
102
RTVSPropertyOp34
 70
     1
102
RTVSPropertyOp35
 70
     1
102
RTVSPropertyOp36
 70
     1
102
RTVSPropertyOp37
 70
     1
102
RTVSPropertyOp38
 70
     1
102
RTVSPropertyOp39
 70
     1
102
RTVSPropertyOp40
 70
     1
102
RTVSPropertyOp41
 70
     1
102
RTVSPropertyOp42
 70
     1
102
RTVSPropertyOp43
 70
     1
102
RTVSPropertyOp44
 70
     1
102
RTVSPropertyOp45
 70
     1
102
RTVSPropertyOp46
 70
     1
102
RTVSPropertyOp47
 70
     1
102
RTVSPropertyOp48
 70
     1
102
RTVSPropertyOp49
 70
     1
102
RTVSPropertyOp50
 70
     1
102
RTVSPropertyOp51
 70
     0
102
RTVSPropertyOp52
 70
     0
102
RTVSPropertyOp53
 70
     1
102
RTVSPropertyOp54
 70
     1
102
RTVSPropertyOp55
 70
     1
102
RTVSPropertyOp56
 70
     1
102
RTVSPropertyOp57
 70
     1
102
RTVSPropertyOp58
 70
     1
102
RTVSPropertyOp59
 70
     1
102
RTVSPropertyOp60
 70
     1
102
RTVSPropertyOp61
 70
     1
102
RTVSPropertyOp62
 70
     1
  0
XRECORD
  5
381
102
{ACAD_REACTORS
330
380
102
}
330
380
100
AcDbXrecord
280
     1
102
RTVSPost2010Prop28
280
     0
102
RTVSPost2010PropOp28
 70
     1
102
RTVSPost2010Prop29
280
     1
102
RTVSPost2010PropOp29
 70
     1
102
RTVSPost2010Prop30
280
     1
102
RTVSPost2010PropOp30
 70
     1
102
RTVSPost2010Prop31
280
     0
102
RTVSPost2010PropOp31
 70
     1
102
RTVSPost2010Prop32
280
     0
102
RTVSPost2010PropOp32
 70
     1
102
RTVSPost2010Prop33
280
     0
102
RTVSPost2010PropOp33
 70
     1
102
RTVSPost2010Prop34
280
     0
102
RTVSPost2010PropOp34
 70
     1
102
RTVSPost2010Prop35
280
     0
102
RTVSPost2010PropOp35
 70
     1
102
RTVSPost2010Prop36
280
     0
102
RTVSPost2010PropOp36
 70
     1
102
RTVSPost2010Prop37
 90
       50
102
RTVSPost2010PropOp37
 70
     1
102
RTVSPost2010Prop38
140
0.0
102
RTVSPost2010PropOp38
 70
     1
102
RTVSPost2010Prop39
140
1.0
102
RTVSPost2010PropOp39
 70
     1
102
RTVSPost2010Prop40
 90
        0
102
RTVSPost2010PropOp40
 70
     1
102
RTVSPost2010Prop41ColorIndex
 90
       18
102
RTVSPost2010Prop41ColorRGB
 90
        0
102
RTVSPost2010PropOp41
 70
     1
102
RTVSPost2010Prop42
 90
       50
102
RTVSPost2010PropOp42
 70
     1
102
RTVSPost2010Prop43
 90
        3
102
RTVSPost2010PropOp43
 70
     1
102
RTVSPost2010Prop44ColorIndex
 90
        5
102
RTVSPost2010Prop44ColorRGB
 90
      255
102
RTVSPost2010PropOp44
 70
     1
102
RTVSPost2010Prop45
280
     0
102
RTVSPost2010PropOp45
 70
     1
102
RTVSPost2010Prop46
 90
       50
102
RTVSPost2010PropOp46
 70
     1
102
RTVSPost2010Prop47
 90
       50
102
RTVSPost2010PropOp47
 70
     1
102
RTVSPost2010Prop48
 90
       50
102
RTVSPost2010PropOp48
 70
     1
102
RTVSPost2010Prop49
280
     0
102
RTVSPost2010PropOp49
 70
     1
102
RTVSPost2010Prop50
 90
       50
102
RTVSPost2010PropOp50
 70
     1
102
RTVSPost2010Prop51ColorIndex
 90
      256
102
RTVSPost2010Prop51ColorRGB
 90
-16777216
102
RTVSPost2010PropOp51
 70
     0
102
RTVSPost2010Prop52
140
1.0
102
RTVSPost2010PropOp52
 70
     0
102
RTVSPost2010Prop53
 90
        2
102
RTVSPost2010PropOp53
 70
     1
102
RTVSPost2010Prop54
  1
strokes_ogs.tif
102
RTVSPost2010PropOp54
 70
     1
102
RTVSPost2010Prop55
280
     0
102
RTVSPost2010PropOp55
 70
     1
102
RTVSPost2010Prop56
140
1.0
102
RTVSPost2010PropOp56
 70
     1
102
RTVSPost2010Prop57
140
1.0
102
RTVSPost2010PropOp57
 70
     1
102
RTVSPropertyOp0
 70
     1
102
RTVSPropertyOp1
 70
     1
102
RTVSPropertyOp2
 70
     1
102
RTVSPropertyOp3
 70
     1
102
RTVSPropertyOp4
 70
     1
102
RTVSPropertyOp5
 70
     1
102
RTVSPropertyOp6
 70
     1
102
RTVSPropertyOp7
 70
     1
102
RTVSPropertyOp8
 70
     1
102
RTVSPropertyOp9
 70
     1
102
RTVSPropertyOp10
 70
     1
102
RTVSPropertyOp11
 70
     1
102
RTVSPropertyOp12
 70
     1
102
RTVSPropertyOp13
 70
     1
102
RTVSPropertyOp14
 70
     1
102
RTVSPropertyOp15
 70
     1
102
RTVSPropertyOp16
 70
     1
102
RTVSPropertyOp17
 70
     1
102
RTVSPropertyOp18
 70
     1
102
RTVSPropertyOp19
 70
     1
102
RTVSPropertyOp20
 70
     1
102
RTVSPropertyOp21
 70
     1
102
RTVSPropertyOp22
 70
     1
102
RTVSPropertyOp23
 70
     1
102
RTVSPropertyOp24
 70
     1
102
RTVSPropertyOp25
 70
     1
102
RTVSPropertyOp26
 70
     1
102
RTVSPropertyOp27
 70
     1
102
RTVSPropertyOp28
 70
     1
102
RTVSPropertyOp29
 70
     1
102
RTVSPropertyOp30
 70
     1
102
RTVSPropertyOp31
 70
     1
102
RTVSPropertyOp32
 70
     1
102
RTVSPropertyOp33
 70
     1
102
RTVSPropertyOp34
 70
     1
102
RTVSPropertyOp35
 70
     1
102
RTVSPropertyOp36
 70
     1
102
RTVSPropertyOp37
 70
     1
102
RTVSPropertyOp38
 70
     1
102
RTVSPropertyOp39
 70
     1
102
RTVSPropertyOp40
 70
     1
102
RTVSPropertyOp41
 70
     1
102
RTVSPropertyOp42
 70
     1
102
RTVSPropertyOp43
 70
     1
102
RTVSPropertyOp44
 70
     1
102
RTVSPropertyOp45
 70
     1
102
RTVSPropertyOp46
 70
     1
102
RTVSPropertyOp47
 70
     1
102
RTVSPropertyOp48
 70
     1
102
RTVSPropertyOp49
 70
     1
102
RTVSPropertyOp50
 70
     1
102
RTVSPropertyOp51
 70
     0
102
RTVSPropertyOp52
 70
     0
102
RTVSPropertyOp53
 70
     1
102
RTVSPropertyOp54
 70
     1
102
RTVSPropertyOp55
 70
     1
102
RTVSPropertyOp56
 70
     1
102
RTVSPropertyOp57
 70
     1
102
RTVSPropertyOp58
 70
     1
102
RTVSPropertyOp59
 70
     1
102
RTVSPropertyOp60
 70
     1
102
RTVSPropertyOp61
 70
     1
102
RTVSPropertyOp62
 70
     1
  0
XRECORD
  5
395
102
{ACAD_REACTORS
330
394
102
}
330
394
100
AcDbXrecord
280
     1
102
RTVSPost2010Prop28
280
     0
102
RTVSPost2010PropOp28
 70
     0
102
RTVSPost2010Prop29
280
     1
102
RTVSPost2010PropOp29
 70
     0
102
RTVSPost2010Prop30
280
     1
102
RTVSPost2010PropOp30
 70
     0
102
RTVSPost2010Prop31
280
     0
102
RTVSPost2010PropOp31
 70
     0
102
RTVSPost2010Prop32
280
     0
102
RTVSPost2010PropOp32
 70
     0
102
RTVSPost2010Prop33
280
     0
102
RTVSPost2010PropOp33
 70
     0
102
RTVSPost2010Prop34
280
     0
102
RTVSPost2010PropOp34
 70
     0
102
RTVSPost2010Prop35
280
     0
102
RTVSPost2010PropOp35
 70
     0
102
RTVSPost2010Prop36
280
     0
102
RTVSPost2010PropOp36
 70
     0
102
RTVSPost2010Prop37
 90
       50
102
RTVSPost2010PropOp37
 70
     0
102
RTVSPost2010Prop38
140
0.0
102
RTVSPost2010PropOp38
 70
     0
102
RTVSPost2010Prop39
140
1.0
102
RTVSPost2010PropOp39
 70
     0
102
RTVSPost2010Prop40
 90
        0
102
RTVSPost2010PropOp40
 70
     0
102
RTVSPost2010Prop41ColorIndex
 90
       18
102
RTVSPost2010Prop41ColorRGB
 90
        0
102
RTVSPost2010PropOp41
 70
     0
102
RTVSPost2010Prop42
 90
       50
102
RTVSPost2010PropOp42
 70
     0
102
RTVSPost2010Prop43
 90
        3
102
RTVSPost2010PropOp43
 70
     0
102
RTVSPost2010Prop44ColorIndex
 90
        5
102
RTVSPost2010Prop44ColorRGB
 90
      255
102
RTVSPost2010PropOp44
 70
     0
102
RTVSPost2010Prop45
280
     0
102
RTVSPost2010PropOp45
 70
     0
102
RTVSPost2010Prop46
 90
       50
102
RTVSPost2010PropOp46
 70
     0
102
RTVSPost2010Prop47
 90
       50
102
RTVSPost2010PropOp47
 70
     0
102
RTVSPost2010Prop48
 90
       50
102
RTVSPost2010PropOp48
 70
     0
102
RTVSPost2010Prop49
280
     0
102
RTVSPost2010PropOp49
 70
     0
102
RTVSPost2010Prop50
 90
       50
102
RTVSPost2010PropOp50
 70
     0
102
RTVSPost2010Prop51ColorIndex
 90
      256
102
RTVSPost2010Prop51ColorRGB
 90
-16777216
102
RTVSPost2010PropOp51
 70
     0
102
RTVSPost2010Prop52
140
1.0
102
RTVSPost2010PropOp52
 70
     0
102
RTVSPost2010Prop53
 90
        2
102
RTVSPost2010PropOp53
 70
     0
102
RTVSPost2010Prop54
  1
strokes_ogs.tif
102
RTVSPost2010PropOp54
 70
     0
102
RTVSPost2010Prop55
280
     0
102
RTVSPost2010PropOp55
 70
     0
102
RTVSPost2010Prop56
140
1.0
102
RTVSPost2010PropOp56
 70
     0
102
RTVSPost2010Prop57
140
1.0
102
RTVSPost2010PropOp57
 70
     0
102
RTVSPropertyOp0
 70
     0
102
RTVSPropertyOp1
 70
     0
102
RTVSPropertyOp2
 70
     0
102
RTVSPropertyOp3
 70
     0
102
RTVSPropertyOp4
 70
     0
102
RTVSPropertyOp5
 70
     0
102
RTVSPropertyOp6
 70
     0
102
RTVSPropertyOp7
 70
     0
102
RTVSPropertyOp8
 70
     0
102
RTVSPropertyOp9
 70
     0
102
RTVSPropertyOp10
 70
     0
102
RTVSPropertyOp11
 70
     0
102
RTVSPropertyOp12
 70
     0
102
RTVSPropertyOp13
 70
     0
102
RTVSPropertyOp14
 70
     2
102
RTVSPropertyOp15
 70
     0
102
RTVSPropertyOp16
 70
     0
102
RTVSPropertyOp17
 70
     0
102
RTVSPropertyOp18
 70
     0
102
RTVSPropertyOp19
 70
     0
102
RTVSPropertyOp20
 70
     0
102
RTVSPropertyOp21
 70
     0
102
RTVSPropertyOp22
 70
     0
102
RTVSPropertyOp23
 70
     0
102
RTVSPropertyOp24
 70
     0
102
RTVSPropertyOp25
 70
     0
102
RTVSPropertyOp26
 70
     0
102
RTVSPropertyOp27
 70
     0
102
RTVSPropertyOp28
 70
     0
102
RTVSPropertyOp29
 70
     0
102
RTVSPropertyOp30
 70
     0
102
RTVSPropertyOp31
 70
     0
102
RTVSPropertyOp32
 70
     0
102
RTVSPropertyOp33
 70
     0
102
RTVSPropertyOp34
 70
     0
102
RTVSPropertyOp35
 70
     0
102
RTVSPropertyOp36
 70
     0
102
RTVSPropertyOp37
 70
     0
102
RTVSPropertyOp38
 70
     0
102
RTVSPropertyOp39
 70
     0
102
RTVSPropertyOp40
 70
     0
102
RTVSPropertyOp41
 70
     0
102
RTVSPropertyOp42
 70
     0
102
RTVSPropertyOp43
 70
     0
102
RTVSPropertyOp44
 70
     0
102
RTVSPropertyOp45
 70
     0
102
RTVSPropertyOp46
 70
     0
102
RTVSPropertyOp47
 70
     0
102
RTVSPropertyOp48
 70
     0
102
RTVSPropertyOp49
 70
     0
102
RTVSPropertyOp50
 70
     0
102
RTVSPropertyOp51
 70
     0
102
RTVSPropertyOp52
 70
     0
102
RTVSPropertyOp53
 70
     0
102
RTVSPropertyOp54
 70
     0
102
RTVSPropertyOp55
 70
     0
102
RTVSPropertyOp56
 70
     0
102
RTVSPropertyOp57
 70
     0
102
RTVSPropertyOp58
 70
     1
102
RTVSPropertyOp59
 70
     1
102
RTVSPropertyOp60
 70
     1
102
RTVSPropertyOp61
 70
     1
102
RTVSPropertyOp62
 70
     1
  0
XRECORD
  5
38F
102
{ACAD_REACTORS
330
38E
102
}
330
38E
100
AcDbXrecord
280
     1
102
RTVSPost2010Prop28
280
     0
102
RTVSPost2010PropOp28
 70
     1
102
RTVSPost2010Prop29
280
     1
102
RTVSPost2010PropOp29
 70
     1
102
RTVSPost2010Prop30
280
     1
102
RTVSPost2010PropOp30
 70
     1
102
RTVSPost2010Prop31
280
     0
102
RTVSPost2010PropOp31
 70
     1
102
RTVSPost2010Prop32
280
     0
102
RTVSPost2010PropOp32
 70
     1
102
RTVSPost2010Prop33
280
     0
102
RTVSPost2010PropOp33
 70
     1
102
RTVSPost2010Prop34
280
     0
102
RTVSPost2010PropOp34
 70
     1
102
RTVSPost2010Prop35
280
     0
102
RTVSPost2010PropOp35
 70
     1
102
RTVSPost2010Prop36
280
     0
102
RTVSPost2010PropOp36
 70
     1
102
RTVSPost2010Prop37
 90
       50
102
RTVSPost2010PropOp37
 70
     1
102
RTVSPost2010Prop38
140
0.0
102
RTVSPost2010PropOp38
 70
     1
102
RTVSPost2010Prop39
140
1.0
102
RTVSPost2010PropOp39
 70
     1
102
RTVSPost2010Prop40
 90
        0
102
RTVSPost2010PropOp40
 70
     1
102
RTVSPost2010Prop41ColorIndex
 90
       18
102
RTVSPost2010Prop41ColorRGB
 90
        0
102
RTVSPost2010PropOp41
 70
     1
102
RTVSPost2010Prop42
 90
       50
102
RTVSPost2010PropOp42
 70
     1
102
RTVSPost2010Prop43
 90
        3
102
RTVSPost2010PropOp43
 70
     1
102
RTVSPost2010Prop44ColorIndex
 90
        5
102
RTVSPost2010Prop44ColorRGB
 90
      255
102
RTVSPost2010PropOp44
 70
     1
102
RTVSPost2010Prop45
280
     0
102
RTVSPost2010PropOp45
 70
     1
102
RTVSPost2010Prop46
 90
       50
102
RTVSPost2010PropOp46
 70
     1
102
RTVSPost2010Prop47
 90
       50
102
RTVSPost2010PropOp47
 70
     1
102
RTVSPost2010Prop48
 90
       50
102
RTVSPost2010PropOp48
 70
     1
102
RTVSPost2010Prop49
280
     0
102
RTVSPost2010PropOp49
 70
     1
102
RTVSPost2010Prop50
 90
       50
102
RTVSPost2010PropOp50
 70
     1
102
RTVSPost2010Prop51ColorIndex
 90
      256
102
RTVSPost2010Prop51ColorRGB
 90
-16777216
102
RTVSPost2010PropOp51
 70
     0
102
RTVSPost2010Prop52
140
1.0
102
RTVSPost2010PropOp52
 70
     0
102
RTVSPost2010Prop53
 90
        2
102
RTVSPost2010PropOp53
 70
     1
102
RTVSPost2010Prop54
  1
strokes_ogs.tif
102
RTVSPost2010PropOp54
 70
     1
102
RTVSPost2010Prop55
280
     0
102
RTVSPost2010PropOp55
 70
     1
102
RTVSPost2010Prop56
140
1.0
102
RTVSPost2010PropOp56
 70
     1
102
RTVSPost2010Prop57
140
1.0
102
RTVSPost2010PropOp57
 70
     1
102
RTVSPropertyOp0
 70
     1
102
RTVSPropertyOp1
 70
     1
102
RTVSPropertyOp2
 70
     1
102
RTVSPropertyOp3
 70
     1
102
RTVSPropertyOp4
 70
     1
102
RTVSPropertyOp5
 70
     1
102
RTVSPropertyOp6
 70
     1
102
RTVSPropertyOp7
 70
     1
102
RTVSPropertyOp8
 70
     1
102
RTVSPropertyOp9
 70
     1
102
RTVSPropertyOp10
 70
     1
102
RTVSPropertyOp11
 70
     1
102
RTVSPropertyOp12
 70
     1
102
RTVSPropertyOp13
 70
     1
102
RTVSPropertyOp14
 70
     1
102
RTVSPropertyOp15
 70
     1
102
RTVSPropertyOp16
 70
     1
102
RTVSPropertyOp17
 70
     1
102
RTVSPropertyOp18
 70
     1
102
RTVSPropertyOp19
 70
     1
102
RTVSPropertyOp20
 70
     1
102
RTVSPropertyOp21
 70
     1
102
RTVSPropertyOp22
 70
     1
102
RTVSPropertyOp23
 70
     1
102
RTVSPropertyOp24
 70
     1
102
RTVSPropertyOp25
 70
     1
102
RTVSPropertyOp26
 70
     1
102
RTVSPropertyOp27
 70
     1
102
RTVSPropertyOp28
 70
     1
102
RTVSPropertyOp29
 70
     1
102
RTVSPropertyOp30
 70
     1
102
RTVSPropertyOp31
 70
     1
102
RTVSPropertyOp32
 70
     1
102
RTVSPropertyOp33
 70
     1
102
RTVSPropertyOp34
 70
     1
102
RTVSPropertyOp35
 70
     1
102
RTVSPropertyOp36
 70
     1
102
RTVSPropertyOp37
 70
     1
102
RTVSPropertyOp38
 70
     1
102
RTVSPropertyOp39
 70
     1
102
RTVSPropertyOp40
 70
     1
102
RTVSPropertyOp41
 70
     1
102
RTVSPropertyOp42
 70
     1
102
RTVSPropertyOp43
 70
     1
102
RTVSPropertyOp44
 70
     1
102
RTVSPropertyOp45
 70
     1
102
RTVSPropertyOp46
 70
     1
102
RTVSPropertyOp47
 70
     1
102
RTVSPropertyOp48
 70
     1
102
RTVSPropertyOp49
 70
     1
102
RTVSPropertyOp50
 70
     1
102
RTVSPropertyOp51
 70
     0
102
RTVSPropertyOp52
 70
     0
102
RTVSPropertyOp53
 70
     1
102
RTVSPropertyOp54
 70
     1
102
RTVSPropertyOp55
 70
     1
102
RTVSPropertyOp56
 70
     1
102
RTVSPropertyOp57
 70
     1
102
RTVSPropertyOp58
 70
     1
102
RTVSPropertyOp59
 70
     1
102
RTVSPropertyOp60
 70
     1
102
RTVSPropertyOp61
 70
     1
102
RTVSPropertyOp62
 70
     1
  0
XRECORD
  5
397
102
{ACAD_REACTORS
330
396
102
}
330
396
100
AcDbXrecord
280
     1
102
RTVSPost2010Prop28
280
     0
102
RTVSPost2010PropOp28
 70
     0
102
RTVSPost2010Prop29
280
     1
102
RTVSPost2010PropOp29
 70
     0
102
RTVSPost2010Prop30
280
     1
102
RTVSPost2010PropOp30
 70
     0
102
RTVSPost2010Prop31
280
     0
102
RTVSPost2010PropOp31
 70
     0
102
RTVSPost2010Prop32
280
     0
102
RTVSPost2010PropOp32
 70
     0
102
RTVSPost2010Prop33
280
     0
102
RTVSPost2010PropOp33
 70
     0
102
RTVSPost2010Prop34
280
     0
102
RTVSPost2010PropOp34
 70
     0
102
RTVSPost2010Prop35
280
     0
102
RTVSPost2010PropOp35
 70
     0
102
RTVSPost2010Prop36
280
     0
102
RTVSPost2010PropOp36
 70
     0
102
RTVSPost2010Prop37
 90
       50
102
RTVSPost2010PropOp37
 70
     0
102
RTVSPost2010Prop38
140
0.0
102
RTVSPost2010PropOp38
 70
     0
102
RTVSPost2010Prop39
140
1.0
102
RTVSPost2010PropOp39
 70
     0
102
RTVSPost2010Prop40
 90
        0
102
RTVSPost2010PropOp40
 70
     0
102
RTVSPost2010Prop41ColorIndex
 90
       18
102
RTVSPost2010Prop41ColorRGB
 90
        0
102
RTVSPost2010PropOp41
 70
     0
102
RTVSPost2010Prop42
 90
       50
102
RTVSPost2010PropOp42
 70
     0
102
RTVSPost2010Prop43
 90
        3
102
RTVSPost2010PropOp43
 70
     0
102
RTVSPost2010Prop44ColorIndex
 90
        5
102
RTVSPost2010Prop44ColorRGB
 90
      255
102
RTVSPost2010PropOp44
 70
     0
102
RTVSPost2010Prop45
280
     0
102
RTVSPost2010PropOp45
 70
     0
102
RTVSPost2010Prop46
 90
       50
102
RTVSPost2010PropOp46
 70
     0
102
RTVSPost2010Prop47
 90
       50
102
RTVSPost2010PropOp47
 70
     0
102
RTVSPost2010Prop48
 90
       50
102
RTVSPost2010PropOp48
 70
     0
102
RTVSPost2010Prop49
280
     0
102
RTVSPost2010PropOp49
 70
     0
102
RTVSPost2010Prop50
 90
       50
102
RTVSPost2010PropOp50
 70
     0
102
RTVSPost2010Prop51ColorIndex
 90
      256
102
RTVSPost2010Prop51ColorRGB
 90
-16777216
102
RTVSPost2010PropOp51
 70
     0
102
RTVSPost2010Prop52
140
1.0
102
RTVSPost2010PropOp52
 70
     0
102
RTVSPost2010Prop53
 90
        2
102
RTVSPost2010PropOp53
 70
     0
102
RTVSPost2010Prop54
  1
strokes_ogs.tif
102
RTVSPost2010PropOp54
 70
     0
102
RTVSPost2010Prop55
280
     0
102
RTVSPost2010PropOp55
 70
     0
102
RTVSPost2010Prop56
140
1.0
102
RTVSPost2010PropOp56
 70
     0
102
RTVSPost2010Prop57
140
1.0
102
RTVSPost2010PropOp57
 70
     0
102
RTVSPropertyOp0
 70
     0
102
RTVSPropertyOp1
 70
     0
102
RTVSPropertyOp2
 70
     0
102
RTVSPropertyOp3
 70
     0
102
RTVSPropertyOp4
 70
     0
102
RTVSPropertyOp5
 70
     0
102
RTVSPropertyOp6
 70
     0
102
RTVSPropertyOp7
 70
     0
102
RTVSPropertyOp8
 70
     0
102
RTVSPropertyOp9
 70
     0
102
RTVSPropertyOp10
 70
     0
102
RTVSPropertyOp11
 70
     0
102
RTVSPropertyOp12
 70
     0
102
RTVSPropertyOp13
 70
     0
102
RTVSPropertyOp14
 70
     2
102
RTVSPropertyOp15
 70
     0
102
RTVSPropertyOp16
 70
     0
102
RTVSPropertyOp17
 70
     0
102
RTVSPropertyOp18
 70
     0
102
RTVSPropertyOp19
 70
     0
102
RTVSPropertyOp20
 70
     0
102
RTVSPropertyOp21
 70
     0
102
RTVSPropertyOp22
 70
     0
102
RTVSPropertyOp23
 70
     0
102
RTVSPropertyOp24
 70
     0
102
RTVSPropertyOp25
 70
     0
102
RTVSPropertyOp26
 70
     0
102
RTVSPropertyOp27
 70
     0
102
RTVSPropertyOp28
 70
     0
102
RTVSPropertyOp29
 70
     0
102
RTVSPropertyOp30
 70
     0
102
RTVSPropertyOp31
 70
     0
102
RTVSPropertyOp32
 70
     0
102
RTVSPropertyOp33
 70
     0
102
RTVSPropertyOp34
 70
     0
102
RTVSPropertyOp35
 70
     0
102
RTVSPropertyOp36
 70
     0
102
RTVSPropertyOp37
 70
     0
102
RTVSPropertyOp38
 70
     0
102
RTVSPropertyOp39
 70
     0
102
RTVSPropertyOp40
 70
     0
102
RTVSPropertyOp41
 70
     0
102
RTVSPropertyOp42
 70
     0
102
RTVSPropertyOp43
 70
     0
102
RTVSPropertyOp44
 70
     0
102
RTVSPropertyOp45
 70
     0
102
RTVSPropertyOp46
 70
     0
102
RTVSPropertyOp47
 70
     0
102
RTVSPropertyOp48
 70
     0
102
RTVSPropertyOp49
 70
     0
102
RTVSPropertyOp50
 70
     0
102
RTVSPropertyOp51
 70
     0
102
RTVSPropertyOp52
 70
     0
102
RTVSPropertyOp53
 70
     0
102
RTVSPropertyOp54
 70
     0
102
RTVSPropertyOp55
 70
     0
102
RTVSPropertyOp56
 70
     0
102
RTVSPropertyOp57
 70
     0
102
RTVSPropertyOp58
 70
     1
102
RTVSPropertyOp59
 70
     1
102
RTVSPropertyOp60
 70
     1
102
RTVSPropertyOp61
 70
     1
102
RTVSPropertyOp62
 70
     1
  0
XRECORD
  5
385
102
{ACAD_REACTORS
330
384
102
}
330
384
100
AcDbXrecord
280
     1
102
RTVSPost2010Prop28
280
     0
102
RTVSPost2010PropOp28
 70
     1
102
RTVSPost2010Prop29
280
     1
102
RTVSPost2010PropOp29
 70
     1
102
RTVSPost2010Prop30
280
     1
102
RTVSPost2010PropOp30
 70
     1
102
RTVSPost2010Prop31
280
     0
102
RTVSPost2010PropOp31
 70
     1
102
RTVSPost2010Prop32
280
     0
102
RTVSPost2010PropOp32
 70
     1
102
RTVSPost2010Prop33
280
     0
102
RTVSPost2010PropOp33
 70
     1
102
RTVSPost2010Prop34
280
     0
102
RTVSPost2010PropOp34
 70
     1
102
RTVSPost2010Prop35
280
     0
102
RTVSPost2010PropOp35
 70
     1
102
RTVSPost2010Prop36
280
     0
102
RTVSPost2010PropOp36
 70
     1
102
RTVSPost2010Prop37
 90
       50
102
RTVSPost2010PropOp37
 70
     1
102
RTVSPost2010Prop38
140
0.0
102
RTVSPost2010PropOp38
 70
     1
102
RTVSPost2010Prop39
140
1.0
102
RTVSPost2010PropOp39
 70
     1
102
RTVSPost2010Prop40
 90
        0
102
RTVSPost2010PropOp40
 70
     1
102
RTVSPost2010Prop41ColorIndex
 90
       18
102
RTVSPost2010Prop41ColorRGB
 90
        0
102
RTVSPost2010PropOp41
 70
     1
102
RTVSPost2010Prop42
 90
       50
102
RTVSPost2010PropOp42
 70
     1
102
RTVSPost2010Prop43
 90
        3
102
RTVSPost2010PropOp43
 70
     1
102
RTVSPost2010Prop44ColorIndex
 90
        5
102
RTVSPost2010Prop44ColorRGB
 90
      255
102
RTVSPost2010PropOp44
 70
     1
102
RTVSPost2010Prop45
280
     0
102
RTVSPost2010PropOp45
 70
     1
102
RTVSPost2010Prop46
 90
       50
102
RTVSPost2010PropOp46
 70
     1
102
RTVSPost2010Prop47
 90
       50
102
RTVSPost2010PropOp47
 70
     1
102
RTVSPost2010Prop48
 90
       50
102
RTVSPost2010PropOp48
 70
     1
102
RTVSPost2010Prop49
280
     0
102
RTVSPost2010PropOp49
 70
     1
102
RTVSPost2010Prop50
 90
       50
102
RTVSPost2010PropOp50
 70
     1
102
RTVSPost2010Prop51ColorIndex
 90
      256
102
RTVSPost2010Prop51ColorRGB
 90
-16777216
102
RTVSPost2010PropOp51
 70
     0
102
RTVSPost2010Prop52
140
1.0
102
RTVSPost2010PropOp52
 70
     0
102
RTVSPost2010Prop53
 90
        2
102
RTVSPost2010PropOp53
 70
     1
102
RTVSPost2010Prop54
  1
strokes_ogs.tif
102
RTVSPost2010PropOp54
 70
     1
102
RTVSPost2010Prop55
280
     0
102
RTVSPost2010PropOp55
 70
     1
102
RTVSPost2010Prop56
140
1.0
102
RTVSPost2010PropOp56
 70
     1
102
RTVSPost2010Prop57
140
1.0
102
RTVSPost2010PropOp57
 70
     1
102
RTVSPropertyOp0
 70
     1
102
RTVSPropertyOp1
 70
     1
102
RTVSPropertyOp2
 70
     1
102
RTVSPropertyOp3
 70
     1
102
RTVSPropertyOp4
 70
     1
102
RTVSPropertyOp5
 70
     1
102
RTVSPropertyOp6
 70
     1
102
RTVSPropertyOp7
 70
     1
102
RTVSPropertyOp8
 70
     1
102
RTVSPropertyOp9
 70
     1
102
RTVSPropertyOp10
 70
     1
102
RTVSPropertyOp11
 70
     1
102
RTVSPropertyOp12
 70
     1
102
RTVSPropertyOp13
 70
     1
102
RTVSPropertyOp14
 70
     1
102
RTVSPropertyOp15
 70
     1
102
RTVSPropertyOp16
 70
     1
102
RTVSPropertyOp17
 70
     1
102
RTVSPropertyOp18
 70
     1
102
RTVSPropertyOp19
 70
     1
102
RTVSPropertyOp20
 70
     1
102
RTVSPropertyOp21
 70
     1
102
RTVSPropertyOp22
 70
     1
102
RTVSPropertyOp23
 70
     1
102
RTVSPropertyOp24
 70
     1
102
RTVSPropertyOp25
 70
     1
102
RTVSPropertyOp26
 70
     1
102
RTVSPropertyOp27
 70
     1
102
RTVSPropertyOp28
 70
     1
102
RTVSPropertyOp29
 70
     1
102
RTVSPropertyOp30
 70
     1
102
RTVSPropertyOp31
 70
     1
102
RTVSPropertyOp32
 70
     1
102
RTVSPropertyOp33
 70
     1
102
RTVSPropertyOp34
 70
     1
102
RTVSPropertyOp35
 70
     1
102
RTVSPropertyOp36
 70
     1
102
RTVSPropertyOp37
 70
     1
102
RTVSPropertyOp38
 70
     1
102
RTVSPropertyOp39
 70
     1
102
RTVSPropertyOp40
 70
     1
102
RTVSPropertyOp41
 70
     1
102
RTVSPropertyOp42
 70
     1
102
RTVSPropertyOp43
 70
     1
102
RTVSPropertyOp44
 70
     1
102
RTVSPropertyOp45
 70
     1
102
RTVSPropertyOp46
 70
     1
102
RTVSPropertyOp47
 70
     1
102
RTVSPropertyOp48
 70
     1
102
RTVSPropertyOp49
 70
     1
102
RTVSPropertyOp50
 70
     1
102
RTVSPropertyOp51
 70
     0
102
RTVSPropertyOp52
 70
     0
102
RTVSPropertyOp53
 70
     1
102
RTVSPropertyOp54
 70
     1
102
RTVSPropertyOp55
 70
     1
102
RTVSPropertyOp56
 70
     1
102
RTVSPropertyOp57
 70
     1
102
RTVSPropertyOp58
 70
     1
102
RTVSPropertyOp59
 70
     1
102
RTVSPropertyOp60
 70
     1
102
RTVSPropertyOp61
 70
     1
102
RTVSPropertyOp62
 70
     1
  0
XRECORD
  5
3A3
102
{ACAD_REACTORS
330
3A2
102
}
330
3A2
100
AcDbXrecord
280
     1
102
RTVSPost2010Prop28
280
     0
102
RTVSPost2010PropOp28
 70
     1
102
RTVSPost2010Prop29
280
     1
102
RTVSPost2010PropOp29
 70
     1
102
RTVSPost2010Prop30
280
     1
102
RTVSPost2010PropOp30
 70
     1
102
RTVSPost2010Prop31
280
     0
102
RTVSPost2010PropOp31
 70
     1
102
RTVSPost2010Prop32
280
     0
102
RTVSPost2010PropOp32
 70
     1
102
RTVSPost2010Prop33
280
     0
102
RTVSPost2010PropOp33
 70
     1
102
RTVSPost2010Prop34
280
     0
102
RTVSPost2010PropOp34
 70
     1
102
RTVSPost2010Prop35
280
     0
102
RTVSPost2010PropOp35
 70
     1
102
RTVSPost2010Prop36
280
     0
102
RTVSPost2010PropOp36
 70
     1
102
RTVSPost2010Prop37
 90
       50
102
RTVSPost2010PropOp37
 70
     1
102
RTVSPost2010Prop38
140
0.0
102
RTVSPost2010PropOp38
 70
     1
102
RTVSPost2010Prop39
140
1.0
102
RTVSPost2010PropOp39
 70
     1
102
RTVSPost2010Prop40
 90
        0
102
RTVSPost2010PropOp40
 70
     1
102
RTVSPost2010Prop41ColorIndex
 90
       18
102
RTVSPost2010Prop41ColorRGB
 90
        0
102
RTVSPost2010PropOp41
 70
     1
102
RTVSPost2010Prop42
 90
       50
102
RTVSPost2010PropOp42
 70
     1
102
RTVSPost2010Prop43
 90
        3
102
RTVSPost2010PropOp43
 70
     1
102
RTVSPost2010Prop44ColorIndex
 90
        5
102
RTVSPost2010Prop44ColorRGB
 90
      255
102
RTVSPost2010PropOp44
 70
     1
102
RTVSPost2010Prop45
280
     0
102
RTVSPost2010PropOp45
 70
     1
102
RTVSPost2010Prop46
 90
       50
102
RTVSPost2010PropOp46
 70
     1
102
RTVSPost2010Prop47
 90
       50
102
RTVSPost2010PropOp47
 70
     1
102
RTVSPost2010Prop48
 90
       50
102
RTVSPost2010PropOp48
 70
     1
102
RTVSPost2010Prop49
280
     0
102
RTVSPost2010PropOp49
 70
     1
102
RTVSPost2010Prop50
 90
       50
102
RTVSPost2010PropOp50
 70
     1
102
RTVSPost2010Prop51ColorIndex
 90
      256
102
RTVSPost2010Prop51ColorRGB
 90
-16777216
102
RTVSPost2010PropOp51
 70
     0
102
RTVSPost2010Prop52
140
1.0
102
RTVSPost2010PropOp52
 70
     0
102
RTVSPost2010Prop53
 90
        2
102
RTVSPost2010PropOp53
 70
     1
102
RTVSPost2010Prop54
  1
strokes_ogs.tif
102
RTVSPost2010PropOp54
 70
     1
102
RTVSPost2010Prop55
280
     0
102
RTVSPost2010PropOp55
 70
     1
102
RTVSPost2010Prop56
140
1.0
102
RTVSPost2010PropOp56
 70
     1
102
RTVSPost2010Prop57
140
1.0
102
RTVSPost2010PropOp57
 70
     1
102
RTVSPropertyOp0
 70
     1
102
RTVSPropertyOp1
 70
     1
102
RTVSPropertyOp2
 70
     1
102
RTVSPropertyOp3
 70
     1
102
RTVSPropertyOp4
 70
     1
102
RTVSPropertyOp5
 70
     1
102
RTVSPropertyOp6
 70
     1
102
RTVSPropertyOp7
 70
     1
102
RTVSPropertyOp8
 70
     1
102
RTVSPropertyOp9
 70
     1
102
RTVSPropertyOp10
 70
     1
102
RTVSPropertyOp11
 70
     1
102
RTVSPropertyOp12
 70
     1
102
RTVSPropertyOp13
 70
     1
102
RTVSPropertyOp14
 70
     1
102
RTVSPropertyOp15
 70
     1
102
RTVSPropertyOp16
 70
     1
102
RTVSPropertyOp17
 70
     1
102
RTVSPropertyOp18
 70
     1
102
RTVSPropertyOp19
 70
     1
102
RTVSPropertyOp20
 70
     1
102
RTVSPropertyOp21
 70
     1
102
RTVSPropertyOp22
 70
     1
102
RTVSPropertyOp23
 70
     1
102
RTVSPropertyOp24
 70
     1
102
RTVSPropertyOp25
 70
     1
102
RTVSPropertyOp26
 70
     1
102
RTVSPropertyOp27
 70
     1
102
RTVSPropertyOp28
 70
     1
102
RTVSPropertyOp29
 70
     1
102
RTVSPropertyOp30
 70
     1
102
RTVSPropertyOp31
 70
     1
102
RTVSPropertyOp32
 70
     1
102
RTVSPropertyOp33
 70
     1
102
RTVSPropertyOp34
 70
     1
102
RTVSPropertyOp35
 70
     1
102
RTVSPropertyOp36
 70
     1
102
RTVSPropertyOp37
 70
     1
102
RTVSPropertyOp38
 70
     1
102
RTVSPropertyOp39
 70
     1
102
RTVSPropertyOp40
 70
     1
102
RTVSPropertyOp41
 70
     1
102
RTVSPropertyOp42
 70
     1
102
RTVSPropertyOp43
 70
     1
102
RTVSPropertyOp44
 70
     1
102
RTVSPropertyOp45
 70
     1
102
RTVSPropertyOp46
 70
     1
102
RTVSPropertyOp47
 70
     1
102
RTVSPropertyOp48
 70
     1
102
RTVSPropertyOp49
 70
     1
102
RTVSPropertyOp50
 70
     1
102
RTVSPropertyOp51
 70
     0
102
RTVSPropertyOp52
 70
     0
102
RTVSPropertyOp53
 70
     1
102
RTVSPropertyOp54
 70
     1
102
RTVSPropertyOp55
 70
     1
102
RTVSPropertyOp56
 70
     1
102
RTVSPropertyOp57
 70
     1
102
RTVSPropertyOp58
 70
     1
102
RTVSPropertyOp59
 70
     1
102
RTVSPropertyOp60
 70
     1
102
RTVSPropertyOp61
 70
     1
102
RTVSPropertyOp62
 70
     1
  0
XRECORD
  5
3A1
102
{ACAD_REACTORS
330
3A0
102
}
330
3A0
100
AcDbXrecord
280
     1
102
RTVSPost2010Prop28
280
     0
102
RTVSPost2010PropOp28
 70
     1
102
RTVSPost2010Prop29
280
     1
102
RTVSPost2010PropOp29
 70
     1
102
RTVSPost2010Prop30
280
     1
102
RTVSPost2010PropOp30
 70
     1
102
RTVSPost2010Prop31
280
     0
102
RTVSPost2010PropOp31
 70
     1
102
RTVSPost2010Prop32
280
     0
102
RTVSPost2010PropOp32
 70
     1
102
RTVSPost2010Prop33
280
     0
102
RTVSPost2010PropOp33
 70
     1
102
RTVSPost2010Prop34
280
     0
102
RTVSPost2010PropOp34
 70
     1
102
RTVSPost2010Prop35
280
     0
102
RTVSPost2010PropOp35
 70
     1
102
RTVSPost2010Prop36
280
     0
102
RTVSPost2010PropOp36
 70
     1
102
RTVSPost2010Prop37
 90
       50
102
RTVSPost2010PropOp37
 70
     1
102
RTVSPost2010Prop38
140
0.0
102
RTVSPost2010PropOp38
 70
     1
102
RTVSPost2010Prop39
140
1.0
102
RTVSPost2010PropOp39
 70
     1
102
RTVSPost2010Prop40
 90
        0
102
RTVSPost2010PropOp40
 70
     1
102
RTVSPost2010Prop41ColorIndex
 90
       18
102
RTVSPost2010Prop41ColorRGB
 90
        0
102
RTVSPost2010PropOp41
 70
     1
102
RTVSPost2010Prop42
 90
       50
102
RTVSPost2010PropOp42
 70
     1
102
RTVSPost2010Prop43
 90
        3
102
RTVSPost2010PropOp43
 70
     1
102
RTVSPost2010Prop44ColorIndex
 90
        5
102
RTVSPost2010Prop44ColorRGB
 90
      255
102
RTVSPost2010PropOp44
 70
     1
102
RTVSPost2010Prop45
280
     0
102
RTVSPost2010PropOp45
 70
     1
102
RTVSPost2010Prop46
 90
       50
102
RTVSPost2010PropOp46
 70
     1
102
RTVSPost2010Prop47
 90
       50
102
RTVSPost2010PropOp47
 70
     1
102
RTVSPost2010Prop48
 90
       50
102
RTVSPost2010PropOp48
 70
     1
102
RTVSPost2010Prop49
280
     0
102
RTVSPost2010PropOp49
 70
     1
102
RTVSPost2010Prop50
 90
       50
102
RTVSPost2010PropOp50
 70
     1
102
RTVSPost2010Prop51ColorIndex
 90
      256
102
RTVSPost2010Prop51ColorRGB
 90
-16777216
102
RTVSPost2010PropOp51
 70
     0
102
RTVSPost2010Prop52
140
1.0
102
RTVSPost2010PropOp52
 70
     0
102
RTVSPost2010Prop53
 90
        2
102
RTVSPost2010PropOp53
 70
     1
102
RTVSPost2010Prop54
  1
strokes_ogs.tif
102
RTVSPost2010PropOp54
 70
     1
102
RTVSPost2010Prop55
280
     0
102
RTVSPost2010PropOp55
 70
     1
102
RTVSPost2010Prop56
140
1.0
102
RTVSPost2010PropOp56
 70
     1
102
RTVSPost2010Prop57
140
1.0
102
RTVSPost2010PropOp57
 70
     1
102
RTVSPropertyOp0
 70
     1
102
RTVSPropertyOp1
 70
     1
102
RTVSPropertyOp2
 70
     1
102
RTVSPropertyOp3
 70
     1
102
RTVSPropertyOp4
 70
     1
102
RTVSPropertyOp5
 70
     1
102
RTVSPropertyOp6
 70
     1
102
RTVSPropertyOp7
 70
     1
102
RTVSPropertyOp8
 70
     1
102
RTVSPropertyOp9
 70
     1
102
RTVSPropertyOp10
 70
     1
102
RTVSPropertyOp11
 70
     1
102
RTVSPropertyOp12
 70
     1
102
RTVSPropertyOp13
 70
     1
102
RTVSPropertyOp14
 70
     1
102
RTVSPropertyOp15
 70
     1
102
RTVSPropertyOp16
 70
     1
102
RTVSPropertyOp17
 70
     1
102
RTVSPropertyOp18
 70
     1
102
RTVSPropertyOp19
 70
     1
102
RTVSPropertyOp20
 70
     1
102
RTVSPropertyOp21
 70
     1
102
RTVSPropertyOp22
 70
     1
102
RTVSPropertyOp23
 70
     1
102
RTVSPropertyOp24
 70
     1
102
RTVSPropertyOp25
 70
     1
102
RTVSPropertyOp26
 70
     1
102
RTVSPropertyOp27
 70
     1
102
RTVSPropertyOp28
 70
     1
102
RTVSPropertyOp29
 70
     1
102
RTVSPropertyOp30
 70
     1
102
RTVSPropertyOp31
 70
     1
102
RTVSPropertyOp32
 70
     1
102
RTVSPropertyOp33
 70
     1
102
RTVSPropertyOp34
 70
     1
102
RTVSPropertyOp35
 70
     1
102
RTVSPropertyOp36
 70
     1
102
RTVSPropertyOp37
 70
     1
102
RTVSPropertyOp38
 70
     1
102
RTVSPropertyOp39
 70
     1
102
RTVSPropertyOp40
 70
     1
102
RTVSPropertyOp41
 70
     1
102
RTVSPropertyOp42
 70
     1
102
RTVSPropertyOp43
 70
     1
102
RTVSPropertyOp44
 70
     1
102
RTVSPropertyOp45
 70
     1
102
RTVSPropertyOp46
 70
     1
102
RTVSPropertyOp47
 70
     1
102
RTVSPropertyOp48
 70
     1
102
RTVSPropertyOp49
 70
     1
102
RTVSPropertyOp50
 70
     1
102
RTVSPropertyOp51
 70
     0
102
RTVSPropertyOp52
 70
     0
102
RTVSPropertyOp53
 70
     1
102
RTVSPropertyOp54
 70
     1
102
RTVSPropertyOp55
 70
     1
102
RTVSPropertyOp56
 70
     1
102
RTVSPropertyOp57
 70
     1
102
RTVSPropertyOp58
 70
     1
102
RTVSPropertyOp59
 70
     1
102
RTVSPropertyOp60
 70
     1
102
RTVSPropertyOp61
 70
     1
102
RTVSPropertyOp62
 70
     1
  0
XRECORD
  5
39B
102
{ACAD_REACTORS
330
39A
102
}
330
39A
100
AcDbXrecord
280
     1
102
RTVSPost2010Prop28
280
     0
102
RTVSPost2010PropOp28
 70
     1
102
RTVSPost2010Prop29
280
     1
102
RTVSPost2010PropOp29
 70
     1
102
RTVSPost2010Prop30
280
     1
102
RTVSPost2010PropOp30
 70
     1
102
RTVSPost2010Prop31
280
     0
102
RTVSPost2010PropOp31
 70
     1
102
RTVSPost2010Prop32
280
     0
102
RTVSPost2010PropOp32
 70
     1
102
RTVSPost2010Prop33
280
     0
102
RTVSPost2010PropOp33
 70
     1
102
RTVSPost2010Prop34
280
     0
102
RTVSPost2010PropOp34
 70
     1
102
RTVSPost2010Prop35
280
     0
102
RTVSPost2010PropOp35
 70
     1
102
RTVSPost2010Prop36
280
     0
102
RTVSPost2010PropOp36
 70
     1
102
RTVSPost2010Prop37
 90
       50
102
RTVSPost2010PropOp37
 70
     1
102
RTVSPost2010Prop38
140
0.0
102
RTVSPost2010PropOp38
 70
     1
102
RTVSPost2010Prop39
140
1.0
102
RTVSPost2010PropOp39
 70
     1
102
RTVSPost2010Prop40
 90
        0
102
RTVSPost2010PropOp40
 70
     1
102
RTVSPost2010Prop41ColorIndex
 90
       18
102
RTVSPost2010Prop41ColorRGB
 90
        0
102
RTVSPost2010PropOp41
 70
     1
102
RTVSPost2010Prop42
 90
       50
102
RTVSPost2010PropOp42
 70
     1
102
RTVSPost2010Prop43
 90
        3
102
RTVSPost2010PropOp43
 70
     1
102
RTVSPost2010Prop44ColorIndex
 90
        5
102
RTVSPost2010Prop44ColorRGB
 90
      255
102
RTVSPost2010PropOp44
 70
     1
102
RTVSPost2010Prop45
280
     0
102
RTVSPost2010PropOp45
 70
     1
102
RTVSPost2010Prop46
 90
       50
102
RTVSPost2010PropOp46
 70
     1
102
RTVSPost2010Prop47
 90
       50
102
RTVSPost2010PropOp47
 70
     1
102
RTVSPost2010Prop48
 90
       50
102
RTVSPost2010PropOp48
 70
     1
102
RTVSPost2010Prop49
280
     0
102
RTVSPost2010PropOp49
 70
     1
102
RTVSPost2010Prop50
 90
       50
102
RTVSPost2010PropOp50
 70
     1
102
RTVSPost2010Prop51ColorIndex
 90
      256
102
RTVSPost2010Prop51ColorRGB
 90
-16777216
102
RTVSPost2010PropOp51
 70
     0
102
RTVSPost2010Prop52
140
1.0
102
RTVSPost2010PropOp52
 70
     0
102
RTVSPost2010Prop53
 90
        2
102
RTVSPost2010PropOp53
 70
     1
102
RTVSPost2010Prop54
  1
strokes_ogs.tif
102
RTVSPost2010PropOp54
 70
     1
102
RTVSPost2010Prop55
280
     0
102
RTVSPost2010PropOp55
 70
     1
102
RTVSPost2010Prop56
140
1.0
102
RTVSPost2010PropOp56
 70
     1
102
RTVSPost2010Prop57
140
1.0
102
RTVSPost2010PropOp57
 70
     1
102
RTVSPropertyOp0
 70
     1
102
RTVSPropertyOp1
 70
     1
102
RTVSPropertyOp2
 70
     1
102
RTVSPropertyOp3
 70
     1
102
RTVSPropertyOp4
 70
     1
102
RTVSPropertyOp5
 70
     1
102
RTVSPropertyOp6
 70
     1
102
RTVSPropertyOp7
 70
     1
102
RTVSPropertyOp8
 70
     1
102
RTVSPropertyOp9
 70
     1
102
RTVSPropertyOp10
 70
     1
102
RTVSPropertyOp11
 70
     1
102
RTVSPropertyOp12
 70
     1
102
RTVSPropertyOp13
 70
     1
102
RTVSPropertyOp14
 70
     1
102
RTVSPropertyOp15
 70
     1
102
RTVSPropertyOp16
 70
     1
102
RTVSPropertyOp17
 70
     1
102
RTVSPropertyOp18
 70
     1
102
RTVSPropertyOp19
 70
     1
102
RTVSPropertyOp20
 70
     1
102
RTVSPropertyOp21
 70
     1
102
RTVSPropertyOp22
 70
     1
102
RTVSPropertyOp23
 70
     1
102
RTVSPropertyOp24
 70
     1
102
RTVSPropertyOp25
 70
     1
102
RTVSPropertyOp26
 70
     1
102
RTVSPropertyOp27
 70
     1
102
RTVSPropertyOp28
 70
     1
102
RTVSPropertyOp29
 70
     1
102
RTVSPropertyOp30
 70
     1
102
RTVSPropertyOp31
 70
     1
102
RTVSPropertyOp32
 70
     1
102
RTVSPropertyOp33
 70
     1
102
RTVSPropertyOp34
 70
     1
102
RTVSPropertyOp35
 70
     1
102
RTVSPropertyOp36
 70
     1
102
RTVSPropertyOp37
 70
     1
102
RTVSPropertyOp38
 70
     1
102
RTVSPropertyOp39
 70
     1
102
RTVSPropertyOp40
 70
     1
102
RTVSPropertyOp41
 70
     1
102
RTVSPropertyOp42
 70
     1
102
RTVSPropertyOp43
 70
     1
102
RTVSPropertyOp44
 70
     1
102
RTVSPropertyOp45
 70
     1
102
RTVSPropertyOp46
 70
     1
102
RTVSPropertyOp47
 70
     1
102
RTVSPropertyOp48
 70
     1
102
RTVSPropertyOp49
 70
     1
102
RTVSPropertyOp50
 70
     1
102
RTVSPropertyOp51
 70
     0
102
RTVSPropertyOp52
 70
     0
102
RTVSPropertyOp53
 70
     1
102
RTVSPropertyOp54
 70
     1
102
RTVSPropertyOp55
 70
     1
102
RTVSPropertyOp56
 70
     1
102
RTVSPropertyOp57
 70
     1
102
RTVSPropertyOp58
 70
     1
102
RTVSPropertyOp59
 70
     1
102
RTVSPropertyOp60
 70
     1
102
RTVSPropertyOp61
 70
     1
102
RTVSPropertyOp62
 70
     1
  0
XRECORD
  5
39D
102
{ACAD_REACTORS
330
39C
102
}
330
39C
100
AcDbXrecord
280
     1
102
RTVSPost2010Prop28
280
     0
102
RTVSPost2010PropOp28
 70
     1
102
RTVSPost2010Prop29
280
     1
102
RTVSPost2010PropOp29
 70
     1
102
RTVSPost2010Prop30
280
     1
102
RTVSPost2010PropOp30
 70
     1
102
RTVSPost2010Prop31
280
     0
102
RTVSPost2010PropOp31
 70
     1
102
RTVSPost2010Prop32
280
     0
102
RTVSPost2010PropOp32
 70
     1
102
RTVSPost2010Prop33
280
     0
102
RTVSPost2010PropOp33
 70
     1
102
RTVSPost2010Prop34
280
     0
102
RTVSPost2010PropOp34
 70
     1
102
RTVSPost2010Prop35
280
     0
102
RTVSPost2010PropOp35
 70
     1
102
RTVSPost2010Prop36
280
     0
102
RTVSPost2010PropOp36
 70
     1
102
RTVSPost2010Prop37
 90
       50
102
RTVSPost2010PropOp37
 70
     1
102
RTVSPost2010Prop38
140
0.0
102
RTVSPost2010PropOp38
 70
     1
102
RTVSPost2010Prop39
140
1.0
102
RTVSPost2010PropOp39
 70
     1
102
RTVSPost2010Prop40
 90
        0
102
RTVSPost2010PropOp40
 70
     1
102
RTVSPost2010Prop41ColorIndex
 90
       18
102
RTVSPost2010Prop41ColorRGB
 90
        0
102
RTVSPost2010PropOp41
 70
     1
102
RTVSPost2010Prop42
 90
       50
102
RTVSPost2010PropOp42
 70
     1
102
RTVSPost2010Prop43
 90
        3
102
RTVSPost2010PropOp43
 70
     1
102
RTVSPost2010Prop44ColorIndex
 90
        5
102
RTVSPost2010Prop44ColorRGB
 90
      255
102
RTVSPost2010PropOp44
 70
     1
102
RTVSPost2010Prop45
280
     0
102
RTVSPost2010PropOp45
 70
     1
102
RTVSPost2010Prop46
 90
       50
102
RTVSPost2010PropOp46
 70
     1
102
RTVSPost2010Prop47
 90
       50
102
RTVSPost2010PropOp47
 70
     1
102
RTVSPost2010Prop48
 90
       50
102
RTVSPost2010PropOp48
 70
     1
102
RTVSPost2010Prop49
280
     0
102
RTVSPost2010PropOp49
 70
     1
102
RTVSPost2010Prop50
 90
       50
102
RTVSPost2010PropOp50
 70
     1
102
RTVSPost2010Prop51ColorIndex
 90
      256
102
RTVSPost2010Prop51ColorRGB
 90
-16777216
102
RTVSPost2010PropOp51
 70
     0
102
RTVSPost2010Prop52
140
1.0
102
RTVSPost2010PropOp52
 70
     0
102
RTVSPost2010Prop53
 90
        2
102
RTVSPost2010PropOp53
 70
     1
102
RTVSPost2010Prop54
  1
strokes_ogs.tif
102
RTVSPost2010PropOp54
 70
     1
102
RTVSPost2010Prop55
280
     0
102
RTVSPost2010PropOp55
 70
     1
102
RTVSPost2010Prop56
140
1.0
102
RTVSPost2010PropOp56
 70
     1
102
RTVSPost2010Prop57
140
1.0
102
RTVSPost2010PropOp57
 70
     1
102
RTVSPropertyOp0
 70
     1
102
RTVSPropertyOp1
 70
     1
102
RTVSPropertyOp2
 70
     1
102
RTVSPropertyOp3
 70
     1
102
RTVSPropertyOp4
 70
     1
102
RTVSPropertyOp5
 70
     1
102
RTVSPropertyOp6
 70
     1
102
RTVSPropertyOp7
 70
     1
102
RTVSPropertyOp8
 70
     1
102
RTVSPropertyOp9
 70
     1
102
RTVSPropertyOp10
 70
     1
102
RTVSPropertyOp11
 70
     1
102
RTVSPropertyOp12
 70
     1
102
RTVSPropertyOp13
 70
     1
102
RTVSPropertyOp14
 70
     1
102
RTVSPropertyOp15
 70
     1
102
RTVSPropertyOp16
 70
     1
102
RTVSPropertyOp17
 70
     1
102
RTVSPropertyOp18
 70
     1
102
RTVSPropertyOp19
 70
     1
102
RTVSPropertyOp20
 70
     1
102
RTVSPropertyOp21
 70
     1
102
RTVSPropertyOp22
 70
     1
102
RTVSPropertyOp23
 70
     1
102
RTVSPropertyOp24
 70
     1
102
RTVSPropertyOp25
 70
     1
102
RTVSPropertyOp26
 70
     1
102
RTVSPropertyOp27
 70
     1
102
RTVSPropertyOp28
 70
     1
102
RTVSPropertyOp29
 70
     1
102
RTVSPropertyOp30
 70
     1
102
RTVSPropertyOp31
 70
     1
102
RTVSPropertyOp32
 70
     1
102
RTVSPropertyOp33
 70
     1
102
RTVSPropertyOp34
 70
     1
102
RTVSPropertyOp35
 70
     1
102
RTVSPropertyOp36
 70
     1
102
RTVSPropertyOp37
 70
     1
102
RTVSPropertyOp38
 70
     1
102
RTVSPropertyOp39
 70
     1
102
RTVSPropertyOp40
 70
     1
102
RTVSPropertyOp41
 70
     1
102
RTVSPropertyOp42
 70
     1
102
RTVSPropertyOp43
 70
     1
102
RTVSPropertyOp44
 70
     1
102
RTVSPropertyOp45
 70
     1
102
RTVSPropertyOp46
 70
     1
102
RTVSPropertyOp47
 70
     1
102
RTVSPropertyOp48
 70
     1
102
RTVSPropertyOp49
 70
     1
102
RTVSPropertyOp50
 70
     1
102
RTVSPropertyOp51
 70
     0
102
RTVSPropertyOp52
 70
     0
102
RTVSPropertyOp53
 70
     1
102
RTVSPropertyOp54
 70
     1
102
RTVSPropertyOp55
 70
     1
102
RTVSPropertyOp56
 70
     1
102
RTVSPropertyOp57
 70
     1
102
RTVSPropertyOp58
 70
     1
102
RTVSPropertyOp59
 70
     1
102
RTVSPropertyOp60
 70
     1
102
RTVSPropertyOp61
 70
     1
102
RTVSPropertyOp62
 70
     1
  0
XRECORD
  5
38D
102
{ACAD_REACTORS
330
38C
102
}
330
38C
100
AcDbXrecord
280
     1
102
RTVSPost2010Prop28
280
     0
102
RTVSPost2010PropOp28
 70
     1
102
RTVSPost2010Prop29
280
     1
102
RTVSPost2010PropOp29
 70
     1
102
RTVSPost2010Prop30
280
     1
102
RTVSPost2010PropOp30
 70
     1
102
RTVSPost2010Prop31
280
     0
102
RTVSPost2010PropOp31
 70
     1
102
RTVSPost2010Prop32
280
     0
102
RTVSPost2010PropOp32
 70
     1
102
RTVSPost2010Prop33
280
     0
102
RTVSPost2010PropOp33
 70
     1
102
RTVSPost2010Prop34
280
     0
102
RTVSPost2010PropOp34
 70
     1
102
RTVSPost2010Prop35
280
     0
102
RTVSPost2010PropOp35
 70
     1
102
RTVSPost2010Prop36
280
     0
102
RTVSPost2010PropOp36
 70
     1
102
RTVSPost2010Prop37
 90
       50
102
RTVSPost2010PropOp37
 70
     1
102
RTVSPost2010Prop38
140
0.0
102
RTVSPost2010PropOp38
 70
     1
102
RTVSPost2010Prop39
140
1.0
102
RTVSPost2010PropOp39
 70
     1
102
RTVSPost2010Prop40
 90
        0
102
RTVSPost2010PropOp40
 70
     1
102
RTVSPost2010Prop41ColorIndex
 90
       18
102
RTVSPost2010Prop41ColorRGB
 90
        0
102
RTVSPost2010PropOp41
 70
     1
102
RTVSPost2010Prop42
 90
       50
102
RTVSPost2010PropOp42
 70
     1
102
RTVSPost2010Prop43
 90
        3
102
RTVSPost2010PropOp43
 70
     1
102
RTVSPost2010Prop44ColorIndex
 90
        5
102
RTVSPost2010Prop44ColorRGB
 90
      255
102
RTVSPost2010PropOp44
 70
     1
102
RTVSPost2010Prop45
280
     0
102
RTVSPost2010PropOp45
 70
     1
102
RTVSPost2010Prop46
 90
       50
102
RTVSPost2010PropOp46
 70
     1
102
RTVSPost2010Prop47
 90
       50
102
RTVSPost2010PropOp47
 70
     1
102
RTVSPost2010Prop48
 90
       50
102
RTVSPost2010PropOp48
 70
     1
102
RTVSPost2010Prop49
280
     0
102
RTVSPost2010PropOp49
 70
     1
102
RTVSPost2010Prop50
 90
       50
102
RTVSPost2010PropOp50
 70
     1
102
RTVSPost2010Prop51ColorIndex
 90
      256
102
RTVSPost2010Prop51ColorRGB
 90
-16777216
102
RTVSPost2010PropOp51
 70
     0
102
RTVSPost2010Prop52
140
1.0
102
RTVSPost2010PropOp52
 70
     0
102
RTVSPost2010Prop53
 90
        2
102
RTVSPost2010PropOp53
 70
     1
102
RTVSPost2010Prop54
  1
strokes_ogs.tif
102
RTVSPost2010PropOp54
 70
     1
102
RTVSPost2010Prop55
280
     0
102
RTVSPost2010PropOp55
 70
     1
102
RTVSPost2010Prop56
140
1.0
102
RTVSPost2010PropOp56
 70
     1
102
RTVSPost2010Prop57
140
1.0
102
RTVSPost2010PropOp57
 70
     1
102
RTVSPropertyOp0
 70
     1
102
RTVSPropertyOp1
 70
     1
102
RTVSPropertyOp2
 70
     1
102
RTVSPropertyOp3
 70
     1
102
RTVSPropertyOp4
 70
     1
102
RTVSPropertyOp5
 70
     1
102
RTVSPropertyOp6
 70
     1
102
RTVSPropertyOp7
 70
     1
102
RTVSPropertyOp8
 70
     1
102
RTVSPropertyOp9
 70
     1
102
RTVSPropertyOp10
 70
     1
102
RTVSPropertyOp11
 70
     1
102
RTVSPropertyOp12
 70
     1
102
RTVSPropertyOp13
 70
     1
102
RTVSPropertyOp14
 70
     1
102
RTVSPropertyOp15
 70
     1
102
RTVSPropertyOp16
 70
     1
102
RTVSPropertyOp17
 70
     1
102
RTVSPropertyOp18
 70
     1
102
RTVSPropertyOp19
 70
     1
102
RTVSPropertyOp20
 70
     1
102
RTVSPropertyOp21
 70
     1
102
RTVSPropertyOp22
 70
     1
102
RTVSPropertyOp23
 70
     1
102
RTVSPropertyOp24
 70
     1
102
RTVSPropertyOp25
 70
     1
102
RTVSPropertyOp26
 70
     1
102
RTVSPropertyOp27
 70
     1
102
RTVSPropertyOp28
 70
     1
102
RTVSPropertyOp29
 70
     1
102
RTVSPropertyOp30
 70
     1
102
RTVSPropertyOp31
 70
     1
102
RTVSPropertyOp32
 70
     1
102
RTVSPropertyOp33
 70
     1
102
RTVSPropertyOp34
 70
     1
102
RTVSPropertyOp35
 70
     1
102
RTVSPropertyOp36
 70
     1
102
RTVSPropertyOp37
 70
     1
102
RTVSPropertyOp38
 70
     1
102
RTVSPropertyOp39
 70
     1
102
RTVSPropertyOp40
 70
     1
102
RTVSPropertyOp41
 70
     1
102
RTVSPropertyOp42
 70
     1
102
RTVSPropertyOp43
 70
     1
102
RTVSPropertyOp44
 70
     1
102
RTVSPropertyOp45
 70
     1
102
RTVSPropertyOp46
 70
     1
102
RTVSPropertyOp47
 70
     1
102
RTVSPropertyOp48
 70
     1
102
RTVSPropertyOp49
 70
     1
102
RTVSPropertyOp50
 70
     1
102
RTVSPropertyOp51
 70
     0
102
RTVSPropertyOp52
 70
     0
102
RTVSPropertyOp53
 70
     1
102
RTVSPropertyOp54
 70
     1
102
RTVSPropertyOp55
 70
     1
102
RTVSPropertyOp56
 70
     1
102
RTVSPropertyOp57
 70
     1
102
RTVSPropertyOp58
 70
     1
102
RTVSPropertyOp59
 70
     1
102
RTVSPropertyOp60
 70
     1
102
RTVSPropertyOp61
 70
     1
102
RTVSPropertyOp62
 70
     1
  0
XRECORD
  5
37F
102
{ACAD_REACTORS
330
37E
102
}
330
37E
100
AcDbXrecord
280
     1
102
RTVSPost2010Prop28
280
     0
102
RTVSPost2010PropOp28
 70
     1
102
RTVSPost2010Prop29
280
     1
102
RTVSPost2010PropOp29
 70
     1
102
RTVSPost2010Prop30
280
     1
102
RTVSPost2010PropOp30
 70
     1
102
RTVSPost2010Prop31
280
     0
102
RTVSPost2010PropOp31
 70
     1
102
RTVSPost2010Prop32
280
     0
102
RTVSPost2010PropOp32
 70
     1
102
RTVSPost2010Prop33
280
     0
102
RTVSPost2010PropOp33
 70
     1
102
RTVSPost2010Prop34
280
     0
102
RTVSPost2010PropOp34
 70
     1
102
RTVSPost2010Prop35
280
     0
102
RTVSPost2010PropOp35
 70
     1
102
RTVSPost2010Prop36
280
     0
102
RTVSPost2010PropOp36
 70
     1
102
RTVSPost2010Prop37
 90
       50
102
RTVSPost2010PropOp37
 70
     1
102
RTVSPost2010Prop38
140
0.0
102
RTVSPost2010PropOp38
 70
     1
102
RTVSPost2010Prop39
140
1.0
102
RTVSPost2010PropOp39
 70
     1
102
RTVSPost2010Prop40
 90
        0
102
RTVSPost2010PropOp40
 70
     1
102
RTVSPost2010Prop41ColorIndex
 90
       18
102
RTVSPost2010Prop41ColorRGB
 90
        0
102
RTVSPost2010PropOp41
 70
     1
102
RTVSPost2010Prop42
 90
       50
102
RTVSPost2010PropOp42
 70
     1
102
RTVSPost2010Prop43
 90
        3
102
RTVSPost2010PropOp43
 70
     1
102
RTVSPost2010Prop44ColorIndex
 90
        5
102
RTVSPost2010Prop44ColorRGB
 90
      255
102
RTVSPost2010PropOp44
 70
     1
102
RTVSPost2010Prop45
280
     0
102
RTVSPost2010PropOp45
 70
     1
102
RTVSPost2010Prop46
 90
       50
102
RTVSPost2010PropOp46
 70
     1
102
RTVSPost2010Prop47
 90
       50
102
RTVSPost2010PropOp47
 70
     1
102
RTVSPost2010Prop48
 90
       50
102
RTVSPost2010PropOp48
 70
     1
102
RTVSPost2010Prop49
280
     0
102
RTVSPost2010PropOp49
 70
     1
102
RTVSPost2010Prop50
 90
       50
102
RTVSPost2010PropOp50
 70
     1
102
RTVSPost2010Prop51ColorIndex
 90
      256
102
RTVSPost2010Prop51ColorRGB
 90
-16777216
102
RTVSPost2010PropOp51
 70
     0
102
RTVSPost2010Prop52
140
1.0
102
RTVSPost2010PropOp52
 70
     0
102
RTVSPost2010Prop53
 90
        2
102
RTVSPost2010PropOp53
 70
     1
102
RTVSPost2010Prop54
  1
strokes_ogs.tif
102
RTVSPost2010PropOp54
 70
     1
102
RTVSPost2010Prop55
280
     0
102
RTVSPost2010PropOp55
 70
     1
102
RTVSPost2010Prop56
140
1.0
102
RTVSPost2010PropOp56
 70
     1
102
RTVSPost2010Prop57
140
1.0
102
RTVSPost2010PropOp57
 70
     1
102
RTVSPropertyOp0
 70
     1
102
RTVSPropertyOp1
 70
     1
102
RTVSPropertyOp2
 70
     1
102
RTVSPropertyOp3
 70
     1
102
RTVSPropertyOp4
 70
     1
102
RTVSPropertyOp5
 70
     1
102
RTVSPropertyOp6
 70
     1
102
RTVSPropertyOp7
 70
     1
102
RTVSPropertyOp8
 70
     1
102
RTVSPropertyOp9
 70
     1
102
RTVSPropertyOp10
 70
     1
102
RTVSPropertyOp11
 70
     1
102
RTVSPropertyOp12
 70
     1
102
RTVSPropertyOp13
 70
     1
102
RTVSPropertyOp14
 70
     1
102
RTVSPropertyOp15
 70
     1
102
RTVSPropertyOp16
 70
     1
102
RTVSPropertyOp17
 70
     1
102
RTVSPropertyOp18
 70
     1
102
RTVSPropertyOp19
 70
     1
102
RTVSPropertyOp20
 70
     1
102
RTVSPropertyOp21
 70
     1
102
RTVSPropertyOp22
 70
     1
102
RTVSPropertyOp23
 70
     1
102
RTVSPropertyOp24
 70
     1
102
RTVSPropertyOp25
 70
     1
102
RTVSPropertyOp26
 70
     1
102
RTVSPropertyOp27
 70
     1
102
RTVSPropertyOp28
 70
     1
102
RTVSPropertyOp29
 70
     1
102
RTVSPropertyOp30
 70
     1
102
RTVSPropertyOp31
 70
     1
102
RTVSPropertyOp32
 70
     1
102
RTVSPropertyOp33
 70
     1
102
RTVSPropertyOp34
 70
     1
102
RTVSPropertyOp35
 70
     1
102
RTVSPropertyOp36
 70
     1
102
RTVSPropertyOp37
 70
     1
102
RTVSPropertyOp38
 70
     1
102
RTVSPropertyOp39
 70
     1
102
RTVSPropertyOp40
 70
     1
102
RTVSPropertyOp41
 70
     1
102
RTVSPropertyOp42
 70
     1
102
RTVSPropertyOp43
 70
     1
102
RTVSPropertyOp44
 70
     1
102
RTVSPropertyOp45
 70
     1
102
RTVSPropertyOp46
 70
     1
102
RTVSPropertyOp47
 70
     1
102
RTVSPropertyOp48
 70
     1
102
RTVSPropertyOp49
 70
     1
102
RTVSPropertyOp50
 70
     1
102
RTVSPropertyOp51
 70
     0
102
RTVSPropertyOp52
 70
     0
102
RTVSPropertyOp53
 70
     1
102
RTVSPropertyOp54
 70
     1
102
RTVSPropertyOp55
 70
     1
102
RTVSPropertyOp56
 70
     1
102
RTVSPropertyOp57
 70
     1
102
RTVSPropertyOp58
 70
     1
102
RTVSPropertyOp59
 70
     1
102
RTVSPropertyOp60
 70
     1
102
RTVSPropertyOp61
 70
     1
102
RTVSPropertyOp62
 70
     1
  0
XRECORD
  5
39F
102
{ACAD_REACTORS
330
39E
102
}
330
39E
100
AcDbXrecord
280
     1
102
RTVSPost2010Prop28
280
     0
102
RTVSPost2010PropOp28
 70
     1
102
RTVSPost2010Prop29
280
     1
102
RTVSPost2010PropOp29
 70
     1
102
RTVSPost2010Prop30
280
     1
102
RTVSPost2010PropOp30
 70
     1
102
RTVSPost2010Prop31
280
     0
102
RTVSPost2010PropOp31
 70
     1
102
RTVSPost2010Prop32
280
     0
102
RTVSPost2010PropOp32
 70
     1
102
RTVSPost2010Prop33
280
     0
102
RTVSPost2010PropOp33
 70
     1
102
RTVSPost2010Prop34
280
     0
102
RTVSPost2010PropOp34
 70
     1
102
RTVSPost2010Prop35
280
     0
102
RTVSPost2010PropOp35
 70
     1
102
RTVSPost2010Prop36
280
     0
102
RTVSPost2010PropOp36
 70
     1
102
RTVSPost2010Prop37
 90
       50
102
RTVSPost2010PropOp37
 70
     1
102
RTVSPost2010Prop38
140
0.0
102
RTVSPost2010PropOp38
 70
     1
102
RTVSPost2010Prop39
140
1.0
102
RTVSPost2010PropOp39
 70
     1
102
RTVSPost2010Prop40
 90
        0
102
RTVSPost2010PropOp40
 70
     1
102
RTVSPost2010Prop41ColorIndex
 90
       18
102
RTVSPost2010Prop41ColorRGB
 90
        0
102
RTVSPost2010PropOp41
 70
     1
102
RTVSPost2010Prop42
 90
       50
102
RTVSPost2010PropOp42
 70
     1
102
RTVSPost2010Prop43
 90
        3
102
RTVSPost2010PropOp43
 70
     1
102
RTVSPost2010Prop44ColorIndex
 90
        5
102
RTVSPost2010Prop44ColorRGB
 90
      255
102
RTVSPost2010PropOp44
 70
     1
102
RTVSPost2010Prop45
280
     0
102
RTVSPost2010PropOp45
 70
     1
102
RTVSPost2010Prop46
 90
       50
102
RTVSPost2010PropOp46
 70
     1
102
RTVSPost2010Prop47
 90
       50
102
RTVSPost2010PropOp47
 70
     1
102
RTVSPost2010Prop48
 90
       50
102
RTVSPost2010PropOp48
 70
     1
102
RTVSPost2010Prop49
280
     0
102
RTVSPost2010PropOp49
 70
     1
102
RTVSPost2010Prop50
 90
       50
102
RTVSPost2010PropOp50
 70
     1
102
RTVSPost2010Prop51ColorIndex
 90
      256
102
RTVSPost2010Prop51ColorRGB
 90
-16777216
102
RTVSPost2010PropOp51
 70
     0
102
RTVSPost2010Prop52
140
1.0
102
RTVSPost2010PropOp52
 70
     0
102
RTVSPost2010Prop53
 90
        2
102
RTVSPost2010PropOp53
 70
     1
102
RTVSPost2010Prop54
  1
strokes_ogs.tif
102
RTVSPost2010PropOp54
 70
     1
102
RTVSPost2010Prop55
280
     0
102
RTVSPost2010PropOp55
 70
     1
102
RTVSPost2010Prop56
140
1.0
102
RTVSPost2010PropOp56
 70
     1
102
RTVSPost2010Prop57
140
1.0
102
RTVSPost2010PropOp57
 70
     1
102
RTVSPropertyOp0
 70
     1
102
RTVSPropertyOp1
 70
     1
102
RTVSPropertyOp2
 70
     1
102
RTVSPropertyOp3
 70
     1
102
RTVSPropertyOp4
 70
     1
102
RTVSPropertyOp5
 70
     1
102
RTVSPropertyOp6
 70
     1
102
RTVSPropertyOp7
 70
     1
102
RTVSPropertyOp8
 70
     1
102
RTVSPropertyOp9
 70
     1
102
RTVSPropertyOp10
 70
     1
102
RTVSPropertyOp11
 70
     1
102
RTVSPropertyOp12
 70
     1
102
RTVSPropertyOp13
 70
     1
102
RTVSPropertyOp14
 70
     1
102
RTVSPropertyOp15
 70
     1
102
RTVSPropertyOp16
 70
     1
102
RTVSPropertyOp17
 70
     1
102
RTVSPropertyOp18
 70
     1
102
RTVSPropertyOp19
 70
     1
102
RTVSPropertyOp20
 70
     1
102
RTVSPropertyOp21
 70
     1
102
RTVSPropertyOp22
 70
     1
102
RTVSPropertyOp23
 70
     1
102
RTVSPropertyOp24
 70
     1
102
RTVSPropertyOp25
 70
     1
102
RTVSPropertyOp26
 70
     1
102
RTVSPropertyOp27
 70
     1
102
RTVSPropertyOp28
 70
     1
102
RTVSPropertyOp29
 70
     1
102
RTVSPropertyOp30
 70
     1
102
RTVSPropertyOp31
 70
     1
102
RTVSPropertyOp32
 70
     1
102
RTVSPropertyOp33
 70
     1
102
RTVSPropertyOp34
 70
     1
102
RTVSPropertyOp35
 70
     1
102
RTVSPropertyOp36
 70
     1
102
RTVSPropertyOp37
 70
     1
102
RTVSPropertyOp38
 70
     1
102
RTVSPropertyOp39
 70
     1
102
RTVSPropertyOp40
 70
     1
102
RTVSPropertyOp41
 70
     1
102
RTVSPropertyOp42
 70
     1
102
RTVSPropertyOp43
 70
     1
102
RTVSPropertyOp44
 70
     1
102
RTVSPropertyOp45
 70
     1
102
RTVSPropertyOp46
 70
     1
102
RTVSPropertyOp47
 70
     1
102
RTVSPropertyOp48
 70
     1
102
RTVSPropertyOp49
 70
     1
102
RTVSPropertyOp50
 70
     1
102
RTVSPropertyOp51
 70
     0
102
RTVSPropertyOp52
 70
     0
102
RTVSPropertyOp53
 70
     1
102
RTVSPropertyOp54
 70
     1
102
RTVSPropertyOp55
 70
     1
102
RTVSPropertyOp56
 70
     1
102
RTVSPropertyOp57
 70
     1
102
RTVSPropertyOp58
 70
     1
102
RTVSPropertyOp59
 70
     1
102
RTVSPropertyOp60
 70
     1
102
RTVSPropertyOp61
 70
     1
102
RTVSPropertyOp62
 70
     1
  0
ENDSEC
  0
EOF
