  0
SECTION
  2
HEADER
  9
$ACADVER
  1
AC1018
  9
$ACADMAINTVER
 70
   104
  9
$DWGCODEPAGE
  3
ANSI_1250
  9
$LASTSAVEDBY
  1
wq7085
  9
$INSBASE
 10
0.0
 20
0.0
 30
0.0
  9
$EXTMIN
 10
176.0944603333333
 20
114.534924
 30
0.0
  9
$EXTMAX
 10
449.6012809999999
 20
348.3591736666669
 30
0.0
  9
$LIMMIN
 10
-0.5
 20
-0.5
  9
$LIMMAX
 10
5.0
 20
5.0
  9
$ORTHOMODE
 70
     0
  9
$REGENMODE
 70
     1
  9
$FILLMODE
 70
     1
  9
$QTEXTMODE
 70
     0
  9
$MIRRTEXT
 70
     1
  9
$LTSCALE
 40
1.0
  9
$ATTMODE
 70
     1
  9
$TEXTSIZE
 40
0.2
  9
$TRACEWID
 40
0.05
  9
$TEXTSTYLE
  7
Standard
  9
$CLAYER
  8
0
  9
$CELTYPE
  6
ByLayer
  9
$CECOLOR
 62
   256
  9
$CELTSCALE
 40
1.0
  9
$DISPSILH
 70
     0
  9
$DIMSCALE
 40
1.0
  9
$DIMASZ
 40
0.18
  9
$DIMEXO
 40
0.0625
  9
$DIMDLI
 40
0.38
  9
$DIMRND
 40
0.0
  9
$DIMDLE
 40
0.0
  9
$DIMEXE
 40
0.18
  9
$DIMTP
 40
0.0
  9
$DIMTM
 40
0.0
  9
$DIMTXT
 40
0.18
  9
$DIMCEN
 40
0.09
  9
$DIMTSZ
 40
0.0
  9
$DIMTOL
 70
     0
  9
$DIMLIM
 70
     0
  9
$DIMTIH
 70
     1
  9
$DIMTOH
 70
     1
  9
$DIMSE1
 70
     0
  9
$DIMSE2
 70
     0
  9
$DIMTAD
 70
     0
  9
$DIMZIN
 70
     0
  9
$DIMBLK
  1

  9
$DIMASO
 70
     1
  9
$DIMSHO
 70
     1
  9
$DIMPOST
  1

  9
$DIMAPOST
  1

  9
$DIMALT
 70
     0
  9
$DIMALTD
 70
     2
  9
$DIMALTF
 40
25.4
  9
$DIMLFAC
 40
1.0
  9
$DIMTOFL
 70
     0
  9
$DIMTVP
 40
0.0
  9
$DIMTIX
 70
     0
  9
$DIMSOXD
 70
     0
  9
$DIMSAH
 70
     0
  9
$DIMBLK1
  1

  9
$DIMBLK2
  1

  9
$DIMSTYLE
  2
Standard
  9
$DIMCLRD
 70
     0
  9
$DIMCLRE
 70
     0
  9
$DIMCLRT
 70
     0
  9
$DIMTFAC
 40
1.0
  9
$DIMGAP
 40
0.09
  9
$DIMJUST
 70
     0
  9
$DIMSD1
 70
     0
  9
$DIMSD2
 70
     0
  9
$DIMTOLJ
 70
     1
  9
$DIMTZIN
 70
     0
  9
$DIMALTZ
 70
     0
  9
$DIMALTTZ
 70
     0
  9
$DIMUPT
 70
     0
  9
$DIMDEC
 70
     4
  9
$DIMTDEC
 70
     4
  9
$DIMALTU
 70
     2
  9
$DIMALTTD
 70
     2
  9
$DIMTXSTY
  7
Standard
  9
$DIMAUNIT
 70
     0
  9
$DIMADEC
 70
     0
  9
$DIMALTRND
 40
0.0
  9
$DIMAZIN
 70
     0
  9
$DIMDSEP
 70
    46
  9
$DIMATFIT
 70
     3
  9
$DIMFRAC
 70
     0
  9
$DIMLDRBLK
  1

  9
$DIMLUNIT
 70
     2
  9
$DIMLWD
 70
    -2
  9
$DIMLWE
 70
    -2
  9
$DIMTMOVE
 70
     0
  9
$LUNITS
 70
     2
  9
$LUPREC
 70
     4
  9
$SKETCHINC
 40
0.1
  9
$FILLETRAD
 40
0.5
  9
$AUNITS
 70
     0
  9
$AUPREC
 70
     0
  9
$MENU
  1
.
  9
$ELEVATION
 40
0.0
  9
$PELEVATION
 40
0.0
  9
$THICKNESS
 40
0.0
  9
$LIMCHECK
 70
     0
  9
$CHAMFERA
 40
0.0
  9
$CHAMFERB
 40
0.0
  9
$CHAMFERC
 40
0.0
  9
$CHAMFERD
 40
0.0
  9
$SKPOLY
 70
     0
  9
$TDCREATE
 40
2459087.498240741
  9
$TDUCREATE
 40
2459087.414910938
  9
$TDUPDATE
 40
2459087.498807870
  9
$TDUUPDATE
 40
2459087.415474537
  9
$TDINDWG
 40
0.0002199190
  9
$TDUSRTIMER
 40
0.0002199190
  9
$USRTIMER
 70
     1
  9
$ANGBASE
 50
0.0
  9
$ANGDIR
 70
     0
  9
$PDMODE
 70
     0
  9
$PDSIZE
 40
0.0
  9
$PLINEWID
 40
0.0
  9
$SPLFRAME
 70
     0
  9
$SPLINETYPE
 70
     6
  9
$SPLINESEGS
 70
     8
  9
$HANDSEED
  5
3B6
  9
$SURFTAB1
 70
     6
  9
$SURFTAB2
 70
     6
  9
$SURFTYPE
 70
     6
  9
$SURFU
 70
     6
  9
$SURFV
 70
     6
  9
$UCSBASE
  2

  9
$UCSNAME
  2

  9
$UCSORG
 10
274.404842
 20
288.907994
 30
0.0
  9
$UCSXDIR
 10
1.0
 20
0.0
 30
0.0
  9
$UCSYDIR
 10
0.0
 20
1.0
 30
0.0
  9
$UCSORTHOREF
  2

  9
$UCSORTHOVIEW
 70
     0
  9
$UCSORGTOP
 10
0.0
 20
0.0
 30
0.0
  9
$UCSORGBOTTOM
 10
0.0
 20
0.0
 30
0.0
  9
$UCSORGLEFT
 10
0.0
 20
0.0
 30
0.0
  9
$UCSORGRIGHT
 10
0.0
 20
0.0
 30
0.0
  9
$UCSORGFRONT
 10
0.0
 20
0.0
 30
0.0
  9
$UCSORGBACK
 10
0.0
 20
0.0
 30
0.0
  9
$PUCSBASE
  2

  9
$PUCSNAME
  2

  9
$PUCSORG
 10
0.0
 20
0.0
 30
0.0
  9
$PUCSXDIR
 10
1.0
 20
0.0
 30
0.0
  9
$PUCSYDIR
 10
0.0
 20
1.0
 30
0.0
  9
$PUCSORTHOREF
  2

  9
$PUCSORTHOVIEW
 70
     0
  9
$PUCSORGTOP
 10
0.0
 20
0.0
 30
0.0
  9
$PUCSORGBOTTOM
 10
0.0
 20
0.0
 30
0.0
  9
$PUCSORGLEFT
 10
0.0
 20
0.0
 30
0.0
  9
$PUCSORGRIGHT
 10
0.0
 20
0.0
 30
0.0
  9
$PUCSORGFRONT
 10
0.0
 20
0.0
 30
0.0
  9
$PUCSORGBACK
 10
0.0
 20
0.0
 30
0.0
  9
$USERI1
 70
     0
  9
$USERI2
 70
     0
  9
$USERI3
 70
     0
  9
$USERI4
 70
     0
  9
$USERI5
 70
     0
  9
$USERR1
 40
0.0
  9
$USERR2
 40
0.0
  9
$USERR3
 40
0.0
  9
$USERR4
 40
0.0
  9
$USERR5
 40
0.0
  9
$WORLDVIEW
 70
     1
  9
$SHADEDGE
 70
     3
  9
$SHADEDIF
 70
    70
  9
$TILEMODE
 70
     1
  9
$MAXACTVP
 70
    64
  9
$PINSBASE
 10
0.0
 20
0.0
 30
0.0
  9
$PLIMCHECK
 70
     0
  9
$PEXTMIN
 10
-0.5
 20
-0.5
 30
-0.5
  9
$PEXTMAX
 10
5.0
 20
5.0
 30
5.0
  9
$PLIMMIN
 10
-0.5
 20
-0.5
  9
$PLIMMAX
 10
5.0
 20
5.0
  9
$UNITMODE
 70
     0
  9
$VISRETAIN
 70
     1
  9
$PLINEGEN
 70
     0
  9
$PSLTSCALE
 70
     1
  9
$TREEDEPTH
 70
  3020
  9
$CMLSTYLE
  2
Standard
  9
$CMLJUST
 70
     0
  9
$CMLSCALE
 40
1.0
  9
$PROXYGRAPHICS
 70
     1
  9
$MEASUREMENT
 70
     1
  9
$CELWEIGHT
370
    13
  9
$ENDCAPS
280
     0
  9
$JOINSTYLE
280
     0
  9
$LWDISPLAY
290
     0
  9
$INSUNITS
 70
     4
  9
$HYPERLINKBASE
  1

  9
$STYLESHEET
  1

  9
$XEDIT
290
     1
  9
$CEPSNTYPE
380
     0
  9
$PSTYLEMODE
290
     1
  9
$FINGERPRINTGUID
  2
{5C522C18-58CE-4BC9-8E4B-A6C6FD521941}
  9
$VERSIONGUID
  2
{FCF509E4-DCC7-C24F-B1C5-071227DA9C0B}
  9
$EXTNAMES
290
     1
  9
$PSVPSCALE
 40
0.0
  9
$OLESTARTUP
290
     0
  9
$SORTENTS
280
   127
  9
$INDEXCTL
280
     0
  9
$HIDETEXT
280
     1
  9
$XCLIPFRAME
290
     0
  9
$HALOGAP
280
     0
  9
$OBSCOLOR
 70
   257
  9
$OBSLTYPE
280
     0
  9
$INTERSECTIONDISPLAY
280
     0
  9
$INTERSECTIONCOLOR
 70
   257
  9
$DIMASSOC
280
     2
  9
$PROJECTNAME
  1

  0
ENDSEC
  0
SECTION
  2
CLASSES
  0
CLASS
  1
ACDBDICTIONARYWDFLT
  2
AcDbDictionaryWithDefault
  3
ObjectDBX Classes
 90
        0
 91
        1
280
     0
281
     0
  0
CLASS
  1
VISUALSTYLE
  2
AcDbVisualStyle
  3
ObjectDBX Classes
 90
     4095
 91
       24
280
     0
281
     0
  0
CLASS
  1
MATERIAL
  2
AcDbMaterial
  3
ObjectDBX Classes
 90
     1153
 91
        3
280
     0
281
     0
  0
CLASS
  1
SCALE
  2
AcDbScale
  3
ObjectDBX Classes
 90
     1153
 91
       33
280
     0
281
     0
  0
CLASS
  1
TABLESTYLE
  2
AcDbTableStyle
  3
ObjectDBX Classes
 90
     4095
 91
        1
280
     0
281
     0
  0
CLASS
  1
MLEADERSTYLE
  2
AcDbMLeaderStyle
  3
ACDB_MLEADERSTYLE_CLASS
 90
     4095
 91
        1
280
     0
281
     0
  0
CLASS
  1
SUN
  2
AcDbSun
  3
SCENEOE
 90
     1153
 91
        0
280
     0
281
     0
  0
CLASS
  1
DIMASSOC
  2
AcDbDimAssoc
  3
"AcDbDimAssoc|Product Desc:     AcDim ARX App For Dimension|Company:          Autodesk, Inc.|WEB Address:      www.autodesk.com"
 90
        0
 91
        7
280
     0
281
     0
  0
CLASS
  1
DICTIONARYVAR
  2
AcDbDictionaryVar
  3
ObjectDBX Classes
 90
        0
 91
        8
280
     0
281
     0
  0
CLASS
  1
CELLSTYLEMAP
  2
AcDbCellStyleMap
  3
ObjectDBX Classes
 90
     1152
 91
        2
280
     0
281
     0
  0
CLASS
  1
ACDBSECTIONVIEWSTYLE
  2
AcDbSectionViewStyle
  3
ObjectDBX Classes
 90
     1025
 91
        1
280
     0
281
     0
  0
CLASS
  1
ACDBDETAILVIEWSTYLE
  2
AcDbDetailViewStyle
  3
ObjectDBX Classes
 90
     1025
 91
        1
280
     0
281
     0
  0
CLASS
  1
SORTENTSTABLE
  2
AcDbSortentsTable
  3
ObjectDBX Classes
 90
        0
 91
        1
280
     0
281
     0
  0
ENDSEC
  0
SECTION
  2
TABLES
  0
TABLE
  2
VPORT
  5
8
330
0
100
AcDbSymbolTable
 70
    16
  0
VPORT
  5
29
330
8
100
AcDbSymbolTableRecord
100
AcDbViewportTableRecord
  2
*Active
 70
     0
 10
0.0
 20
0.0
 11
1.0
 21
1.0
 12
312.7498649521807
 22
283.2796208183914
 13
0.0
 23
0.0
 14
0.5
 24
0.5
 15
0.5
 25
0.5
 16
0.0
 26
0.0
 36
1.0
 17
0.0
 27
0.0
 37
0.0
 40
201.8744676799228
 41
2.292712066905615
 42
50.0
 43
483.8551409999999
 44
-483.8551409999999
 50
0.0
 51
0.0
 71
     0
 72
   100
 73
     1
 74
     3
 75
     0
 76
     0
 77
     0
 78
     0
281
     0
 65
     1
110
274.404842
120
288.907994
130
0.0
111
1.0
121
0.0
131
0.0
112
0.0
122
1.0
132
0.0
 79
     0
146
0.0
1001
ACAD_NAV_VCDISPLAY
1070
     3
  0
VPORT
  5
2B7
330
8
100
AcDbSymbolTableRecord
100
AcDbViewportTableRecord
  2
L1
 70
     0
 10
0.0
 20
0.0
 11
1.0
 21
1.0
 12
312.343666
 22
231.43143
 13
0.0
 23
0.0
 14
0.5
 24
0.5
 15
0.5
 25
0.5
 16
0.0
 26
0.0
 36
1.0
 17
0.0
 27
0.0
 37
0.0
 40
207.433333
 41
0.085602
 42
50.0
 43
483.8551409999999
 44
-483.8551409999999
 50
0.0
 51
0.0
 71
     0
 72
   100
 73
     1
 74
     3
 75
     0
 76
     0
 77
     0
 78
     0
281
     0
 65
     1
110
0.0
120
0.0
130
0.0
111
1.0
121
0.0
131
0.0
112
0.0
122
1.0
132
0.0
 79
     0
146
0.0
  0
VPORT
  5
2B8
330
8
100
AcDbSymbolTableRecord
100
AcDbViewportTableRecord
  2
L2
 70
     0
 10
0.0
 20
0.0
 11
0.5
 21
1.0
 12
0.0
 22
0.0
 13
0.0
 23
0.0
 14
0.5
 24
0.5
 15
0.5
 25
0.5
 16
0.0
 26
-1.0
 36
0.0
 17
0.0
 27
0.0
 37
0.0
 40
1316.18997
 41
0.013491
 42
50.0
 43
678.00864
 44
-678.00864
 50
0.0
 51
0.0
 71
     0
 72
   100
 73
     1
 74
     3
 75
     0
 76
     0
 77
     0
 78
     0
281
     0
 65
     1
110
0.0
120
0.0
130
0.0
111
1.0
121
0.0
131
0.0
112
0.0
122
1.0
132
0.0
 79
     0
146
0.0
  0
VPORT
  5
2B9
330
8
100
AcDbSymbolTableRecord
100
AcDbViewportTableRecord
  2
L2
 70
     0
 10
0.5
 20
0.0
 11
1.0
 21
1.0
 12
0.0
 22
0.0
 13
0.0
 23
0.0
 14
0.5
 24
0.5
 15
0.5
 25
0.5
 16
1.0
 26
0.0
 36
0.0
 17
0.0
 27
0.0
 37
0.0
 40
1316.18997
 41
0.013491
 42
50.0
 43
666.2177989999999
 44
-666.2177989999999
 50
0.0
 51
0.0
 71
     0
 72
   100
 73
     1
 74
     3
 75
     0
 76
     0
 77
     0
 78
     0
281
     0
 65
     1
110
0.0
120
0.0
130
0.0
111
1.0
121
0.0
131
0.0
112
0.0
122
1.0
132
0.0
 79
     0
146
0.0
  0
VPORT
  5
2BA
330
8
100
AcDbSymbolTableRecord
100
AcDbViewportTableRecord
  2
L3
 70
     0
 10
0.0
 20
0.5
 11
1.0
 21
1.0
 12
312.343666
 22
231.43143
 13
0.0
 23
0.0
 14
0.5
 24
0.5
 15
0.5
 25
0.5
 16
0.0
 26
0.0
 36
1.0
 17
0.0
 27
0.0
 37
0.0
 40
207.433333
 41
0.085602
 42
50.0
 43
483.8551409999999
 44
-483.8551409999999
 50
0.0
 51
0.0
 71
     0
 72
   100
 73
     1
 74
     3
 75
     0
 76
     0
 77
     0
 78
     0
281
     0
 65
     1
110
0.0
120
0.0
130
0.0
111
1.0
121
0.0
131
0.0
112
0.0
122
1.0
132
0.0
 79
     0
146
0.0
  0
VPORT
  5
2BB
330
8
100
AcDbSymbolTableRecord
100
AcDbViewportTableRecord
  2
L3
 70
     0
 10
0.0
 20
0.0
 11
1.0
 21
0.5
 12
0.0
 22
0.0
 13
0.0
 23
0.0
 14
0.5
 24
0.5
 15
0.5
 25
0.5
 16
0.0
 26
-1.0
 36
0.0
 17
0.0
 27
0.0
 37
0.0
 40
1316.18997
 41
0.013491
 42
50.0
 43
678.00864
 44
-678.00864
 50
0.0
 51
0.0
 71
     0
 72
   100
 73
     1
 74
     3
 75
     0
 76
     0
 77
     0
 78
     0
281
     0
 65
     1
110
0.0
120
0.0
130
0.0
111
1.0
121
0.0
131
0.0
112
0.0
122
1.0
132
0.0
 79
     0
146
0.0
  0
VPORT
  5
2BC
330
8
100
AcDbSymbolTableRecord
100
AcDbViewportTableRecord
  2
L4
 70
     0
 10
0.0
 20
0.5
 11
0.5
 21
1.0
 12
312.343666
 22
231.43143
 13
0.0
 23
0.0
 14
0.5
 24
0.5
 15
0.5
 25
0.5
 16
0.0
 26
0.0
 36
1.0
 17
0.0
 27
0.0
 37
0.0
 40
207.433333
 41
0.085602
 42
50.0
 43
483.8551409999999
 44
-483.8551409999999
 50
0.0
 51
0.0
 71
     0
 72
   100
 73
     1
 74
     3
 75
     0
 76
     0
 77
     0
 78
     0
281
     0
 65
     1
110
0.0
120
0.0
130
0.0
111
1.0
121
0.0
131
0.0
112
0.0
122
1.0
132
0.0
 79
     0
146
0.0
  0
VPORT
  5
2BD
330
8
100
AcDbSymbolTableRecord
100
AcDbViewportTableRecord
  2
L4
 70
     0
 10
0.0
 20
0.0
 11
0.5
 21
0.5
 12
0.0
 22
0.0
 13
0.0
 23
0.0
 14
0.5
 24
0.5
 15
0.5
 25
0.5
 16
0.0
 26
-1.0
 36
0.0
 17
0.0
 27
0.0
 37
0.0
 40
1316.18997
 41
0.013491
 42
50.0
 43
678.00864
 44
-678.00864
 50
0.0
 51
0.0
 71
     0
 72
   100
 73
     1
 74
     3
 75
     0
 76
     0
 77
     0
 78
     0
281
     0
 65
     1
110
0.0
120
0.0
130
0.0
111
1.0
121
0.0
131
0.0
112
0.0
122
1.0
132
0.0
 79
     0
146
0.0
  0
VPORT
  5
2BE
330
8
100
AcDbSymbolTableRecord
100
AcDbViewportTableRecord
  2
L4
 70
     0
 10
0.5
 20
0.0
 11
1.0
 21
0.5
 12
0.0
 22
0.0
 13
0.0
 23
0.0
 14
0.5
 24
0.5
 15
0.5
 25
0.5
 16
1.0
 26
0.0
 36
0.0
 17
0.0
 27
0.0
 37
0.0
 40
1316.18997
 41
0.013491
 42
50.0
 43
666.2177989999999
 44
-666.2177989999999
 50
0.0
 51
0.0
 71
     0
 72
   100
 73
     1
 74
     3
 75
     0
 76
     0
 77
     0
 78
     0
281
     0
 65
     1
110
0.0
120
0.0
130
0.0
111
1.0
121
0.0
131
0.0
112
0.0
122
1.0
132
0.0
 79
     0
146
0.0
  0
VPORT
  5
2BF
330
8
100
AcDbSymbolTableRecord
100
AcDbViewportTableRecord
  2
L4
 70
     0
 10
0.5
 20
0.5
 11
1.0
 21
1.0
 12
0.0
 22
0.0
 13
0.0
 23
0.0
 14
0.5
 24
0.5
 15
0.5
 25
0.5
 16
0.5773502691896259
 26
-0.5773502691896259
 36
0.5773502691896259
 17
0.0
 27
0.0
 37
0.0
 40
1292.532264
 41
0.013738
 42
50.0
 43
673.245608
 44
-673.245608
 50
0.0
 51
0.0
 71
     0
 72
   100
 73
     1
 74
     3
 75
     0
 76
     0
 77
     0
 78
     0
281
     0
 65
     1
110
0.0
120
0.0
130
0.0
111
1.0
121
0.0
131
0.0
112
0.0
122
1.0
132
0.0
 79
     0
146
0.0
  0
VPORT
  5
2C0
330
8
100
AcDbSymbolTableRecord
100
AcDbViewportTableRecord
  2
L6
 70
     0
 10
0.0
 20
0.5
 11
0.333333
 21
1.0
 12
0.0
 22
0.0
 13
0.0
 23
0.0
 14
0.5
 24
0.5
 15
0.5
 25
0.5
 16
0.7188730927569434
 26
-0.5850486126764433
 36
0.3754192287502549
 17
0.0
 27
0.0
 37
0.0
 40
1364.064247
 41
0.013018
 42
50.0
 43
706.2613849999999
 44
-706.2613849999999
 50
0.0
 51
0.0
 71
     0
 72
   100
 73
     1
 74
     3
 75
     0
 76
     0
 77
     0
 78
     0
281
     0
 65
     1
110
0.0
120
0.0
130
0.0
111
1.0
121
0.0
131
0.0
112
0.0
122
1.0
132
0.0
 79
     0
146
0.0
  0
VPORT
  5
2C1
330
8
100
AcDbSymbolTableRecord
100
AcDbViewportTableRecord
  2
L6
 70
     0
 10
0.0
 20
0.0
 11
0.333333
 21
0.5
 12
0.0
 22
0.0
 13
0.0
 23
0.0
 14
0.5
 24
0.5
 15
0.5
 25
0.5
 16
-1.0
 26
0.0
 36
0.0
 17
0.0
 27
0.0
 37
0.0
 40
1316.18997
 41
0.013491
 42
50.0
 43
666.2177989999999
 44
-666.2177989999999
 50
0.0
 51
0.0
 71
     0
 72
   100
 73
     1
 74
     3
 75
     0
 76
     0
 77
     0
 78
     0
281
     0
 65
     1
110
0.0
120
0.0
130
0.0
111
1.0
121
0.0
131
0.0
112
0.0
122
1.0
132
0.0
 79
     0
146
0.0
  0
VPORT
  5
2C2
330
8
100
AcDbSymbolTableRecord
100
AcDbViewportTableRecord
  2
L6
 70
     0
 10
0.333333
 20
0.5
 11
0.666667
 21
1.0
 12
312.343666
 22
231.43143
 13
0.0
 23
0.0
 14
0.5
 24
0.5
 15
0.5
 25
0.5
 16
0.0
 26
0.0
 36
1.0
 17
0.0
 27
0.0
 37
0.0
 40
207.433333
 41
0.085602
 42
50.0
 43
483.8551409999999
 44
-483.8551409999999
 50
0.0
 51
0.0
 71
     0
 72
   100
 73
     1
 74
     3
 75
     0
 76
     0
 77
     0
 78
     0
281
     0
 65
     1
110
0.0
120
0.0
130
0.0
111
1.0
121
0.0
131
0.0
112
0.0
122
1.0
132
0.0
 79
     0
146
0.0
  0
VPORT
  5
2C3
330
8
100
AcDbSymbolTableRecord
100
AcDbViewportTableRecord
  2
L6
 70
     0
 10
0.333333
 20
0.0
 11
0.666667
 21
0.5
 12
0.0
 22
0.0
 13
0.0
 23
0.0
 14
0.5
 24
0.5
 15
0.5
 25
0.5
 16
0.0
 26
-1.0
 36
0.0
 17
0.0
 27
0.0
 37
0.0
 40
1316.18997
 41
0.013491
 42
50.0
 43
678.00864
 44
-678.00864
 50
0.0
 51
0.0
 71
     0
 72
   100
 73
     1
 74
     3
 75
     0
 76
     0
 77
     0
 78
     0
281
     0
 65
     1
110
0.0
120
0.0
130
0.0
111
1.0
121
0.0
131
0.0
112
0.0
122
1.0
132
0.0
 79
     0
146
0.0
  0
VPORT
  5
2C4
330
8
100
AcDbSymbolTableRecord
100
AcDbViewportTableRecord
  2
L6
 70
     0
 10
0.666667
 20
0.5
 11
1.0
 21
1.0
 12
0.0
 22
0.0
 13
0.0
 23
0.0
 14
0.5
 24
0.5
 15
0.5
 25
0.5
 16
0.5773502691896259
 26
-0.5773502691896259
 36
0.5773502691896259
 17
0.0
 27
0.0
 37
0.0
 40
1292.532264
 41
0.013738
 42
50.0
 43
673.245608
 44
-673.245608
 50
0.0
 51
0.0
 71
     0
 72
   100
 73
     1
 74
     3
 75
     0
 76
     0
 77
     0
 78
     0
281
     0
 65
     1
110
0.0
120
0.0
130
0.0
111
1.0
121
0.0
131
0.0
112
0.0
122
1.0
132
0.0
 79
     0
146
0.0
  0
VPORT
  5
2C5
330
8
100
AcDbSymbolTableRecord
100
AcDbViewportTableRecord
  2
L6
 70
     0
 10
0.666667
 20
0.0
 11
1.0
 21
0.5
 12
0.0
 22
0.0
 13
0.0
 23
0.0
 14
0.5
 24
0.5
 15
0.5
 25
0.5
 16
1.0
 26
0.0
 36
0.0
 17
0.0
 27
0.0
 37
0.0
 40
1316.18997
 41
0.013491
 42
50.0
 43
666.2177989999999
 44
-666.2177989999999
 50
0.0
 51
0.0
 71
     0
 72
   100
 73
     1
 74
     3
 75
     0
 76
     0
 77
     0
 78
     0
281
     0
 65
     1
110
0.0
120
0.0
130
0.0
111
1.0
121
0.0
131
0.0
112
0.0
122
1.0
132
0.0
 79
     0
146
0.0
  0
ENDTAB
  0
TABLE
  2
LTYPE
  5
5
330
0
100
AcDbSymbolTable
 70
     7
  0
LTYPE
  5
14
330
5
100
AcDbSymbolTableRecord
100
AcDbLinetypeTableRecord
  2
ByBlock
 70
     0
  3

 72
    65
 73
     0
 40
0.0
  0
LTYPE
  5
15
330
5
100
AcDbSymbolTableRecord
100
AcDbLinetypeTableRecord
  2
ByLayer
 70
     0
  3

 72
    65
 73
     0
 40
0.0
  0
LTYPE
  5
16
330
5
100
AcDbSymbolTableRecord
100
AcDbLinetypeTableRecord
  2
Continuous
 70
     0
  3
Solid line
 72
    65
 73
     0
 40
0.0
  0
LTYPE
  5
6E
330
5
100
AcDbSymbolTableRecord
100
AcDbLinetypeTableRecord
  2
CENTER
 70
     0
  3
____ _ ____ _ ____ _ ____
 72
    65
 73
     4
 40
47.4
 49
22.0
 74
     4
 75
     0
340
0
 46
0.0
 50
0.0
 44
0.0
 45
0.0
 49
-8.5
 74
     4
 75
     0
340
0
 46
0.0
 50
0.0
 44
0.0
 45
0.0
 49
8.5
 74
     4
 75
     0
340
0
 46
0.0
 50
0.0
 44
0.0
 45
0.0
 49
-8.5
 74
     4
 75
     0
340
0
 46
0.0
 50
0.0
 44
0.0
 45
0.0
  0
LTYPE
  5
6F
330
5
100
AcDbSymbolTableRecord
100
AcDbLinetypeTableRecord
  2
DASHDOT
 70
     0
  3
_._._._._._._._._._._._._._._._.
 72
    65
 73
     4
 40
70.0
 49
31.0
 74
     4
 75
     0
340
0
 46
0.0
 50
0.0
 44
0.0
 45
0.0
 49
-13.0
 74
     4
 75
     0
340
0
 46
0.0
 50
0.0
 44
0.0
 45
0.0
 49
13.0
 74
     4
 75
     0
340
0
 46
0.0
 50
0.0
 44
0.0
 45
0.0
 49
-13.0
 74
     4
 75
     0
340
0
 46
0.0
 50
0.0
 44
0.0
 45
0.0
  0
LTYPE
  5
70
330
5
100
AcDbSymbolTableRecord
100
AcDbLinetypeTableRecord
  2
DASHED
 70
     0
  3
__ __ __ __ __ __ __ __ __
 72
    65
 73
     2
 40
25.72
 49
12.86
 74
     4
 75
     0
340
0
 46
0.0
 50
0.0
 44
0.0
 45
0.0
 49
-12.86
 74
     4
 75
     0
340
0
 46
0.0
 50
0.0
 44
0.0
 45
0.0
  0
LTYPE
  5
71
330
5
100
AcDbSymbolTableRecord
100
AcDbLinetypeTableRecord
  2
DOT
 70
     0
  3
.........................
 72
    65
 73
     2
 40
10.0
 49
0.0
 74
     4
 75
     0
340
0
 46
0.0
 50
0.0
 44
0.0
 45
0.0
 49
-10.0
 74
     4
 75
     0
340
0
 46
0.0
 50
0.0
 44
0.0
 45
0.0
  0
LTYPE
  5
72
330
5
100
AcDbSymbolTableRecord
100
AcDbLinetypeTableRecord
  2
PHANTOM
 70
     0
  3
____ _ _ ____ _ _ _____ _ _ ____
 72
    65
 73
     6
 40
50.5
 49
18.0
 74
     4
 75
     0
340
0
 46
0.0
 50
0.0
 44
0.0
 45
0.0
 49
-6.5
 74
     4
 75
     0
340
0
 46
0.0
 50
0.0
 44
0.0
 45
0.0
 49
6.5
 74
     4
 75
     0
340
0
 46
0.0
 50
0.0
 44
0.0
 45
0.0
 49
-6.5
 74
     4
 75
     0
340
0
 46
0.0
 50
0.0
 44
0.0
 45
0.0
 49
6.5
 74
     4
 75
     0
340
0
 46
0.0
 50
0.0
 44
0.0
 45
0.0
 49
-6.5
 74
     4
 75
     0
340
0
 46
0.0
 50
0.0
 44
0.0
 45
0.0
  0
LTYPE
  5
358
330
5
100
AcDbSymbolTableRecord
100
AcDbLinetypeTableRecord
  2
CENTER2
 70
     0
  3
Center (.5x) ___ _ ___ _ ___ _ ___ _ ___ _ ___
 72
    65
 73
     4
 40
1.125
 49
0.75
 74
     0
 49
-0.125
 74
     0
 49
0.125
 74
     0
 49
-0.125
 74
     0
  0
ENDTAB
  0
TABLE
  2
LAYER
  5
2
330
0
100
AcDbSymbolTable
 70
    22
  0
LAYER
  5
10
102
{ACAD_XDICTIONARY
360
363
102
}
330
2
100
AcDbSymbolTableRecord
100
AcDbLayerTableRecord
  2
0
 70
     0
 62
     7
  6
Continuous
370
    -3
390
F
  0
LAYER
  5
211
330
2
100
AcDbSymbolTableRecord
100
AcDbLayerTableRecord
  2
Defpoints
 70
     0
 62
     7
  6
Continuous
290
     0
370
    -3
390
F
  0
LAYER
  5
355
102
{ACAD_XDICTIONARY
360
365
102
}
330
2
100
AcDbSymbolTableRecord
100
AcDbLayerTableRecord
  2
1
 70
     0
 62
     4
  6
Continuous
370
    -3
390
F
  0
LAYER
  5
356
102
{ACAD_XDICTIONARY
360
367
102
}
330
2
100
AcDbSymbolTableRecord
100
AcDbLayerTableRecord
  2
2
 70
     0
 62
     7
  6
Continuous
370
    -3
390
F
  0
LAYER
  5
357
102
{ACAD_XDICTIONARY
360
369
102
}
330
2
100
AcDbSymbolTableRecord
100
AcDbLayerTableRecord
  2
4
 70
     0
 62
     2
  6
CENTER2
370
    -3
390
F
  0
LAYER
  5
359
102
{ACAD_XDICTIONARY
360
36B
102
}
330
2
100
AcDbSymbolTableRecord
100
AcDbLayerTableRecord
  2
SK1
 70
     0
 62
     4
  6
Continuous
370
    -3
390
F
  0
LAYER
  5
35A
102
{ACAD_XDICTIONARY
360
36D
102
}
330
2
100
AcDbSymbolTableRecord
100
AcDbLayerTableRecord
  2
SK2
 70
     0
 62
     7
  6
Continuous
370
    -3
390
F
  0
LAYER
  5
35C
102
{ACAD_XDICTIONARY
360
36F
102
}
330
2
100
AcDbSymbolTableRecord
100
AcDbLayerTableRecord
  2
SK4
 70
     0
 62
     2
  6
CENTER2
370
    -3
390
F
  0
LAYER
  5
35D
102
{ACAD_XDICTIONARY
360
371
102
}
330
2
100
AcDbSymbolTableRecord
100
AcDbLayerTableRecord
  2
SK6
 70
     0
 62
     5
  6
Continuous
370
    -3
390
F
  0
LAYER
  5
35E
102
{ACAD_XDICTIONARY
360
373
102
}
330
2
100
AcDbSymbolTableRecord
100
AcDbLayerTableRecord
  2
CUT
 70
     0
 62
     1
  6
Continuous
370
    -3
390
F
  0
LAYER
  5
35F
102
{ACAD_XDICTIONARY
360
375
102
}
330
2
100
AcDbSymbolTableRecord
100
AcDbLayerTableRecord
  2
NOCUT
 70
     0
 62
     7
  6
Continuous
370
    -3
390
F
  0
LAYER
  5
360
102
{ACAD_XDICTIONARY
360
377
102
}
330
2
100
AcDbSymbolTableRecord
100
AcDbLayerTableRecord
  2
80
 70
     0
 62
     6
  6
Continuous
370
    -3
390
F
  0
LAYER
  5
361
102
{ACAD_XDICTIONARY
360
379
102
}
330
2
100
AcDbSymbolTableRecord
100
AcDbLayerTableRecord
  2
81
 70
     0
 62
     3
  6
Continuous
370
    -3
390
F
  0
ENDTAB
  0
TABLE
  2
STYLE
  5
3
330
0
100
AcDbSymbolTable
 70
     3
  0
STYLE
  5
11
330
3
100
AcDbSymbolTableRecord
100
AcDbTextStyleTableRecord
  2
Standard
 70
     0
 40
0.0
 41
1.0
 50
0.0
 71
     0
 42
0.2
  3
txt
  4

  0
STYLE
  5
20A
330
3
100
AcDbSymbolTableRecord
100
AcDbTextStyleTableRecord
  2
cesky
 70
     0
 40
0.0
 41
1.0
 50
0.0
 71
     0
 42
0.2
  3
simplex.shx
  4

  0
STYLE
  5
20B
330
3
100
AcDbSymbolTableRecord
100
AcDbTextStyleTableRecord
  2
DWGDirectTextStyle
 70
     0
 40
0.0
 41
1.0
 50
0.0
 71
     0
 42
0.2
  3
simplex
  4

  0
ENDTAB
  0
TABLE
  2
VIEW
  5
6
330
0
100
AcDbSymbolTable
 70
     0
  0
ENDTAB
  0
TABLE
  2
UCS
  5
7
330
0
100
AcDbSymbolTable
 70
     0
  0
ENDTAB
  0
TABLE
  2
APPID
  5
9
330
0
100
AcDbSymbolTable
 70
     7
  0
APPID
  5
12
330
9
100
AcDbSymbolTableRecord
100
AcDbRegAppTableRecord
  2
ACAD
 70
     0
  0
APPID
  5
20D
330
9
100
AcDbSymbolTableRecord
100
AcDbRegAppTableRecord
  2
ACAD_DSTYLE_DIMBREAK
 70
     0
  0
APPID
  5
2C6
330
9
100
AcDbSymbolTableRecord
100
AcDbRegAppTableRecord
  2
ACAD_DSTYLE_DIM_LINETYPE
 70
     0
  0
APPID
  5
2C7
330
9
100
AcDbSymbolTableRecord
100
AcDbRegAppTableRecord
  2
ACAD_DSTYLE_DIM_EXT1_LINETYPE
 70
     0
  0
APPID
  5
2C8
330
9
100
AcDbSymbolTableRecord
100
AcDbRegAppTableRecord
  2
ACAD_DSTYLE_DIM_EXT2_LINETYPE
 70
     0
  0
APPID
  5
308
330
9
100
AcDbSymbolTableRecord
100
AcDbRegAppTableRecord
  2
ACAD_MLEADERVER
 70
     0
  0
APPID
  5
37E
330
9
100
AcDbSymbolTableRecord
100
AcDbRegAppTableRecord
  2
ACAD_NAV_VCDISPLAY
 70
     0
  0
ENDTAB
  0
TABLE
  2
DIMSTYLE
  5
A
330
0
100
AcDbSymbolTable
 70
     1
100
AcDbDimStyleTable
 71
     0
  0
DIMSTYLE
105
27
330
A
100
AcDbSymbolTableRecord
100
AcDbDimStyleTableRecord
  2
Standard
 70
     0
340
11
1001
ACAD_DSTYLE_DIMBREAK
1070
   391
1040
6.349999999999999
  0
ENDTAB
  0
TABLE
  2
BLOCK_RECORD
  5
1
330
0
100
AcDbSymbolTable
 70
    16
  0
BLOCK_RECORD
  5
1F
102
{ACAD_XDICTIONARY
360
318
102
}
330
1
100
AcDbSymbolTableRecord
100
AcDbBlockTableRecord
  2
*Model_Space
340
22
  0
BLOCK_RECORD
  5
1B
330
1
100
AcDbSymbolTableRecord
100
AcDbBlockTableRecord
  2
*Paper_Space
340
1E
  0
BLOCK_RECORD
  5
23
330
1
100
AcDbSymbolTableRecord
100
AcDbBlockTableRecord
  2
*Paper_Space0
340
26
  0
BLOCK_RECORD
  5
204
330
1
100
AcDbSymbolTableRecord
100
AcDbBlockTableRecord
  2
ASSORTED_DRAFT1
340
0
  0
BLOCK_RECORD
  5
212
330
1
100
AcDbSymbolTableRecord
100
AcDbBlockTableRecord
  2
*D2
340
0
  0
BLOCK_RECORD
  5
21E
330
1
100
AcDbSymbolTableRecord
100
AcDbBlockTableRecord
  2
_U0
340
0
  0
BLOCK_RECORD
  5
22A
330
1
100
AcDbSymbolTableRecord
100
AcDbBlockTableRecord
  2
*D4
340
0
  0
BLOCK_RECORD
  5
236
330
1
100
AcDbSymbolTableRecord
100
AcDbBlockTableRecord
  2
_U1
340
0
  0
BLOCK_RECORD
  5
242
330
1
100
AcDbSymbolTableRecord
100
AcDbBlockTableRecord
  2
*D6
340
0
  0
BLOCK_RECORD
  5
24E
330
1
100
AcDbSymbolTableRecord
100
AcDbBlockTableRecord
  2
_U2
340
0
  0
BLOCK_RECORD
  5
25A
330
1
100
AcDbSymbolTableRecord
100
AcDbBlockTableRecord
  2
*D8
340
0
  0
BLOCK_RECORD
  5
266
330
1
100
AcDbSymbolTableRecord
100
AcDbBlockTableRecord
  2
_U3
340
0
  0
BLOCK_RECORD
  5
272
330
1
100
AcDbSymbolTableRecord
100
AcDbBlockTableRecord
  2
*D10
340
0
  0
BLOCK_RECORD
  5
27D
330
1
100
AcDbSymbolTableRecord
100
AcDbBlockTableRecord
  2
_U4
340
0
  0
BLOCK_RECORD
  5
288
330
1
100
AcDbSymbolTableRecord
100
AcDbBlockTableRecord
  2
*D12
340
0
  0
BLOCK_RECORD
  5
294
330
1
100
AcDbSymbolTableRecord
100
AcDbBlockTableRecord
  2
_U5
340
0
  0
BLOCK_RECORD
  5
2A1
330
1
100
AcDbSymbolTableRecord
100
AcDbBlockTableRecord
  2
*D14
340
0
  0
BLOCK_RECORD
  5
2AD
330
1
100
AcDbSymbolTableRecord
100
AcDbBlockTableRecord
  2
_U6
340
0
  0
ENDTAB
  0
ENDSEC
  0
SECTION
  2
BLOCKS
  0
BLOCK
  5
20
330
1F
100
AcDbEntity
  8
0
100
AcDbBlockBegin
  2
*Model_Space
 70
     0
 10
0.0
 20
0.0
 30
0.0
  3
*Model_Space
  1

  0
ENDBLK
  5
21
330
1F
100
AcDbEntity
  8
0
100
AcDbBlockEnd
  0
BLOCK
  5
1C
330
1B
100
AcDbEntity
 67
     1
  8
0
100
AcDbBlockBegin
  2
*Paper_Space
 70
     0
 10
0.0
 20
0.0
 30
0.0
  3
*Paper_Space
  1

  0
ENDBLK
  5
1D
330
1B
100
AcDbEntity
 67
     1
  8
0
100
AcDbBlockEnd
  0
BLOCK
  5
24
330
23
100
AcDbEntity
 67
     1
  8
0
100
AcDbBlockBegin
  2
*Paper_Space0
 70
     0
 10
0.0
 20
0.0
 30
0.0
  3
*Paper_Space0
  1

  0
ENDBLK
  5
25
330
23
100
AcDbEntity
 67
     1
  8
0
100
AcDbBlockEnd
  0
BLOCK
  5
207
330
204
100
AcDbEntity
  8
0
100
AcDbBlockBegin
  2
ASSORTED_DRAFT1
 70
     0
 10
0.0
 20
0.0
 30
0.0
  3
ASSORTED_DRAFT1
  1

  0
SOLID
  5
205
330
204
100
AcDbEntity
  8
0
 62
   254
370
    13
100
AcDbTrace
 10
270.185042
 20
168.534924
 30
0.0
 11
265.185046
 21
167.42645
 31
0.0
 12
265.1850379999999
 22
169.643397
 32
0.0
 13
270.185042
 23
168.534924
 33
0.0
  0
ENDBLK
  5
208
330
204
100
AcDbEntity
  8
0
100
AcDbBlockEnd
  0
BLOCK
  5
213
330
212
100
AcDbEntity
  8
0
100
AcDbBlockBegin
  2
*D2
 70
     1
 10
0.0
 20
0.0
 30
0.0
  3
*D2
  1

  0
LINE
  5
215
330
212
100
AcDbEntity
  8
0
 62
   254
370
    -2
100
AcDbLine
 10
432.704042
 20
307.570394
 30
0.0
 11
432.704042
 21
344.81834
 31
0.0
  0
LINE
  5
216
330
212
100
AcDbEntity
  8
0
 62
   254
370
    -2
100
AcDbLine
 10
207.404842
 20
306.357994
 30
0.0
 11
207.404842
 21
344.81834
 31
0.0
  0
LINE
  5
217
330
212
100
AcDbEntity
  8
0
 62
   254
370
    -2
100
AcDbLine
 10
429.204042
 20
343.81834
 30
0.0
 11
210.904842
 21
343.81834
 31
0.0
  0
SOLID
  5
218
330
212
100
AcDbEntity
  8
0
 62
   254
100
AcDbTrace
 10
429.204042
 20
343.235007
 30
0.0
 11
429.204042
 21
344.401674
 31
0.0
 12
432.704042
 22
343.81834
 32
0.0
 13
432.704042
 23
343.81834
 33
0.0
  0
SOLID
  5
219
330
212
100
AcDbEntity
  8
0
 62
   254
100
AcDbTrace
 10
210.904842
 20
344.401674
 30
0.0
 11
210.904842
 21
343.235007
 31
0.0
 12
207.404842
 22
343.81834
 32
0.0
 13
207.404842
 23
343.81834
 33
0.0
  0
MTEXT
  5
21A
330
212
100
AcDbEntity
  8
0
 62
   254
370
    13
100
AcDbMText
 10
320.054442
 20
349.06834
 30
0.0
 40
3.5
 41
0.0
 71
     5
 72
     1
  1
\A1;225.3
  7
cesky
 73
     1
 44
1.0
  0
POINT
  5
21B
330
212
100
AcDbEntity
  8
Defpoints
 62
     0
100
AcDbPoint
 10
432.704042
 20
307.570394
 30
0.0
  0
POINT
  5
21C
330
212
100
AcDbEntity
  8
Defpoints
 62
     0
100
AcDbPoint
 10
207.404842
 20
306.357994
 30
0.0
  0
POINT
  5
21D
330
212
100
AcDbEntity
  8
Defpoints
 62
     0
100
AcDbPoint
 10
207.404842
 20
343.81834
 30
0.0
  0
ENDBLK
  5
214
330
212
100
AcDbEntity
  8
0
100
AcDbBlockEnd
  0
BLOCK
  5
225
330
21E
100
AcDbEntity
  8
0
100
AcDbBlockBegin
  2
_U0
 70
     0
 10
0.0
 20
0.0
 30
0.0
  3
_U0
  1

  0
ENDBLK
  5
226
330
21E
100
AcDbEntity
  8
0
100
AcDbBlockEnd
  0
BLOCK
  5
22B
330
22A
100
AcDbEntity
  8
0
100
AcDbBlockBegin
  2
*D4
 70
     1
 10
0.0
 20
0.0
 30
0.0
  3
*D4
  1

  0
LINE
  5
22D
330
22A
100
AcDbEntity
  8
0
 62
   254
370
    -2
100
AcDbLine
 10
274.404842
 20
288.907994
 30
0.0
 11
274.404842
 21
331.120893
 31
0.0
  0
LINE
  5
22E
330
22A
100
AcDbEntity
  8
0
 62
   254
370
    -2
100
AcDbLine
 10
207.404842
 20
297.632994
 30
0.0
 11
207.404842
 21
331.120893
 31
0.0
  0
LINE
  5
22F
330
22A
100
AcDbEntity
  8
0
 62
   254
370
    -2
100
AcDbLine
 10
270.904842
 20
330.120893
 30
0.0
 11
210.904842
 21
330.120893
 31
0.0
  0
SOLID
  5
230
330
22A
100
AcDbEntity
  8
0
 62
   254
100
AcDbTrace
 10
270.904842
 20
329.53756
 30
0.0
 11
270.904842
 21
330.704227
 31
0.0
 12
274.404842
 22
330.120893
 32
0.0
 13
274.404842
 23
330.120893
 33
0.0
  0
SOLID
  5
231
330
22A
100
AcDbEntity
  8
0
 62
   254
100
AcDbTrace
 10
210.904842
 20
330.704227
 30
0.0
 11
210.904842
 21
329.53756
 31
0.0
 12
207.404842
 22
330.120893
 32
0.0
 13
207.404842
 23
330.120893
 33
0.0
  0
MTEXT
  5
232
330
22A
100
AcDbEntity
  8
0
 62
   254
370
    13
100
AcDbMText
 10
240.904842
 20
335.370893
 30
0.0
 40
3.5
 41
0.0
 71
     5
 72
     1
  1
\A1;67
  7
cesky
 73
     1
 44
1.0
  0
POINT
  5
233
330
22A
100
AcDbEntity
  8
Defpoints
 62
     0
100
AcDbPoint
 10
274.404842
 20
288.907994
 30
0.0
  0
POINT
  5
234
330
22A
100
AcDbEntity
  8
Defpoints
 62
     0
100
AcDbPoint
 10
207.404842
 20
297.632994
 30
0.0
  0
POINT
  5
235
330
22A
100
AcDbEntity
  8
Defpoints
 62
     0
100
AcDbPoint
 10
207.404842
 20
330.120893
 30
0.0
  0
ENDBLK
  5
22C
330
22A
100
AcDbEntity
  8
0
100
AcDbBlockEnd
  0
BLOCK
  5
23D
330
236
100
AcDbEntity
  8
0
100
AcDbBlockBegin
  2
_U1
 70
     0
 10
0.0
 20
0.0
 30
0.0
  3
_U1
  1

  0
ENDBLK
  5
23E
330
236
100
AcDbEntity
  8
0
100
AcDbBlockEnd
  0
BLOCK
  5
243
330
242
100
AcDbEntity
  8
0
100
AcDbBlockBegin
  2
*D6
 70
     1
 10
0.0
 20
0.0
 30
0.0
  3
*D6
  1

  0
LINE
  5
245
330
242
100
AcDbEntity
  8
0
 62
   254
370
    -2
100
AcDbLine
 10
432.704042
 20
305.570394
 30
0.0
 11
432.704042
 21
317.733995
 31
0.0
  0
LINE
  5
246
330
242
100
AcDbEntity
  8
0
 62
   254
370
    -2
100
AcDbLine
 10
294.277472
 20
305.379684
 30
0.0
 11
294.277472
 21
317.733995
 31
0.0
  0
LINE
  5
247
330
242
100
AcDbEntity
  8
0
 62
   254
370
    -2
100
AcDbLine
 10
429.204042
 20
316.733995
 30
0.0
 11
297.7774720000001
 21
316.733995
 31
0.0
  0
SOLID
  5
248
330
242
100
AcDbEntity
  8
0
 62
   254
100
AcDbTrace
 10
429.204042
 20
316.150662
 30
0.0
 11
429.204042
 21
317.317328
 31
0.0
 12
432.704042
 22
316.733995
 32
0.0
 13
432.704042
 23
316.733995
 33
0.0
  0
SOLID
  5
249
330
242
100
AcDbEntity
  8
0
 62
   254
100
AcDbTrace
 10
297.7774720000001
 20
317.317328
 30
0.0
 11
297.7774720000001
 21
316.150662
 31
0.0
 12
294.277472
 22
316.733995
 32
0.0
 13
294.277472
 23
316.733995
 33
0.0
  0
MTEXT
  5
24A
330
242
100
AcDbEntity
  8
0
 62
   254
370
    13
100
AcDbMText
 10
363.490757
 20
321.983995
 30
0.0
 40
3.5
 41
0.0
 71
     5
 72
     1
  1
\A1;138.4
  7
cesky
 73
     1
 44
1.0
  0
POINT
  5
24B
330
242
100
AcDbEntity
  8
Defpoints
 62
     0
100
AcDbPoint
 10
432.704042
 20
305.570394
 30
0.0
  0
POINT
  5
24C
330
242
100
AcDbEntity
  8
Defpoints
 62
     0
100
AcDbPoint
 10
294.277472
 20
305.379684
 30
0.0
  0
POINT
  5
24D
330
242
100
AcDbEntity
  8
Defpoints
 62
     0
100
AcDbPoint
 10
294.277472
 20
316.733995
 30
0.0
  0
ENDBLK
  5
244
330
242
100
AcDbEntity
  8
0
100
AcDbBlockEnd
  0
BLOCK
  5
255
330
24E
100
AcDbEntity
  8
0
100
AcDbBlockBegin
  2
_U2
 70
     0
 10
0.0
 20
0.0
 30
0.0
  3
_U2
  1

  0
ENDBLK
  5
256
330
24E
100
AcDbEntity
  8
0
100
AcDbBlockEnd
  0
BLOCK
  5
25B
330
25A
100
AcDbEntity
  8
0
100
AcDbBlockBegin
  2
*D8
 70
     1
 10
0.0
 20
0.0
 30
0.0
  3
*D8
  1

  0
LINE
  5
25D
330
25A
100
AcDbEntity
  8
0
 62
   254
370
    -2
100
AcDbLine
 10
432.704042
 20
305.570394
 30
0.0
 11
432.704042
 21
331.120893
 31
0.0
  0
LINE
  5
25E
330
25A
100
AcDbEntity
  8
0
 62
   254
370
    -2
100
AcDbLine
 10
274.404842
 20
288.907994
 30
0.0
 11
274.404842
 21
331.120893
 31
0.0
  0
LINE
  5
25F
330
25A
100
AcDbEntity
  8
0
 62
   254
370
    -2
100
AcDbLine
 10
429.204042
 20
330.120893
 30
0.0
 11
277.904842
 21
330.120893
 31
0.0
  0
SOLID
  5
260
330
25A
100
AcDbEntity
  8
0
 62
   254
100
AcDbTrace
 10
429.204042
 20
329.53756
 30
0.0
 11
429.204042
 21
330.704227
 31
0.0
 12
432.704042
 22
330.120893
 32
0.0
 13
432.704042
 23
330.120893
 33
0.0
  0
SOLID
  5
261
330
25A
100
AcDbEntity
  8
0
 62
   254
100
AcDbTrace
 10
277.904842
 20
330.704227
 30
0.0
 11
277.904842
 21
329.53756
 31
0.0
 12
274.404842
 22
330.120893
 32
0.0
 13
274.404842
 23
330.120893
 33
0.0
  0
MTEXT
  5
262
330
25A
100
AcDbEntity
  8
0
 62
   254
370
    13
100
AcDbMText
 10
353.554442
 20
335.370893
 30
0.0
 40
3.5
 41
0.0
 71
     5
 72
     1
  1
\A1;158.3
  7
cesky
 73
     1
 44
1.0
  0
POINT
  5
263
330
25A
100
AcDbEntity
  8
Defpoints
 62
     0
100
AcDbPoint
 10
432.704042
 20
305.570394
 30
0.0
  0
POINT
  5
264
330
25A
100
AcDbEntity
  8
Defpoints
 62
     0
100
AcDbPoint
 10
274.404842
 20
288.907994
 30
0.0
  0
POINT
  5
265
330
25A
100
AcDbEntity
  8
Defpoints
 62
     0
100
AcDbPoint
 10
274.404842
 20
330.120893
 30
0.0
  0
ENDBLK
  5
25C
330
25A
100
AcDbEntity
  8
0
100
AcDbBlockEnd
  0
BLOCK
  5
26D
330
266
100
AcDbEntity
  8
0
100
AcDbBlockBegin
  2
_U3
 70
     0
 10
0.0
 20
0.0
 30
0.0
  3
_U3
  1

  0
ENDBLK
  5
26E
330
266
100
AcDbEntity
  8
0
100
AcDbBlockEnd
  0
BLOCK
  5
273
330
272
100
AcDbEntity
  8
0
100
AcDbBlockBegin
  2
*D10
 70
     1
 10
0.0
 20
0.0
 30
0.0
  3
*D10
  1

  0
LINE
  5
275
330
272
100
AcDbEntity
  8
0
 62
   254
370
    -2
100
AcDbLine
 10
294.053832
 20
288.907994
 30
0.0
 11
449.6012809999999
 21
288.907994
 31
0.0
  0
LINE
  5
276
330
272
100
AcDbEntity
  8
0
 62
   254
370
    -2
100
AcDbLine
 10
330.83929
 20
305.570394
 30
0.0
 11
449.6012809999999
 21
305.570394
 31
0.0
  0
LINE
  5
277
330
272
100
AcDbEntity
  8
0
 62
   254
370
    -2
100
AcDbLine
 10
448.601281
 20
288.907994
 30
0.0
 11
448.601281
 21
305.570394
 31
0.0
  0
SOLID
  5
278
330
272
100
AcDbEntity
  8
0
 62
   254
100
AcDbTrace
 10
449.1846139999999
 20
302.070394
 30
0.0
 11
448.017947
 21
302.070394
 31
0.0
 12
448.601281
 22
305.570394
 32
0.0
 13
448.601281
 23
305.570394
 33
0.0
  0
MTEXT
  5
279
330
272
100
AcDbEntity
  8
0
 62
   254
370
    13
100
AcDbMText
 10
443.3512809999999
 20
276.57466
 30
0.0
 40
3.5
 41
0.0
 71
     5
 72
     1
  1
\A1;33.3
  7
cesky
 11
0.0
 21
1.0
 31
0.0
 73
     1
 44
1.0
  0
POINT
  5
27A
330
272
100
AcDbEntity
  8
Defpoints
 62
     0
100
AcDbPoint
 10
294.053832
 20
288.907994
 30
0.0
  0
POINT
  5
27B
330
272
100
AcDbEntity
  8
Defpoints
 62
     0
100
AcDbPoint
 10
330.83929
 20
305.570394
 30
0.0
  0
POINT
  5
27C
330
272
100
AcDbEntity
  8
Defpoints
 62
     0
100
AcDbPoint
 10
448.601281
 20
305.570394
 30
0.0
  0
ENDBLK
  5
274
330
272
100
AcDbEntity
  8
0
100
AcDbBlockEnd
  0
BLOCK
  5
283
330
27D
100
AcDbEntity
  8
0
100
AcDbBlockBegin
  2
_U4
 70
     0
 10
0.0
 20
0.0
 30
0.0
  3
_U4
  1

  0
ENDBLK
  5
284
330
27D
100
AcDbEntity
  8
0
100
AcDbBlockEnd
  0
BLOCK
  5
289
330
288
100
AcDbEntity
  8
0
100
AcDbBlockBegin
  2
*D12
 70
     1
 10
0.0
 20
0.0
 30
0.0
  3
*D12
  1

  0
LINE
  5
28B
330
288
100
AcDbEntity
  8
0
 62
    95
370
    -2
100
AcDbLine
 10
209.004842
 20
307.957994
 30
0.0
 11
192.833766
 21
307.957994
 31
0.0
  0
LINE
  5
28C
330
288
100
AcDbEntity
  8
0
 62
    95
370
    -2
100
AcDbLine
 10
209.004842
 20
269.857994
 30
0.0
 11
192.833766
 21
269.857994
 31
0.0
  0
LINE
  5
28D
330
288
100
AcDbEntity
  8
0
 62
    95
370
    -2
100
AcDbLine
 10
193.833766
 20
304.457994
 30
0.0
 11
193.833766
 21
273.357994
 31
0.0
  0
SOLID
  5
28E
330
288
100
AcDbEntity
  8
0
 62
    95
100
AcDbTrace
 10
194.417099
 20
304.457994
 30
0.0
 11
193.250432
 21
304.457994
 31
0.0
 12
193.833766
 22
307.957994
 32
0.0
 13
193.833766
 23
307.957994
 33
0.0
  0
SOLID
  5
28F
330
288
100
AcDbEntity
  8
0
 62
    95
100
AcDbTrace
 10
193.250432
 20
273.357994
 30
0.0
 11
194.417099
 21
273.357994
 31
0.0
 12
193.833766
 22
269.857994
 32
0.0
 13
193.833766
 23
269.857994
 33
0.0
  0
MTEXT
  5
290
330
288
100
AcDbEntity
  8
0
 62
    95
370
    13
100
AcDbMText
 10
188.583766
 20
288.907994
 30
0.0
 40
3.5
 41
0.0
 71
     5
 72
     1
  1
\A1;38.1
  7
cesky
 11
0.0
 21
1.0
 31
0.0
 73
     1
 44
1.0
  0
POINT
  5
291
330
288
100
AcDbEntity
  8
Defpoints
 62
     0
100
AcDbPoint
 10
209.004842
 20
307.957994
 30
0.0
  0
POINT
  5
292
330
288
100
AcDbEntity
  8
Defpoints
 62
     0
100
AcDbPoint
 10
209.004842
 20
269.857994
 30
0.0
  0
POINT
  5
293
330
288
100
AcDbEntity
  8
Defpoints
 62
     0
100
AcDbPoint
 10
193.833766
 20
269.857994
 30
0.0
  0
ENDBLK
  5
28A
330
288
100
AcDbEntity
  8
0
100
AcDbBlockEnd
  0
BLOCK
  5
29C
330
294
100
AcDbEntity
  8
0
100
AcDbBlockBegin
  2
_U5
 70
     0
 10
0.0
 20
0.0
 30
0.0
  3
_U5
  1

  0
ENDBLK
  5
29D
330
294
100
AcDbEntity
  8
0
100
AcDbBlockEnd
  0
BLOCK
  5
2A2
330
2A1
100
AcDbEntity
  8
0
100
AcDbBlockBegin
  2
*D14
 70
     1
 10
0.0
 20
0.0
 30
0.0
  3
*D14
  1

  0
LINE
  5
2A4
330
2A1
100
AcDbEntity
  8
0
 62
    95
370
    -2
100
AcDbLine
 10
277.154842
 20
313.907994
 30
0.0
 11
179.948543
 21
313.907994
 31
0.0
  0
LINE
  5
2A5
330
2A1
100
AcDbEntity
  8
0
 62
    95
370
    -2
100
AcDbLine
 10
277.154842
 20
263.907994
 30
0.0
 11
179.948543
 21
263.907994
 31
0.0
  0
LINE
  5
2A6
330
2A1
100
AcDbEntity
  8
0
 62
    95
370
    -2
100
AcDbLine
 10
180.948543
 20
310.407994
 30
0.0
 11
180.948543
 21
267.407994
 31
0.0
  0
SOLID
  5
2A7
330
2A1
100
AcDbEntity
  8
0
 62
    95
100
AcDbTrace
 10
181.531877
 20
310.407994
 30
0.0
 11
180.36521
 21
310.407994
 31
0.0
 12
180.948543
 22
313.907994
 32
0.0
 13
180.948543
 23
313.907994
 33
0.0
  0
SOLID
  5
2A8
330
2A1
100
AcDbEntity
  8
0
 62
    95
100
AcDbTrace
 10
180.36521
 20
267.407994
 30
0.0
 11
181.531877
 21
267.407994
 31
0.0
 12
180.948543
 22
263.907994
 32
0.0
 13
180.948543
 23
263.907994
 33
0.0
  0
MTEXT
  5
2A9
330
2A1
100
AcDbEntity
  8
0
 62
    95
370
    13
100
AcDbMText
 10
175.698543
 20
288.907994
 30
0.0
 40
3.5
 41
0.0
 71
     5
 72
     1
  1
\A1;50
  7
cesky
 11
0.0
 21
1.0
 31
0.0
 73
     1
 44
1.0
  0
POINT
  5
2AA
330
2A1
100
AcDbEntity
  8
Defpoints
 62
     0
100
AcDbPoint
 10
277.154842
 20
313.907994
 30
0.0
  0
POINT
  5
2AB
330
2A1
100
AcDbEntity
  8
Defpoints
 62
     0
100
AcDbPoint
 10
277.154842
 20
263.907994
 30
0.0
  0
POINT
  5
2AC
330
2A1
100
AcDbEntity
  8
Defpoints
 62
     0
100
AcDbPoint
 10
180.948543
 20
263.907994
 30
0.0
  0
ENDBLK
  5
2A3
330
2A1
100
AcDbEntity
  8
0
100
AcDbBlockEnd
  0
BLOCK
  5
2B5
330
2AD
100
AcDbEntity
  8
0
100
AcDbBlockBegin
  2
_U6
 70
     0
 10
0.0
 20
0.0
 30
0.0
  3
_U6
  1

  0
ENDBLK
  5
2B6
330
2AD
100
AcDbEntity
  8
0
100
AcDbBlockEnd
  0
ENDSEC
  0
SECTION
  2
ENTITIES
  0
POINT
  5
73
102
{ACAD_REACTORS
330
362
102
}
330
1F
100
AcDbEntity
  8
80
100
AcDbPoint
 10
274.404842
 20
288.907994
 30
0.0
  0
POINT
  5
76
330
1F
100
AcDbEntity
  8
SK4
 60
     1
100
AcDbPoint
 10
209.004842
 20
288.907994
 30
0.0
  0
POINT
  5
78
330
1F
100
AcDbEntity
  8
SK4
 60
     1
100
AcDbPoint
 10
274.404842
 20
288.907994
 30
0.0
  0
POINT
  5
79
330
1F
100
AcDbEntity
  8
4
 60
     1
100
AcDbPoint
 10
294.053832
 20
288.907994
 30
0.0
  0
POINT
  5
7A
330
1F
100
AcDbEntity
  8
4
 60
     1
100
AcDbPoint
 10
432.156673
 20
288.907994
 30
0.0
  0
POINT
  5
7B
330
1F
100
AcDbEntity
  8
SK6
 60
     1
100
AcDbPoint
 10
274.404842
 20
288.907994
 30
0.0
  0
POINT
  5
7C
330
1F
100
AcDbEntity
  8
SK6
 60
     1
100
AcDbPoint
 10
294.277472
 20
305.379684
 30
0.0
  0
LINE
  5
7D
330
1F
100
AcDbEntity
  8
80
100
AcDbLine
 10
274.404842
 20
287.90842
 30
0.0
 11
274.404842
 21
289.907567
 31
0.0
  0
LINE
  5
7E
330
1F
100
AcDbEntity
  8
81
100
AcDbLine
 10
432.704042
 20
307.570394
 30
0.0
 11
432.704042
 21
303.570394
 31
0.0
  0
LINE
  5
7F
330
1F
100
AcDbEntity
  8
SK1
100
AcDbLine
 10
209.004842
 20
269.857994
 30
0.0
 11
274.404842
 21
269.857994
 31
0.0
  0
LINE
  5
81
330
1F
100
AcDbEntity
  8
81
100
AcDbLine
 10
430.7040419999999
 20
305.570394
 30
0.0
 11
434.7040419999999
 21
305.570394
 31
0.0
  0
LINE
  5
82
330
1F
100
AcDbEntity
  8
1
100
AcDbLine
 10
274.904842
 20
263.907994
 30
0.0
 11
279.404842
 21
263.907994
 31
0.0
  0
LINE
  5
83
330
1F
100
AcDbEntity
  8
1
100
AcDbLine
 10
426.0440319999999
 20
299.65458
 30
0.0
 11
426.075219
 21
299.758579
 31
0.0
  0
LINE
  5
85
330
1F
100
AcDbEntity
  8
1
100
AcDbLine
 10
428.116332
 20
299.369184
 30
0.0
 11
428.084841
 21
299.264175
 31
0.0
  0
LINE
  5
86
330
1F
100
AcDbEntity
  8
1
100
AcDbLine
 10
426.467521
 20
301.494184
 30
0.0
 11
426.499011
 21
301.599193
 31
0.0
  0
LINE
  5
87
330
1F
100
AcDbEntity
  8
1
100
AcDbLine
 10
428.539517
 20
301.207777
 30
0.0
 11
428.50833
 21
301.103778
 31
0.0
  0
LINE
  5
88
330
1F
100
AcDbEntity
  8
1
100
AcDbLine
 10
431.25892
 20
281.112711
 30
0.0
 11
431.2832269999999
 21
282.50523
 31
0.0
  0
LINE
  5
8A
330
1F
100
AcDbEntity
  8
1
100
AcDbLine
 10
431.3520389999999
 20
286.447491
 30
0.0
 11
431.376423
 21
287.844428
 31
0.0
  0
LINE
  5
8B
330
1F
100
AcDbEntity
  8
1
100
AcDbLine
 10
431.35204
 20
287.92357
 30
0.0
 11
431.3604919999999
 21
287.908323
 31
0.0
  0
LINE
  5
8C
330
1F
100
AcDbEntity
  8
1
100
AcDbLine
 10
431.1046759999999
 20
280.822913
 30
0.0
 11
431.240769
 21
281.04941
 31
0.0
  0
LINE
  5
8D
330
1F
100
AcDbEntity
  8
1
100
AcDbLine
 10
294.053832
 20
272.757994
 30
0.0
 11
305.631914
 21
272.757994
 31
0.0
  0
LINE
  5
8E
330
1F
100
AcDbEntity
  8
1
100
AcDbLine
 10
422.765768
 20
305.057994
 30
0.0
 11
409.9544629999999
 21
305.057994
 31
0.0
  0
LINE
  5
8F
330
1F
100
AcDbEntity
  8
1
100
AcDbLine
 10
428.5930019999999
 20
301.284744
 30
0.0
 11
428.586547
 21
301.280471
 31
0.0
  0
LINE
  5
90
330
1F
100
AcDbEntity
  8
1
100
AcDbLine
 10
432.057998
 20
304.709706
 30
0.0
 11
432.344523
 21
296.74902
 31
0.0
  0
LINE
  5
91
330
1F
100
AcDbEntity
  8
1
100
AcDbLine
 10
423.285195
 20
305.17598
 30
0.0
 11
431.2578799999999
 21
305.453974
 31
0.0
  0
LINE
  5
92
330
1F
100
AcDbEntity
  8
1
100
AcDbLine
 10
422.827116
 20
296.417165
 30
0.0
 11
422.540591
 21
304.377851
 31
0.0
  0
LINE
  5
93
330
1F
100
AcDbEntity
  8
1
100
AcDbLine
 10
431.59992
 20
295.950891
 30
0.0
 11
423.627235
 21
295.672897
 31
0.0
  0
LINE
  5
94
330
1F
100
AcDbEntity
  8
1
100
AcDbLine
 10
424.0684149999999
 20
296.940823
 30
0.0
 11
423.817047
 21
303.924716
 31
0.0
  0
LINE
  5
95
330
1F
100
AcDbEntity
  8
1
100
AcDbLine
 10
431.0628349999999
 20
297.184706
 30
0.0
 11
424.0684149999999
 21
296.940823
 31
0.0
  0
LINE
  5
96
330
1F
100
AcDbEntity
  8
1
100
AcDbLine
 10
430.811467
 20
304.168599
 30
0.0
 11
431.0628349999999
 21
297.184706
 31
0.0
  0
LINE
  5
97
330
1F
100
AcDbEntity
  8
1
100
AcDbLine
 10
429.8032799999999
 20
283.153494
 30
0.0
 11
431.352041
 21
283.153494
 31
0.0
  0
LINE
  5
98
330
1F
100
AcDbEntity
  8
SK1
100
AcDbLine
 10
209.004842
 20
307.957994
 30
0.0
 11
209.004842
 21
269.857994
 31
0.0
  0
LINE
  5
99
330
1F
100
AcDbEntity
  8
SK1
100
AcDbLine
 10
207.404842
 20
306.357994
 30
0.0
 11
207.404842
 21
271.457994
 31
0.0
  0
LINE
  5
9A
330
1F
100
AcDbEntity
  8
1
100
AcDbLine
 10
422.555701
 20
298.259328
 30
0.0
 11
422.550469
 21
298.24188
 31
0.0
  0
LINE
  5
9B
330
1F
100
AcDbEntity
  8
1
100
AcDbLine
 10
422.555701
 20
298.259328
 30
0.0
 11
422.323508
 21
304.982787
 31
0.0
  0
LINE
  5
9C
330
1F
100
AcDbEntity
  8
1
100
AcDbLine
 10
422.318769
 20
304.951062
 30
0.0
 11
422.550469
 21
298.24188
 31
0.0
  0
LINE
  5
9D
330
1F
100
AcDbEntity
  8
1
100
AcDbLine
 10
430.8206929999999
 20
272.757994
 30
0.0
 11
405.4417589999999
 21
272.757994
 31
0.0
  0
LINE
  5
9E
330
1F
100
AcDbEntity
  8
1
100
AcDbLine
 10
274.904842
 20
263.907994
 30
0.0
 11
274.904842
 21
288.907994
 31
0.0
  0
LINE
  5
9F
330
1F
100
AcDbEntity
  8
1
100
AcDbLine
 10
274.904842
 20
288.907994
 30
0.0
 11
274.904842
 21
313.907994
 31
0.0
  0
LINE
  5
A0
330
1F
100
AcDbEntity
  8
1
100
AcDbLine
 10
424.668236
 20
301.256343
 30
0.0
 11
424.6477839999999
 21
301.188143
 31
0.0
  0
LINE
  5
A1
330
1F
100
AcDbEntity
  8
1
100
AcDbLine
 10
429.9159999999999
 20
299.608302
 30
0.0
 11
429.936452
 21
299.676502
 31
0.0
  0
LINE
  5
A2
330
1F
100
AcDbEntity
  8
1
100
AcDbLine
 10
279.404842
 20
263.907994
 30
0.0
 11
284.154337
 21
268.657488
 31
0.0
  0
LINE
  5
A3
330
1F
100
AcDbEntity
  8
1
100
AcDbLine
 10
284.154337
 20
309.158499
 30
0.0
 11
279.404842
 21
313.907994
 31
0.0
  0
LINE
  5
A4
330
1F
100
AcDbEntity
  8
SK1
100
AcDbLine
 10
207.404842
 20
271.457994
 30
0.0
 11
209.004842
 21
269.857994
 31
0.0
  0
LINE
  5
A5
330
1F
100
AcDbEntity
  8
SK1
100
AcDbLine
 10
209.004842
 20
307.957994
 30
0.0
 11
207.404842
 21
306.357994
 31
0.0
  0
LINE
  5
A6
330
1F
100
AcDbEntity
  8
SK1
100
AcDbLine
 10
274.404842
 20
307.957994
 30
0.0
 11
209.004842
 21
307.957994
 31
0.0
  0
LINE
  5
A7
330
1F
100
AcDbEntity
  8
1
100
AcDbLine
 10
274.904842
 20
263.907994
 30
0.0
 11
274.404842
 21
264.407994
 31
0.0
  0
LINE
  5
A8
330
1F
100
AcDbEntity
  8
1
100
AcDbLine
 10
274.404842
 20
313.407994
 30
0.0
 11
274.904842
 21
313.907994
 31
0.0
  0
LINE
  5
A9
330
1F
100
AcDbEntity
  8
1
100
AcDbLine
 10
279.404842
 20
313.907994
 30
0.0
 11
274.904842
 21
313.907994
 31
0.0
  0
LINE
  5
AA
330
1F
100
AcDbEntity
  8
1
100
AcDbLine
 10
274.404842
 20
313.407994
 30
0.0
 11
274.404842
 21
288.907994
 31
0.0
  0
LINE
  5
AB
330
1F
100
AcDbEntity
  8
1
100
AcDbLine
 10
274.404842
 20
288.907994
 30
0.0
 11
274.404842
 21
264.407994
 31
0.0
  0
LINE
  5
AC
330
1F
100
AcDbEntity
  8
1
100
AcDbLine
 10
431.6372659999999
 20
295.0625
 30
0.0
 11
423.7669959999999
 21
294.788078
 31
0.0
  0
LINE
  5
AD
330
1F
100
AcDbEntity
  8
1
100
AcDbLine
 10
431.6372659999999
 20
295.0625
 30
0.0
 11
429.692014
 21
291.83955
 31
0.0
  0
LINE
  5
AE
330
1F
100
AcDbEntity
  8
1
100
AcDbLine
 10
431.158601
 20
279.009996
 30
0.0
 11
430.9828309999999
 21
279.012809
 31
0.0
  0
LINE
  5
AF
330
1F
100
AcDbEntity
  8
1
100
AcDbLine
 10
430.965665
 20
279.513147
 30
0.0
 11
431.352041
 21
283.153494
 31
0.0
  0
LINE
  5
B0
330
1F
100
AcDbEntity
  8
1
100
AcDbLine
 10
431.352041
 20
283.153494
 30
0.0
 11
431.352041
 21
289.305568
 31
0.0
  0
LINE
  5
B1
330
1F
100
AcDbEntity
  8
1
100
AcDbLine
 10
431.422311
 20
289.804418
 30
0.0
 11
431.5983799999999
 21
289.801344
 31
0.0
  0
LINE
  5
B2
330
1F
100
AcDbEntity
  8
1
100
AcDbLine
 10
279.404842
 20
263.907994
 30
0.0
 11
279.404842
 21
269.176671
 31
0.0
  0
LINE
  5
B3
330
1F
100
AcDbEntity
  8
1
100
AcDbLine
 10
279.404842
 20
313.907994
 30
0.0
 11
279.404842
 21
277.716254
 31
0.0
  0
LINE
  5
B4
330
1F
100
AcDbEntity
  8
1
100
AcDbLine
 10
431.6372659999999
 20
295.0625
 30
0.0
 11
431.650896
 21
295.068581
 31
0.0
  0
LINE
  5
B5
330
1F
100
AcDbEntity
  8
1
100
AcDbLine
 10
431.7575459999999
 20
295.768107
 30
0.0
 11
425.488398
 21
295.549513
 31
0.0
  0
LINE
  5
B6
330
1F
100
AcDbEntity
  8
1
100
AcDbLine
 10
425.483166
 20
295.532065
 30
0.0
 11
425.488398
 21
295.549513
 31
0.0
  0
LINE
  5
B7
330
1F
100
AcDbEntity
  8
1
100
AcDbLine
 10
431.5983799999999
 20
289.801344
 30
0.0
 11
431.8818799999999
 21
290.185517
 31
0.0
  0
LINE
  5
B8
330
1F
100
AcDbEntity
  8
1
100
AcDbLine
 10
431.8818799999999
 20
290.424128
 30
0.0
 11
431.8818799999999
 21
290.185517
 31
0.0
  0
LINE
  5
B9
330
1F
100
AcDbEntity
  8
1
100
AcDbLine
 10
431.8818799999999
 20
290.424128
 30
0.0
 11
431.9240419999999
 21
290.423392
 31
0.0
  0
LINE
  5
BA
330
1F
100
AcDbEntity
  8
1
100
AcDbLine
 10
431.9240419999999
 20
296.047158
 30
0.0
 11
431.9240419999999
 21
290.623423
 31
0.0
  0
LINE
  5
BB
330
1F
100
AcDbEntity
  8
1
100
AcDbLine
 10
431.7575459999999
 20
295.768107
 30
0.0
 11
431.7557169999999
 21
295.99207
 31
0.0
  0
LINE
  5
BC
330
1F
100
AcDbEntity
  8
1
100
AcDbLine
 10
431.7575459999999
 20
295.768107
 30
0.0
 11
431.715563
 21
295.749377
 31
0.0
  0
LINE
  5
BD
330
1F
100
AcDbEntity
  8
1
100
AcDbLine
 10
430.8206929999999
 20
272.757994
 30
0.0
 11
431.4172
 21
278.378141
 31
0.0
  0
LINE
  5
BE
330
1F
100
AcDbEntity
  8
1
100
AcDbLine
 10
431.4172
 20
278.378141
 30
0.0
 11
431.375109
 21
278.378815
 31
0.0
  0
LINE
  5
BF
330
1F
100
AcDbEntity
  8
1
100
AcDbLine
 10
431.400391
 20
278.617015
 30
0.0
 11
431.375109
 21
278.378815
 31
0.0
  0
LINE
  5
C0
330
1F
100
AcDbEntity
  8
1
100
AcDbLine
 10
431.400391
 20
278.617015
 30
0.0
 11
431.158601
 21
279.009996
 31
0.0
  0
LINE
  5
C1
330
1F
100
AcDbEntity
  8
1
100
AcDbLine
 10
422.7911759999999
 20
304.9629470000001
 30
0.0
 11
422.78792
 21
305.05723
 31
0.0
  0
LINE
  5
C2
330
1F
100
AcDbEntity
  8
1
100
AcDbLine
 10
431.9240419999999
 20
290.423392
 30
0.0
 11
431.9240419999999
 21
290.623423
 31
0.0
  0
LINE
  5
C3
330
1F
100
AcDbEntity
  8
1
100
AcDbLine
 10
422.5621089999999
 20
304.570227
 30
0.0
 11
422.5478749999999
 21
304.9824089999999
 31
0.0
  0
LINE
  5
C4
330
1F
100
AcDbEntity
  8
1
100
AcDbLine
 10
425.483166
 20
295.532065
 30
0.0
 11
431.715563
 21
295.749377
 31
0.0
  0
LINE
  5
C5
330
1F
100
AcDbEntity
  8
1
100
AcDbLine
 10
431.71679
 20
295.599131
 30
0.0
 11
431.715563
 21
295.749377
 31
0.0
  0
LINE
  5
C6
330
1F
100
AcDbEntity
  8
1
100
AcDbLine
 10
423.817047
 20
303.924716
 30
0.0
 11
430.811467
 21
304.168599
 31
0.0
  0
LINE
  5
C7
330
1F
100
AcDbEntity
  8
1
100
AcDbLine
 10
432.658582
 20
288.276592
 30
0.0
 11
432.027211
 21
289.415615
 31
0.0
  0
LINE
  5
C8
330
1F
100
AcDbEntity
  8
1
100
AcDbLine
 10
431.922773
 20
289.526675
 30
0.0
 11
431.737336
 21
289.644481
 31
0.0
  0
LINE
  5
C9
330
1F
100
AcDbEntity
  8
1
100
AcDbLine
 10
431.4726089999999
 20
289.803545
 30
0.0
 11
431.737336
 21
289.644481
 31
0.0
  0
LINE
  5
CA
330
1F
100
AcDbEntity
  8
1
100
AcDbLine
 10
432.699061
 20
287.909483
 30
0.0
 11
432.5746239999999
 21
280.780477
 31
0.0
  0
LINE
  5
CB
330
1F
100
AcDbEntity
  8
1
100
AcDbLine
 10
432.699061
 20
287.909483
 30
0.0
 11
432.6974219999999
 21
288.129171
 31
0.0
  0
LINE
  5
CC
330
1F
100
AcDbEntity
  8
1
100
AcDbLine
 10
431.0202089999999
 20
279.012216
 30
0.0
 11
431.744824
 21
279.413876
 31
0.0
  0
LINE
  5
CD
330
1F
100
AcDbEntity
  8
1
100
AcDbLine
 10
431.8558829999999
 20
279.518314
 30
0.0
 11
431.97369
 21
279.703751
 31
0.0
  0
LINE
  5
CE
330
1F
100
AcDbEntity
  8
1
100
AcDbLine
 10
432.532606
 20
280.633944
 30
0.0
 11
431.97369
 21
279.703751
 31
0.0
  0
LINE
  5
CF
330
1F
100
AcDbEntity
  8
1
100
AcDbLine
 10
431.869467
 20
280.824096
 30
0.0
 11
431.3806
 21
280.0104839999999
 31
0.0
  0
LINE
  5
D0
330
1F
100
AcDbEntity
  8
1
100
AcDbLine
 10
431.536496
 20
288.941736
 30
0.0
 11
431.99667
 21
288.111559
 31
0.0
  0
LINE
  5
D1
330
1F
100
AcDbEntity
  8
1
100
AcDbLine
 10
431.3520389999999
 20
289.098598
 30
0.0
 11
431.430603
 21
289.051391
 31
0.0
  0
LINE
  5
D2
330
1F
100
AcDbEntity
  8
1
100
AcDbLine
 10
432.033549
 20
287.963649
 30
0.0
 11
431.911485
 21
280.970629
 31
0.0
  0
LINE
  5
D3
330
1F
100
AcDbEntity
  8
1
100
AcDbLine
 10
431.270945
 20
279.904592
 30
0.0
 11
430.990721
 21
279.749261
 31
0.0
  0
LINE
  5
D4
330
1F
100
AcDbEntity
  8
1
100
AcDbLine
 10
428.525458
 20
301.147654
 30
0.0
 11
428.5564449999999
 21
301.250984
 31
0.0
  0
LINE
  5
D5
330
1F
100
AcDbEntity
  8
1
100
AcDbLine
 10
426.6026759999999
 20
299.156245
 30
0.0
 11
426.571926
 21
299.053705
 31
0.0
  0
LINE
  5
D6
330
1F
100
AcDbEntity
  8
1
100
AcDbLine
 10
426.487898
 20
301.623338
 30
0.0
 11
426.5188429999999
 21
301.726532
 31
0.0
  0
LINE
  5
D7
330
1F
100
AcDbEntity
  8
1
100
AcDbLine
 10
425.7536459999999
 20
300.437092
 30
0.0
 11
425.7232169999999
 21
300.33562
 31
0.0
  0
LINE
  5
D8
330
1F
100
AcDbEntity
  8
1
100
AcDbLine
 10
425.8224309999999
 20
300.427209
 30
0.0
 11
425.791567
 21
300.324287
 31
0.0
  0
LINE
  5
D9
330
1F
100
AcDbEntity
  8
1
100
AcDbLine
 10
428.657411
 20
299.660311
 30
0.0
 11
428.687819
 21
299.761711
 31
0.0
  0
LINE
  5
DA
330
1F
100
AcDbEntity
  8
1
100
AcDbLine
 10
428.586283
 20
299.680221
 30
0.0
 11
428.617153
 21
299.783162
 31
0.0
  0
LINE
  5
DB
330
1F
100
AcDbEntity
  8
1
100
AcDbLine
 10
427.3290789999999
 20
298.885314
 30
0.0
 11
427.3598709999999
 21
298.987994
 31
0.0
  0
LINE
  5
DC
330
1F
100
AcDbEntity
  8
1
100
AcDbLine
 10
427.3307549999999
 20
298.867136
 30
0.0
 11
427.361426
 21
298.969412
 31
0.0
  0
LINE
  5
DD
330
1F
100
AcDbEntity
  8
1
100
AcDbLine
 10
431.9818579999999
 20
289.477775
 30
0.0
 11
431.489958
 21
289.002752
 31
0.0
  0
LINE
  5
DE
330
1F
100
AcDbEntity
  8
1
100
AcDbLine
 10
431.3520379999999
 20
288.869564
 30
0.0
 11
431.489958
 21
289.002752
 31
0.0
  0
LINE
  5
DF
330
1F
100
AcDbEntity
  8
1
100
AcDbLine
 10
432.687262
 20
288.20519
 30
0.0
 11
432.0237529999999
 21
288.039759
 31
0.0
  0
LINE
  5
E0
330
1F
100
AcDbEntity
  8
1
100
AcDbLine
 10
431.3727079999999
 20
287.877435
 30
0.0
 11
432.0237529999999
 21
288.039759
 31
0.0
  0
LINE
  5
E1
330
1F
100
AcDbEntity
  8
1
100
AcDbLine
 10
431.89904
 20
280.894907
 30
0.0
 11
431.2540559999999
 21
281.0798529999999
 31
0.0
  0
LINE
  5
E2
330
1F
100
AcDbEntity
  8
1
100
AcDbLine
 10
431.89904
 20
280.894907
 30
0.0
 11
432.563267
 21
280.704443
 31
0.0
  0
LINE
  5
E3
330
1F
100
AcDbEntity
  8
1
100
AcDbLine
 10
430.865862
 20
280.433789
 30
0.0
 11
431.153998
 21
280.135415
 31
0.0
  0
LINE
  5
E4
330
1F
100
AcDbEntity
  8
1
100
AcDbLine
 10
431.8069829999999
 20
279.45923
 30
0.0
 11
431.331961
 21
279.95113
 31
0.0
  0
LINE
  5
E5
330
1F
100
AcDbEntity
  8
1
100
AcDbLine
 10
420.2638639999999
 20
292.373836
 30
0.0
 11
420.275848
 21
292.023587
 31
0.0
  0
LINE
  5
E6
330
1F
100
AcDbEntity
  8
1
100
AcDbLine
 10
417.029899
 20
296.4975
 30
0.0
 11
416.2966909999999
 21
296.919918
 31
0.0
  0
LINE
  5
E7
330
1F
100
AcDbEntity
  8
1
100
AcDbLine
 10
420.2889299999999
 20
295.140202
 30
0.0
 11
420.2929219999999
 21
295.153513
 31
0.0
  0
LINE
  5
E8
330
1F
100
AcDbEntity
  8
1
100
AcDbLine
 10
430.171491
 20
295.045774
 30
0.0
 11
423.759016
 21
294.822182
 31
0.0
  0
LINE
  5
E9
330
1F
100
AcDbEntity
  8
1
100
AcDbLine
 10
288.254842
 20
304.815247
 30
0.0
 11
288.254842
 21
286.239355
 31
0.0
  0
LINE
  5
EE
330
1F
100
AcDbEntity
  8
80
100
AcDbLine
 10
275.404416
 20
288.907994
 30
0.0
 11
273.405268
 21
288.907994
 31
0.0
  0
LINE
  5
EF
330
1F
100
AcDbEntity
  8
1
100
AcDbLine
 10
306.573291
 20
305.057994
 30
0.0
 11
294.053832
 21
305.057994
 31
0.0
  0
LINE
  5
11E
330
1F
100
AcDbEntity
  8
NOCUT
100
AcDbLine
 10
279.404842
 20
313.907994
 30
0.0
 11
274.904842
 21
313.907994
 31
0.0
  0
LINE
  5
11F
330
1F
100
AcDbEntity
  8
NOCUT
100
AcDbLine
 10
274.404842
 20
307.957994
 30
0.0
 11
209.004842
 21
307.957994
 31
0.0
  0
LINE
  5
120
330
1F
100
AcDbEntity
  8
NOCUT
100
AcDbLine
 10
207.404842
 20
306.357994
 30
0.0
 11
207.404842
 21
288.907994
 31
0.0
  0
LINE
  5
121
330
1F
100
AcDbEntity
  8
NOCUT
100
AcDbLine
 10
279.404842
 20
313.907994
 30
0.0
 11
284.154337
 21
309.158499
 31
0.0
  0
LINE
  5
122
330
1F
100
AcDbEntity
  8
NOCUT
100
AcDbLine
 10
431.6148759999999
 20
305.057994
 30
0.0
 11
431.9240419999999
 21
296.276676
 31
0.0
  0
LINE
  5
123
330
1F
100
AcDbEntity
  8
NOCUT
100
AcDbLine
 10
431.9240419999999
 20
296.276676
 30
0.0
 11
431.9240419999999
 21
288.907994
 31
0.0
  0
LINE
  5
124
330
1F
100
AcDbEntity
  8
NOCUT
100
AcDbLine
 10
431.9240419999999
 20
288.907994
 30
0.0
 11
207.404842
 21
288.907994
 31
0.0
  0
LINE
  5
125
330
1F
100
AcDbEntity
  8
NOCUT
100
AcDbLine
 10
274.404842
 20
307.957994
 30
0.0
 11
274.404842
 21
313.407994
 31
0.0
  0
LINE
  5
126
330
1F
100
AcDbEntity
  8
NOCUT
100
AcDbLine
 10
274.404842
 20
313.407994
 30
0.0
 11
274.904842
 21
313.907994
 31
0.0
  0
LINE
  5
127
330
1F
100
AcDbEntity
  8
NOCUT
100
AcDbLine
 10
294.053832
 20
305.057994
 30
0.0
 11
431.6148759999999
 21
305.057994
 31
0.0
  0
LINE
  5
128
330
1F
100
AcDbEntity
  8
NOCUT
100
AcDbLine
 10
207.404842
 20
306.357994
 30
0.0
 11
209.004842
 21
307.957994
 31
0.0
  0
CIRCLE
  5
131
330
1F
100
AcDbEntity
  8
1
100
AcDbCircle
 10
426.718141
 20
284.72888
 30
0.0
 40
1.35
  0
ARC
  5
132
330
1F
100
AcDbEntity
  8
1
100
AcDbCircle
 10
294.053832
 20
258.757994
 30
0.0
 40
14.0
100
AcDbArc
 50
90.0
 51
135.0
  0
ARC
  5
133
330
1F
100
AcDbEntity
  8
1
100
AcDbCircle
 10
294.053832
 20
319.057994
 30
0.0
 40
14.0
100
AcDbArc
 50
225.0
 51
270.0
  0
ARC
  5
134
330
1F
100
AcDbEntity
  8
1
100
AcDbCircle
 10
426.718141
 20
284.72888
 30
0.0
 40
1.75
100
AcDbArc
 50
75.0
 51
345.0
  0
ARC
  5
143
330
1F
100
AcDbEntity
  8
NOCUT
100
AcDbCircle
 10
294.053832
 20
319.057994
 30
0.0
 40
14.0
100
AcDbArc
 50
225.0
 51
270.0
  0
ELLIPSE
  5
144
330
1F
100
AcDbEntity
  8
1
100
AcDbEllipse
 10
430.945417
 20
281.168354
 30
0.0
 11
-0.3086390084417319
 21
0.0885008115358406
 31
0.0
210
0.0
220
0.0
230
0.9999999999999998
 40
0.6229040000000001
 41
2.976210626445484
 42
3.306974680734088
  0
ELLIPSE
  5
145
330
1F
100
AcDbEntity
  8
1
100
AcDbEllipse
 10
431.061169
 20
287.79976
 30
0.0
 11
-0.3115396276772998
 21
-0.0776755531752887
 31
0.0
210
-0.0000000000000001
220
0.0
230
1.0
 40
0.6229040000000001
 41
2.976210626445514
 42
3.306974680734071
  0
ELLIPSE
  5
146
330
1F
100
AcDbEntity
  8
1
100
AcDbEllipse
 10
427.2818919999999
 20
300.398223
 30
0.0
 11
2.634108111088727
 21
-0.7899205397358513
 31
0.0
210
0.0
220
0.0
230
1.0
 40
0.9981549999999998
 41
0.0
 42
6.283185307179585
  0
ELLIPSE
  5
147
330
1F
100
AcDbEntity
  8
1
100
AcDbEllipse
 10
426.652871
 20
299.003392
 30
0.0
 11
-0.0913005075502099
 21
0.0273793417584561
 31
0.0
210
0.0
220
0.0
230
0.9999999999999998
 40
0.9981549999999998
 41
5.409617918979179
 42
6.086349835859869
  0
ELLIPSE
  5
148
330
1F
100
AcDbEntity
  8
1
100
AcDbEllipse
 10
426.4844849999999
 20
299.092738
 30
0.0
 11
-0.0913005075502098
 21
0.027379341758456
 31
0.0
210
0.0
220
0.0
230
0.9999999999999996
 40
0.9981549999999998
 41
1.744426489790646
 42
2.944757182269928
  0
ELLIPSE
  5
149
330
1F
100
AcDbEntity
  8
1
100
AcDbEllipse
 10
426.543599
 20
299.593936
 30
0.0
 11
-0.575571219680106
 21
0.1726032149524101
 31
0.0
210
0.0
220
0.0
230
0.9999999999999996
 40
0.9981549999999998
 41
0.4798964455609777
 42
1.744426489791115
  0
ELLIPSE
  5
14A
330
1F
100
AcDbEntity
  8
1
100
AcDbEllipse
 10
426.0471059999999
 20
299.499587
 30
0.0
 11
-0.0913005075502119
 21
0.0273793417584567
 31
0.0
210
0.0
220
0.0
230
1.0
 40
0.9981549999999998
 41
5.562751060261463
 42
6.763081752740436
  0
ELLIPSE
  5
14B
330
1F
100
AcDbEntity
  8
1
100
AcDbEllipse
 10
425.945936
 20
299.66098
 30
0.0
 11
-0.0913005075502119
 21
0.0273793417584567
 31
0.0
210
0.0
220
0.0
230
1.0
 40
0.9981549999999998
 41
2.421158406671727
 42
3.097890323552482
  0
ELLIPSE
  5
14C
330
1F
100
AcDbEntity
  8
1
100
AcDbEllipse
 10
425.468461
 20
299.827184
 30
0.0
 11
-0.5755712196801058
 21
0.17260321495241
 31
0.0
210
0.0
220
0.0
230
1.0
 40
0.9981549999999998
 41
3.097890323552498
 42
4.362420367782604
  0
ELLIPSE
  5
14D
330
1F
100
AcDbEntity
  8
1
100
AcDbEllipse
 10
425.7706709999999
 20
300.231467
 30
0.0
 11
-0.0913005075502099
 21
0.0273793417584561
 31
0.0
210
0.0
220
0.0
230
0.9999999999999998
 40
0.9981549999999998
 41
4.362420367782664
 42
5.039152284663297
  0
ELLIPSE
  5
14E
330
1F
100
AcDbEntity
  8
1
100
AcDbEllipse
 10
425.763825
 20
300.421664
 30
0.0
 11
-0.0913005075502098
 21
0.027379341758456
 31
0.0
210
0.0
220
0.0
230
0.9999999999999996
 40
0.9981549999999998
 41
0.6972289385944328
 42
1.897559631073174
  0
ELLIPSE
  5
14F
330
1F
100
AcDbEntity
  8
1
100
AcDbEllipse
 10
426.2281549999999
 20
300.620706
 30
0.0
 11
-0.575571219680106
 21
0.1726032149524101
 31
0.0
210
0.0
220
0.0
230
0.9999999999999996
 40
0.9981549999999998
 41
5.715884201543934
 42
6.980414245774191
  0
ELLIPSE
  5
150
330
1F
100
AcDbEntity
  8
1
100
AcDbEllipse
 10
425.897636
 20
301.002928
 30
0.0
 11
-0.0913005075502119
 21
0.0273793417584567
 31
0.0
210
0.0
220
0.0
230
1.0
 40
0.9981549999999998
 41
4.515553509064763
 42
5.715884201543975
  0
ELLIPSE
  5
151
330
1F
100
AcDbEntity
  8
1
100
AcDbEllipse
 10
425.986949
 20
301.170963
 30
0.0
 11
-0.0913005075502119
 21
0.0273793417584567
 31
0.0
210
0.0
220
0.0
230
1.0
 40
0.9981549999999998
 41
1.373960855475234
 42
2.050692772355745
  0
ELLIPSE
  5
152
330
1F
100
AcDbEntity
  8
1
100
AcDbEllipse
 10
425.891949
 20
301.666787
 30
0.0
 11
-0.5755712196801058
 21
0.17260321495241
 31
0.0
210
0.0
220
0.0
230
1.0
 40
0.9981549999999998
 41
2.050692772355855
 42
3.315222816586058
  0
ELLIPSE
  5
153
330
1F
100
AcDbEntity
  8
1
100
AcDbEllipse
 10
426.3939809999999
 20
301.607255
 30
0.0
 11
-0.0913005075502099
 21
0.0273793417584561
 31
0.0
210
0.0
220
0.0
230
0.9999999999999998
 40
0.9981549999999998
 41
3.315222816586098
 42
3.991954733466849
  0
ELLIPSE
  5
154
330
1F
100
AcDbEntity
  8
1
100
AcDbEllipse
 10
426.555521
 20
301.708105
 30
0.0
 11
-0.0913005075502098
 21
0.027379341758456
 31
0.0
210
0.0
220
0.0
230
0.9999999999999996
 40
0.9981549999999998
 41
5.933216694577597
 42
7.133547387056593
  0
ELLIPSE
  5
155
330
1F
100
AcDbEntity
  8
1
100
AcDbEllipse
 10
426.9607360000001
 20
301.405949
 30
0.0
 11
-0.575571219680106
 21
0.1726032149524101
 31
0.0
210
0.0
220
0.0
230
0.9999999999999996
 40
0.9981549999999998
 41
4.668686650347346
 42
5.93321669457753
  0
ELLIPSE
  5
156
330
1F
100
AcDbEntity
  8
1
100
AcDbEllipse
 10
427.1267110000001
 20
301.88252
 30
0.0
 11
-0.0913005075502119
 21
0.0273793417584567
 31
0.0
210
0.0
220
0.0
230
1.0
 40
0.9981549999999998
 41
3.468355957868543
 42
4.668686650347361
  0
ELLIPSE
  5
157
330
1F
100
AcDbEntity
  8
1
100
AcDbEllipse
 10
427.317194
 20
301.889162
 30
0.0
 11
-0.0913005075502119
 21
0.0273793417584567
 31
0.0
210
0.0
220
0.0
230
1.0
 40
0.9981549999999998
 41
0.3267633042787508
 42
1.003495221159282
  0
ELLIPSE
  5
158
330
1F
100
AcDbEntity
  8
1
100
AcDbEllipse
 10
427.69967
 20
302.218783
 30
0.0
 11
-0.5755712196801058
 21
0.17260321495241
 31
0.0
210
0.0
220
0.0
230
1.0
 40
0.9981549999999998
 41
1.003495221159292
 42
2.268025265389417
  0
ELLIPSE
  5
159
330
1F
100
AcDbEntity
  8
1
100
AcDbEllipse
 10
427.899491
 20
301.754967
 30
0.0
 11
-0.0913005075502099
 21
0.0273793417584561
 31
0.0
210
0.0
220
0.0
230
0.9999999999999998
 40
0.9981549999999998
 41
2.268025265390083
 42
2.944757182270557
  0
ELLIPSE
  5
15A
330
1F
100
AcDbEntity
  8
1
100
AcDbEllipse
 10
428.0678769999999
 20
301.665621
 30
0.0
 11
-0.0913005075502098
 21
0.027379341758456
 31
0.0
210
0.0
220
0.0
230
0.9999999999999996
 40
0.9981549999999998
 41
4.886019143381025
 42
6.086349835859913
  0
ELLIPSE
  5
15B
330
1F
100
AcDbEntity
  8
1
100
AcDbEllipse
 10
428.0087629999999
 20
301.164423
 30
0.0
 11
-0.575571219680106
 21
0.1726032149524101
 31
0.0
210
0.0
220
0.0
230
0.9999999999999996
 40
0.9981549999999998
 41
3.62148909915075
 42
4.886019143380913
  0
ELLIPSE
  5
15C
330
1F
100
AcDbEntity
  8
1
100
AcDbEllipse
 10
428.5052559999999
 20
301.258772
 30
0.0
 11
-0.0913005075502119
 21
0.0273793417584567
 31
0.0
210
0.0
220
0.0
230
1.0
 40
0.9981549999999998
 41
2.421158406671838
 42
3.621489099150913
  0
ELLIPSE
  5
15D
330
1F
100
AcDbEntity
  8
1
100
AcDbEllipse
 10
428.6064259999999
 20
301.097378
 30
0.0
 11
-0.0913005075502119
 21
0.0273793417584567
 31
0.0
210
0.0
220
0.0
230
1.0
 40
0.9981549999999998
 41
5.562751060261463
 42
6.239482977142437
  0
ELLIPSE
  5
15E
330
1F
100
AcDbEntity
  8
1
100
AcDbEllipse
 10
429.083901
 20
300.931175
 30
0.0
 11
-0.5755712196801058
 21
0.17260321495241
 31
0.0
210
0.0
220
0.0
230
1.0
 40
0.9981549999999998
 41
6.239482977142284
 42
7.504013021372389
  0
ELLIPSE
  5
15F
330
1F
100
AcDbEntity
  8
1
100
AcDbEllipse
 10
428.781691
 20
300.526891
 30
0.0
 11
-0.0913005075502099
 21
0.0273793417584561
 31
0.0
210
0.0
220
0.0
230
0.9999999999999998
 40
0.9981549999999998
 41
1.220827714192872
 42
1.897559631073527
  0
ELLIPSE
  5
160
330
1F
100
AcDbEntity
  8
1
100
AcDbEllipse
 10
428.788537
 20
300.336695
 30
0.0
 11
-0.0913005075502098
 21
0.027379341758456
 31
0.0
210
0.0
220
0.0
230
0.9999999999999996
 40
0.9981549999999998
 41
3.838821592184225
 42
5.039152284663014
  0
ELLIPSE
  5
161
330
1F
100
AcDbEntity
  8
1
100
AcDbEllipse
 10
428.324207
 20
300.137653
 30
0.0
 11
-0.575571219680106
 21
0.1726032149524101
 31
0.0
210
0.0
220
0.0
230
0.9999999999999996
 40
0.9981549999999998
 41
2.574291547954193
 42
3.838821592184348
  0
ELLIPSE
  5
162
330
1F
100
AcDbEntity
  8
1
100
AcDbEllipse
 10
428.6547259999999
 20
299.755431
 30
0.0
 11
-0.0913005075502119
 21
0.0273793417584567
 31
0.0
210
0.0
220
0.0
230
1.0
 40
0.9981549999999998
 41
1.373960855475307
 42
2.574291547954279
  0
ELLIPSE
  5
163
330
1F
100
AcDbEntity
  8
1
100
AcDbEllipse
 10
428.565413
 20
299.587395
 30
0.0
 11
-0.0913005075502119
 21
0.0273793417584567
 31
0.0
210
0.0
220
0.0
230
1.0
 40
0.9981549999999998
 41
4.515553509065056
 42
5.192285425945872
  0
ELLIPSE
  5
164
330
1F
100
AcDbEntity
  8
1
100
AcDbEllipse
 10
428.6604129999999
 20
299.091571
 30
0.0
 11
-0.5755712196801058
 21
0.17260321495241
 31
0.0
210
0.0
220
0.0
230
1.0
 40
0.9981549999999998
 41
5.19228542594558
 42
6.456815470175816
  0
ELLIPSE
  5
165
330
1F
100
AcDbEntity
  8
1
100
AcDbEllipse
 10
428.1583809999999
 20
299.151104
 30
0.0
 11
-0.0913005075502099
 21
0.0273793417584561
 31
0.0
210
0.0
220
0.0
230
0.9999999999999998
 40
0.9981549999999998
 41
0.1736301629961872
 42
0.8503620798767341
  0
ELLIPSE
  5
166
330
1F
100
AcDbEntity
  8
1
100
AcDbEllipse
 10
427.996841
 20
299.050254
 30
0.0
 11
-0.0913005075502098
 21
0.027379341758456
 31
0.0
210
0.0
220
0.0
230
0.9999999999999996
 40
0.9981549999999998
 41
2.791624040987728
 42
3.991954733466428
  0
ELLIPSE
  5
167
330
1F
100
AcDbEntity
  8
1
100
AcDbEllipse
 10
427.5916259999999
 20
299.352409
 30
0.0
 11
-0.575571219680106
 21
0.1726032149524101
 31
0.0
210
0.0
220
0.0
230
0.9999999999999996
 40
0.9981549999999998
 41
1.527093996757554
 42
2.79162404098772
  0
ELLIPSE
  5
168
330
1F
100
AcDbEntity
  8
1
100
AcDbEllipse
 10
427.4256509999999
 20
298.875838
 30
0.0
 11
-0.0913005075502119
 21
0.0273793417584567
 31
0.0
210
0.0
220
0.0
230
1.0
 40
0.9981549999999998
 41
0.3267633042786094
 42
1.527093996757858
  0
ELLIPSE
  5
169
330
1F
100
AcDbEntity
  8
1
100
AcDbEllipse
 10
427.2351679999999
 20
298.8691970000001
 30
0.0
 11
-0.0913005075502119
 21
0.0273793417584567
 31
0.0
210
0.0
220
0.0
230
1.0
 40
0.9981549999999998
 41
3.468355957868498
 42
4.145087874749326
  0
ELLIPSE
  5
16A
330
1F
100
AcDbEntity
  8
1
100
AcDbEllipse
 10
426.852692
 20
298.5395759999999
 30
0.0
 11
-0.5755712196801058
 21
0.17260321495241
 31
0.0
210
0.0
220
0.0
230
1.0
 40
0.9981549999999998
 41
4.145087874749046
 42
5.409617918979277
  0
ELLIPSE
  5
16B
330
1F
100
AcDbEntity
  8
1
100
AcDbEllipse
 10
427.2761809999999
 20
300.379179
 30
0.0
 11
1.724143490894439
 21
-0.5170388987361938
 31
0.0
210
0.0
220
0.0
230
1.0
 40
0.9981549999999998
 41
0.0
 42
6.283185307179585
  0
ELLIPSE
  5
16C
330
1F
100
AcDbEntity
  8
1
100
AcDbEllipse
 10
427.462615
 20
300.630322
 30
0.0
 11
2.964812602894983
 21
-0.8890927299587872
 31
0.0
210
0.0
220
0.0
230
0.9999999999999998
 40
0.9981549999999998
 41
2.109224302898824
 42
6.283185307179585
  0
ELLIPSE
  5
16D
330
1F
100
AcDbEntity
  8
1
100
AcDbEllipse
 10
427.462615
 20
300.630322
 30
0.0
 11
2.964812602894983
 21
-0.8890927299587872
 31
0.0
210
0.0
220
0.0
230
0.9999999999999998
 40
0.9981549999999998
 41
0.0
 42
1.032443632477759
  0
ELLIPSE
  5
16E
330
1F
100
AcDbEntity
  8
1
100
AcDbEllipse
 10
423.5461429999999
 20
296.347461
 30
0.0
 11
0.9632498673298856
 21
1.034013649417351
 31
0.0
210
0.0
220
0.0
230
0.9999999999999998
 40
0.019037
 41
0.9774479006977392
 42
1.532258934291558
  0
ELLIPSE
  5
16F
330
1F
100
AcDbEntity
  8
1
100
AcDbEllipse
 10
427.442819
 20
300.564308
 30
0.0
 11
3.021788676938711
 21
-0.9061788058761676
 31
0.0
210
0.0
220
0.0
230
1.0
 40
0.9981549999999998
 41
0.0
 42
6.283185307179585
  0
ELLIPSE
  5
170
330
1F
100
AcDbEntity
  8
1
100
AcDbEllipse
 10
427.439941
 20
300.554711
 30
0.0
 11
-3.113036858559408
 21
0.9335424560514674
 31
0.0
210
0.0
220
0.0
230
0.9999999999999996
 40
0.9981549999999998
 41
0.0
 42
6.283185307179585
  0
ELLIPSE
  5
171
330
1F
100
AcDbEntity
  8
1
100
AcDbEllipse
 10
431.593289
 20
296.628051
 30
0.0
 11
1.034593835986797
 21
-0.9637903482016895
 31
0.0
210
0.0
220
0.0
230
1.0
 40
0.038513
 41
1.589809900513028
 42
2.144620933721376
  0
ELLIPSE
  5
172
330
1F
100
AcDbEntity
  8
1
100
AcDbEllipse
 10
432.534808
 20
288.907994
 30
0.0
 11
1.748056126137156
 21
16.14817351915513
 31
0.0
210
0.0
220
0.0
230
1.0
 40
0.138944
 41
1.950157975638346
 42
3.156632395651093
  0
ELLIPSE
  5
173
330
1F
100
AcDbEntity
  8
1
100
AcDbEllipse
 10
431.9240419999999
 20
288.907994
 30
0.0
 11
0.0
 21
16.14999999986163
 31
0.0
210
0.0
220
0.0
230
1.0
 40
0.140541
 41
1.388263875171336
 42
1.935118233580532
  0
ELLIPSE
  5
174
330
1F
100
AcDbEntity
  8
1
100
AcDbEllipse
 10
424.16139
 20
297.207031
 30
0.0
 11
-1.915714989882709
 21
0.5744876652624407
 31
0.0
210
0.0
220
0.0
230
1.0
 40
0.9981549999999998
 41
0.0634585961627261
 42
1.897559557858017
  0
ELLIPSE
  5
175
330
1F
100
AcDbEntity
  8
1
100
AcDbEllipse
 10
424.16139
 20
297.207031
 30
0.0
 11
-1.915714989882709
 21
0.5744876652624407
 31
0.0
210
0.0
220
0.0
230
1.0
 40
0.9981549999999998
 41
1.897559557858015
 42
2.607363341518173
  0
ELLIPSE
  5
176
330
1F
100
AcDbEntity
  8
1
100
AcDbEllipse
 10
424.09389
 20
296.981943
 30
0.0
 11
-1.915714989882709
 21
0.5744876652624407
 31
0.0
210
0.0
220
0.0
230
1.0
 40
0.9981549999999998
 41
5.737896998741036
 42
5.880835539025661
  0
ELLIPSE
  5
177
330
1F
100
AcDbEntity
  8
1
100
AcDbEllipse
 10
424.0886579999999
 20
296.964494
 30
0.0
 11
1.91571498988271
 21
-0.5744876652624372
 31
0.0
210
0.0
220
0.0
230
1.0
 40
0.9981549999999998
 41
2.739242885435851
 42
4.40166485449034
  0
ELLIPSE
  5
178
330
1F
100
AcDbEntity
  8
1
100
AcDbEllipse
 10
422.8908969999999
 20
288.9074779999999
 30
0.0
 11
0.5398704882055437
 21
-16.1505119022485
 31
0.0
210
0.0
220
0.0
230
1.0
 40
0.019399
 41
3.237486654960898
 42
3.256081277422659
  0
ELLIPSE
  5
179
330
1F
100
AcDbEntity
  8
1
100
AcDbEllipse
 10
369.632503
 20
288.90649
 30
0.0
 11
925.8386329546905
 21
-0.9397120024035999
 31
0.0
210
0.0
220
0.0
230
0.9999999999999998
 40
0.017416
 41
1.513876712510488
 42
1.519629890972856
  0
ELLIPSE
  5
17A
330
1F
100
AcDbEntity
  8
1
100
AcDbEllipse
 10
263.241461
 20
288.907997
 30
0.0
 11
421.3996008993843
 21
15.74933079791211
 31
0.0
210
0.0
220
0.0
230
0.9999999999999998
 40
0.008484
 41
5.103158243350164
 42
5.118133828270328
  0
ELLIPSE
  5
17B
330
1F
100
AcDbEntity
  8
1
100
AcDbEllipse
 10
431.0358159999999
 20
279.512025
 30
0.0
 11
0.0538770024347255
 21
0.4991611425064627
 31
0.0
210
0.0
220
0.0
230
0.9999999999999998
 40
0.139171
 41
1.583568179242708
 42
3.154364506043597
  0
ELLIPSE
  5
17C
330
1F
100
AcDbEntity
  8
1
100
AcDbEllipse
 10
431.422311
 20
289.304341
 30
0.0
 11
0.0001758288822657
 21
-0.5000776676663964
 31
0.0
210
0.0
220
0.0
230
0.9999999999999998
 40
0.140519
 41
3.139090475969507
 42
4.709886802763141
  0
ELLIPSE
  5
17D
330
1F
100
AcDbEntity
  8
1
100
AcDbEllipse
 10
314.828325
 20
288.907994
 30
0.0
 11
52.76945531713558
 21
-12.65846887525955
 31
0.0
210
0.0
220
0.0
230
1.0
 40
0.190058
 41
4.353757448286911
 42
4.478220294917802
  0
ELLIPSE
  5
17E
330
1F
100
AcDbEntity
  8
1
100
AcDbEllipse
 10
424.09389
 20
296.981943
 30
0.0
 11
-1.915714989882709
 21
0.5744876652624407
 31
0.0
210
0.0
220
0.0
230
1.0
 40
0.9981549999999998
 41
2.633344353648396
 42
2.764625407905443
  0
ELLIPSE
  5
17F
330
1F
100
AcDbEntity
  8
1
100
AcDbEllipse
 10
431.646817
 20
295.567914
 30
0.0
 11
0.0003006604976678
 21
0.5003081624138133
 31
0.0
210
0.0
220
0.0
230
1.0
 40
0.140096
 41
3.204112759000669
 42
4.774909085791924
  0
ELLIPSE
  5
180
330
1F
100
AcDbEntity
  8
1
100
AcDbEllipse
 10
423.192287
 20
288.907994
 30
0.0
 11
0.4351478826090136
 21
-16.14988376256006
 31
0.0
210
0.0
220
0.0
230
1.0
 40
0.140795
 41
3.128072695515665
 42
3.234585578521875
  0
ELLIPSE
  5
181
330
1F
100
AcDbEntity
  8
1
100
AcDbEllipse
 10
423.3244929999999
 20
288.907993
 30
0.0
 11
0.5398522192645813
 21
-16.14999664247353
 31
0.0
210
0.0
220
0.0
230
1.0
 40
0.019399
 41
3.034769439676177
 42
3.131217828499252
  0
ELLIPSE
  5
182
330
1F
100
AcDbEntity
  8
1
100
AcDbEllipse
 10
260.103467
 20
288.907993
 30
0.0
 11
52.7694549216719
 21
-12.6584687189211
 31
0.0
210
0.0
220
0.0
230
1.0
 40
0.190058
 41
5.455971392046413
 42
5.493947810968261
  0
ELLIPSE
  5
183
330
1F
100
AcDbEntity
  8
1
100
AcDbEllipse
 10
430.515653
 20
288.907997
 30
0.0
 11
27.70621972560938
 21
-15.9329829627788
 31
0.0
210
0.0
220
0.0
230
0.9999999999999998
 40
0.095236
 41
4.236925758208865
 42
4.265660598023252
  0
ELLIPSE
  5
184
330
1F
100
AcDbEntity
  8
1
100
AcDbEllipse
 10
424.0886579999999
 20
296.964494
 30
0.0
 11
1.91571498988271
 21
-0.5744876652624372
 31
0.0
210
0.0
220
0.0
230
1.0
 40
0.9981549999999998
 41
5.654578117271862
 42
5.774937007238182
  0
ELLIPSE
  5
185
330
1F
100
AcDbEntity
  8
1
100
AcDbEllipse
 10
421.439971
 20
293.068581
 30
0.0
 11
-4.802152040345099
 21
-0.1887363038154516
 31
0.0
210
0.0
220
0.0
230
1.0
 40
0.22151
 41
2.088844554036334
 42
4.192089526725383
  0
ELLIPSE
  5
186
330
1F
100
AcDbEntity
  8
1
100
AcDbEllipse
 10
423.2569419999999
 20
304.382495
 30
0.0
 11
1.034593836463407
 21
-0.9637903486536147
 31
0.0
210
0.0
220
0.0
230
1.0
 40
0.038513
 41
1.034998867640625
 42
1.589809900604094
  0
ELLIPSE
  5
187
330
1F
100
AcDbEntity
  8
1
100
AcDbEllipse
 10
431.304087
 20
304.663085
 30
0.0
 11
0.9632498685337868
 21
1.034013650729278
 31
0.0
210
0.0
220
0.0
230
1.0
 40
0.019037
 41
1.532258933834304
 42
2.087069966779995
  0
ELLIPSE
  5
188
330
1F
100
AcDbEntity
  8
1
100
AcDbEllipse
 10
431.7726269999999
 20
289.275723
 30
0.0
 11
0.1593661330572264
 21
-0.2546671896349287
 31
0.0
210
0.0
220
0.0
230
1.0
 40
0.9668320000000001
 41
1.515965208592073
 42
2.029724467193001
  0
ELLIPSE
  5
189
330
1F
100
AcDbEntity
  8
1
100
AcDbEllipse
 10
432.405038
 20
288.134824
 30
0.0
 11
0.1315188413548378
 21
-0.270103195485679
 31
0.0
210
0.0
220
0.0
230
1.0
 40
0.9668319999999999
 41
1.111868186382948
 42
1.62562744498168
  0
ELLIPSE
  5
18A
330
1F
100
AcDbEntity
  8
1
100
AcDbEllipse
 10
431.604932
 20
279.66846
 30
0.0
 11
0.254667189247083
 21
0.1593661334796199
 31
0.0
210
0.0
220
0.0
230
1.0
 40
0.9668319999999999
 41
4.657557860221237
 42
5.171317118998997
  0
ELLIPSE
  5
18B
330
1F
100
AcDbEntity
  8
1
100
AcDbEllipse
 10
432.269107
 20
280.788792
 30
0.0
 11
-0.2941597133632818
 21
0.0843489404830548
 31
0.0
210
0.0
220
0.0
230
0.9999999999999998
 40
0.9803469999999999
 41
2.884713024277096
 42
3.398472282902498
  0
ELLIPSE
  5
18C
330
1F
100
AcDbEntity
  8
1
100
AcDbEllipse
 10
431.0782349999999
 20
280.21387
 30
0.0
 11
0.2800576453388559
 21
-0.234691654008534
 31
0.0
210
0.0
220
0.0
230
1.0
 40
0.8188099999999998
 41
6.264719809532413
 42
6.411625123516259
  0
ELLIPSE
  5
18D
330
1F
100
AcDbEntity
  8
1
100
AcDbEllipse
 10
431.547936
 20
280.995584
 30
0.0
 11
0.3386995140895884
 21
-0.1370951565019655
 31
0.0
210
0.0
220
0.0
230
0.9999999999999998
 40
0.8188100000000002
 41
6.154745481715215
 42
6.301650799665389
  0
ELLIPSE
  5
18E
330
1F
100
AcDbEntity
  8
1
100
AcDbEllipse
 10
431.66935
 20
287.951396
 30
0.0
 11
0.3432777273950535
 21
0.1251911926127413
 31
0.0
210
0.0
220
0.0
230
1.0
 40
0.8188099999999998
 41
6.264719819081897
 42
6.41162513977542
  0
ELLIPSE
  5
18F
330
1F
100
AcDbEntity
  8
1
100
AcDbEllipse
 10
431.2272169999999
 20
288.7490259999999
 30
0.0
 11
0.2880776546374517
 21
0.2247748101980174
 31
0.0
210
0.0
220
0.0
230
0.9999999999999998
 40
0.81881
 41
6.154745487576357
 42
6.301650803425377
  0
ELLIPSE
  5
190
330
1F
100
AcDbEntity
  8
1
100
AcDbEllipse
 10
431.2272169999999
 20
288.7490259999999
 30
0.0
 11
0.2346916581574156
 21
0.280057653359759
 31
0.0
210
0.0
220
0.0
230
1.0
 40
0.8188100000000002
 41
6.264719805341253
 42
6.411625117546231
  0
ELLIPSE
  5
191
330
1F
100
AcDbEntity
  8
1
100
AcDbEllipse
 10
431.547936
 20
280.995584
 30
0.0
 11
0.359882875820231
 21
-0.0632201125205173
 31
0.0
210
0.0
220
0.0
230
0.9999999999999996
 40
0.81881
 41
6.264719806345047
 42
6.411625117640777
  0
ELLIPSE
  5
192
330
1F
100
AcDbEntity
  8
1
100
AcDbEllipse
 10
431.66935
 20
287.951396
 30
0.0
 11
0.3618699965501095
 21
0.0506218687306486
 31
0.0
210
0.0
220
0.0
230
1.0
 40
0.8188099999999998
 41
6.154745498712927
 42
6.30165080971513
  0
ELLIPSE
  5
193
330
1F
100
AcDbEntity
  8
1
100
AcDbEllipse
 10
431.0782349999999
 20
280.21387
 30
0.0
 11
0.2247748152815462
 21
-0.2880776632104233
 31
0.0
210
0.0
220
0.0
230
1.0
 40
0.81881
 41
6.15474549215311
 42
6.301650806010518
  0
ELLIPSE
  5
194
330
1F
100
AcDbEntity
  8
1
100
AcDbEllipse
 10
423.313536
 20
307.393433
 30
0.0
 11
-12.06900443626107
 21
3.619272291153376
 31
0.0
210
0.0
220
0.0
230
0.9999999999999996
 40
0.9981549999999998
 41
1.339449352448135
 42
1.897005016164444
  0
ELLIPSE
  5
195
330
1F
100
AcDbEntity
  8
1
100
AcDbEllipse
 10
427.3023440000001
 20
300.466423
 30
0.0
 11
-2.634108111088726
 21
0.7899205397358561
 31
0.0
210
0.0
220
0.0
230
1.0
 40
0.9981549999999998
 41
3.141630460996419
 42
6.283124831951988
  0
SPLINE
  5
19C
330
1F
100
AcDbEntity
  8
1
100
AcDbSpline
210
0.0
220
0.0
230
1.0
 70
     8
 71
     3
 72
    22
 73
    18
 74
     0
 42
0.000000001
 43
0.0000000001
 40
0.0
 40
0.0
 40
0.0
 40
0.0
 40
0.1290468714445591
 40
0.1290468714445591
 40
0.2016262988241818
 40
0.2016262988241818
 40
0.2742057262038046
 40
0.2742057262038046
 40
0.4193645809630436
 40
0.4193645809630436
 40
0.5645234357222827
 40
0.5645234357222827
 40
0.7096822904815219
 40
0.7096822904815219
 40
0.8548411452407609
 40
0.8548411452407609
 40
1.0
 40
1.0
 40
1.0
 40
1.0
 10
428.1162199314466
 20
299.3688119426371
 30
0.0
 10
428.1242564401273
 20
299.3957106695722
 30
0.0
 10
428.1341675547631
 20
299.4221890587149
 30
0.0
 10
428.1527907966197
 20
299.4628770004786
 30
0.0
 10
428.1600963380866
 20
299.4772904623201
 30
0.0
 10
428.1757269168996
 20
299.5053041297921
 30
0.0
 10
428.1840763472843
 20
299.5189587569962
 30
0.0
 10
428.2107262576503
 20
299.558867367141
 30
0.0
 10
428.2306516802722
 20
299.5841104948425
 30
0.0
 10
428.2748607843855
 20
299.6314840902846
 30
0.0
 10
428.2984901659771
 20
299.6529256762223
 30
0.0
 10
428.3486324299133
 20
299.6915786901145
 30
0.0
 10
428.3751560633811
 20
299.7087947872128
 30
0.0
 10
428.4311218863396
 20
299.7389064348014
 30
0.0
 10
428.4597457456872
 20
299.7513670267022
 30
0.0
 10
428.5182272060853
 20
299.7715221310524
 30
0.0
 10
428.5480853987352
 20
299.7792140828867
 30
0.0
 10
428.5785871117038
 20
299.784530247583
 30
0.0
  0
SPLINE
  5
19D
330
1F
100
AcDbEntity
  8
1
100
AcDbSpline
210
0.0
220
0.0
230
1.0
 70
     8
 71
     3
 72
    10
 73
     6
 74
     0
 42
0.000000001
 43
0.0000000001
 40
0.0
 40
0.0
 40
0.0
 40
0.0
 40
0.5
 40
0.5
 40
1.0
 40
1.0
 40
1.0
 40
1.0
 10
428.5474910260965
 20
301.2323689226886
 30
0.0
 10
428.5510554574447
 20
301.2425786772445
 30
0.0
 10
428.5562659180388
 20
301.251814841474
 30
0.0
 10
428.5696364223156
 20
301.2681964988418
 30
0.0
 10
428.5775065297308
 20
301.275011478076
 30
0.0
 10
428.5865474577414
 20
301.2804707966667
 30
0.0
  0
SPLINE
  5
19E
330
1F
100
AcDbEntity
  8
1
100
AcDbSpline
210
0.0
220
0.0
230
1.0
 70
     8
 71
     3
 72
    27
 73
    23
 74
     0
 42
0.000000001
 43
0.0000000001
 40
0.0
 40
0.0
 40
0.0
 40
0.0
 40
0.0969339437377997
 40
0.0969339437377997
 40
0.1614386620422431
 40
0.1614386620422431
 40
0.2259433803466866
 40
0.2259433803466866
 40
0.3549528169555736
 40
0.3549528169555736
 40
0.419457535260017
 40
0.419457535260017
 40
0.4839622535644605
 40
0.4839622535644605
 40
0.6129716901733453
 40
0.6129716901733453
 40
0.6774764084777879
 40
0.6774764084777879
 40
0.7419811267822303
 40
0.7419811267822303
 40
0.8709905633911152
 40
1.0
 40
1.0
 40
1.0
 40
1.0
 10
428.0888305843499
 20
299.0749820719946
 30
0.0
 10
428.0738423320224
 20
299.0563735903847
 30
0.0
 10
428.05782777562
 20
299.0387480570179
 30
0.0
 10
428.0294680747193
 20
299.0110125114567
 30
0.0
 10
428.0176856674698
 20
299.000362862885
 30
0.0
 10
427.9932010145304
 20
298.9799461535853
 30
0.0
 10
427.9804587180352
 20
298.9701561243363
 30
0.0
 10
427.9414476004231
 20
298.9425897384903
 30
0.0
 10
427.9142388665274
 20
298.9264533587795
 30
0.0
 10
427.8716524859525
 20
298.9055571647326
 30
0.0
 10
427.8571601016014
 20
298.8991457318463
 30
0.0
 10
427.8275693799897
 20
298.8874533889596
 30
0.0
 10
427.8123992965301
 20
298.8821531300559
 30
0.0
 10
427.7666420457085
 20
298.8682136395269
 30
0.0
 10
427.7357575626679
 20
298.8614725171886
 30
0.0
 10
427.688878977547
 20
298.8550732064172
 30
0.0
 10
427.6731603695072
 20
298.8535618230345
 30
0.0
 10
427.6415361049958
 20
298.8517986901401
 30
0.0
 10
427.6255715144216
 20
298.8515489137879
 30
0.0
 10
427.5778085245931
 20
298.852736488058
 30
0.0
 10
427.5151265232398
 20
298.8594016333126
 30
0.0
 10
427.4543718651831
 20
298.8757853382773
 30
0.0
 10
427.424494722322
 20
298.8864797645421
 30
0.0
  0
SPLINE
  5
19F
330
1F
100
AcDbEntity
  8
1
100
AcDbSpline
210
0.0
220
0.0
230
1.0
 70
     8
 71
     3
 72
    24
 73
    20
 74
     0
 42
0.000000001
 43
0.0000000001
 40
0.0
 40
0.0
 40
0.0
 40
0.0
 40
0.1250000000000675
 40
0.1250000000000675
 40
0.2500000000001349
 40
0.2500000000001349
 40
0.3125000000001686
 40
0.3125000000001686
 40
0.3750000000002023
 40
0.3750000000002023
 40
0.5000000000001619
 40
0.5000000000001619
 40
0.6250000000001215
 40
0.6250000000001215
 40
0.750000000000081
 40
0.750000000000081
 40
0.8750000000000405
 40
0.8750000000000405
 40
1.0
 40
1.0
 40
1.0
 40
1.0
 10
426.6462826647297
 20
299.1944922026291
 30
0.0
 10
426.6751039666923
 20
299.2072906044243
 30
0.0
 10
426.7046631334611
 20
299.2177400200051
 30
0.0
 10
426.7652927685766
 20
299.2339633873707
 30
0.0
 10
426.796362455109
 20
299.2397395993558
 30
0.0
 10
426.8442231843232
 20
299.244623983658
 30
0.0
 10
426.8602874157563
 20
299.2456028903002
 30
0.0
 10
426.8922486548619
 20
299.2462447044308
 30
0.0
 10
426.9082044733376
 20
299.2459140895433
 30
0.0
 10
426.9559994974176
 20
299.2429677324247
 30
0.0
 10
426.9878171472158
 20
299.23839942201
 30
0.0
 10
427.0510498179554
 20
299.2238172145061
 30
0.0
 10
427.0815411137477
 20
299.2140251972147
 30
0.0
 10
427.1404066115648
 20
299.1897226763181
 30
0.0
 10
427.1687910573212
 20
299.1752046766859
 30
0.0
 10
427.2233731394696
 20
299.1413825781835
 30
0.0
 10
427.2487786429373
 20
299.1225751171054
 30
0.0
 10
427.2961466611731
 20
299.0814373353306
 30
0.0
 10
427.3181073030908
 20
299.0591051741976
 30
0.0
 10
427.338361645429
 20
299.0349967371643
 30
0.0
  0
SPLINE
  5
1A0
330
1F
100
AcDbEntity
  8
1
100
AcDbSpline
210
0.0
220
0.0
230
1.0
 70
     8
 71
     3
 72
    10
 73
     6
 74
     0
 42
0.000000001
 43
0.0000000001
 40
0.0
 40
0.0
 40
0.0
 40
0.0
 40
0.5
 40
0.5
 40
1.0
 40
1.0
 40
1.0
 40
1.0
 10
426.5993845003321
 20
299.1504606346254
 30
0.0
 10
426.6044892309467
 20
299.1601639808062
 30
0.0
 10
426.6110552232154
 20
299.1688282492458
 30
0.0
 10
426.6270520819416
 20
299.1839021150755
 30
0.0
 10
426.6361057993131
 20
299.1899730586715
 30
0.0
 10
426.6462826647297
 20
299.1944922026291
 30
0.0
  0
SPLINE
  5
1A1
330
1F
100
AcDbEntity
  8
1
100
AcDbSpline
210
0.0
220
0.0
230
1.0
 70
     8
 71
     3
 72
    20
 73
    16
 74
     0
 42
0.000000001
 43
0.0000000001
 40
0.0
 40
0.0
 40
0.0
 40
0.0
 40
0.125000000000001
 40
0.125000000000001
 40
0.2500000000000021
 40
0.2500000000000021
 40
0.3750000000000031
 40
0.3750000000000031
 40
0.5000000000000043
 40
0.5000000000000043
 40
0.6250000000000054
 40
0.6250000000000054
 40
0.7500000000000064
 40
0.7500000000000064
 40
1.0
 40
1.0
 40
1.0
 40
1.0
 10
426.5993845003321
 20
299.1504606346255
 30
0.0
 10
426.5971512100865
 20
299.1462154765528
 30
0.0
 10
426.5946267409419
 20
299.1421603629937
 30
0.0
 10
426.5889993868708
 20
299.1344278149858
 30
0.0
 10
426.5858880130231
 20
299.1307485938182
 30
0.0
 10
426.5792296904852
 20
299.1239440856203
 30
0.0
 10
426.5756671595457
 20
299.1207945709373
 30
0.0
 10
426.5680681542922
 20
299.1150096770847
 30
0.0
 10
426.5639970856691
 20
299.1123573185368
 30
0.0
 10
426.5555555084286
 20
299.1077196264217
 30
0.0
 10
426.5511854382701
 20
299.1057259145076
 30
0.0
 10
426.542144520809
 20
299.1023953458263
 30
0.0
 10
426.5374420100961
 20
299.1010522668536
 30
0.0
 10
426.5230715983538
 20
299.0981303338827
 30
0.0
 10
426.5133483551899
 20
299.0976520787093
 30
0.0
 10
426.5034752772253
 20
299.0987364999648
 30
0.0
  0
SPLINE
  5
1A2
330
1F
100
AcDbEntity
  8
1
100
AcDbSpline
210
0.0
220
0.0
230
1.0
 70
     8
 71
     3
 72
    10
 73
     6
 74
     0
 42
0.000000001
 43
0.0000000001
 40
0.0
 40
0.0
 40
0.0
 40
0.0
 40
0.5
 40
0.5
 40
1.0
 40
1.0
 40
1.0
 40
1.0
 10
425.7979547356876
 20
300.4289611908849
 30
0.0
 10
425.8087635690927
 20
300.4295632490717
 30
0.0
 10
425.8194078758775
 20
300.4283797315941
 30
0.0
 10
425.840185136339
 20
300.4223992465771
 30
0.0
 10
425.8498432645501
 20
300.4177518680299
 30
0.0
 10
425.8587318320796
 20
300.4113439435898
 30
0.0
  0
SPLINE
  5
1A3
330
1F
100
AcDbEntity
  8
1
100
AcDbSpline
210
0.0
220
0.0
230
1.0
 70
     8
 71
     3
 72
    36
 73
    32
 74
     0
 42
0.000000001
 43
0.0000000001
 40
0.0
 40
0.0
 40
0.0
 40
0.0
 40
0.1249999999998887
 40
0.1249999999998887
 40
0.1874999999998249
 40
0.1874999999998249
 40
0.2187499999997971
 40
0.2187499999997971
 40
0.2499999999997692
 40
0.2499999999997692
 40
0.3749999999996577
 40
0.3749999999996577
 40
0.4062499999996417
 40
0.4062499999996417
 40
0.4374999999996258
 40
0.4374999999996258
 40
0.499999999999639
 40
0.499999999999639
 40
0.6249999999996714
 40
0.6249999999996714
 40
0.6562499999996796
 40
0.6562499999996796
 40
0.6874999999996878
 40
0.7499999999997656
 40
0.8124999999998435
 40
0.8124999999998435
 40
0.8437499999998811
 40
0.8437499999998811
 40
0.8749999999999189
 40
0.8749999999999189
 40
1.0
 40
1.0
 40
1.0
 40
1.0
 10
432.0579978615781
 20
304.7097058489328
 30
0.0
 10
432.0561678199443
 20
304.7605508663335
 30
0.0
 10
432.0491897360222
 20
304.8103330710774
 30
0.0
 10
432.031480206359
 20
304.883511184881
 30
0.0
 10
432.0243599073615
 20
304.9076526147132
 30
0.0
 10
432.0118276406248
 20
304.943482451828
 30
0.0
 10
432.0073277498408
 20
304.9553934199916
 30
0.0
 10
431.9977694472235
 20
304.9789133890685
 30
0.0
 10
431.9927175621599
 20
304.9905119195222
 30
0.0
 10
431.96612531521
 20
305.0477155623865
 30
0.0
 10
431.9406260257268
 20
305.0909770520473
 30
0.0
 10
431.9035490240471
 20
305.1419738853363
 30
0.0
 10
431.8958710320209
 20
305.1520178018515
 30
0.0
 10
431.8799818954765
 20
305.1717900170083
 30
0.0
 10
431.8717555131581
 20
305.1815333418409
 30
0.0
 10
431.8465278815467
 20
305.2099878717638
 30
0.0
 10
431.8289095591061
 20
305.2280194156791
 30
0.0
 10
431.7737210824351
 20
305.2793772540493
 30
0.0
 10
431.7338406866348
 20
305.3099940441141
 30
0.0
 10
431.6799969563742
 20
305.3435816733456
 30
0.0
 10
431.6690128118243
 20
305.3500685245638
 30
0.0
 10
431.6468771314873
 20
305.3624264363658
 30
0.0
 10
431.6133387175685
 20
305.3800936414089
 30
0.0
 10
431.5557953621192
 20
305.4052645969099
 30
0.0
 10
431.5080159593916
 20
305.4208706170322
 30
0.0
 10
431.4715112013248
 20
305.4308347182255
 30
0.0
 10
431.4592310383917
 20
305.4338654729439
 30
0.0
 10
431.434441519455
 20
305.4393318059827
 30
0.0
 10
431.4219159216713
 20
305.441768644534
 30
0.0
 10
431.3592953455934
 20
305.4523307270935
 30
0.0
 10
431.308795582824
 20
305.455748862194
 30
0.0
 10
431.2578795366028
 20
305.4539735106509
 30
0.0
  0
SPLINE
  5
1A4
330
1F
100
AcDbEntity
  8
1
100
AcDbSpline
210
0.0
220
0.0
230
1.0
 70
     8
 71
     3
 72
    36
 73
    32
 74
     0
 42
0.000000001
 43
0.0000000001
 40
0.0
 40
0.0
 40
0.0
 40
0.0
 40
0.1249999999997158
 40
0.1249999999997158
 40
0.1874999999995738
 40
0.1874999999995738
 40
0.218749999999535
 40
0.218749999999535
 40
0.2499999999994963
 40
0.2499999999994963
 40
0.3749999999993414
 40
0.3749999999993414
 40
0.4062499999993431
 40
0.4062499999993431
 40
0.4374999999993448
 40
0.4374999999993448
 40
0.4999999999993541
 40
0.4999999999993541
 40
0.6249999999994255
 40
0.6249999999994255
 40
0.6562499999994597
 40
0.6562499999994597
 40
0.6874999999994938
 40
0.7499999999996004
 40
0.8124999999997069
 40
0.8124999999997069
 40
0.8437499999997552
 40
0.8437499999997552
 40
0.8749999999998037
 40
0.8749999999998037
 40
1.0
 40
1.0
 40
1.0
 40
1.0
 10
423.2851945339268
 20
305.1759802320511
 30
0.0
 10
423.2342728783181
 20
305.1742046849187
 30
0.0
 10
423.1844209083291
 20
305.1672879456788
 30
0.0
 10
423.111147815727
 20
305.1496800700573
 30
0.0
 10
423.0869763512311
 20
305.1425952752899
 30
0.0
 10
423.0511039344156
 20
305.1301187289982
 30
0.0
 10
423.0391791506369
 20
305.125637875607
 30
0.0
 10
423.0156325841713
 20
305.1161182012555
 30
0.0
 10
423.0040212814756
 20
305.1110858863696
 30
0.0
 10
422.9467563501178
 20
305.0845927415693
 30
0.0
 10
422.9034539860394
 20
305.0591767007288
 30
0.0
 10
422.8524161027561
 20
305.0222086443632
 30
0.0
 10
422.8423644831172
 20
305.0145526879228
 30
0.0
 10
422.8225778908458
 20
304.9987081230774
 30
0.0
 10
422.8128278843106
 20
304.9905043156173
 30
0.0
 10
422.7843550639083
 20
304.9653444653899
 30
0.0
 10
422.7663135876763
 20
304.9477716092903
 30
0.0
 10
422.7149325492302
 20
304.8927203448299
 30
0.0
 10
422.6843090225026
 20
304.852932499978
 30
0.0
 10
422.6507242613939
 20
304.7992058499759
 30
0.0
 10
422.6442385588485
 20
304.7882452188484
 30
0.0
 10
422.6318840652178
 20
304.7661561973684
 30
0.0
 10
422.6142236704416
 20
304.7326874037592
 30
0.0
 10
422.5890723373661
 20
304.6752582735603
 30
0.0
 10
422.5734907832801
 20
304.6275683339629
 30
0.0
 10
422.5635483997398
 20
304.5911299368313
 30
0.0
 10
422.5605254466449
 20
304.5788717712447
 30
0.0
 10
422.5550758686651
 20
304.5541259951669
 30
0.0
 10
422.5526479981103
 20
304.5416221691963
 30
0.0
 10
422.542133252328
 20
304.4791087921637
 30
0.0
 10
422.5387611645715
 20
304.4286902961967
 30
0.0
 10
422.5405910046127
 20
304.3778508797415
 30
0.0
  0
SPLINE
  5
1A5
330
1F
100
AcDbEntity
  8
1
100
AcDbSpline
210
0.0
220
0.0
230
1.0
 70
     8
 71
     3
 72
    36
 73
    32
 74
     0
 42
0.000000001
 43
0.0000000001
 40
0.0
 40
0.0
 40
0.0
 40
0.0
 40
0.125000000000056
 40
0.125000000000056
 40
0.1875000000000922
 40
0.1875000000000922
 40
0.2187500000001112
 40
0.2187500000001112
 40
0.2500000000001303
 40
0.2500000000001303
 40
0.3750000000002066
 40
0.3750000000002066
 40
0.4062500000002353
 40
0.4062500000002353
 40
0.437500000000264
 40
0.437500000000264
 40
0.5000000000002762
 40
0.5000000000002762
 40
0.6250000000003004
 40
0.6250000000003004
 40
0.6562500000003065
 40
0.6562500000003065
 40
0.6875000000003125
 40
0.7500000000002629
 40
0.8125000000002135
 40
0.8125000000002135
 40
0.843750000000189
 40
0.843750000000189
 40
0.8750000000001644
 40
0.8750000000001644
 40
1.0
 40
1.0
 40
1.0
 40
1.0
 10
422.8271163603372
 20
296.4171649428116
 30
0.0
 10
422.8289464019709
 20
296.3663199254109
 30
0.0
 10
422.835924485893
 20
296.316537720667
 30
0.0
 10
422.8536340155564
 20
296.2433596068633
 30
0.0
 10
422.8607543145539
 20
296.2192181770313
 30
0.0
 10
422.8732865812905
 20
296.1833883399165
 30
0.0
 10
422.8777864720744
 20
296.1714773717529
 30
0.0
 10
422.8873447746918
 20
296.1479574026758
 30
0.0
 10
422.8923966597553
 20
296.1363588722223
 30
0.0
 10
422.9189889067054
 20
296.0791552293579
 30
0.0
 10
422.9444881961883
 20
296.0358937396971
 30
0.0
 10
422.9815651978682
 20
295.9848969064082
 30
0.0
 10
422.9892431898944
 20
295.974852989893
 30
0.0
 10
423.0051323264389
 20
295.9550807747362
 30
0.0
 10
423.0133587087573
 20
295.9453374499035
 30
0.0
 10
423.0385863403686
 20
295.9168829199807
 30
0.0
 10
423.0562046628093
 20
295.8988513760654
 30
0.0
 10
423.1113931394801
 20
295.8474935376951
 30
0.0
 10
423.1512735352806
 20
295.8168767476304
 30
0.0
 10
423.2051172655411
 20
295.7832891183988
 30
0.0
 10
423.2161014100911
 20
295.7768022671807
 30
0.0
 10
423.238237090428
 20
295.7644443553787
 30
0.0
 10
423.2717755043468
 20
295.7467771503356
 30
0.0
 10
423.3293188597962
 20
295.7216061948346
 30
0.0
 10
423.3770982625236
 20
295.7060001747122
 30
0.0
 10
423.4136030205905
 20
295.6960360735189
 30
0.0
 10
423.4258831835234
 20
295.6930053188005
 30
0.0
 10
423.4506727024604
 20
295.6875389857618
 30
0.0
 10
423.4631983002441
 20
295.6851021472105
 30
0.0
 10
423.5258188763218
 20
295.674540064651
 30
0.0
 10
423.5763186390912
 20
295.6711219295505
 30
0.0
 10
423.6272346853126
 20
295.6728972810936
 30
0.0
  0
SPLINE
  5
1A6
330
1F
100
AcDbEntity
  8
1
100
AcDbSpline
210
0.0
220
0.0
230
1.0
 70
     8
 71
     3
 72
    36
 73
    32
 74
     0
 42
0.000000001
 43
0.0000000001
 40
0.0
 40
0.0
 40
0.0
 40
0.0
 40
0.1250000000001951
 40
0.1250000000001951
 40
0.1875000000002927
 40
0.1875000000002927
 40
0.2187500000003094
 40
0.2187500000003094
 40
0.2500000000003262
 40
0.2500000000003262
 40
0.3750000000003925
 40
0.3750000000003925
 40
0.4062500000003951
 40
0.4062500000003951
 40
0.4375000000003979
 40
0.4375000000003979
 40
0.5000000000004046
 40
0.5000000000004046
 40
0.6250000000003709
 40
0.6250000000003709
 40
0.6562500000003438
 40
0.6562500000003438
 40
0.6875000000003163
 40
0.7500000000002616
 40
0.8125000000002069
 40
0.8125000000002069
 40
0.8437500000001705
 40
0.8437500000001705
 40
0.8750000000001342
 40
0.8750000000001342
 40
1.0
 40
1.0
 40
1.0
 40
1.0
 10
431.5999196879885
 20
295.9508905596933
 30
0.0
 10
431.6508413435973
 20
295.9526661068257
 30
0.0
 10
431.7006933135862
 20
295.9595828460656
 30
0.0
 10
431.7739664061882
 20
295.9771907216871
 30
0.0
 10
431.7981378706843
 20
295.9842755164545
 30
0.0
 10
431.8340102875
 20
295.9967520627462
 30
0.0
 10
431.8459350712783
 20
296.0012329161374
 30
0.0
 10
431.8694816377439
 20
296.0107525904889
 30
0.0
 10
431.8810929404397
 20
296.0157849053749
 30
0.0
 10
431.9383578717975
 20
296.0422780501751
 30
0.0
 10
431.981660235876
 20
296.0676940910157
 30
0.0
 10
432.0326981191591
 20
296.1046621473812
 30
0.0
 10
432.0427497387981
 20
296.1123181038216
 30
0.0
 10
432.0625363310695
 20
296.128162668667
 30
0.0
 10
432.0722863376047
 20
296.1363664761272
 30
0.0
 10
432.100759158007
 20
296.1615263263545
 30
0.0
 10
432.118800634239
 20
296.1790991824542
 30
0.0
 10
432.170181672685
 20
296.2341504469146
 30
0.0
 10
432.2008051994126
 20
296.2739382917665
 30
0.0
 10
432.2343899605214
 20
296.3276649417685
 30
0.0
 10
432.2408756630668
 20
296.3386255728959
 30
0.0
 10
432.2532301566972
 20
296.360714594376
 30
0.0
 10
432.2708905514737
 20
296.3941833879852
 30
0.0
 10
432.2960418845494
 20
296.4516125181841
 30
0.0
 10
432.311623438635
 20
296.4993024577815
 30
0.0
 10
432.3215658221753
 20
296.5357408549131
 30
0.0
 10
432.3245887752703
 20
296.5479990204997
 30
0.0
 10
432.3300383532503
 20
296.5727447965775
 30
0.0
 10
432.3324662238051
 20
296.585248622548
 30
0.0
 10
432.3429809695873
 20
296.6477619995806
 30
0.0
 10
432.346353057344
 20
296.6981804955477
 30
0.0
 10
432.3445232173025
 20
296.7490199120029
 30
0.0
  0
SPLINE
  5
1A7
330
1F
100
AcDbEntity
  8
1
100
AcDbSpline
210
0.0
220
0.0
230
1.0
 70
     9
 71
     3
 72
   132
 73
   128
 74
     0
 42
0.000000001
 43
0.0000000001
 40
0.0
 40
0.0
 40
0.0
 40
0.0
 40
0.0312499999999881
 40
0.0312499999999881
 40
0.0468749999999821
 40
0.0468749999999821
 40
0.0546874999999777
 40
0.0546874999999777
 40
0.0624999999999733
 40
0.0624999999999733
 40
0.0937499999999587
 40
0.0937499999999587
 40
0.1093749999999515
 40
0.1093749999999515
 40
0.1171874999999478
 40
0.1171874999999478
 40
0.1249999999999441
 40
0.1249999999999441
 40
0.156249999999923
 40
0.156249999999923
 40
0.1640624999999139
 40
0.1640624999999139
 40
0.1718749999999049
 40
0.1718749999999049
 40
0.1874999999998868
 40
0.2031249999998687
 40
0.2031249999998687
 40
0.2109374999998596
 40
0.2109374999998596
 40
0.2187499999998506
 40
0.2187499999998506
 40
0.2499999999998319
 40
0.2499999999998319
 40
0.265624999999827
 40
0.265624999999827
 40
0.273437499999829
 40
0.273437499999829
 40
0.281249999999831
 40
0.281249999999831
 40
0.3124999999998391
 40
0.3124999999998391
 40
0.3203124999998452
 40
0.3203124999998452
 40
0.3281249999998513
 40
0.3281249999998513
 40
0.3437499999998558
 40
0.3593749999998604
 40
0.3593749999998604
 40
0.3671874999998627
 40
0.3671874999998627
 40
0.374999999999865
 40
0.374999999999865
 40
0.406249999999874
 40
0.406249999999874
 40
0.4218749999998786
 40
0.4218749999998786
 40
0.4296874999998791
 40
0.4296874999998791
 40
0.4374999999998794
 40
0.4374999999998794
 40
0.4687499999998901
 40
0.4687499999998901
 40
0.4765624999998919
 40
0.4765624999998919
 40
0.4843749999998936
 40
0.4843749999998936
 40
0.4999999999998971
 40
0.4999999999998971
 40
0.5312499999999038
 40
0.5312499999999038
 40
0.5390624999999051
 40
0.5390624999999051
 40
0.5468749999999066
 40
0.5468749999999066
 40
0.5624999999999119
 40
0.5781249999999173
 40
0.5781249999999173
 40
0.585937499999922
 40
0.585937499999922
 40
0.5937499999999267
 40
0.5937499999999267
 40
0.6249999999999348
 40
0.6249999999999348
 40
0.6406249999999388
 40
0.6406249999999388
 40
0.6484374999999442
 40
0.6484374999999442
 40
0.6562499999999498
 40
0.6562499999999498
 40
0.6874999999999716
 40
0.6874999999999716
 40
0.695312499999977
 40
0.695312499999977
 40
0.7031249999999825
 40
0.7031249999999825
 40
0.7187499999999849
 40
0.7187499999999849
 40
0.7499999999999896
 40
0.7499999999999896
 40
0.7578124999999863
 40
0.7578124999999863
 40
0.765624999999983
 40
0.765624999999983
 40
0.7812499999999853
 40
0.7968749999999876
 40
0.7968749999999876
 40
0.8046874999999886
 40
0.8046874999999886
 40
0.8124999999999896
 40
0.8124999999999896
 40
0.8437500000000021
 40
0.8437500000000021
 40
0.8515625000000033
 40
0.8515625000000033
 40
0.8593750000000046
 40
0.8593750000000046
 40
0.8750000000000067
 40
0.8750000000000067
 40
0.9062500000000051
 40
0.9062500000000051
 40
0.9375000000000033
 40
0.9375000000000033
 40
0.9531250000000024
 40
0.9531250000000024
 40
0.9687500000000017
 40
0.9687500000000017
 40
1.0
 40
1.0
 40
1.0
 40
1.0
 10
425.2683615337857
 20
284.754186265565
 30
0.0
 10
425.2700059949058
 20
284.8483973800373
 30
0.0
 10
425.2807264460896
 20
284.9412008810288
 30
0.0
 10
425.3101005850448
 20
285.0783198219266
 30
0.0
 10
425.3221228524856
 20
285.1236757075102
 30
0.0
 10
425.3436032978241
 20
285.191161860008
 30
0.0
 10
425.3513389530756
 20
285.213565784813
 30
0.0
 10
425.3679911142998
 20
285.2581846816386
 30
0.0
 10
425.3768488248306
 20
285.2802399898828
 30
0.0
 10
425.4236750791445
 20
285.3890630357183
 30
0.0
 10
425.4692656644393
 20
285.4717224415688
 30
0.0
 10
425.5498581447346
 20
285.5890353316885
 30
0.0
 10
425.5787702618834
 20
285.6270194260185
 30
0.0
 10
425.6253451735849
 20
285.6822310420391
 30
0.0
 10
425.6413150479058
 20
285.7002302677225
 30
0.0
 10
425.6740011647206
 20
285.7352832379253
 30
0.0
 10
425.6907377277142
 20
285.752361158129
 30
0.0
 10
425.7763641606246
 20
285.8355312707791
 30
0.0
 10
425.8510287635969
 20
285.8950290696515
 30
0.0
 10
425.9522441711959
 20
285.9603358788845
 30
0.0
 10
425.9728932269012
 20
285.9729445955655
 30
0.0
 10
426.0149732986502
 20
285.9972041433041
 30
0.0
 10
426.0362353736043
 20
286.0087581118072
 30
0.0
 10
426.1006741782254
 20
286.0417258691919
 30
0.0
 10
426.1883295018476
 20
286.08117351999
 30
0.0
 10
426.2793956843431
 20
286.111748826669
 30
0.0
 10
426.3489891479288
 20
286.1313095222241
 30
0.0
 10
426.3724030029309
 20
286.1372669389232
 30
0.0
 10
426.4196702442569
 20
286.1480359875938
 30
0.0
 10
426.443592173841
 20
286.1528588302595
 30
0.0
 10
426.5633978269043
 20
286.1738797994811
 30
0.0
 10
426.6594539201296
 20
286.180888631289
 30
0.0
 10
426.8038453720006
 20
286.1771457242293
 30
0.0
 10
426.852027465978
 20
286.1735041943644
 30
0.0
 10
426.9243803577794
 20
286.164344028281
 30
0.0
 10
426.9485343174418
 20
286.1606650716289
 30
0.0
 10
426.9963176260143
 20
286.152153446194
 30
0.0
 10
427.0200151983614
 20
286.1473137981857
 30
0.0
 10
427.1375495782879
 20
286.1202487281271
 30
0.0
 10
427.2285542472541
 20
286.0895066747605
 30
0.0
 10
427.3385111652878
 20
286.0396904694715
 30
0.0
 10
427.3603108306524
 20
286.0291525496017
 30
0.0
 10
427.4035188801291
 20
286.006905006465
 30
0.0
 10
427.4247745319429
 20
285.9952729698984
 30
0.0
 10
427.4873712446363
 20
285.9589660064649
 30
0.0
 10
427.5678507889436
 20
285.90673523457
 30
0.0
 10
427.6425068051249
 20
285.8470655586694
 30
0.0
 10
427.6963045689468
 20
285.7995194258609
 30
0.0
 10
427.7138707982389
 20
285.7832042439948
 30
0.0
 10
427.7482607630117
 20
285.7496300559295
 30
0.0
 10
427.7651292041776
 20
285.7323216211045
 30
0.0
 10
427.8469575705889
 20
285.6440546299855
 30
0.0
 10
427.904284454084
 20
285.5682457481154
 30
0.0
 10
427.9786194459576
 20
285.4471672420698
 30
0.0
 10
428.0014409838316
 20
285.405570996735
 30
0.0
 10
428.0326811096771
 20
285.3412943374499
 30
0.0
 10
428.0426049716386
 20
285.3195230558488
 30
0.0
 10
428.0612452471333
 20
285.2758123333686
 30
0.0
 10
428.0699892718686
 20
285.2538201445146
 30
0.0
 10
428.1108891793139
 20
285.1431927573427
 30
0.0
 10
428.1346612503272
 20
285.0525778319471
 30
0.0
 10
428.1533558717421
 20
284.9367457367629
 30
0.0
 10
428.1565390070229
 20
284.9134499334708
 30
0.0
 10
428.1617784190252
 20
284.8665965938608
 30
0.0
 10
428.1638284351377
 20
284.8430628557305
 30
0.0
 10
428.1682351674841
 20
284.7727990957437
 30
0.0
 10
428.1688820698447
 20
284.7261674429453
 30
0.0
 10
428.1641592712516
 20
284.5868877061794
 30
0.0
 10
428.1521878837871
 20
284.4948507393939
 30
0.0
 10
428.1259436114251
 20
284.3808306925419
 30
0.0
 10
428.1201244596759
 20
284.3580894299659
 30
0.0
 10
428.1074694662198
 20
284.313176182395
 30
0.0
 10
428.1006208227258
 20
284.2909449890661
 30
0.0
 10
428.0785356173487
 20
284.224915477418
 30
0.0
 10
428.0449904701368
 20
284.1386441911059
 30
0.0
 10
428.0033255934671
 20
284.0558529274511
 30
0.0
 10
427.9689716197011
 20
283.9950795535166
 30
0.0
 10
427.9570018139699
 20
283.9750421493857
 30
0.0
 10
427.9320032507799
 20
283.9354154128513
 30
0.0
 10
427.9189416982147
 20
283.9157827415353
 30
0.0
 10
427.8515929501028
 20
283.8197067468869
 30
0.0
 10
427.7909388642713
 20
283.7489045663158
 30
0.0
 10
427.6898436312844
 20
283.6516242829477
 30
0.0
 10
427.6544475237549
 20
283.620695301713
 30
0.0
 10
427.5986967854485
 20
283.576629404581
 30
0.0
 10
427.5796242278716
 20
283.5622974913734
 30
0.0
 10
427.5407763558204
 20
283.5345855717577
 30
0.0
 10
427.5210694752836
 20
283.5212506909044
 30
0.0
 10
427.4211378472615
 20
283.4571426666776
 30
0.0
 10
427.3367623910107
 20
283.4139923173937
 30
0.0
 10
427.2256204917993
 20
283.370375786177
 30
0.0
 10
427.2031058935668
 20
283.362173366414
 30
0.0
 10
427.1574900091981
 20
283.3468342561682
 30
0.0
 10
427.1343457394912
 20
283.3396855882708
 30
0.0
 10
427.0642893181127
 20
283.3199674969143
 30
0.0
 10
427.0172681261179
 20
283.3092561892087
 30
0.0
 10
426.8752784689565
 20
283.2842187931385
 30
0.0
 10
426.7793928551046
 20
283.276918505309
 30
0.0
 10
426.6579495724963
 20
283.2799264019151
 30
0.0
 10
426.6335177620687
 20
283.2811476789975
 30
0.0
 10
426.5850457536693
 20
283.2847970200521
 30
0.0
 10
426.5609553609263
 20
283.2872231177828
 30
0.0
 10
426.4891118329256
 20
283.296268695107
 30
0.0
 10
426.3944587044873
 20
283.3130331121006
 30
0.0
 10
426.3020363234795
 20
283.339032757942
 30
0.0
 10
426.2335633159294
 20
283.3620355486996
 30
0.0
 10
426.2108430623114
 20
283.3703026552536
 30
0.0
 10
426.1658511159279
 20
283.3879625824512
 30
0.0
 10
426.1436918197916
 20
283.3973089699262
 30
0.0
 10
426.0345312685596
 20
283.4465556055526
 30
0.0
 10
425.9523895767656
 20
283.4939245903697
 30
0.0
 10
425.8559508187194
 20
283.5628225943033
 30
0.0
 10
425.8369779379418
 20
283.5770911581596
 30
0.0
 10
425.7996675734588
 20
283.6066177836822
 30
0.0
 10
425.7813511510427
 20
283.6218638745411
 30
0.0
 10
425.727915682489
 20
283.6686000020303
 30
0.0
 10
425.6941121319423
 20
283.7012356383174
 30
0.0
 10
425.5979559040885
 20
283.8034409134955
 30
0.0
 10
425.5407852750709
 20
283.8773029841877
 30
0.0
 10
425.4406213993993
 20
284.0365695662339
 30
0.0
 10
425.3990977451861
 20
284.1196203150606
 30
0.0
 10
425.3490151455632
 20
284.2491530229462
 30
0.0
 10
425.3343703430394
 20
284.2931625735582
 30
0.0
 10
425.3092550784194
 20
284.3828866015164
 30
0.0
 10
425.2987681704873
 20
284.4287690766686
 30
0.0
 10
425.2741942519921
 20
284.5668339122179
 30
0.0
 10
425.2667170726658
 20
284.6599751510927
 30
0.0
 10
425.2683615337857
 20
284.754186265565
 30
0.0
  0
SPLINE
  5
1A8
330
1F
100
AcDbEntity
  8
1
100
AcDbSpline
210
0.0
220
0.0
230
1.0
 70
    12
 71
     2
 72
     6
 73
     3
 74
     0
 42
0.000000001
 43
0.0000000001
 40
0.0
 40
0.0
 40
0.0
 40
1.0
 40
1.0
 40
1.0
 10
422.3235083640231
 20
304.9827869456519
 30
0.0
 41
0.5000034229540963
 10
422.4356919659651
 20
304.9825981653362
 30
0.0
 41
0.4999965770459038
 10
422.5478745212911
 20
304.9824089122632
 30
0.0
 41
0.5000034229540963
  0
SPLINE
  5
1A9
330
1F
100
AcDbEntity
  8
1
100
AcDbSpline
210
0.0
220
0.0
230
1.0
 70
     8
 71
     3
 72
    26
 73
    22
 74
     0
 42
0.000000001
 43
0.0000000001
 40
0.0
 40
0.0
 40
0.0
 40
0.0
 40
0.1249999999999858
 40
0.1249999999999858
 40
0.2499999999999716
 40
0.2499999999999716
 40
0.312499999999942
 40
0.312499999999942
 40
0.3749999999999125
 40
0.3749999999999125
 40
0.4999999999999004
 40
0.4999999999999004
 40
0.6249999999998881
 40
0.6249999999998881
 40
0.6874999999999068
 40
0.6874999999999068
 40
0.7499999999999254
 40
0.7499999999999254
 40
0.8749999999999626
 40
0.8749999999999626
 40
1.0
 40
1.0
 40
1.0
 40
1.0
 10
425.3009922779926
 20
295.375423613314
 30
0.0
 10
425.2458023407238
 20
295.3334712643536
 30
0.0
 10
425.1891148031154
 20
295.2946815266821
 30
0.0
 10
425.0726608599081
 20
295.2230548018754
 30
0.0
 10
425.0128966062183
 20
295.1902205841374
 30
0.0
 10
424.92080406042
 20
295.1454003316206
 30
0.0
 10
424.8896248617098
 20
295.1311721819856
 30
0.0
 10
424.8269380024871
 20
295.1044340403149
 30
0.0
 10
424.7953988821014
 20
295.0919039024343
 30
0.0
 10
424.7001397446446
 20
295.0567801837942
 30
0.0
 10
424.6357824404112
 20
295.0366415099307
 30
0.0
 10
424.5049805626606
 20
295.0029383918237
 30
0.0
 10
424.4385345497989
 20
294.9893729968934
 30
0.0
 10
424.3369142963138
 20
294.9742650389993
 30
0.0
 10
424.3027147320324
 20
294.9701056403414
 30
0.0
 10
424.2335967734333
 20
294.963629983914
 30
0.0
 10
424.1990958961015
 20
294.9613552144866
 30
0.0
 10
424.096035953948
 20
294.9573748616403
 30
0.0
 10
424.0278093864558
 20
294.9584975818287
 30
0.0
 10
423.8921811311246
 20
294.9680021889971
 30
0.0
 10
423.8247749215925
 20
294.9763798768154
 30
0.0
 10
423.7576543662431
 20
294.9883410763778
 30
0.0
  0
SPLINE
  5
1AA
330
1F
100
AcDbEntity
  8
1
100
AcDbSpline
210
0.0
220
0.0
230
1.0
 70
     8
 71
     3
 72
    25
 73
    21
 74
     0
 42
0.000000001
 43
0.0000000001
 40
0.0
 40
0.0
 40
0.0
 40
0.0
 40
0.124999999999984
 40
0.249999999999968
 40
0.3749999999999521
 40
0.3749999999999521
 40
0.4374999999999377
 40
0.4374999999999377
 40
0.4687499999999368
 40
0.4687499999999368
 40
0.4999999999999362
 40
0.4999999999999362
 40
0.6249999999999459
 40
0.7499999999999557
 40
0.7499999999999557
 40
0.8124999999999667
 40
0.8124999999999667
 40
0.8749999999999777
 40
0.8749999999999777
 40
1.0
 40
1.0
 40
1.0
 40
1.0
 10
423.7555779448721
 20
294.7876776789315
 30
0.0
 10
423.4929646952504
 20
294.7784357757738
 30
0.0
 10
422.969088449123
 20
294.7761948861563
 30
0.0
 10
422.1872587245679
 20
294.8207352623005
 30
0.0
 10
421.6686834015097
 20
294.8821885947548
 30
0.0
 10
421.2807508384335
 20
294.9402593100488
 30
0.0
 10
421.1516065953621
 20
294.9616144219523
 30
0.0
 10
420.9581421870856
 20
294.9966663264115
 30
0.0
 10
420.893661843857
 20
295.0088604835009
 30
0.0
 10
420.7649783838226
 20
295.0342215857625
 30
0.0
 10
420.7007824485764
 20
295.0473864213344
 30
0.0
 10
420.3805291032627
 20
295.1156218023013
 30
0.0
 10
419.8727679044706
 20
295.2402164244772
 30
0.0
 10
419.3742302434321
 20
295.3953462603613
 30
0.0
 10
419.0038030847751
 20
295.5231602362218
 30
0.0
 10
418.8808111537577
 20
295.56771595997
 30
0.0
 10
418.6367601611691
 20
295.6603713119044
 30
0.0
 10
418.5156399022378
 20
295.7084885691435
 30
0.0
 10
418.154979168162
 20
295.8581631977403
 30
0.0
 10
417.9181360495402
 20
295.965038915237
 30
0.0
 10
417.6848811971144
 20
296.0789414071151
 30
0.0
  0
SPLINE
  5
1AB
330
1F
100
AcDbEntity
  8
1
100
AcDbSpline
210
0.0
220
0.0
230
1.0
 70
     8
 71
     3
 72
    27
 73
    23
 74
     0
 42
0.000000001
 43
0.0000000001
 40
0.0
 40
0.0
 40
0.0
 40
0.0
 40
0.1250000000000152
 40
0.1250000000000152
 40
0.2500000000000303
 40
0.2500000000000303
 40
0.2812500000000313
 40
0.2812500000000313
 40
0.3125000000000323
 40
0.3750000000000344
 40
0.3750000000000344
 40
0.5000000000000387
 40
0.5000000000000387
 40
0.5312500000000341
 40
0.5312500000000341
 40
0.5625000000000294
 40
0.6250000000000203
 40
0.6250000000000203
 40
0.7500000000000135
 40
0.8750000000000067
 40
0.8750000000000067
 40
1.0
 40
1.0
 40
1.0
 40
1.0
 10
417.1776049963121
 20
293.4116372035152
 30
0.0
 10
417.4240887142318
 20
293.2545255912323
 30
0.0
 10
417.6762501188961
 20
293.106733338182
 30
0.0
 10
418.1918443299056
 20
292.8300852211792
 30
0.0
 10
418.4552764875015
 20
292.7012277931106
 30
0.0
 10
418.7916556741963
 20
292.5523088038521
 30
0.0
 10
418.8593082434231
 20
292.5231248314176
 30
0.0
 10
418.9950288165059
 20
292.4661055092918
 30
0.0
 10
419.1993326002491
 20
292.3825540917967
 30
0.0
 10
419.4057946344229
 20
292.3049267355061
 30
0.0
 10
419.8215796561639
 20
292.1575741670565
 30
0.0
 10
420.1025800252296
 20
292.0698650247035
 30
0.0
 10
420.4586000060119
 20
291.9735455623758
 30
0.0
 10
420.5300782942338
 20
291.9549395109983
 30
0.0
 10
420.6733536571671
 20
291.919107867938
 30
0.0
 10
420.8884973219256
 20
291.8674910341027
 30
0.0
 10
421.1043263591786
 20
291.8222173559726
 30
0.0
 10
421.5368853248281
 20
291.7400330901518
 30
0.0
 10
422.1160300933343
 20
291.6527319321998
 30
0.0
 10
422.6999077309777
 20
291.6095673266458
 30
0.0
 10
423.2861657118426
 20
291.5886495154923
 30
0.0
 10
423.5804847264741
 20
291.5893126932057
 30
0.0
 10
423.8760253912258
 20
291.6013926492509
 30
0.0
  0
SPLINE
  5
1AC
330
1F
100
AcDbEntity
  8
1
100
AcDbSpline
210
0.0
220
0.0
230
1.0
 70
     8
 71
     3
 72
     8
 73
     4
 74
     0
 42
0.000000001
 43
0.0000000001
 40
0.0
 40
0.0
 40
0.0
 40
0.0
 40
1.0
 40
1.0
 40
1.0
 40
1.0
 10
423.7555779448722
 20
294.7876776789316
 30
0.0
 10
423.7593828226744
 20
294.7878115804473
 30
0.0
 10
423.7631888196379
 20
294.7879449054108
 30
0.0
 10
423.7669959377184
 20
294.7880776528148
 30
0.0
  0
SPLINE
  5
1AD
330
1F
100
AcDbEntity
  8
1
100
AcDbSpline
210
0.0
220
0.0
230
1.0
 70
     8
 71
     3
 72
    18
 73
    14
 74
     0
 42
0.000000001
 43
0.0000000001
 40
0.0
 40
0.0
 40
0.0
 40
0.0
 40
0.2499999999999958
 40
0.2499999999999958
 40
0.4999999999999917
 40
0.4999999999999917
 40
0.7499999999999874
 40
0.7499999999999874
 40
0.8124999999999944
 40
0.8124999999999944
 40
0.8750000000000019
 40
0.8750000000000019
 40
1.0
 40
1.0
 40
1.0
 40
1.0
 10
421.1950419452951
 20
292.1978978471973
 30
0.0
 10
420.8358845963189
 20
292.2537901910055
 30
0.0
 10
420.4837703134414
 20
292.3219100054368
 30
0.0
 10
419.791652592435
 20
292.4833900679806
 30
0.0
 10
419.4516554223198
 20
292.5767522888363
 30
0.0
 10
418.7824765680501
 20
292.7901130532756
 30
0.0
 10
418.4532989227543
 20
292.9101083879569
 30
0.0
 10
418.0480948722492
 20
293.0780090070783
 30
0.0
 10
417.9673685637079
 20
293.1124861558533
 30
0.0
 10
417.8065367806776
 20
293.1832732882192
 30
0.0
 10
417.7264874521911
 20
293.2195597136795
 30
0.0
 10
417.4878077726342
 20
293.3309601451734
 30
0.0
 10
417.3304895466775
 20
293.4086816969084
 30
0.0
 10
417.1749251253344
 20
293.4899637875777
 30
0.0
  0
SPLINE
  5
1AE
330
1F
100
AcDbEntity
  8
1
100
AcDbSpline
210
0.0
220
0.0
230
1.0
 70
     8
 71
     3
 72
    24
 73
    20
 74
     0
 42
0.000000001
 43
0.0000000001
 40
0.0
 40
0.0
 40
0.0
 40
0.0
 40
0.2500000000000008
 40
0.2500000000000008
 40
0.3750000000000011
 40
0.3750000000000011
 40
0.5000000000000011
 40
0.5000000000000011
 40
0.6250000000000011
 40
0.6250000000000011
 40
0.6875000000000014
 40
0.6875000000000014
 40
0.7187500000000013
 40
0.7187500000000013
 40
0.7500000000000011
 40
0.7500000000000011
 40
0.8750000000000005
 40
0.8750000000000005
 40
1.0
 40
1.0
 40
1.0
 40
1.0
 10
284.1543368819074
 20
283.0029528167598
 30
0.0
 10
283.7168135852556
 20
282.6720701593024
 30
0.0
 10
283.2880112884484
 20
282.3189580042455
 30
0.0
 10
282.659020488111
 20
281.75019927147
 30
0.0
 10
282.4517226199499
 20
281.5540917360333
 30
0.0
 10
282.0420336199282
 20
281.147709510164
 30
0.0
 10
281.8396416397625
 20
280.9374385970877
 30
0.0
 10
281.4399561735899
 20
280.5013877250637
 30
0.0
 10
281.2426614733963
 20
280.2756136436965
 30
0.0
 10
280.9507230848515
 20
279.9240419984666
 30
0.0
 10
280.8540780496676
 20
279.8046963327187
 30
0.0
 10
280.7101408628291
 20
279.6222454588272
 30
0.0
 10
280.6623335791128
 20
279.5608561228968
 30
0.0
 10
280.5670680609585
 20
279.4368951374111
 30
0.0
 10
280.519563261018
 20
279.374260381324
 30
0.0
 10
280.2837681968379
 20
279.05916164594
 30
0.0
 10
280.1003275261299
 20
278.8005384583216
 30
0.0
 10
279.7442787778651
 20
278.2692622083084
 30
0.0
 10
279.5716656367321
 20
277.9966167618108
 30
0.0
 10
279.4048419452954
 20
277.7162540929523
 30
0.0
  0
SPLINE
  5
1AF
330
1F
100
AcDbEntity
  8
1
100
AcDbSpline
210
0.0
220
0.0
230
1.0
 70
     8
 71
     3
 72
    18
 73
    14
 74
     0
 42
0.000000001
 43
0.0000000001
 40
0.0
 40
0.0
 40
0.0
 40
0.0
 40
0.2500000000000002
 40
0.2500000000000002
 40
0.5000000000000005
 40
0.5000000000000005
 40
0.7500000000000007
 40
0.7500000000000007
 40
0.8125000000000206
 40
0.8125000000000206
 40
0.8750000000000403
 40
0.8750000000000403
 40
1.0
 40
1.0
 40
1.0
 40
1.0
 10
423.7576543662432
 20
294.9883410763778
 30
0.0
 10
423.6858719026082
 20
295.0011330499863
 30
0.0
 10
423.6156295122594
 20
295.0177645783312
 30
0.0
 10
423.4776024088873
 20
295.0583157601992
 30
0.0
 10
423.4098217207709
 20
295.0822376708998
 30
0.0
 10
423.2763164664538
 20
295.1374307717372
 30
0.0
 10
423.2105961278503
 20
295.1686991111567
 30
0.0
 10
423.1295365492043
 20
295.2126932401729
 30
0.0
 10
423.1133641792713
 20
295.2217484074612
 30
0.0
 10
423.0813460779168
 20
295.2402334014209
 30
0.0
 10
423.0654747984762
 20
295.2496765437617
 30
0.0
 10
423.0182706874006
 20
295.2786010553796
 30
0.0
 10
422.9873473352333
 20
295.2986772188485
 30
0.0
 10
422.9569636998077
 20
295.3195323236482
 30
0.0
  0
SPLINE
  5
1B0
330
1F
100
AcDbEntity
  8
1
100
AcDbSpline
210
0.0
220
0.0
230
1.0
 70
     8
 71
     3
 72
    10
 73
     6
 74
     0
 42
0.000000001
 43
0.0000000001
 40
0.0
 40
0.0
 40
0.0
 40
0.0
 40
0.5
 40
0.5
 40
1.0
 40
1.0
 40
1.0
 40
1.0
 10
416.9528925796028
 20
299.6179072321218
 30
0.0
 10
416.9630340332578
 20
300.5084771833873
 30
0.0
 10
416.9717257049808
 20
301.3990641251223
 30
0.0
 10
416.987189481751
 20
303.180255925622
 30
0.0
 10
416.993953274074
 20
304.0708604457456
 30
0.0
 10
417.0000429430446
 20
304.961470968226
 30
0.0
  0
SPLINE
  5
1B1
330
1F
100
AcDbEntity
  8
1
100
AcDbSpline
210
0.0
220
0.0
230
1.0
 70
     8
 71
     3
 72
    42
 73
    38
 74
     0
 42
0.000000001
 43
0.0000000001
 40
0.0
 40
0.0
 40
0.0
 40
0.0
 40
0.0594990180674527
 40
0.0594990180674527
 40
0.1189980361349053
 40
0.1189980361349053
 40
0.178497054202358
 40
0.178497054202358
 40
0.2082465632360836
 40
0.2082465632360836
 40
0.2379960722698093
 40
0.2379960722698093
 40
0.2974950903372594
 40
0.2974950903372594
 40
0.3569941084047095
 40
0.3569941084047095
 40
0.4164931264721595
 40
0.4164931264721595
 40
0.4462426355058846
 40
0.4462426355058846
 40
0.4759921445396095
 40
0.4759921445396095
 40
0.5949901806745076
 40
0.5949901806745076
 40
0.7139882168094058
 40
0.7139882168094058
 40
0.7734872348768546
 40
0.7734872348768546
 40
0.8329862529443033
 40
0.8329862529443033
 40
0.8924852710117519
 40
0.8924852710117519
 40
0.9222347800454764
 40
0.9222347800454764
 40
0.9519842890792006
 40
0.9519842890792006
 40
1.0
 40
1.0
 40
1.0
 40
1.0
 10
417.0000429430444
 20
304.961470968226
 30
0.0
 10
415.8110905833468
 20
304.9977949877014
 30
0.0
 10
414.6181273557503
 20
305.0221298339465
 30
0.0
 10
412.2242225889057
 20
305.0525200023471
 30
0.0
 10
411.0232832425356
 20
305.0585832856465
 30
0.0
 10
408.6138701040695
 20
305.0573146101494
 30
0.0
 10
407.4053979351846
 20
305.0499869471952
 30
0.0
 10
405.5876254507091
 20
305.0318482164391
 30
0.0
 10
404.9807700439952
 20
305.024601018236
 30
0.0
 10
403.7662423726891
 20
305.0080980003007
 30
0.0
 10
403.1585052467918
 20
304.9988419131469
 30
0.0
 10
401.3340018968838
 20
304.9685290381529
 30
0.0
 10
400.1159382584555
 20
304.9449635842286
 30
0.0
 10
397.677176036166
 20
304.8927504676883
 30
0.0
 10
396.4564783336527
 20
304.8641017998861
 30
0.0
 10
394.0134346070428
 20
304.8022148738874
 30
0.0
 10
392.7910896431797
 20
304.7689760769902
 30
0.0
 10
390.9571772909565
 20
304.7152117246379
 30
0.0
 10
390.3458170217045
 20
304.6966186075206
 30
0.0
 10
389.123061602788
 20
304.65800696388
 30
0.0
 10
388.511656050602
 20
304.6379972570981
 30
0.0
 10
385.4546749562782
 20
304.5343752356028
 30
0.0
 10
383.0091573723794
 20
304.4401170082104
 30
0.0
 10
378.1194411724797
 20
304.225977872132
 30
0.0
 10
375.6752432326639
 20
304.1060782477211
 30
0.0
 10
372.010582372712
 20
303.9036883133003
 30
0.0
 10
370.7893792902888
 20
303.8324637684239
 30
0.0
 10
368.348099478952
 20
303.6818021040847
 30
0.0
 10
367.1279776582189
 20
303.6023668305952
 30
0.0
 10
364.6889423233642
 20
303.4343658093521
 30
0.0
 10
363.4700272044014
 20
303.3458068987125
 30
0.0
 10
361.6427473838518
 20
303.2051540758992
 30
0.0
 10
361.0338370270797
 20
303.1569638075002
 30
0.0
 10
359.8164252236975
 20
303.0577536732362
 30
0.0
 10
359.2079283850002
 20
303.0067201243999
 30
0.0
 10
357.6178240886664
 20
302.8695507938878
 30
0.0
 10
356.6365275234689
 20
302.781097994716
 30
0.0
 10
355.6556544074679
 20
302.6889119007607
 30
0.0
  0
SPLINE
  5
1B2
330
1F
100
AcDbEntity
  8
1
100
AcDbSpline
210
0.0
220
0.0
230
1.0
 70
    28
 71
     4
 72
    13
 73
     8
 74
     0
 42
0.000000001
 43
0.0000000001
 40
0.0
 40
0.0
 40
0.0
 40
0.0
 40
0.0
 40
0.1699576638242221
 40
0.1699576638242221
 40
0.1699576638242221
 40
1.0
 40
1.0
 40
1.0
 40
1.0
 40
1.0
 10
297.9048419452957
 20
282.7789826981137
 30
0.0
 41
0.9995915154375367
 10
297.9048419452957
 20
282.3851567624826
 30
0.0
 41
1.00029932073896
 10
297.9048419452957
 20
281.9836467664853
 30
0.0
 41
1.000995566062145
 10
297.9048419452957
 20
281.5792319979763
 30
0.0
 41
1.001498006703475
 10
297.9048419452957
 20
279.2139859360216
 30
0.0
 41
1.001498006703475
 10
297.9048419452957
 20
276.8969563377932
 30
0.0
 41
0.9895139530756711
 10
297.9048419452957
 20
274.9252097561035
 30
0.0
 41
1.001498006703475
 10
297.9048419452957
 20
273.6130916981224
 30
0.0
 41
1.001498006703475
  0
SPLINE
  5
1B3
330
1F
100
AcDbEntity
  8
1
100
AcDbSpline
210
0.0
220
0.0
230
1.0
 70
     8
 71
     3
 72
    58
 73
    54
 74
     0
 42
0.000000001
 43
0.0000000001
 40
0.0
 40
0.0
 40
0.0
 40
0.0
 40
0.0624999999999996
 40
0.0624999999999996
 40
0.1249999999999991
 40
0.1249999999999991
 40
0.1562499999999989
 40
0.1562499999999989
 40
0.1874999999999986
 40
0.1874999999999986
 40
0.2499999999999981
 40
0.2499999999999981
 40
0.3124999999999977
 40
0.3124999999999977
 40
0.3749999999999972
 40
0.3749999999999972
 40
0.4062499999999968
 40
0.4062499999999968
 40
0.4218749999999966
 40
0.4218749999999966
 40
0.4374999999999963
 40
0.4374999999999963
 40
0.4687499999999963
 40
0.4687499999999963
 40
0.4843749999999963
 40
0.4843749999999963
 40
0.4999999999999963
 40
0.4999999999999963
 40
0.5312499999999965
 40
0.5312499999999965
 40
0.5624999999999968
 40
0.5624999999999968
 40
0.5781249999999968
 40
0.5781249999999968
 40
0.5937499999999968
 40
0.5937499999999968
 40
0.6249999999999972
 40
0.6249999999999972
 40
0.6562499999999976
 40
0.6562499999999976
 40
0.6874999999999979
 40
0.6874999999999979
 40
0.7499999999999986
 40
0.7499999999999986
 40
0.8124999999999992
 40
0.8124999999999992
 40
0.8437499999999992
 40
0.8437499999999992
 40
0.8749999999999994
 40
0.8749999999999994
 40
0.9374999999999998
 40
0.9374999999999998
 40
1.0
 40
1.0
 40
1.0
 40
1.0
 10
300.2382571461825
 20
282.0725360088292
 30
0.0
 10
302.435105448301
 20
281.7448591569253
 30
0.0
 10
304.6316516731342
 20
281.4214725948394
 30
0.0
 10
309.0238809655187
 20
280.7822339209975
 30
0.0
 10
311.2195617803278
 20
280.466364507374
 30
0.0
 10
314.5121388125928
 20
279.9972076015033
 30
0.0
 10
315.6095657239517
 20
279.8415876972271
 30
0.0
 10
317.8037553748038
 20
279.5317971418165
 30
0.0
 10
318.9004584416433
 20
279.3776340475832
 30
0.0
 10
322.1892743646044
 20
278.9171988554919
 30
0.0
 10
324.3800900227939
 20
278.6129334331775
 30
0.0
 10
328.7576729369519
 20
278.0099129205834
 30
0.0
 10
330.9444335047333
 20
277.711135090453
 30
0.0
 10
335.3135088551936
 20
277.1209645427171
 30
0.0
 10
337.4958161163689
 20
276.8295566502362
 30
0.0
 10
340.7659601145013
 20
276.4011816444014
 30
0.0
 10
341.8554593135191
 20
276.2598662987126
 30
0.0
 10
343.4889317763605
 20
276.0506951304615
 30
0.0
 10
344.0332935472138
 20
275.981439680143
 30
0.0
 10
345.1217711425412
 20
275.8439784396431
 30
0.0
 10
345.6658791493969
 20
275.7757500287481
 30
0.0
 10
347.2980117933025
 20
275.5732853716734
 30
0.0
 10
348.3858585571112
 20
275.4413308117455
 30
0.0
 10
350.0180422930426
 20
275.2503297822808
 30
0.0
 10
350.5622024595415
 20
275.1878049028032
 30
0.0
 10
351.6505948010541
 20
275.0653558296239
 30
0.0
 10
352.1948177158348
 20
275.0054323279523
 30
0.0
 10
353.8277109043926
 20
274.8298942908963
 30
0.0
 10
354.916609518681
 20
274.7185387686963
 30
0.0
 10
357.095683678549
 20
274.5082051018652
 30
0.0
 10
358.1858575598645
 20
274.4092171780483
 30
0.0
 10
359.822499075239
 20
274.2702359308063
 30
0.0
 10
360.3682827254138
 20
274.2255036842257
 30
0.0
 10
361.4603331845877
 20
274.1390933440532
 30
0.0
 10
362.0065928415063
 20
274.0973977501509
 30
0.0
 10
363.6460164942837
 20
273.9764900343411
 30
0.0
 10
364.7398223015206
 20
273.9014432673804
 30
0.0
 10
366.9289148769113
 20
273.7610059959695
 30
0.0
 10
368.0242028048744
 20
273.6956212813847
 30
0.0
 10
370.2161070520677
 20
273.5734308226144
 30
0.0
 10
371.3127244090782
 20
273.5166289411095
 30
0.0
 10
374.6044062773403
 20
273.3578108347976
 30
0.0
 10
376.8013048214515
 20
273.2673452907086
 30
0.0
 10
381.199231386595
 20
273.1118101009059
 30
0.0
 10
383.4002655499267
 20
273.0467459704987
 30
0.0
 10
386.7042136901114
 20
272.9650675526984
 30
0.0
 10
387.8057559384915
 20
272.9405080024023
 30
0.0
 10
390.0091304398273
 20
272.8963258545397
 30
0.0
 10
391.1109707681308
 20
272.8767004272874
 30
0.0
 10
394.4168613110176
 20
272.8248071986874
 30
0.0
 10
396.6212985371549
 20
272.7995250081813
 30
0.0
 10
401.030996523795
 20
272.7661220768727
 30
0.0
 10
403.2362625847989
 20
272.7579935137005
 30
0.0
 10
405.4417585281355
 20
272.7579935137005
 30
0.0
  0
SPLINE
  5
1B4
330
1F
100
AcDbEntity
  8
1
100
AcDbSpline
210
0.0
220
0.0
230
1.0
 70
     8
 71
     3
 72
    78
 73
    74
 74
     0
 42
0.000000001
 43
0.0000000001
 40
0.0
 40
0.0
 40
0.0
 40
0.0
 40
0.0226311430947661
 40
0.0226311430947661
 40
0.0563335174708089
 40
0.0563335174708089
 40
0.0900358918468516
 40
0.0900358918468516
 40
0.1237382662228944
 40
0.1237382662228944
 40
0.1574406405989371
 40
0.1574406405989371
 40
0.1911430149749799
 40
0.1911430149749799
 40
0.2248453893510227
 40
0.2248453893510227
 40
0.2585477637270654
 40
0.2585477637270654
 40
0.2922501381031081
 40
0.2922501381031081
 40
0.3259525124791509
 40
0.3259525124791509
 40
0.3428036996671722
 40
0.3428036996671722
 40
0.3596548868551935
 40
0.3596548868551935
 40
0.3933572612312363
 40
0.3933572612312363
 40
0.4270596356072791
 40
0.4270596356072791
 40
0.4607620099833218
 40
0.4607620099833218
 40
0.4944643843593645
 40
0.4944643843593645
 40
0.5281667587354074
 40
0.5281667587354074
 40
0.56186913311145
 40
0.56186913311145
 40
0.5955715074874928
 40
0.5955715074874928
 40
0.6292738818635355
 40
0.6292738818635355
 40
0.6629762562395783
 40
0.6629762562395783
 40
0.696678630615621
 40
0.696678630615621
 40
0.7303810049916637
 40
0.7303810049916637
 40
0.7640833793677065
 40
0.7640833793677065
 40
0.797785753743749
 40
0.797785753743749
 40
0.8146369409317703
 40
0.8146369409317703
 40
0.8314881281197916
 40
0.8314881281197916
 40
0.8483393153078127
 40
0.8483393153078127
 40
0.8651905024958335
 40
0.8651905024958335
 40
0.8820416896838542
 40
0.8820416896838542
 40
0.8988928768718752
 40
0.8988928768718752
 40
0.9157440640598959
 40
0.9157440640598959
 40
0.9325952512479167
 40
0.9325952512479167
 40
0.9494464384359375
 40
0.9494464384359375
 40
0.9662976256239584
 40
0.9662976256239584
 40
1.0
 40
1.0
 40
1.0
 40
1.0
 10
306.5741680312657
 20
305.0579932754118
 30
0.0
 10
307.4067217328923
 20
305.0580098494188
 30
0.0
 10
308.2390524238219
 20
305.0563564224456
 30
0.0
 10
310.3103673808794
 20
305.0478186177778
 30
0.0
 10
311.5491603348428
 20
305.0387689458593
 30
0.0
 10
314.0255812620832
 20
305.0121253758053
 30
0.0
 10
315.2631664376378
 20
304.9945310727827
 30
0.0
 10
317.7372253959338
 20
304.9502166974591
 30
0.0
 10
318.9736992135923
 20
304.9234952549608
 30
0.0
 10
321.4457152859612
 20
304.8604612602346
 30
0.0
 10
322.6812576730879
 20
304.8241474482206
 30
0.0
 10
325.1516289805037
 20
304.7416214620055
 30
0.0
 10
326.3864581280568
 20
304.6954082850957
 30
0.0
 10
328.8556539035742
 20
304.5929689121994
 30
0.0
 10
330.09002084161
 20
304.536742104125
 30
0.0
 10
332.5585678809069
 20
304.4143781306674
 30
0.0
 10
333.7927483550756
 20
304.348240847026
 30
0.0
 10
336.2612125552013
 20
304.206387224903
 30
0.0
 10
337.4954966906373
 20
304.1306713202047
 30
0.0
 10
339.9644608635971
 20
303.9702158439354
 30
0.0
 10
341.1991108972383
 20
303.8854787393298
 30
0.0
 10
343.0512050703888
 20
303.7522040879175
 30
0.0
 10
343.6686057807955
 20
303.7067514796013
 30
0.0
 10
344.903515234563
 20
303.6139020033023
 30
0.0
 10
345.5210312411438
 20
303.566522452796
 30
0.0
 10
347.3737070351144
 20
303.4214443267256
 30
0.0
 10
348.6089711930656
 20
303.3207631010236
 30
0.0
 10
351.0794399741606
 20
303.110677498005
 30
0.0
 10
352.3146453344432
 20
303.0012674663518
 30
0.0
 10
354.7848663320207
 20
302.7732276722113
 30
0.0
 10
356.0197562700447
 20
302.6546081797243
 30
0.0
 10
358.4891067567903
 20
302.4081164557997
 30
0.0
 10
359.7235700161869
 20
302.2802298649099
 30
0.0
 10
362.1922770876827
 20
302.0156203887996
 30
0.0
 10
363.4265522012992
 20
301.8789876884107
 30
0.0
 10
365.8953409299373
 20
301.5983157452132
 30
0.0
 10
367.1298951430416
 20
301.4542709379896
 30
0.0
 10
369.5992689585907
 20
301.1597428813245
 30
0.0
 10
370.8340513915298
 20
301.0092636931573
 30
0.0
 10
373.3039420852039
 20
300.702531697953
 30
0.0
 10
374.5390496631152
 20
300.5462785999349
 30
0.0
 10
377.0096422293653
 20
300.2283767151363
 30
0.0
 10
378.2451269068176
 20
300.0667284898789
 30
0.0
 10
380.716459152652
 20
299.7381349986834
 30
0.0
 10
381.9523426356691
 20
299.5711867433886
 30
0.0
 10
384.4240801647669
 20
299.2318195346259
 30
0.0
 10
385.6599633405729
 20
299.05940106682
 30
0.0
 10
388.1316091922079
 20
298.7084656465741
 30
0.0
 10
389.36737293959
 20
298.5299556874297
 30
0.0
 10
391.8385319168052
 20
298.1656475200091
 30
0.0
 10
393.0739219481557
 20
297.9798368344814
 30
0.0
 10
394.9262016350547
 20
297.6930170808241
 30
0.0
 10
395.5435118276662
 20
297.5960627525509
 30
0.0
 10
396.7776899042917
 20
297.3991482667575
 30
0.0
 10
397.3945654888495
 20
297.2991859158386
 30
0.0
 10
398.6278516672341
 20
297.0960224819542
 30
0.0
 10
399.2442620356529
 20
296.9928201468943
 30
0.0
 10
400.4766128693285
 20
296.7830839172557
 30
0.0
 10
401.0925530910667
 20
296.6765486020557
 30
0.0
 10
402.3239993693818
 20
296.4602316390127
 30
0.0
 10
402.9395051843998
 20
296.3504484803752
 30
0.0
 10
404.1701664014466
 20
296.1279434407862
 30
0.0
 10
404.7853215952417
 20
296.0152201023417
 30
0.0
 10
406.0154202210459
 20
295.7874098707272
 30
0.0
 10
406.6303635274975
 20
295.6723218227594
 30
0.0
 10
407.8602371511512
 20
295.4406651905172
 30
0.0
 10
408.4751817875525
 20
295.3240934357245
 30
0.0
 10
409.7052038625548
 20
295.0907079388888
 30
0.0
 10
410.3202890366477
 20
294.9738936417496
 30
0.0
 10
411.5509029417148
 20
294.7415713031972
 30
0.0
 10
412.1664322299865
 20
294.6260658988759
 30
0.0
 10
414.0141959382576
 20
294.2842554748586
 30
0.0
 10
415.2476131303955
 20
294.0626679181372
 30
0.0
 10
416.4840387389814
 20
293.8553749897224
 30
0.0
  0
SPLINE
  5
1B5
330
1F
100
AcDbEntity
  8
1
100
AcDbSpline
210
0.0
220
0.0
230
1.0
 70
     8
 71
     3
 72
     8
 73
     4
 74
     0
 42
0.000000001
 43
0.0000000001
 40
0.0
 40
0.0
 40
0.0
 40
0.0
 40
1.0
 40
1.0
 40
1.0
 40
1.0
 10
417.6848811971145
 20
296.0789414071151
 30
0.0
 10
417.4582498094816
 20
296.1989113746694
 30
0.0
 10
417.2345868589093
 20
296.3259303319264
 30
0.0
 10
417.0136703501334
 20
296.4602517627368
 30
0.0
  0
SPLINE
  5
1B6
330
1F
100
AcDbEntity
  8
1
100
AcDbSpline
210
0.0
220
0.0
230
1.0
 70
     8
 71
     3
 72
    30
 73
    26
 74
     0
 42
0.000000001
 43
0.0000000001
 40
0.0
 40
0.0
 40
0.0
 40
0.0
 40
0.0625000000000101
 40
0.0625000000000101
 40
0.1250000000000202
 40
0.1250000000000202
 40
0.2500000000000113
 40
0.2500000000000113
 40
0.3750000000000023
 40
0.3750000000000023
 40
0.4375000000000099
 40
0.4375000000000099
 40
0.5000000000000174
 40
0.5000000000000174
 40
0.6250000000000093
 40
0.6250000000000093
 40
0.7500000000000011
 40
0.7500000000000011
 40
0.7812500000000047
 40
0.7812500000000047
 40
0.8125000000000083
 40
0.8125000000000083
 40
0.8750000000000047
 40
0.8750000000000047
 40
1.0
 40
1.0
 40
1.0
 40
1.0
 10
415.8012518364806
 20
297.7813867664725
 30
0.0
 10
415.8374562079415
 20
297.810482749861
 30
0.0
 10
415.8733482265312
 20
297.8400851066135
 30
0.0
 10
415.9444511292961
 20
297.9003940466418
 30
0.0
 10
415.9796514258321
 20
297.9310944998958
 30
0.0
 10
416.083598738164
 20
298.0245131834639
 30
0.0
 10
416.1508732918617
 20
298.0886888366472
 30
0.0
 10
416.2806979630385
 20
298.221467795421
 30
0.0
 10
416.3432516789022
 20
298.2900677286733
 30
0.0
 10
416.4328512444561
 20
298.3969328495774
 30
0.0
 10
416.4620103750128
 20
298.4332175103086
 30
0.0
 10
416.5187642311413
 20
298.5072529625798
 30
0.0
 10
416.5464067364205
 20
298.5450783056723
 30
0.0
 10
416.6260680989403
 20
298.6600337065632
 30
0.0
 10
416.6750072994356
 20
298.7388352010281
 30
0.0
 10
416.7631379730951
 20
298.9015000062175
 30
0.0
 10
416.8023379015251
 20
298.9853589262775
 30
0.0
 10
416.8440286942468
 20
299.0939780673575
 30
0.0
 10
416.8519996553871
 20
299.1158925744597
 30
0.0
 10
416.8671687200338
 20
299.1601229194773
 30
0.0
 10
416.8743793199751
 20
299.1824821700419
 30
0.0
 10
416.8946737084265
 20
299.2498028250657
 30
0.0
 10
416.9064290503681
 20
299.2950046734774
 30
0.0
 10
416.9361476855506
 20
299.4316151481526
 30
0.0
 10
416.9485755459093
 20
299.5240265376653
 30
0.0
 10
416.9528925796028
 20
299.6179072321218
 30
0.0
  0
SPLINE
  5
1B7
330
1F
100
AcDbEntity
  8
1
100
AcDbSpline
210
0.0
220
0.0
230
1.0
 70
     8
 71
     3
 72
    23
 73
    19
 74
     0
 42
0.000000001
 43
0.0000000001
 40
0.0
 40
0.0
 40
0.0
 40
0.0
 40
0.1250000000000004
 40
0.1250000000000004
 40
0.2500000000000008
 40
0.2500000000000008
 40
0.3750000000000012
 40
0.3750000000000012
 40
0.5000000000000016
 40
0.5000000000000016
 40
0.5625000000000018
 40
0.5937500000000023
 40
0.5937500000000023
 40
0.6250000000000027
 40
0.6250000000000027
 40
0.7500000000000017
 40
0.7500000000000017
 40
1.0
 40
1.0
 40
1.0
 40
1.0
 10
279.4048419452957
 20
269.1766713781042
 30
0.0
 10
279.5522815163678
 20
269.1745302532484
 30
0.0
 10
279.7034501672017
 20
269.1836142603477
 30
0.0
 10
280.0123757951917
 20
269.2208227292156
 30
0.0
 10
280.1701363366106
 20
269.2489600508349
 30
0.0
 10
280.491524645457
 20
269.32162457808
 30
0.0
 10
280.6551546995396
 20
269.3661594726101
 30
0.0
 10
280.9876138409417
 20
269.4693899985119
 30
0.0
 10
281.1564445079104
 20
269.5280904788039
 30
0.0
 10
281.4130861852369
 20
269.6252705742041
 30
0.0
 10
281.5422556937156
 20
269.6761451556905
 30
0.0
 10
281.6725994068822
 20
269.7301806462685
 30
0.0
 10
281.759744776517
 20
269.7668778859237
 30
0.0
 10
281.8034433866312
 20
269.7855640065878
 30
0.0
 10
282.0222103291463
 20
269.880464653359
 30
0.0
 10
282.1983642499397
 20
269.9611915627622
 30
0.0
 10
282.7294289427699
 20
270.2150019791964
 30
0.0
 10
283.0869654711022
 20
270.3996599006434
 30
0.0
 10
283.4455641487015
 20
270.593176604554
 30
0.0
  0
SPLINE
  5
1B8
330
1F
100
AcDbEntity
  8
1
100
AcDbSpline
210
0.0
220
0.0
230
1.0
 70
     8
 71
     3
 72
    32
 73
    28
 74
     0
 42
0.000000001
 43
0.0000000001
 40
0.0
 40
0.0
 40
0.0
 40
0.0
 40
0.1250000000000028
 40
0.1250000000000028
 40
0.2500000000000056
 40
0.2500000000000056
 40
0.3750000000000084
 40
0.3750000000000084
 40
0.5000000000000112
 40
0.5000000000000112
 40
0.5156250000000107
 40
0.5156250000000107
 40
0.5312500000000102
 40
0.5312500000000102
 40
0.5625000000000097
 40
0.6250000000000086
 40
0.6250000000000086
 40
0.7500000000000071
 40
0.7500000000000071
 40
0.8750000000000055
 40
0.8750000000000055
 40
0.8906250000000046
 40
0.8906250000000046
 40
0.9062500000000039
 40
0.9062500000000039
 40
0.9375000000000024
 40
1.0
 40
1.0
 40
1.0
 40
1.0
 10
284.1543368819074
 20
283.0029528167598
 30
0.0
 10
284.3752331083298
 20
283.1700084478092
 30
0.0
 10
284.6034550723148
 20
283.3271475986503
 30
0.0
 10
285.0749629446184
 20
283.6212080394993
 30
0.0
 10
285.3182471250907
 20
283.7581331150312
 30
0.0
 10
285.8206267933605
 20
284.0108051366471
 30
0.0
 10
286.0797192631761
 20
284.1265589259097
 30
0.0
 10
286.6148689945234
 20
284.3351943507677
 30
0.0
 10
286.8909213441934
 20
284.4280877486037
 30
0.0
 10
287.2119655743998
 20
284.5182094620354
 30
0.0
 10
287.247783184452
 20
284.5280224161897
 30
0.0
 10
287.3197144715851
 20
284.54724041517
 30
0.0
 10
287.3558180966797
 20
284.5566423372052
 30
0.0
 10
287.4642577185155
 20
284.5841473864936
 30
0.0
 10
287.681960198293
 20
284.6364373608947
 30
0.0
 10
287.9021281212881
 20
284.6804987696397
 30
0.0
 10
288.3457449531448
 20
284.7573874213221
 30
0.0
 10
288.6458642054384
 20
284.793699320984
 30
0.0
 10
289.2548389234613
 20
284.8342981616426
 30
0.0
 10
289.5636973003433
 20
284.8385896353992
 30
0.0
 10
289.9160521410452
 20
284.8236076579301
 30
0.0
 10
289.9552705237912
 20
284.8216671165424
 30
0.0
 10
290.0338427589062
 20
284.8172267345857
 30
0.0
 10
290.0732258661358
 20
284.8147247640264
 30
0.0
 10
290.1913613657723
 20
284.8063838196384
 30
0.0
 10
290.4272310252643
 20
284.7863916605414
 30
0.0
 10
290.6618459324016
 20
284.756490286814
 30
0.0
 10
290.8176470974515
 20
284.7321560537699
 30
0.0
  0
SPLINE
  5
1B9
330
1F
100
AcDbEntity
  8
1
100
AcDbSpline
210
0.0
220
0.0
230
1.0
 70
     8
 71
     3
 72
    47
 73
    43
 74
     0
 42
0.000000001
 43
0.0000000001
 40
0.0
 40
0.0
 40
0.0
 40
0.0
 40
0.062500000000002
 40
0.062500000000002
 40
0.1250000000000039
 40
0.1250000000000039
 40
0.1875000000000059
 40
0.1875000000000059
 40
0.2187500000000066
 40
0.2187500000000066
 40
0.234375000000007
 40
0.234375000000007
 40
0.2500000000000075
 40
0.2500000000000075
 40
0.3125000000000098
 40
0.3750000000000121
 40
0.3750000000000121
 40
0.4375000000000144
 40
0.4375000000000144
 40
0.4531250000000144
 40
0.4531250000000144
 40
0.4687500000000144
 40
0.5000000000000141
 40
0.5000000000000141
 40
0.5625000000000125
 40
0.6250000000000108
 40
0.6250000000000108
 40
0.6562500000000097
 40
0.6562500000000097
 40
0.6718750000000088
 40
0.6718750000000088
 40
0.6875000000000079
 40
0.6875000000000079
 40
0.7500000000000063
 40
0.7500000000000063
 40
0.8125000000000047
 40
0.8125000000000047
 40
0.8750000000000031
 40
0.8750000000000031
 40
0.9375000000000015
 40
0.9375000000000015
 40
1.0
 40
1.0
 40
1.0
 40
1.0
 10
279.4048419452957
 20
277.716254092952
 30
0.0
 10
279.230922142327
 20
277.5467940955206
 30
0.0
 10
279.0671806740131
 20
277.3724229656906
 30
0.0
 10
278.7592579341583
 20
277.014766696434
 30
0.0
 10
278.6150787590744
 20
276.8314795937045
 30
0.0
 10
278.346068590852
 20
276.4565766025274
 30
0.0
 10
278.2212369974151
 20
276.2649601709782
 30
0.0
 10
278.0487563981085
 20
275.9715184317209
 30
0.0
 10
277.9937283824054
 20
275.8726995310956
 30
0.0
 10
277.9149589725697
 20
275.722972701526
 30
0.0
 10
277.8893675124728
 20
275.6728783040903
 30
0.0
 10
277.8397092336249
 20
275.5727262868619
 30
0.0
 10
277.8156115662891
 20
275.5226105090747
 30
0.0
 10
277.6987449275479
 20
275.2718513916093
 30
0.0
 10
277.534884334192
 20
274.8694947231427
 30
0.0
 10
277.4163116985479
 20
274.4656232026995
 30
0.0
 10
277.3205506276814
 20
274.061256026731
 30
0.0
 10
277.2840733880643
 20
273.8588245171864
 30
0.0
 10
277.253260114995
 20
273.60556839142
 30
0.0
 10
277.2478373249933
 20
273.5548711590455
 30
0.0
 10
277.2385384652
 20
273.4540267010977
 30
0.0
 10
277.2268827777755
 20
273.3033823359773
 30
0.0
 10
277.2220302652816
 20
273.1545908214286
 30
0.0
 10
277.2212619556234
 20
272.8594463862469
 30
0.0
 10
277.2440277018418
 20
272.4724197940646
 30
0.0
 10
277.3139844215088
 20
272.0981421678213
 30
0.0
 10
277.3845095957215
 20
271.8221606085883
 30
0.0
 10
277.4110328767961
 20
271.7309549275707
 30
0.0
 10
277.4554358235957
 20
271.5953254118087
 30
0.0
 10
277.4710095825845
 20
271.5503133312384
 30
0.0
 10
277.5035227762604
 20
271.4611814716498
 30
0.0
 10
277.5204824214737
 20
271.4169975784229
 30
0.0
 10
277.6087606943071
 20
271.197952934826
 30
0.0
 10
277.6904940432491
 20
271.0287068587677
 30
0.0
 10
277.8757012495106
 20
270.7014544093249
 30
0.0
 10
277.9791761909509
 20
270.5434494365774
 30
0.0
 10
278.2080107222319
 20
270.238165877572
 30
0.0
 10
278.3333684838879
 20
270.0908877355169
 30
0.0
 10
278.6067408032454
 20
269.8067386856492
 30
0.0
 10
278.7530350071303
 20
269.6716552899248
 30
0.0
 10
279.0646067091445
 20
269.4145392451579
 30
0.0
 10
279.2298891280111
 20
269.2925028235603
 30
0.0
 10
279.4048419452954
 20
269.1766713781039
 30
0.0
  0
SPLINE
  5
1BA
330
1F
100
AcDbEntity
  8
1
100
AcDbSpline
210
0.0
220
0.0
230
1.0
 70
    28
 71
     4
 72
    10
 73
     5
 74
     0
 42
0.000000001
 43
0.0000000001
 40
0.0
 40
0.0
 40
0.0
 40
0.0
 40
0.0
 40
1.0
 40
1.0
 40
1.0
 40
1.0
 40
1.0
 10
297.9048419452957
 20
272.8227882869306
 30
0.0
 41
1.001498006703475
 10
297.9048419452957
 20
273.0203641397286
 30
0.0
 41
1.001498006703475
 10
297.9048419452957
 20
273.2179399925266
 30
0.0
 41
1.001498006703475
 10
297.9048419452957
 20
273.4155158453245
 30
0.0
 41
1.001498006703475
 10
297.9048419452957
 20
273.6130916981224
 30
0.0
 41
1.001498006703475
  0
SPLINE
  5
1BB
330
1F
100
AcDbEntity
  8
1
100
AcDbSpline
210
0.0
220
0.0
230
1.0
 70
     8
 71
     3
 72
    14
 73
    10
 74
     0
 42
0.000000001
 43
0.0000000001
 40
0.0
 40
0.0
 40
0.0
 40
0.0
 40
0.2500000000000006
 40
0.2500000000000006
 40
0.5000000000000005
 40
0.5000000000000005
 40
0.7500000000000002
 40
0.7500000000000002
 40
1.0
 40
1.0
 40
1.0
 40
1.0
 10
301.9497797492801
 20
272.7787116830115
 30
0.0
 10
302.9451011827258
 20
272.8458821953272
 30
0.0
 10
303.9401749361081
 20
272.9172679068096
 30
0.0
 10
305.9303332715608
 20
273.0673757905029
 30
0.0
 10
306.9254186469029
 20
273.1460951657147
 30
0.0
 10
308.9160806778362
 20
273.3096177516401
 30
0.0
 10
309.9116580539164
 20
273.3944178449469
 30
0.0
 10
311.9037342642183
 20
273.5687846374997
 30
0.0
 10
312.9002336986932
 20
273.6583481238671
 30
0.0
 10
313.8973738192574
 20
273.749651922438
 30
0.0
  0
SPLINE
  5
1BC
330
1F
100
AcDbEntity
  8
1
100
AcDbSpline
210
0.0
220
0.0
230
1.0
 70
     8
 71
     3
 72
    38
 73
    34
 74
     0
 42
0.000000001
 43
0.0000000001
 40
0.0
 40
0.0
 40
0.0
 40
0.0
 40
0.0619451144422894
 40
0.0619451144422894
 40
0.095447074640779
 40
0.095447074640779
 40
0.1289490348392685
 40
0.1289490348392685
 40
0.1959529552362474
 40
0.1959529552362474
 40
0.2629568756332265
 40
0.2629568756332265
 40
0.3299607960302058
 40
0.3299607960302058
 40
0.3969647164271854
 40
0.3969647164271854
 40
0.4639686368241648
 40
0.4639686368241648
 40
0.5309725572211442
 40
0.5309725572211442
 40
0.5979764776181237
 40
0.5979764776181237
 40
0.664980398015103
 40
0.664980398015103
 40
0.7319843184120824
 40
0.7319843184120824
 40
0.7989882388090619
 40
0.7989882388090619
 40
0.8659921592060413
 40
0.8659921592060413
 40
0.9329960796030206
 40
0.9329960796030206
 40
1.0
 40
1.0
 40
1.0
 40
1.0
 10
348.505148799863
 20
275.4303443174396
 30
0.0
 10
347.5423058591082
 20
275.3152599911565
 30
0.0
 10
346.5795458285047
 20
275.2039748197359
 30
0.0
 10
345.0960795878701
 20
275.0386054535076
 30
0.0
 10
344.575375308293
 20
274.9817250552418
 30
0.0
 10
343.5339402516764
 20
274.8702835726058
 30
0.0
 10
343.0132145075775
 20
274.815709680594
 30
0.0
 10
341.4510615777266
 20
274.6552682158539
 30
0.0
 10
340.4096601472361
 20
274.552670759437
 30
0.0
 10
338.3271578893785
 20
274.3555922385932
 30
0.0
 10
337.2860576151327
 20
274.2611119075639
 30
0.0
 10
335.2043386621104
 20
274.079971930666
 30
0.0
 10
334.1637203784023
 20
273.9933136260405
 30
0.0
 10
332.0830787996154
 20
273.8278054997957
 30
0.0
 10
331.0430557183003
 20
273.7489575635597
 30
0.0
 10
328.9636411260156
 20
273.5992927684074
 30
0.0
 10
327.9242496375393
 20
273.5284782147169
 30
0.0
 10
325.846054432883
 20
273.3952741714802
 30
0.0
 10
324.8072505536871
 20
273.3328872294189
 30
0.0
 10
322.7301085359162
 20
273.2170302592313
 30
0.0
 10
321.6917700703593
 20
273.1635628098844
 30
0.0
 10
319.6153660633139
 20
273.0660567990122
 30
0.0
 10
318.5773000657454
 20
273.0220206310214
 30
0.0
 10
316.5011892865841
 20
272.9438338580975
 30
0.0
 10
315.4631439635759
 20
272.9096852682818
 30
0.0
 10
313.3867790736113
 20
272.8516081779575
 30
0.0
 10
312.3484589271392
 20
272.8276811679835
 30
0.0
 10
310.2712221780322
 20
272.790206511423
 30
0.0
 10
309.2323050031631
 20
272.7766597457669
 30
0.0
 10
307.1535426826207
 20
272.7598937566555
 30
0.0
 10
306.1136970111604
 20
272.7566747840876
 30
0.0
 10
304.0327534965081
 20
272.760284467267
 30
0.0
 10
302.9916552040116
 20
272.7671127821267
 30
0.0
 10
301.9497797492799
 20
272.7787116830128
 30
0.0
  0
SPLINE
  5
1BD
330
1F
100
AcDbEntity
  8
1
100
AcDbSpline
210
0.0
220
0.0
230
1.0
 70
     8
 71
     3
 72
     8
 73
     4
 74
     0
 42
0.000000001
 43
0.0000000001
 40
0.0
 40
0.0
 40
0.0
 40
0.0
 40
1.0
 40
1.0
 40
1.0
 40
1.0
 10
301.9497797492799
 20
272.7787116830126
 30
0.0
 10
300.6023175249838
 20
272.7895476552102
 30
0.0
 10
299.2540390252524
 20
272.8044270436299
 30
0.0
 10
297.9048419452957
 20
272.8227882869306
 30
0.0
  0
SPLINE
  5
1BE
330
1F
100
AcDbEntity
  8
1
100
AcDbSpline
210
0.0
220
0.0
230
1.0
 70
     8
 71
     3
 72
    13
 73
     9
 74
     0
 42
0.000000001
 43
0.0000000001
 40
0.0
 40
0.0
 40
0.0
 40
0.0
 40
0.25
 40
0.5
 40
0.5
 40
0.75
 40
0.75
 40
1.0
 40
1.0
 40
1.0
 40
1.0
 10
295.5658683075139
 20
272.8726164317139
 30
0.0
 10
295.7531381681862
 20
272.8634291481985
 30
0.0
 10
296.1313060839245
 20
272.8482562888175
 30
0.0
 10
296.5169720736909
 20
272.8382518804073
 30
0.0
 10
296.9065518528423
 20
272.8303952209397
 30
0.0
 10
297.1032985754897
 20
272.8275399288636
 30
0.0
 10
297.5009144939797
 20
272.8237371451779
 30
0.0
 10
297.7017834743522
 20
272.8227882869306
 30
0.0
 10
297.9048419452957
 20
272.8227882869306
 30
0.0
  0
SPLINE
  5
1BF
330
1F
100
AcDbEntity
  8
1
100
AcDbSpline
210
0.0
220
0.0
230
1.0
 70
     8
 71
     3
 72
    30
 73
    26
 74
     0
 42
0.000000001
 43
0.0000000001
 40
0.0
 40
0.0
 40
0.0
 40
0.0
 40
0.0624999999999998
 40
0.0624999999999998
 40
0.1249999999999996
 40
0.1249999999999996
 40
0.1874999999999994
 40
0.1874999999999994
 40
0.2499999999999992
 40
0.2499999999999992
 40
0.3749999999999997
 40
0.3749999999999997
 40
0.5000000000000001
 40
0.5000000000000001
 40
0.5625
 40
0.5625
 40
0.59375
 40
0.59375
 40
0.6249999999999999
 40
0.6249999999999999
 40
0.75
 40
0.75
 40
0.8749999999999998
 40
0.8749999999999998
 40
1.0
 40
1.0
 40
1.0
 40
1.0
 10
294.0538318185192
 20
272.9571029182129
 30
0.0
 10
293.8109595077769
 20
272.9722753486673
 30
0.0
 10
293.5709406722181
 20
272.982614785435
 30
0.0
 10
293.0960238584964
 20
272.9946203501539
 30
0.0
 10
292.8611268675571
 20
272.9962848060228
 30
0.0
 10
292.3960010901469
 20
272.9917070771647
 30
0.0
 10
292.1657730243841
 20
272.9854636717585
 30
0.0
 10
291.7096379523662
 20
272.9656581874064
 30
0.0
 10
291.4837314806738
 20
272.9520952030597
 30
0.0
 10
290.8121033780117
 20
272.9010892601902
 30
0.0
 10
290.3724428468041
 20
272.8533804836725
 30
0.0
 10
289.5080577307198
 20
272.7326655897861
 30
0.0
 10
289.0833400861563
 20
272.6596477174564
 30
0.0
 10
288.4572106427981
 20
272.5315796944769
 30
0.0
 10
288.2503316300846
 20
272.4857894843054
 30
0.0
 10
287.9427795712235
 20
272.4124185545373
 30
0.0
 10
287.84064706163
 20
272.3871595512433
 30
0.0
 10
287.6379114728928
 20
272.3352225746867
 30
0.0
 10
287.5372622934959
 20
272.3085350227693
 30
0.0
 10
287.0375946773271
 20
272.171516748267
 30
0.0
 10
286.6492766225651
 20
272.0504789628874
 30
0.0
 10
285.8956741547727
 20
271.7853553693404
 30
0.0
 10
285.5303931298277
 20
271.6412661709721
 30
0.0
 10
284.8238819169724
 20
271.3290219210582
 30
0.0
 10
284.4826505309508
 20
271.160868068372
 30
0.0
 10
284.1543368819071
 20
270.9797884135177
 30
0.0
  0
SPLINE
  5
1C0
330
1F
100
AcDbEntity
  8
1
100
AcDbSpline
210
0.0
220
0.0
230
1.0
 70
     8
 71
     3
 72
    22
 73
    18
 74
     0
 42
0.000000001
 43
0.0000000001
 40
0.0
 40
0.0
 40
0.0
 40
0.0
 40
0.1527767181541825
 40
0.1527767181541825
 40
0.3055534363083651
 40
0.3055534363083651
 40
0.4583301544625476
 40
0.4583301544625476
 40
0.5347185135396389
 40
0.5347185135396389
 40
0.6111068726167302
 40
0.6111068726167302
 40
0.7638835907709126
 40
0.7638835907709126
 40
0.9166603089250951
 40
0.9166603089250951
 40
1.0
 40
1.0
 40
1.0
 40
1.0
 10
313.8973738192574
 20
273.749651922438
 30
0.0
 10
315.2035677198168
 20
273.8692313566687
 30
0.0
 10
316.5099712335688
 20
273.9969718266713
 30
0.0
 10
319.124251583249
 20
274.2646340667885
 30
0.0
 10
320.4321333354449
 20
274.4045331156407
 30
0.0
 10
323.0502571513243
 20
274.6915187871686
 30
0.0
 10
324.3605039567968
 20
274.8385699693632
 30
0.0
 10
326.3280661301209
 20
275.0608254220613
 30
0.0
 10
326.9842825048795
 20
275.1351942425239
 30
0.0
 10
328.2974685608477
 20
275.2839885094267
 30
0.0
 10
328.9544604708503
 20
275.358415231442
 30
0.0
 10
330.9263795375068
 20
275.5811636535382
 30
0.0
 10
332.2422411811627
 20
275.7288603630528
 30
0.0
 10
334.8761903544284
 20
276.021393644002
 30
0.0
 10
336.1942743137066
 20
276.1662242084142
 30
0.0
 10
338.2325730383035
 20
276.3891498977912
 30
0.0
 10
338.9522406045305
 20
276.4676645509199
 30
0.0
 10
339.6720634222686
 20
276.5463685813647
 30
0.0
  0
SPLINE
  5
1C1
330
1F
100
AcDbEntity
  8
1
100
AcDbSpline
210
0.0
220
0.0
230
1.0
 70
     8
 71
     3
 72
     8
 73
     4
 74
     0
 42
0.000000001
 43
0.0000000001
 40
0.0
 40
0.0
 40
0.0
 40
0.0
 40
1.0
 40
1.0
 40
1.0
 40
1.0
 10
300.2384498569223
 20
282.0912530167784
 30
0.0
 10
300.2383856146939
 20
282.0850140012904
 30
0.0
 10
300.2383213777811
 20
282.0787749986417
 30
0.0
 10
300.2382571461825
 20
282.0725360088292
 30
0.0
  0
SPLINE
  5
1C2
330
1F
100
AcDbEntity
  8
1
100
AcDbSpline
210
0.0
220
0.0
230
1.0
 70
     8
 71
     3
 72
     8
 73
     4
 74
     0
 42
0.000000001
 43
0.0000000001
 40
0.0
 40
0.0
 40
0.0
 40
0.0
 40
1.0
 40
1.0
 40
1.0
 40
1.0
 10
283.4455641487015
 20
270.5931766045541
 30
0.0
 10
283.682817707624
 20
270.7212097780758
 30
0.0
 10
283.9191106610925
 20
270.8500506368458
 30
0.0
 10
284.1543368819074
 20
270.9797884135173
 30
0.0
  0
SPLINE
  5
1C3
330
1F
100
AcDbEntity
  8
1
100
AcDbSpline
210
0.0
220
0.0
230
1.0
 70
     9
 71
     3
 72
   181
 73
   177
 74
     0
 42
0.000000001
 43
0.0000000001
 40
0.0
 40
0.0
 40
0.0
 40
0.0
 40
0.0156250000000021
 40
0.0156250000000021
 40
0.0234375000000035
 40
0.0234375000000035
 40
0.0312500000000048
 40
0.0312500000000048
 40
0.0468750000000069
 40
0.0468750000000069
 40
0.0546875000000084
 40
0.0546875000000084
 40
0.0625000000000099
 40
0.0625000000000099
 40
0.0781250000000133
 40
0.0781250000000133
 40
0.0937500000000167
 40
0.0937500000000167
 40
0.1015625000000183
 40
0.1015625000000183
 40
0.10937500000002
 40
0.10937500000002
 40
0.1250000000000228
 40
0.1250000000000228
 40
0.1328125000000238
 40
0.1328125000000238
 40
0.1406250000000248
 40
0.1406250000000248
 40
0.1562500000000266
 40
0.1562500000000266
 40
0.1718750000000284
 40
0.1718750000000284
 40
0.1796875000000294
 40
0.1796875000000294
 40
0.1875000000000304
 40
0.1875000000000304
 40
0.2031250000000321
 40
0.2031250000000321
 40
0.2109375000000329
 40
0.2109375000000329
 40
0.2187500000000338
 40
0.2187500000000338
 40
0.2343750000000357
 40
0.2343750000000357
 40
0.2500000000000375
 40
0.2500000000000375
 40
0.2578125000000384
 40
0.2578125000000384
 40
0.2656250000000394
 40
0.2656250000000394
 40
0.281250000000041
 40
0.281250000000041
 40
0.2890625000000419
 40
0.2890625000000419
 40
0.2968750000000427
 40
0.2968750000000427
 40
0.3125000000000444
 40
0.3125000000000444
 40
0.3281250000000461
 40
0.3281250000000461
 40
0.3359375000000469
 40
0.3359375000000469
 40
0.3437500000000476
 40
0.3437500000000476
 40
0.3593750000000488
 40
0.3593750000000488
 40
0.3671875000000497
 40
0.3671875000000497
 40
0.3750000000000506
 40
0.3750000000000506
 40
0.3906250000000517
 40
0.3906250000000517
 40
0.406250000000053
 40
0.406250000000053
 40
0.4140625000000533
 40
0.4140625000000533
 40
0.4218750000000537
 40
0.4218750000000537
 40
0.4375000000000547
 40
0.4375000000000547
 40
0.4453125000000555
 40
0.4453125000000555
 40
0.4531250000000562
 40
0.4531250000000562
 40
0.4687500000000571
 40
0.4687500000000571
 40
0.4843750000000579
 40
0.4843750000000579
 40
0.4921875000000577
 40
0.4921875000000577
 40
0.5000000000000573
 40
0.5000000000000573
 40
0.5156250000000569
 40
0.5156250000000569
 40
0.5234375000000564
 40
0.5234375000000564
 40
0.5312500000000561
 40
0.5312500000000561
 40
0.5625000000000532
 40
0.5625000000000532
 40
0.5703125000000528
 40
0.5703125000000528
 40
0.5781250000000523
 40
0.5781250000000523
 40
0.5937500000000506
 40
0.5937500000000506
 40
0.6015625000000496
 40
0.6015625000000496
 40
0.6093750000000487
 40
0.6093750000000487
 40
0.6250000000000466
 40
0.6250000000000466
 40
0.6406250000000445
 40
0.6406250000000445
 40
0.6484375000000436
 40
0.6484375000000436
 40
0.6562500000000427
 40
0.6562500000000427
 40
0.6718750000000413
 40
0.6718750000000413
 40
0.6796875000000405
 40
0.6796875000000405
 40
0.6875000000000397
 40
0.6875000000000397
 40
0.7031250000000381
 40
0.7031250000000381
 40
0.7187500000000365
 40
0.7187500000000365
 40
0.7265625000000357
 40
0.7265625000000357
 40
0.7343750000000348
 40
0.7343750000000348
 40
0.7500000000000333
 40
0.7500000000000333
 40
0.7578125000000325
 40
0.7578125000000325
 40
0.7656250000000319
 40
0.7656250000000319
 40
0.7812500000000303
 40
0.7812500000000303
 40
0.7968750000000288
 40
0.7968750000000288
 40
0.804687500000028
 40
0.804687500000028
 40
0.8125000000000271
 40
0.8125000000000271
 40
0.8281250000000259
 40
0.8281250000000259
 40
0.835937500000025
 40
0.835937500000025
 40
0.8437500000000238
 40
0.8437500000000238
 40
0.8593750000000216
 40
0.8593750000000216
 40
0.8750000000000195
 40
0.8750000000000195
 40
0.8828125000000184
 40
0.8828125000000184
 40
0.8906250000000174
 40
0.8906250000000174
 40
0.9062500000000156
 40
0.9062500000000156
 40
0.9140625000000143
 40
0.9140625000000143
 40
0.9218750000000131
 40
0.929687500000012
 40
0.929687500000012
 40
0.9375000000000108
 40
0.9375000000000108
 40
0.9531250000000085
 40
0.9531250000000085
 40
0.9609375000000072
 40
0.9609375000000072
 40
0.9687500000000055
 40
0.9687500000000055
 40
1.0
 40
1.0
 40
1.0
 40
1.0
 10
430.3017684254812
 20
283.626377231617
 30
0.0
 10
430.3109210408447
 20
283.6255451939014
 30
0.0
 10
430.3200424042641
 20
283.6279234302747
 30
0.0
 10
430.3336778545186
 20
283.6362771212587
 30
0.0
 10
430.338215224812
 20
283.6398608436084
 30
0.0
 10
430.3472742838856
 20
283.6486391306814
 30
0.0
 10
430.3517973790678
 20
283.6538381758698
 30
0.0
 10
430.3652697149558
 20
283.6717752901023
 30
0.0
 10
430.374146587715
 20
283.686867576873
 30
0.0
 10
430.3873043991095
 20
283.7142214243488
 30
0.0
 10
430.3916695968593
 20
283.7241408480045
 30
0.0
 10
430.4003178677876
 20
283.7455009343591
 30
0.0
 10
430.4045976572692
 20
283.7569308435671
 30
0.0
 10
430.4173046503938
 20
283.7934589646144
 30
0.0
 10
430.4255998027422
 20
283.820790090786
 30
0.0
 10
430.441833549437
 20
283.8814815416764
 30
0.0
 10
430.4497182097041
 20
283.9146463557981
 30
0.0
 10
430.4611696410829
 20
283.9684739209393
 30
0.0
 10
430.4649257213496
 20
283.9871038497779
 30
0.0
 10
430.4723149366888
 20
284.025747731723
 30
0.0
 10
430.4759506112066
 20
284.04577913716
 30
0.0
 10
430.4866137895774
 20
284.1076326904662
 30
0.0
 10
430.4934168362968
 20
284.1513016151105
 30
0.0
 10
430.5031627407254
 20
284.2204552922295
 30
0.0
 10
430.5063386751348
 20
284.244147011875
 30
0.0
 10
430.512515929727
 20
284.2926059293958
 30
0.0
 10
430.5155145183135
 20
284.3173480614977
 30
0.0
 10
430.5242419447433
 20
284.3931023608728
 30
0.0
 10
430.5297031000064
 20
284.4456386917358
 30
0.0
 10
430.5399048322431
 20
284.5548142696496
 30
0.0
 10
430.5446093866822
 20
284.6110760919369
 30
0.0
 10
430.5510630391522
 20
284.6977827731736
 30
0.0
 10
430.5531144031533
 20
284.727080557417
 30
0.0
 10
430.5570164095009
 20
284.7864712597495
 30
0.0
 10
430.5588676739687
 20
284.8165813768378
 30
0.0
 10
430.5640896826213
 20
284.9076114417203
 30
0.0
 10
430.5671403703465
 20
284.9693852458247
 30
0.0
 10
430.5710724044441
 20
285.0636715962115
 30
0.0
 10
430.5722769502013
 20
285.095414754299
 30
0.0
 10
430.5744612820003
 20
285.1592166684737
 30
0.0
 10
430.5754408773678
 20
285.1912584876951
 30
0.0
 10
430.5780446427058
 20
285.2878031646605
 30
0.0
 10
430.5793346031061
 20
285.3527242266396
 30
0.0
 10
430.5810174713366
 20
285.4836888534151
 30
0.0
 10
430.5814037691097
 20
285.5492414096242
 30
0.0
 10
430.5813086855525
 20
285.6475753455264
 30
0.0
 10
430.5811644330584
 20
285.6803596669606
 30
0.0
 10
430.5806499237216
 20
285.7459410454917
 30
0.0
 10
430.5802791932736
 20
285.7787448314779
 30
0.0
 10
430.5788342163935
 20
285.8766476366737
 30
0.0
 10
430.5774270692934
 20
285.9414155048226
 30
0.0
 10
430.5746534171159
 20
286.0378194764696
 30
0.0
 10
430.5736165653067
 20
286.0698714728539
 30
0.0
 10
430.5713288293616
 20
286.1334759282435
 30
0.0
 10
430.5700784341778
 20
286.1650260054075
 30
0.0
 10
430.5660101892887
 20
286.2589257555974
 30
0.0
 10
430.5628759445027
 20
286.3205283427951
 30
0.0
 10
430.5557589524886
 20
286.4417178050628
 30
0.0
 10
430.5518040683653
 20
286.5008307543097
 30
0.0
 10
430.5452846124236
 20
286.5873053640477
 30
0.0
 10
430.5430134275558
 20
286.6157637664734
 30
0.0
 10
430.5382741134193
 20
286.6719443518627
 30
0.0
 10
430.5358060289939
 20
286.6996608448583
 30
0.0
 10
430.5281449438189
 20
286.7812764392848
 30
0.0
 10
430.5226837062926
 20
286.8337923716366
 30
0.0
 10
430.5139620831556
 20
286.9097299510133
 30
0.0
 10
430.5109623997543
 20
286.9345994593619
 30
0.0
 10
430.5048101919021
 20
286.9831831893376
 30
0.0
 10
430.5016571737211
 20
287.0069055535764
 30
0.0
 10
430.4919688088188
 20
287.0763747500841
 30
0.0
 10
430.4852020339379
 20
287.120443440512
 30
0.0
 10
430.471063442675
 20
287.2039563350068
 30
0.0
 10
430.463740885251
 20
287.2431126957418
 30
0.0
 10
430.4523804136053
 20
287.2979805465823
 30
0.0
 10
430.4485307047205
 20
287.315624227692
 30
0.0
 10
430.4407047080135
 20
287.3496120800826
 30
0.0
 10
430.4367304622326
 20
287.3659445913889
 30
0.0
 10
430.4246783500578
 20
287.4127436673763
 30
0.0
 10
430.4164522032437
 20
287.4411024268633
 30
0.0
 10
430.4038251922471
 20
287.4793694970431
 30
0.0
 10
430.3995628635449
 20
287.4914248205886
 30
0.0
 10
430.3909793598151
 20
287.513995652313
 30
0.0
 10
430.3866559210856
 20
287.5245202905901
 30
0.0
 10
430.3735909343163
 20
287.5538212365886
 30
0.0
 10
430.364748557173
 20
287.5703395282782
 30
0.0
 10
430.3468350035786
 20
287.5972056217035
 30
0.0
 10
430.3378206058893
 20
287.6074729704992
 30
0.0
 10
430.3242129904123
 20
287.6181481038417
 30
0.0
 10
430.3196627564648
 20
287.6209174251291
 30
0.0
 10
430.3105333221303
 20
287.6248646484416
 30
0.0
 10
430.3059589152276
 20
287.6260383043344
 30
0.0
 10
430.2922621806244
 20
287.6271519809529
 30
0.0
 10
430.2831450602302
 20
287.6247008627702
 30
0.0
 10
430.2694905510374
 20
287.6162071228873
 30
0.0
 10
430.2649348076484
 20
287.6125618642457
 30
0.0
 10
430.2558971051823
 20
287.6037143826213
 30
0.0
 10
430.2514092494415
 20
287.5985113198708
 30
0.0
 10
430.2291225649089
 20
287.568659319667
 30
0.0
 10
430.211777199781
 20
287.5326089120298
 30
0.0
 10
430.1907063886911
 20
287.4721861166111
 30
0.0
 10
430.1865230428707
 20
287.4593267385793
 30
0.0
 10
430.1782192631275
 20
287.4320261840589
 30
0.0
 10
430.1741000777466
 20
287.4175842409723
 30
0.0
 10
430.1619404279251
 20
287.3722270487087
 30
0.0
 10
430.154062638761
 20
287.3391755025013
 30
0.0
 10
430.1425899422659
 20
287.2853654907912
 30
0.0
 10
430.1388180432303
 20
287.266694624908
 30
0.0
 10
430.1314202324386
 20
287.228079956296
 30
0.0
 10
430.1277946456838
 20
287.2081415087189
 30
0.0
 10
430.1171366924896
 20
287.1464427153002
 30
0.0
 10
430.1103225949416
 20
287.1028035513063
 30
0.0
 10
430.0972835479142
 20
287.0104539459717
 30
0.0
 10
430.0911118559993
 20
286.9621198422422
 30
0.0
 10
430.0823739684282
 20
286.8864280167488
 30
0.0
 10
430.0795479588041
 20
286.8606636020896
 30
0.0
 10
430.0740702963355
 20
286.8080602727735
 30
0.0
 10
430.0714190549463
 20
286.7812202242198
 30
0.0
 10
430.0637712429713
 20
286.6995343979535
 30
0.0
 10
430.0590642252451
 20
286.6433807644273
 30
0.0
 10
430.0525907084095
 20
286.5566068843868
 30
0.0
 10
430.0505282685943
 20
286.5272159131707
 30
0.0
 10
430.0466180325805
 20
286.4678337547594
 30
0.0
 10
430.0447695655321
 20
286.4378396926099
 30
0.0
 10
430.0395419306441
 20
286.3469547692562
 30
0.0
 10
430.0364790771701
 20
286.2851471663247
 30
0.0
 10
430.0312089529199
 20
286.1591747518385
 30
0.0
 10
430.0290219075423
 20
286.0954993763804
 30
0.0
 10
430.0264052891781
 20
285.9989649830002
 30
0.0
 10
430.0256439456521
 20
285.9666163158893
 30
0.0
 10
430.024344076789
 20
285.9015762283787
 30
0.0
 10
430.0238061939482
 20
285.8688976685233
 30
0.0
 10
430.0225350153751
 20
285.7708805956806
 30
0.0
 10
430.0221395711905
 20
285.7053861060199
 30
0.0
 10
430.0222224985239
 20
285.6069203456435
 30
0.0
 10
430.0223635019936
 20
285.5740180740209
 30
0.0
 10
430.0228705765723
 20
285.5084342167834
 30
0.0
 10
430.0232363247588
 20
285.4757376702209
 30
0.0
 10
430.0246676813904
 20
285.3779320341134
 30
0.0
 10
430.0260676663494
 20
285.3130693197106
 30
0.0
 10
430.0297585870101
 20
285.1842572015828
 30
0.0
 10
430.0320364194483
 20
285.120746263755
 30
0.0
 10
430.0360938140343
 20
285.0268061585124
 30
0.0
 10
430.0375532481236
 20
284.9957142438529
 30
0.0
 10
430.0406870610996
 20
284.9339754054329
 30
0.0
 10
430.0423604589218
 20
284.9033545886828
 30
0.0
 10
430.0476764603682
 20
284.8126313734805
 30
0.0
 10
430.0516216301866
 20
284.7535142583557
 30
0.0
 10
430.0581399815167
 20
284.6668821924378
 30
0.0
 10
430.0604159668103
 20
284.6383136638934
 30
0.0
 10
430.0651480154104
 20
284.5821231401136
 30
0.0
 10
430.0676053723606
 20
284.5544798538174
 30
0.0
 10
430.0752496908488
 20
284.4728972599831
 30
0.0
 10
430.0807132789338
 20
284.4202584225044
 30
0.0
 10
430.0923503390405
 20
284.318781385615
 30
0.0
 10
430.0984886325665
 20
284.2702410877816
 30
0.0
 10
430.1081713658979
 20
284.2006980528927
 30
0.0
 10
430.1114783013587
 20
284.1780625873026
 30
0.0
 10
430.1182518700243
 20
284.1338895015681
 30
0.0
 10
430.1217143349359
 20
284.1123816608907
 30
0.0
 10
430.1322899028191
 20
284.0498191716543
 30
0.0
 10
430.1396051083683
 20
284.010625938142
 30
0.0
 10
430.1509759005951
 20
283.9556157875988
 30
0.0
 10
430.1548366972013
 20
283.9378940620348
 30
0.0
 10
430.1626549028513
 20
283.9038854185214
 30
0.0
 10
430.1705764162206
 20
283.8712753308445
 30
0.0
 10
430.1787036625283
 20
283.8414504077682
 30
0.0
 10
430.1869340695013
 20
283.8130220497498
 30
0.0
 10
430.1911049880821
 20
283.7994937762665
 30
0.0
 10
430.2037450201043
 20
283.7611118767492
 30
0.0
 10
430.2123140686371
 20
283.7385305634882
 30
0.0
 10
430.2253801512715
 20
283.7091467499851
 30
0.0
 10
430.2297709935668
 20
283.700101504447
 30
0.0
 10
430.2386242346063
 20
283.6835222682756
 30
0.0
 10
430.24307664389
 20
283.6760089759267
 30
0.0
 10
430.2653859445034
 20
283.6424254327774
 30
0.0
 10
430.2834631947539
 20
283.6280413070483
 30
0.0
 10
430.301768425481
 20
283.626377231617
 30
0.0
  0
SPLINE
  5
1C4
330
1F
100
AcDbEntity
  8
1
100
AcDbSpline
210
0.0
220
0.0
230
1.0
 70
    12
 71
     2
 72
     6
 73
     3
 74
     0
 42
0.000000001
 43
0.0000000001
 40
0.0
 40
0.0
 40
0.0
 40
1.0
 40
1.0
 40
1.0
 10
300.2382571461825
 20
282.0725360088291
 30
0.0
 41
0.5000000424304077
 10
300.2410368310706
 20
282.081103689445
 30
0.0
 41
0.4999999575695925
 10
300.2438155830777
 20
282.0896760513355
 30
0.0
 41
0.5000000424304077
  0
SPLINE
  5
1C5
330
1F
100
AcDbEntity
  8
1
100
AcDbSpline
210
0.0
220
0.0
230
1.0
 70
     8
 71
     3
 72
     8
 73
     4
 74
     0
 42
0.000000001
 43
0.0000000001
 40
0.0
 40
0.0
 40
0.0
 40
0.0
 40
1.0
 40
1.0
 40
1.0
 40
1.0
 10
417.1749251253344
 20
293.4899637875776
 30
0.0
 10
416.9453834613153
 20
293.6098988356183
 30
0.0
 10
416.7150593569927
 20
293.7317735744723
 30
0.0
 10
416.4840387389815
 20
293.8553749897224
 30
0.0
  0
SPLINE
  5
1C6
330
1F
100
AcDbEntity
  8
1
100
AcDbSpline
210
0.0
220
0.0
230
1.0
 70
     8
 71
     3
 72
     8
 73
     4
 74
     0
 42
0.000000001
 43
0.0000000001
 40
0.0
 40
0.0
 40
0.0
 40
0.0
 40
1.0
 40
1.0
 40
1.0
 40
1.0
 10
417.0136703501333
 20
296.4602517627367
 30
0.0
 10
416.8796632268692
 20
296.5417306374272
 30
0.0
 10
416.7451286886299
 20
296.6234025820945
 30
0.0
 10
416.6100766335503
 20
296.7052639733437
 30
0.0
  0
SPLINE
  5
1C7
330
1F
100
AcDbEntity
  8
1
100
AcDbSpline
210
0.0
220
0.0
230
1.0
 70
     8
 71
     3
 72
    38
 73
    34
 74
     0
 42
0.000000001
 43
0.0000000001
 40
0.0
 40
0.0
 40
0.0
 40
0.0
 40
0.2499999999999776
 40
0.2499999999999776
 40
0.3749999999999867
 40
0.3749999999999867
 40
0.4999999999999958
 40
0.4999999999999958
 40
0.6250000000000049
 40
0.6250000000000049
 40
0.6875000000000081
 40
0.6875000000000081
 40
0.7500000000000115
 40
0.7500000000000115
 40
0.8125000000000145
 40
0.8125000000000145
 40
0.8437500000000177
 40
0.8437500000000177
 40
0.8750000000000209
 40
0.8750000000000209
 40
0.8906250000000198
 40
0.8906250000000198
 40
0.9062500000000191
 40
0.9062500000000191
 40
0.9375000000000127
 40
0.9375000000000127
 40
0.9531250000000095
 40
0.9531250000000095
 40
0.9687500000000063
 40
0.9687500000000063
 40
0.9843750000000031
 40
0.9843750000000031
 40
1.0
 40
1.0
 40
1.0
 40
1.0
 10
416.6100766335532
 20
296.7052639733426
 30
0.0
 10
416.5064944247608
 20
296.7680500132545
 30
0.0
 10
416.4068502147951
 20
296.835631236589
 30
0.0
 10
416.2637878091071
 20
296.9450077346874
 30
0.0
 10
416.2171789319676
 20
296.9828136522266
 30
0.0
 10
416.1264362679579
 20
297.0615306346351
 30
0.0
 10
416.0822936413183
 20
297.1024312149909
 30
0.0
 10
415.9971287604665
 20
297.1881356097641
 30
0.0
 10
415.9560756437659
 20
297.2329029739905
 30
0.0
 10
415.8979459813403
 20
297.3043202056267
 30
0.0
 10
415.8790980722316
 20
297.3289278991613
 30
0.0
 10
415.8433738984816
 20
297.3795168232663
 30
0.0
 10
415.8264652931201
 20
297.4055083485275
 30
0.0
 10
415.7953675592167
 20
297.4594572696371
 30
0.0
 10
415.7812764732696
 20
297.487200452323
 30
0.0
 10
415.7636576556687
 20
297.5304130214497
 30
0.0
 10
415.7583744894356
 20
297.5450939110896
 30
0.0
 10
415.7494111151143
 20
297.575202195078
 30
0.0
 10
415.7457170407611
 20
297.5907161427518
 30
0.0
 10
415.7420172493886
 20
297.6142208634803
 30
0.0
 10
415.7410872848628
 20
297.6221076876562
 30
0.0
 10
415.7399539692264
 20
297.6380048563148
 30
0.0
 10
415.7397519552526
 20
297.6460560886836
 30
0.0
 10
415.7404736584086
 20
297.6701153439209
 30
0.0
 10
415.7426851265412
 20
297.6859315037523
 30
0.0
 10
415.7494906340349
 20
297.7092001625822
 30
0.0
 10
415.7523815366836
 20
297.7169351845839
 30
0.0
 10
415.7592692130783
 20
297.7316708635223
 30
0.0
 10
415.7632733856563
 20
297.7387284703817
 30
0.0
 10
415.772415902125
 20
297.7522153945462
 30
0.0
 10
415.7775980573847
 20
297.7586840247783
 30
0.0
 10
415.7888024072333
 20
297.7706749928368
 30
0.0
 10
415.7948341436381
 20
297.7762291273034
 30
0.0
 10
415.8012518364806
 20
297.7813867664725
 30
0.0
  0
SPLINE
  5
1C8
330
1F
100
AcDbEntity
  8
1
100
AcDbSpline
210
0.0
220
0.0
230
1.0
 70
     8
 71
     3
 72
    15
 73
    11
 74
     0
 42
0.000000001
 43
0.0000000001
 40
0.0
 40
0.0
 40
0.0
 40
0.0
 40
0.2499999999999993
 40
0.2499999999999993
 40
0.3125000000000001
 40
0.3125000000000001
 40
0.3750000000000008
 40
0.5000000000000017
 40
0.5000000000000017
 40
1.0
 40
1.0
 40
1.0
 40
1.0
 10
290.8176470974515
 20
284.7321560537699
 30
0.0
 10
291.0846147079524
 20
284.6904589840011
 30
0.0
 10
291.3533612842913
 20
284.6426526330633
 30
0.0
 10
291.6914796236449
 20
284.575390612162
 30
0.0
 10
291.7592507665315
 20
284.5615545067811
 30
0.0
 10
291.8946943606365
 20
284.5332012409827
 30
0.0
 10
292.0977908312106
 20
284.489635116115
 30
0.0
 10
292.3006835336611
 20
284.4430053221552
 30
0.0
 10
292.976551628095
 20
284.280943504389
 30
0.0
 10
293.5158405387067
 20
284.1301612754341
 30
0.0
 10
294.0538318185192
 20
283.9598690696159
 30
0.0
  0
SPLINE
  5
1C9
330
1F
100
AcDbEntity
  8
1
100
AcDbSpline
210
0.0
220
0.0
230
1.0
 70
     8
 71
     3
 72
    14
 73
    10
 74
     0
 42
0.000000001
 43
0.0000000001
 40
0.0
 40
0.0
 40
0.0
 40
0.0
 40
0.25
 40
0.25
 40
0.5
 40
0.5
 40
0.75
 40
0.75
 40
1.0
 40
1.0
 40
1.0
 40
1.0
 10
423.7910383430603
 20
294.0853723737567
 30
0.0
 10
423.5862741852856
 20
294.103223528295
 30
0.0
 10
423.3781085797318
 20
294.123650379049
 30
0.0
 10
422.9559249756898
 20
294.171136580458
 30
0.0
 10
422.7419026322224
 20
294.1981901334658
 30
0.0
 10
422.3085989443478
 20
294.2601483572495
 30
0.0
 10
422.0893155123372
 20
294.2950491116466
 30
0.0
 10
421.6458330179286
 20
294.3738159149127
 30
0.0
 10
421.4216332507437
 20
294.4176787538412
 30
0.0
 10
421.1950419452961
 20
294.4665805339603
 30
0.0
  0
SPLINE
  5
1CA
330
1F
100
AcDbEntity
  8
1
100
AcDbSpline
210
0.0
220
0.0
230
1.0
 70
     8
 71
     3
 72
    14
 73
    10
 74
     0
 42
0.000000001
 43
0.0000000001
 40
0.0
 40
0.0
 40
0.0
 40
0.0
 40
0.25
 40
0.25
 40
0.5
 40
0.5
 40
0.75
 40
0.75
 40
1.0
 40
1.0
 40
1.0
 40
1.0
 10
421.1950419452957
 20
292.1978978471975
 30
0.0
 10
421.4277483350331
 20
292.1677904841431
 30
0.0
 10
421.6578644363711
 20
292.1466999114043
 30
0.0
 10
422.1127805524252
 20
292.121405835537
 30
0.0
 10
422.3375813363439
 20
292.1172053528294
 30
0.0
 10
422.7814884432943
 20
292.1248510886829
 30
0.0
 10
423.0005971977237
 20
292.1366991731181
 30
0.0
 10
423.4324539032208
 20
292.1758269999167
 30
0.0
 10
423.6452070237957
 20
292.203107671855
 30
0.0
 10
423.8542482773298
 20
292.2378885688466
 30
0.0
  0
SPLINE
  5
1CB
330
1F
100
AcDbEntity
  8
1
100
AcDbSpline
210
0.0
220
0.0
230
1.0
 70
    24
 71
     3
 72
    12
 73
     8
 74
     0
 42
0.000000001
 43
0.0000000001
 40
0.0
 40
0.0
 40
0.0
 40
0.0
 40
0.3930044456908566
 40
0.3930044456908566
 40
0.7860088913817132
 40
0.7860088913817132
 40
1.0
 40
1.0
 40
1.0
 40
1.0
 10
421.1950419452957
 20
294.4665805339603
 30
0.0
 10
421.1950419452957
 20
294.0946893024944
 30
0.0
 10
421.1950419452957
 20
293.7475463714931
 30
0.0
 10
421.1950419452957
 20
293.113342566854
 30
0.0
 10
421.1950419452957
 20
292.8262915976226
 30
0.0
 10
421.1950419452957
 20
292.4361144774179
 30
0.0
 10
421.1950419452957
 20
292.308770280863
 30
0.0
 10
421.1950419452957
 20
292.1921725339482
 30
0.0
  0
SPLINE
  5
1CC
330
1F
100
AcDbEntity
  8
1
100
AcDbSpline
210
0.0
220
0.0
230
1.0
 70
     8
 71
     3
 72
    16
 73
    12
 74
     0
 42
0.000000001
 43
0.0000000001
 40
0.0
 40
0.0
 40
0.0
 40
0.0
 40
0.2499999999999998
 40
0.2499999999999998
 40
0.3749999999999998
 40
0.3749999999999998
 40
0.5
 40
0.5
 40
0.75
 40
0.75
 40
1.0
 40
1.0
 40
1.0
 40
1.0
 10
417.6848811971143
 20
296.0789414071151
 30
0.0
 10
417.9622747797926
 20
295.9027737618096
 30
0.0
 10
418.2429532699011
 20
295.7369994519948
 30
0.0
 10
418.6697681961867
 20
295.5035174478716
 30
0.0
 10
418.8130087361067
 20
295.4282258358956
 30
0.0
 10
419.1016102356543
 20
295.2827156314546
 30
0.0
 10
419.2470661391691
 20
295.2124560529066
 30
0.0
 10
419.6857188234587
 20
295.0099047230245
 30
0.0
 10
419.9814562286357
 20
294.8856594444085
 30
0.0
 10
420.581346202403
 20
294.6592233291391
 30
0.0
 10
420.8854897417388
 20
294.5570250898076
 30
0.0
 10
421.1950419452957
 20
294.4665805339603
 30
0.0
  0
SPLINE
  5
1CD
330
1F
100
AcDbEntity
  8
1
100
AcDbSpline
210
0.0
220
0.0
230
1.0
 70
     8
 71
     3
 72
     8
 73
     4
 74
     0
 42
0.000000001
 43
0.0000000001
 40
0.0
 40
0.0
 40
0.0
 40
0.0
 40
1.0
 40
1.0
 40
1.0
 40
1.0
 10
431.3073269389876
 20
279.9292402055162
 30
0.0
 10
431.3243824081698
 20
279.943177814217
 30
0.0
 10
431.3401723155494
 20
279.9584259505285
 30
0.0
 10
431.3546966611258
 20
279.9749846144509
 30
0.0
  0
SPLINE
  5
1CE
330
1F
100
AcDbEntity
  8
1
100
AcDbSpline
210
0.0
220
0.0
230
1.0
 70
     8
 71
     3
 72
     8
 73
     4
 74
     0
 42
0.000000001
 43
0.0000000001
 40
0.0
 40
0.0
 40
0.0
 40
0.0
 40
1.0
 40
1.0
 40
1.0
 40
1.0
 10
431.8886505876547
 20
280.8636331788934
 30
0.0
 10
431.8964522528895
 20
280.8842312366872
 30
0.0
 10
431.9025026456478
 20
280.9053314637831
 30
0.0
 10
431.9068017659293
 20
280.9269338601808
 30
0.0
  0
SPLINE
  5
1CF
330
1F
100
AcDbEntity
  8
1
100
AcDbSpline
210
0.0
220
0.0
230
1.0
 70
     8
 71
     3
 72
     8
 73
     4
 74
     0
 42
0.000000001
 43
0.0000000001
 40
0.0
 40
0.0
 40
0.0
 40
0.0
 40
1.0
 40
1.0
 40
1.0
 40
1.0
 10
431.5118469442885
 20
288.9781183071029
 30
0.0
 10
431.4979093355878
 20
288.9951737762852
 30
0.0
 10
431.4826611992763
 20
289.0109636836646
 30
0.0
 10
431.4661025353538
 20
289.0254880292411
 30
0.0
  0
SPLINE
  5
1D0
330
1F
100
AcDbEntity
  8
1
100
AcDbSpline
210
0.0
220
0.0
230
1.0
 70
     8
 71
     3
 72
     8
 73
     4
 74
     0
 42
0.000000001
 43
0.0000000001
 40
0.0
 40
0.0
 40
0.0
 40
0.0
 40
1.0
 40
1.0
 40
1.0
 40
1.0
 10
432.0303931720172
 20
288.0074807728481
 30
0.0
 10
432.0268505834055
 20
288.0292200467837
 30
0.0
 10
432.0215402636891
 20
288.0505185758535
 30
0.0
 10
432.0144622128678
 20
288.0713763600573
 30
0.0
  0
SPLINE
  5
1D1
330
1F
100
AcDbEntity
  8
1
100
AcDbSpline
210
0.0
220
0.0
230
1.0
 70
     8
 71
     3
 72
     8
 73
     4
 74
     0
 42
0.000000001
 43
0.0000000001
 40
0.0
 40
0.0
 40
0.0
 40
0.0
 40
1.0
 40
1.0
 40
1.0
 40
1.0
 10
428.5397355651256
 20
301.2085096956997
 30
0.0
 10
428.5421462412332
 20
301.2165113018753
 30
0.0
 10
428.5447313211339
 20
301.2244641806524
 30
0.0
 10
428.5474910260965
 20
301.2323689226886
 30
0.0
  0
SPLINE
  5
1D2
330
1F
100
AcDbEntity
  8
1
100
AcDbSpline
210
0.0
220
0.0
230
1.0
 70
     8
 71
     3
 72
    18
 73
    14
 74
     0
 42
0.000000001
 43
0.0000000001
 40
0.0
 40
0.0
 40
0.0
 40
0.0
 40
0.2499999999996011
 40
0.2499999999996011
 40
0.3749999999996741
 40
0.3749999999996741
 40
0.4999999999997474
 40
0.4999999999997474
 40
0.6249999999998204
 40
0.6249999999998204
 40
0.7499999999998935
 40
0.7499999999998935
 40
1.0
 40
1.0
 40
1.0
 40
1.0
 10
427.4244947223222
 20
298.8864797645421
 30
0.0
 10
427.415139852291
 20
298.8898283098908
 30
0.0
 10
427.4064283987232
 20
298.8946450396866
 30
0.0
 10
427.3949473102653
 20
298.9034783072583
 30
0.0
 10
427.3913558662584
 20
298.9067035342516
 30
0.0
 10
427.3846479430877
 20
298.9137190413196
 30
0.0
 10
427.3815677765323
 20
298.9174796365221
 30
0.0
 10
427.3760706483305
 20
298.92530480809
 30
0.0
 10
427.373629115856
 20
298.9293946286753
 30
0.0
 10
427.3693511680543
 20
298.9379227628414
 30
0.0
 10
427.367505297478
 20
298.9423980163057
 30
0.0
 10
427.3630302342133
 20
298.9559942527881
 30
0.0
 10
427.3613944637396
 20
298.9653216426053
 30
0.0
 10
427.361116176932
 20
298.974913115185
 30
0.0
  0
SPLINE
  5
1D3
330
1F
100
AcDbEntity
  8
1
100
AcDbSpline
210
0.0
220
0.0
230
1.0
 70
     8
 71
     3
 72
    27
 73
    23
 74
     0
 42
0.000000001
 43
0.0000000001
 40
0.0
 40
0.0
 40
0.0
 40
0.0
 40
0.1250000000000153
 40
0.1250000000000153
 40
0.1874999999999716
 40
0.1874999999999716
 40
0.2499999999999278
 40
0.2499999999999278
 40
0.3749999999998402
 40
0.3749999999998402
 40
0.4374999999998439
 40
0.4374999999998439
 40
0.4999999999998477
 40
0.4999999999998477
 40
0.6249999999998597
 40
0.6249999999998597
 40
0.6874999999998657
 40
0.6874999999998657
 40
0.7499999999998717
 40
0.7499999999998717
 40
0.8749999999999358
 40
1.0
 40
1.0
 40
1.0
 40
1.0
 10
426.5034752772253
 20
299.0987364999648
 30
0.0
 10
426.4718957612561
 20
299.1022050736435
 30
0.0
 10
426.4408931957468
 20
299.1081500104593
 30
0.0
 10
426.3952463407589
 20
299.120721393183
 30
0.0
 10
426.3801741917819
 20
299.1255236556489
 30
0.0
 10
426.3503233059736
 20
299.1363760994353
 30
0.0
 10
426.3355045427228
 20
299.1424493980905
 30
0.0
 10
426.2922002748345
 20
299.1622684239612
 30
0.0
 10
426.2646482692124
 20
299.1776648237536
 30
0.0
 10
426.2252660075666
 20
299.203981822055
 30
0.0
 10
426.2124643819529
 20
299.2132937317091
 30
0.0
 10
426.1875260809493
 20
299.2330186091194
 30
0.0
 10
426.1753366347835
 20
299.243483997774
 30
0.0
 10
426.1403264922123
 20
299.2760929983942
 30
0.0
 10
426.1189851910184
 20
299.2994602731128
 30
0.0
 10
426.0898808532454
 20
299.3368793452887
 30
0.0
 10
426.0806663510493
 20
299.3497489700702
 30
0.0
 10
426.0632238677439
 20
299.3762917191542
 30
0.0
 10
426.0549679499763
 20
299.3900168730245
 30
0.0
 10
426.031927045784
 20
299.4320661525348
 30
0.0
 10
426.0060699839186
 20
299.4898499769455
 30
0.0
 10
425.9895167732229
 20
299.5509141385457
 30
0.0
 10
425.9836364605858
 20
299.5822890052051
 30
0.0
  0
SPLINE
  5
1D4
330
1F
100
AcDbEntity
  8
1
100
AcDbSpline
210
0.0
220
0.0
230
1.0
 70
     8
 71
     3
 72
    10
 73
     6
 74
     0
 42
0.000000001
 43
0.0000000001
 40
0.0
 40
0.0
 40
0.0
 40
0.0
 40
0.5
 40
0.5
 40
1.0
 40
1.0
 40
1.0
 40
1.0
 10
427.338361645429
 20
299.0349967371643
 30
0.0
 10
427.3455135964126
 20
299.0264838781893
 30
0.0
 10
427.3510066000063
 20
299.0170020422964
 30
0.0
 10
427.3587232011783
 20
298.9964739351205
 30
0.0
 10
427.3607984297943
 20
298.9858646330945
 30
0.0
 10
427.361116176932
 20
298.974913115185
 30
0.0
  0
SPLINE
  5
1D5
330
1F
100
AcDbEntity
  8
1
100
AcDbSpline
210
0.0
220
0.0
230
1.0
 70
     8
 71
     3
 72
    24
 73
    20
 74
     0
 42
0.000000001
 43
0.0000000001
 40
0.0
 40
0.0
 40
0.0
 40
0.0
 40
0.1294225722710797
 40
0.1294225722710797
 40
0.2588451445421593
 40
0.2588451445421593
 40
0.3235564306776673
 40
0.3235564306776673
 40
0.3882677168131753
 40
0.3882677168131753
 40
0.517690289084241
 40
0.517690289084241
 40
0.6471128613553067
 40
0.6471128613553067
 40
0.7765354336263722
 40
0.7765354336263722
 40
0.9059580058974377
 40
0.9059580058974377
 40
1.0
 40
1.0
 40
1.0
 40
1.0
 10
425.8587318320796
 20
300.4113439435899
 30
0.0
 10
425.8839034293096
 20
300.3931972970635
 30
0.0
 10
425.9074392495926
 20
300.3732061838785
 30
0.0
 10
425.9512853641586
 20
300.3295063886442
 30
0.0
 10
425.9715971807178
 20
300.305799558728
 30
0.0
 10
425.999481656631
 20
300.2671964781665
 30
0.0
 10
426.0082807796546
 20
300.2538963324851
 30
0.0
 10
426.0246807244416
 20
300.2267553211043
 30
0.0
 10
426.0323162551708
 20
300.2128672134272
 30
0.0
 10
426.0535317743091
 20
300.1702471348456
 30
0.0
 10
426.065447654296
 20
300.1405167920411
 30
0.0
 10
426.0844718765806
 20
300.0785612598638
 30
0.0
 10
426.0913095769273
 20
300.0472463263471
 30
0.0
 10
426.0999392043988
 20
299.9839785163398
 30
0.0
 10
426.1017298441255
 20
299.9520132786249
 30
0.0
 10
426.1001659955436
 20
299.8874762972298
 30
0.0
 10
426.096838929673
 20
299.8558449650996
 30
0.0
 10
426.0870303419059
 20
299.8022153148938
 30
0.0
 10
426.0816584893927
 20
299.7799478277512
 30
0.0
 10
426.0750398589425
 20
299.7579757994727
 30
0.0
  0
SPLINE
  5
1D6
330
1F
100
AcDbEntity
  8
1
100
AcDbSpline
210
0.0
220
0.0
230
1.0
 70
     8
 71
     3
 72
    20
 73
    16
 74
     0
 42
0.000000001
 43
0.0000000001
 40
0.0
 40
0.0
 40
0.0
 40
0.0
 40
0.1250000000000556
 40
0.1250000000000556
 40
0.2500000000001114
 40
0.2500000000001114
 40
0.375000000000167
 40
0.375000000000167
 40
0.5000000000002228
 40
0.5000000000002228
 40
0.6250000000002785
 40
0.6250000000002785
 40
0.7500000000003342
 40
0.7500000000003342
 40
1.0
 40
1.0
 40
1.0
 40
1.0
 10
425.7979547356876
 20
300.4289611908849
 30
0.0
 10
425.7932258050215
 20
300.4286977867491
 30
0.0
 10
425.7885152190201
 20
300.4287814587758
 30
0.0
 10
425.7791306559621
 20
300.429638470185
 30
0.0
 10
425.7744512885759
 20
300.4304181300589
 30
0.0
 10
425.7653505895075
 20
300.4326349594643
 30
0.0
 10
425.7609008035295
 20
300.4340730824328
 30
0.0
 10
425.7522063119599
 20
300.4376193514973
 30
0.0
 10
425.7479300539698
 20
300.4397484490207
 30
0.0
 10
425.7398002824635
 20
300.4446049272855
 30
0.0
 10
425.7359394316748
 20
300.4473278468801
 30
0.0
 10
425.7286305252338
 20
300.4533682607913
 30
0.0
 10
425.7251613680103
 20
300.4567098941517
 30
0.0
 10
425.7155720611725
 20
300.4675260077251
 30
0.0
 10
425.7103646243447
 20
300.4756125292516
 30
0.0
 10
425.7064196042213
 20
300.4846280769734
 30
0.0
  0
SPLINE
  5
1D7
330
1F
100
AcDbEntity
  8
1
100
AcDbSpline
210
0.0
220
0.0
230
1.0
 70
     8
 71
     3
 72
    18
 73
    14
 74
     0
 42
0.000000001
 43
0.0000000001
 40
0.0
 40
0.0
 40
0.0
 40
0.0
 40
0.2502969362756988
 40
0.2502969362756988
 40
0.3754454044135752
 40
0.3754454044135752
 40
0.5005938725514517
 40
0.5005938725514517
 40
0.7508908088272179
 40
0.7508908088272179
 40
0.8760392769650941
 40
0.8760392769650941
 40
1.0
 40
1.0
 40
1.0
 40
1.0
 10
425.7064196042213
 20
300.4846280769734
 30
0.0
 10
425.6938019332168
 20
300.5134632188796
 30
0.0
 10
425.6835967107472
 20
300.54306141532
 30
0.0
 10
425.671853458803
 20
300.588577559856
 30
0.0
 10
425.6685358572074
 20
300.6039369679308
 30
0.0
 10
425.6631186742356
 20
300.6350369906355
 30
0.0
 10
425.6610192318508
 20
300.6508234194754
 30
0.0
 10
425.6566654462409
 20
300.6980050404591
 30
0.0
 10
425.6562919739926
 20
300.7294366829838
 30
0.0
 10
425.6594655978785
 20
300.7765482217944
 30
0.0
 10
425.6611486735201
 20
300.7922460704067
 30
0.0
 10
425.6657687487884
 20
300.8234804052261
 30
0.0
 10
425.6687123513298
 20
300.8390874221809
 30
0.0
 10
425.6722494930113
 20
300.854460822151
 30
0.0
  0
SPLINE
  5
1D8
330
1F
100
AcDbEntity
  8
1
100
AcDbSpline
210
0.0
220
0.0
230
1.0
 70
     8
 71
     3
 72
    10
 73
     6
 74
     0
 42
0.000000001
 43
0.0000000001
 40
0.0
 40
0.0
 40
0.0
 40
0.0
 40
0.9000885583044325
 40
0.9000885583044325
 40
1.0
 40
1.0
 40
1.0
 40
1.0
 10
426.5197147271713
 20
301.6996871532307
 30
0.0
 10
426.5162175995954
 20
301.6692515178802
 30
0.0
 10
426.5103335041114
 20
301.6392756179547
 30
0.0
 10
426.5011481251692
 20
301.6064479758115
 30
0.0
 10
426.5002010605674
 20
301.603173389502
 30
0.0
 10
426.499224386732
 20
301.5999040768083
 30
0.0
  0
SPLINE
  5
1D9
330
1F
100
AcDbEntity
  8
1
100
AcDbSpline
210
0.0
220
0.0
230
1.0
 70
     8
 71
     3
 72
    10
 73
     6
 74
     0
 42
0.000000001
 43
0.0000000001
 40
0.0
 40
0.0
 40
0.0
 40
0.0
 40
0.5
 40
0.5
 40
1.0
 40
1.0
 40
1.0
 40
1.0
 10
426.5054578155363
 20
301.7600755389207
 30
0.0
 10
426.5112312417292
 20
301.7512017865842
 30
0.0
 10
426.5153756724666
 20
301.7415776799656
 30
0.0
 10
426.5202859272982
 20
301.720953382582
 30
0.0
 10
426.5209495290413
 20
301.7104336812399
 30
0.0
 10
426.5197147271713
 20
301.6996871532307
 30
0.0
  0
SPLINE
  5
1DA
330
1F
100
AcDbEntity
  8
1
100
AcDbSpline
210
0.0
220
0.0
230
1.0
 70
     8
 71
     3
 72
    10
 73
     6
 74
     0
 42
0.000000001
 43
0.0000000001
 40
0.0
 40
0.0
 40
0.0
 40
0.0
 40
0.6199212008813664
 40
0.6199212008813664
 40
1.0
 40
1.0
 40
1.0
 40
1.0
 10
426.5054578155363
 20
301.7600755389207
 30
0.0
 10
426.5029320092923
 20
301.7639577014894
 30
0.0
 10
426.5007160537449
 20
301.7679976737639
 30
0.0
 10
426.4976380926194
 20
301.7747673515694
 30
0.0
 10
426.4965850539407
 20
301.7774020920108
 30
0.0
 10
426.4956573332466
 20
301.7800733465427
 30
0.0
  0
SPLINE
  5
1DB
330
1F
100
AcDbEntity
  8
1
100
AcDbSpline
210
0.0
220
0.0
230
1.0
 70
     8
 71
     3
 72
    13
 73
     9
 74
     0
 42
0.000000001
 43
0.0000000001
 40
0.0
 40
0.0
 40
0.0
 40
0.0
 40
0.1055865034688719
 40
0.1055865034688719
 40
0.2844692027751548
 40
0.2844692027751548
 40
0.6422346013875774
 40
1.0
 40
1.0
 40
1.0
 40
1.0
 10
428.9032245759091
 20
299.993163511237
 30
0.0
 10
428.8994537322628
 20
299.98467549472
 30
0.0
 10
428.8954808710029
 20
299.9762692794393
 30
0.0
 10
428.8842289018865
 20
299.9538435392126
 30
0.0
 10
428.8765382304706
 20
299.9399282424253
 30
0.0
 10
428.8518775108816
 20
299.8992721942585
 30
0.0
 10
428.8151536368727
 20
299.8484909550991
 30
0.0
 10
428.7710913763103
 20
299.8042743726577
 30
0.0
 10
428.7471744518363
 20
299.783860356366
 30
0.0
  0
SPLINE
  5
1DC
330
1F
100
AcDbEntity
  8
1
100
AcDbSpline
210
0.0
220
0.0
230
1.0
 70
     8
 71
     3
 72
    18
 73
    14
 74
     0
 42
0.000000001
 43
0.0000000001
 40
0.0
 40
0.0
 40
0.0
 40
0.0
 40
0.2499999999993721
 40
0.2499999999993721
 40
0.3749999999993711
 40
0.3749999999993711
 40
0.4999999999993702
 40
0.4999999999993702
 40
0.6249999999993693
 40
0.6249999999993693
 40
0.7499999999993684
 40
0.7499999999993684
 40
1.0
 40
1.0
 40
1.0
 40
1.0
 10
428.7471744518363
 20
299.783860356366
 30
0.0
 10
428.7396857500385
 20
299.7774684609252
 30
0.0
 10
428.7312738999248
 20
299.772375495048
 30
0.0
 10
428.7180821847876
 20
299.7669194054523
 30
0.0
 10
428.7135640929248
 20
299.7654462261884
 30
0.0
 10
428.7042852866086
 20
299.7631962087295
 30
0.0
 10
428.6995696167493
 20
299.7624360629327
 30
0.0
 10
428.6902095242227
 20
299.7616423484051
 30
0.0
 10
428.6855320587896
 20
299.7616004806289
 30
0.0
 10
428.6761830682333
 20
299.7622162306291
 30
0.0
 10
428.6714757987567
 20
299.7628843818514
 30
0.0
 10
428.6577411881066
 20
299.7658931007046
 30
0.0
 10
428.6490324409236
 20
299.7691970379349
 30
0.0
 10
428.6407760544925
 20
299.7738089291906
 30
0.0
  0
SPLINE
  5
1DD
330
1F
100
AcDbEntity
  8
1
100
AcDbSpline
210
0.0
220
0.0
230
1.0
 70
     8
 71
     3
 72
    10
 73
     6
 74
     0
 42
0.000000001
 43
0.0000000001
 40
0.0
 40
0.0
 40
0.0
 40
0.0
 40
0.5
 40
0.5
 40
1.0
 40
1.0
 40
1.0
 40
1.0
 10
428.5785871117038
 20
299.784530247583
 30
0.0
 10
428.5893566560779
 20
299.7864072789371
 30
0.0
 10
428.6001211884592
 20
299.7863596855142
 30
0.0
 10
428.6213366796102
 20
299.782647072458
 30
0.0
 10
428.6313489986986
 20
299.7790747384578
 30
0.0
 10
428.6407760544925
 20
299.7738089291906
 30
0.0
  0
LINE
  5
202
330
1F
100
AcDbEntity
  8
SK4
100
AcDbLine
 10
203.504842
 20
288.907994
 30
0.0
 11
277.404842
 21
288.907994
 31
0.0
  0
LINE
  5
203
330
1F
100
AcDbEntity
  8
4
100
AcDbLine
 10
271.053832
 20
288.907994
 30
0.0
 11
436.956673
 21
288.907994
 31
0.0
  0
MTEXT
  5
209
330
1F
100
AcDbEntity
  8
SK6
100
AcDbMText
 10
295.492493
 20
241.516688
 30
0.0
 40
3.5
 41
0.0
 71
     7
 72
     5
  1
\W0.7371;804D-1312-524-S150
  7
cesky
 73
     2
 44
0.8433729999999998
  0
MTEXT
  5
31A
330
1F
100
AcDbEntity
  8
2
100
AcDbMText
 10
314.452442
 20
343.692507
 30
0.0
 40
3.5
 41
0.0
 71
     7
 72
     5
  1
\W0.8242;225,3
  7
cesky
 73
     2
 44
0.8433729999999998
  0
LINE
  5
31B
330
1F
100
AcDbEntity
  8
2
100
AcDbLine
 10
432.704042
 20
307.570394
 30
0.0
 11
432.704042
 21
344.81834
 31
0.0
  0
LINE
  5
31C
330
1F
100
AcDbEntity
  8
2
100
AcDbLine
 10
207.404842
 20
306.357994
 30
0.0
 11
207.404842
 21
344.81834
 31
0.0
  0
LINE
  5
31D
330
1F
100
AcDbEntity
  8
2
100
AcDbLine
 10
432.704042
 20
343.81834
 30
0.0
 11
207.404842
 21
343.81834
 31
0.0
  0
SOLID
  5
31E
330
1F
100
AcDbEntity
  8
2
100
AcDbTrace
 10
432.704042
 20
343.81834
 30
0.0
 11
429.204044
 21
343.201196
 31
0.0
 12
429.20404
 22
344.435485
 32
0.0
 13
429.20404
 23
344.435485
 33
0.0
  0
SOLID
  5
31F
330
1F
100
AcDbEntity
  8
2
100
AcDbTrace
 10
207.404842
 20
343.81834
 30
0.0
 11
210.90484
 21
344.435485
 31
0.0
 12
210.904844
 22
343.201196
 32
0.0
 13
210.904844
 23
343.201196
 33
0.0
  0
MTEXT
  5
320
330
1F
100
AcDbEntity
  8
2
100
AcDbMText
 10
239.090342
 20
329.99506
 30
0.0
 40
3.5
 41
0.0
 71
     7
 72
     5
  1
\W0.7045;67
  7
cesky
 73
     2
 44
0.8433729999999998
  0
LINE
  5
321
330
1F
100
AcDbEntity
  8
2
100
AcDbLine
 10
274.404842
 20
288.907994
 30
0.0
 11
274.404842
 21
331.120893
 31
0.0
  0
LINE
  5
322
330
1F
100
AcDbEntity
  8
2
100
AcDbLine
 10
207.404842
 20
306.357994
 30
0.0
 11
207.404842
 21
331.120893
 31
0.0
  0
LINE
  5
323
330
1F
100
AcDbEntity
  8
2
100
AcDbLine
 10
274.404842
 20
330.120893
 30
0.0
 11
207.404842
 21
330.120893
 31
0.0
  0
SOLID
  5
324
330
1F
100
AcDbEntity
  8
2
100
AcDbTrace
 10
274.404842
 20
330.120893
 30
0.0
 11
270.904844
 21
329.503749
 31
0.0
 12
270.90484
 22
330.738038
 32
0.0
 13
270.90484
 23
330.738038
 33
0.0
  0
SOLID
  5
325
330
1F
100
AcDbEntity
  8
2
100
AcDbTrace
 10
207.404842
 20
330.120893
 30
0.0
 11
210.90484
 21
330.738038
 31
0.0
 12
210.904844
 22
329.503749
 32
0.0
 13
210.904844
 23
329.503749
 33
0.0
  0
MTEXT
  5
326
330
1F
100
AcDbEntity
  8
2
100
AcDbMText
 10
357.888757
 20
316.608162
 30
0.0
 40
3.5
 41
0.0
 71
     7
 72
     5
  1
\W0.8547;138,4
  7
cesky
 73
     2
 44
0.8433729999999998
  0
LINE
  5
327
330
1F
100
AcDbEntity
  8
2
100
AcDbLine
 10
432.704042
 20
307.570394
 30
0.0
 11
432.704042
 21
317.733995
 31
0.0
  0
LINE
  5
328
330
1F
100
AcDbEntity
  8
2
100
AcDbLine
 10
294.277472
 20
305.379684
 30
0.0
 11
294.277472
 21
317.733995
 31
0.0
  0
LINE
  5
329
330
1F
100
AcDbEntity
  8
2
100
AcDbLine
 10
432.704042
 20
316.733995
 30
0.0
 11
294.277472
 21
316.733995
 31
0.0
  0
SOLID
  5
32A
330
1F
100
AcDbEntity
  8
2
100
AcDbTrace
 10
432.704042
 20
316.733995
 30
0.0
 11
429.204044
 21
316.116851
 31
0.0
 12
429.20404
 22
317.35114
 32
0.0
 13
429.20404
 23
317.35114
 33
0.0
  0
SOLID
  5
32B
330
1F
100
AcDbEntity
  8
2
100
AcDbTrace
 10
294.277472
 20
316.733995
 30
0.0
 11
297.77747
 21
317.35114
 31
0.0
 12
297.777474
 22
316.116851
 32
0.0
 13
297.777474
 23
316.116851
 33
0.0
  0
MTEXT
  5
32C
330
1F
100
AcDbEntity
  8
2
100
AcDbMText
 10
347.952442
 20
329.99506
 30
0.0
 40
3.5
 41
0.0
 71
     7
 72
     5
  1
\W0.8654;158,3
  7
cesky
 73
     2
 44
0.8433729999999998
  0
LINE
  5
32D
330
1F
100
AcDbEntity
  8
2
100
AcDbLine
 10
432.704042
 20
305.570394
 30
0.0
 11
432.704042
 21
331.120893
 31
0.0
  0
LINE
  5
32E
330
1F
100
AcDbEntity
  8
2
100
AcDbLine
 10
274.404842
 20
289.907567
 30
0.0
 11
274.404842
 21
331.120893
 31
0.0
  0
LINE
  5
32F
330
1F
100
AcDbEntity
  8
2
100
AcDbLine
 10
432.704042
 20
330.120893
 30
0.0
 11
274.404842
 21
330.120893
 31
0.0
  0
SOLID
  5
330
330
1F
100
AcDbEntity
  8
2
100
AcDbTrace
 10
432.704042
 20
330.120893
 30
0.0
 11
429.204044
 21
329.503749
 31
0.0
 12
429.20404
 22
330.738038
 32
0.0
 13
429.20404
 23
330.738038
 33
0.0
  0
SOLID
  5
331
330
1F
100
AcDbEntity
  8
2
100
AcDbTrace
 10
274.404842
 20
330.120893
 30
0.0
 11
277.90484
 21
330.738038
 31
0.0
 12
277.904844
 22
329.503749
 32
0.0
 13
277.904844
 23
329.503749
 33
0.0
  0
MTEXT
  5
332
330
1F
100
AcDbEntity
  8
2
100
AcDbMText
 10
448.413864
 20
284.497912
 30
0.0
 40
3.5
 41
0.0
 71
     7
 72
     5
  1
\W0.8459;33,3
  7
cesky
 11
0.0000000000000001
 21
1.0
 31
0.0
 73
     2
 44
0.8433729999999998
  0
MTEXT
  5
333
330
1F
100
AcDbEntity
  8
2
100
AcDbMText
 10
448.413864
 20
277.760412
 30
0.0
 40
3.5
 41
0.0
 71
     7
 72
     5
  1
\W3.0115;\H2.63;%%c\H3.50;
  7
cesky
 11
0.0000000000000001
 21
1.0
 31
0.0
 73
     2
 44
0.8433729999999998
  0
LINE
  5
334
330
1F
100
AcDbEntity
  8
2
100
AcDbLine
 10
434.7040419999999
 20
305.570394
 30
0.0
 11
449.6012809999999
 21
305.570394
 31
0.0
  0
LINE
  5
335
330
1F
100
AcDbEntity
  8
2
100
AcDbLine
 10
448.601281
 20
305.570394
 30
0.0
 11
448.601281
 21
277.602912
 31
0.0
  0
SOLID
  5
336
330
1F
100
AcDbEntity
  8
2
100
AcDbTrace
 10
448.601281
 20
305.570394
 30
0.0
 11
449.218425
 21
302.070396
 31
0.0
 12
447.984136
 22
302.070391
 32
0.0
 13
447.984136
 23
302.070391
 33
0.0
  0
MTEXT
  5
337
330
1F
100
AcDbEntity
  8
SK2
100
AcDbMText
 10
193.646349
 20
287.909244
 30
0.0
 40
3.5
 41
0.0
 71
     7
 72
     5
  1
\W0.9844;38,1
  7
cesky
 11
0.0000000000000001
 21
1.0
 31
0.0
 73
     2
 44
0.8433729999999998
  0
MTEXT
  5
338
330
1F
100
AcDbEntity
  8
SK2
100
AcDbMText
 10
193.646349
 20
281.171744
 30
0.0
 40
3.5
 41
0.0
 71
     7
 72
     5
  1
\W3.0115;\H2.63;%%c\H3.50;
  7
cesky
 11
0.0000000000000001
 21
1.0
 31
0.0
 73
     2
 44
0.8433729999999998
  0
LINE
  5
339
330
1F
100
AcDbEntity
  8
SK2
100
AcDbLine
 10
209.004842
 20
307.957994
 30
0.0
 11
192.833766
 21
307.957994
 31
0.0
  0
LINE
  5
33A
330
1F
100
AcDbEntity
  8
SK2
100
AcDbLine
 10
209.004842
 20
269.857994
 30
0.0
 11
192.833766
 21
269.857994
 31
0.0
  0
LINE
  5
33B
330
1F
100
AcDbEntity
  8
SK2
100
AcDbLine
 10
193.833766
 20
307.957994
 30
0.0
 11
193.833766
 21
269.857994
 31
0.0
  0
SOLID
  5
33C
330
1F
100
AcDbEntity
  8
SK2
100
AcDbTrace
 10
193.833766
 20
307.957994
 30
0.0
 11
194.45091
 21
304.457996
 31
0.0
 12
193.216621
 22
304.457991
 32
0.0
 13
193.216621
 23
304.457991
 33
0.0
  0
SOLID
  5
33D
330
1F
100
AcDbEntity
  8
SK2
100
AcDbTrace
 10
193.833766
 20
269.857994
 30
0.0
 11
193.216621
 21
273.357991
 31
0.0
 12
194.45091
 22
273.357996
 32
0.0
 13
194.45091
 23
273.357996
 33
0.0
  0
MTEXT
  5
33E
330
1F
100
AcDbEntity
  8
SK2
100
AcDbMText
 10
180.761127
 20
290.434244
 30
0.0
 40
3.5
 41
0.0
 71
     7
 72
     5
  1
\W0.7045;50
  7
cesky
 11
0.0000000000000001
 21
1.0
 31
0.0
 73
     2
 44
0.8433729999999998
  0
MTEXT
  5
33F
330
1F
100
AcDbEntity
  8
SK2
100
AcDbMText
 10
180.761127
 20
283.696744
 30
0.0
 40
3.5
 41
0.0
 71
     7
 72
     5
  1
\W3.0115;\H2.63;%%c\H3.50;
  7
cesky
 11
0.0000000000000001
 21
1.0
 31
0.0
 73
     2
 44
0.8433729999999998
  0
LINE
  5
340
330
1F
100
AcDbEntity
  8
SK2
100
AcDbLine
 10
274.904842
 20
313.907994
 30
0.0
 11
179.948543
 21
313.907994
 31
0.0
  0
LINE
  5
341
330
1F
100
AcDbEntity
  8
SK2
100
AcDbLine
 10
274.904842
 20
263.907994
 30
0.0
 11
179.948543
 21
263.907994
 31
0.0
  0
LINE
  5
342
330
1F
100
AcDbEntity
  8
SK2
100
AcDbLine
 10
180.948543
 20
313.907994
 30
0.0
 11
180.948543
 21
263.907994
 31
0.0
  0
SOLID
  5
343
330
1F
100
AcDbEntity
  8
SK2
100
AcDbTrace
 10
180.948543
 20
313.907994
 30
0.0
 11
181.565688
 21
310.407996
 31
0.0
 12
180.331399
 22
310.407991
 32
0.0
 13
180.331399
 23
310.407991
 33
0.0
  0
SOLID
  5
344
330
1F
100
AcDbEntity
  8
SK2
100
AcDbTrace
 10
180.948543
 20
263.907994
 30
0.0
 11
180.331399
 21
267.4079910000001
 31
0.0
 12
181.565688
 22
267.407996
 32
0.0
 13
181.565688
 23
267.407996
 33
0.0
  0
LINE
  5
347
330
1F
100
AcDbEntity
  8
CUT
100
AcDbLine
 10
423.2851945339268
 20
305.2736379421522
 30
0.0
 11
431.2578795366028
 21
305.5673995480166
 31
0.0
  0
LINE
  5
348
330
1F
100
AcDbEntity
  8
CUT
100
AcDbLine
 10
432.0579978615781
 20
304.8248797731245
 30
0.0
 11
432.3209035532387
 21
297.534954420752
 31
0.0
  0
LINE
  5
349
330
1F
100
AcDbEntity
  8
CUT
100
AcDbLine
 10
432.5746235247551
 20
297.0361251382748
 30
0.0
 11
432.6990607906598
 21
289.9114987447
 31
0.0
  0
LINE
  5
34A
330
1F
100
AcDbEntity
  8
CUT
100
AcDbLine
 10
432.3209035532386
 20
297.534954420752
 30
0.0
 11
432.5326058386328
 21
297.1826473299075
 31
0.0
  0
LINE
  5
34C
330
1F
100
AcDbEntity
  8
CUT
100
AcDbLine
 10
432.699061
 20
288.907994
 30
0.0
 11
422.540591
 21
288.907994
 31
0.0
  0
LINE
  5
34D
330
1F
100
AcDbEntity
  8
CUT
100
AcDbLine
 10
422.540591
 20
288.907994
 30
0.0
 11
422.540591
 21
304.473804
 31
0.0
  0
LINE
  5
34E
330
1F
100
AcDbEntity
  8
CUT
100
AcDbLine
 10
432.699061
 20
289.9114990000001
 30
0.0
 11
432.699061
 21
288.907994
 31
0.0
  0
ARC
  5
34F
330
1F
100
AcDbEntity
  8
CUT
100
AcDbCircle
 10
423.3228809705722
 20
304.4923962655235
 30
0.0
 40
0.7825108741002511
100
AcDbArc
 50
95.52666956191641
 51
181.3614713834694
  0
ARC
  5
350
330
1F
100
AcDbEntity
  8
CUT
100
AcDbCircle
 10
423.3118867680038
 20
304.5481323366595
 30
0.0
 40
0.7259964593310655
100
AcDbArc
 50
92.1070311051354
 51
95.08666886988697
  0
ARC
  5
351
330
1F
100
AcDbEntity
  8
CUT
100
AcDbCircle
 10
431.2783743422829
 20
304.786522204189
 30
0.0
 40
0.7811462495353023
100
AcDbArc
 50
6.968345151151513
 51
91.50343246444654
  0
ARC
  5
352
330
1F
100
AcDbEntity
  8
CUT
100
AcDbCircle
 10
431.3346447957948
 20
304.7987831715821
 30
0.0
 40
0.7238236597335838
100
AcDbArc
 50
2.066179009763982
 51
6.545356326138946
  0
LINE
  5
353
330
1F
100
AcDbEntity
  8
CUT
100
AcDbLine
 10
432.5326058386329
 20
297.1826473299075
 30
0.0
 11
432.5326058386329
 21
297.1826473299075
 31
0.0
  0
ARC
  5
354
330
1F
100
AcDbEntity
  8
CUT
100
AcDbCircle
 10
432.2802543088376
 20
297.0309955806552
 30
0.0
 40
0.2944139053123588
100
AcDbArc
 50
0.9983117934901969
 51
31.00394560251105
  0
ENDSEC
  0
SECTION
  2
OBJECTS
  0
DICTIONARY
  5
C
330
0
100
AcDbDictionary
281
     1
  3
ACAD_CIP_PREVIOUS_PRODUCT_INFO
350
317
  3
ACAD_COLOR
350
312
  3
ACAD_DETAILVIEWSTYLE
350
30E
  3
ACAD_GROUP
350
D
  3
ACAD_LAYOUT
350
1A
  3
ACAD_MATERIAL
350
43
  3
ACAD_MLEADERSTYLE
350
6B
  3
ACAD_MLINESTYLE
350
17
  3
ACAD_PLOTSETTINGS
350
19
  3
ACAD_PLOTSTYLENAME
350
E
  3
ACAD_SCALELIST
350
47
  3
ACAD_SECTIONVIEWSTYLE
350
30F
  3
ACAD_TABLESTYLE
350
69
  3
ACAD_VISUALSTYLE
350
2A
  3
ACDB_RECOMPOSE_DATA
350
380
  3
AcDbVariableDictionary
350
2CB
  0
DICTIONARY
  5
363
330
10
100
AcDbDictionary
280
     1
281
     1
  3
ADSK_XREC_LAYER_RECONCILED
360
364
  0
DICTIONARY
  5
365
330
355
100
AcDbDictionary
280
     1
281
     1
  3
ADSK_XREC_LAYER_RECONCILED
360
366
  0
DICTIONARY
  5
367
330
356
100
AcDbDictionary
280
     1
281
     1
  3
ADSK_XREC_LAYER_RECONCILED
360
368
  0
DICTIONARY
  5
369
330
357
100
AcDbDictionary
280
     1
281
     1
  3
ADSK_XREC_LAYER_RECONCILED
360
36A
  0
DICTIONARY
  5
36B
330
359
100
AcDbDictionary
280
     1
281
     1
  3
ADSK_XREC_LAYER_RECONCILED
360
36C
  0
DICTIONARY
  5
36D
330
35A
100
AcDbDictionary
280
     1
281
     1
  3
ADSK_XREC_LAYER_RECONCILED
360
36E
  0
DICTIONARY
  5
36F
330
35C
100
AcDbDictionary
280
     1
281
     1
  3
ADSK_XREC_LAYER_RECONCILED
360
370
  0
DICTIONARY
  5
371
330
35D
100
AcDbDictionary
280
     1
281
     1
  3
ADSK_XREC_LAYER_RECONCILED
360
372
  0
DICTIONARY
  5
373
330
35E
100
AcDbDictionary
280
     1
281
     1
  3
ADSK_XREC_LAYER_RECONCILED
360
374
  0
DICTIONARY
  5
375
330
35F
100
AcDbDictionary
280
     1
281
     1
  3
ADSK_XREC_LAYER_RECONCILED
360
376
  0
DICTIONARY
  5
377
330
360
100
AcDbDictionary
280
     1
281
     1
  3
ADSK_XREC_LAYER_RECONCILED
360
378
  0
DICTIONARY
  5
379
330
361
100
AcDbDictionary
280
     1
281
     1
  3
ADSK_XREC_LAYER_RECONCILED
360
37A
  0
DICTIONARY
  5
318
330
1F
100
AcDbDictionary
280
     1
281
     1
  3
ACAD_SORTENTS
360
319
  0
XRECORD
  5
317
102
{ACAD_REACTORS
330
C
102
}
330
C
100
AcDbXrecord
280
     1
300
ACD
300
2019
300
87084ACD_2019_0F
  0
DICTIONARY
  5
312
102
{ACAD_REACTORS
330
C
102
}
330
C
100
AcDbDictionary
281
     1
  0
DICTIONARY
  5
30E
102
{ACAD_REACTORS
330
C
102
}
330
C
100
AcDbDictionary
281
     1
  3
Metric50
350
314
  0
DICTIONARY
  5
D
102
{ACAD_REACTORS
330
C
102
}
330
C
100
AcDbDictionary
281
     1
  3
NULOVY_BOD
350
362
  0
DICTIONARY
  5
1A
102
{ACAD_REACTORS
330
C
102
}
330
C
100
AcDbDictionary
281
     1
  3
Layout1
350
1E
  3
Layout2
350
26
  3
Model
350
22
  0
DICTIONARY
  5
43
102
{ACAD_REACTORS
330
C
102
}
330
C
100
AcDbDictionary
281
     1
  3
ByBlock
350
45
  3
ByLayer
350
44
  3
Global
350
46
  0
DICTIONARY
  5
6B
102
{ACAD_REACTORS
330
C
102
}
330
C
100
AcDbDictionary
281
     1
  3
Standard
350
6C
  0
DICTIONARY
  5
17
102
{ACAD_REACTORS
330
C
102
}
330
C
100
AcDbDictionary
281
     1
  3
Standard
350
18
  0
DICTIONARY
  5
19
102
{ACAD_REACTORS
330
C
102
}
330
C
100
AcDbDictionary
281
     1
  0
ACDBDICTIONARYWDFLT
  5
E
102
{ACAD_REACTORS
330
C
102
}
330
C
100
AcDbDictionary
281
     1
  3
Normal
350
F
100
AcDbDictionaryWithDefault
340
F
  0
DICTIONARY
  5
47
102
{ACAD_REACTORS
330
C
102
}
330
C
100
AcDbDictionary
281
     1
  3
A0
350
48
  3
A1
350
49
  3
A2
350
4A
  3
A3
350
4B
  3
A4
350
4C
  3
A5
350
4D
  3
A6
350
4E
  3
A7
350
4F
  3
A8
350
50
  3
A9
350
51
  3
B0
350
52
  3
B1
350
53
  3
B2
350
54
  3
B3
350
55
  3
B4
350
56
  3
B5
350
57
  3
B6
350
58
  3
B7
350
59
  3
B8
350
5A
  3
B9
350
5B
  3
C0
350
5C
  3
C1
350
5D
  3
C2
350
5E
  3
C3
350
5F
  3
C4
350
60
  3
C5
350
61
  3
C6
350
62
  3
C7
350
63
  3
C8
350
64
  3
C9
350
65
  3
D0
350
66
  3
D1
350
67
  3
D2
350
68
  0
DICTIONARY
  5
30F
102
{ACAD_REACTORS
330
C
102
}
330
C
100
AcDbDictionary
281
     1
  3
Metric50
350
313
  0
DICTIONARY
  5
69
102
{ACAD_REACTORS
330
C
102
}
330
C
100
AcDbDictionary
281
     1
  3
Standard
350
6A
  0
DICTIONARY
  5
2A
102
{ACAD_REACTORS
330
C
102
}
330
C
100
AcDbDictionary
281
     1
  3
2dWireframe
350
2F
  3
Basic
350
32
  3
Brighten
350
36
  3
ColorChange
350
3A
  3
Conceptual
350
34
  3
Dim
350
35
  3
EdgeColorOff
350
3D
  3
Facepattern
350
39
  3
Flat
350
2B
  3
FlatWithEdges
350
2C
  3
Gouraud
350
2D
  3
GouraudWithEdges
350
2E
  3
Hidden
350
31
  3
JitterOff
350
3B
  3
Linepattern
350
38
  3
OverhangOff
350
3C
  3
Realistic
350
33
  3
Shaded
350
42
  3
Shaded with edges
350
41
  3
Shades of Gray
350
3E
  3
Sketchy
350
3F
  3
Thicken
350
37
  3
Wireframe
350
30
  3
X-Ray
350
40
  0
XRECORD
  5
380
102
{ACAD_REACTORS
330
C
102
}
330
C
100
AcDbXrecord
280
     1
 90
        1
330
6A
  0
DICTIONARY
  5
2CB
102
{ACAD_REACTORS
330
C
102
}
330
C
100
AcDbDictionary
281
     1
  3
CANNOSCALE
350
2CC
  3
CMLEADERSTYLE
350
30D
  3
CTABLESTYLE
350
30C
  3
CVIEWDETAILSTYLE
350
37B
  3
CVIEWSECTIONSTYLE
350
37C
  3
MSLTSCALE
350
2CD
  3
XCLIPFRAME
350
37D
  0
XRECORD
  5
364
102
{ACAD_REACTORS
330
363
102
}
330
363
100
AcDbXrecord
280
     1
290
     1
  0
XRECORD
  5
366
102
{ACAD_REACTORS
330
365
102
}
330
365
100
AcDbXrecord
280
     1
290
     1
  0
XRECORD
  5
368
102
{ACAD_REACTORS
330
367
102
}
330
367
100
AcDbXrecord
280
     1
290
     1
  0
XRECORD
  5
36A
102
{ACAD_REACTORS
330
369
102
}
330
369
100
AcDbXrecord
280
     1
290
     1
  0
XRECORD
  5
36C
102
{ACAD_REACTORS
330
36B
102
}
330
36B
100
AcDbXrecord
280
     1
290
     1
  0
XRECORD
  5
36E
102
{ACAD_REACTORS
330
36D
102
}
330
36D
100
AcDbXrecord
280
     1
290
     1
  0
XRECORD
  5
370
102
{ACAD_REACTORS
330
36F
102
}
330
36F
100
AcDbXrecord
280
     1
290
     1
  0
XRECORD
  5
372
102
{ACAD_REACTORS
330
371
102
}
330
371
100
AcDbXrecord
280
     1
290
     1
  0
XRECORD
  5
374
102
{ACAD_REACTORS
330
373
102
}
330
373
100
AcDbXrecord
280
     1
290
     1
  0
XRECORD
  5
376
102
{ACAD_REACTORS
330
375
102
}
330
375
100
AcDbXrecord
280
     1
290
     1
  0
XRECORD
  5
378
102
{ACAD_REACTORS
330
377
102
}
330
377
100
AcDbXrecord
280
     1
290
     1
  0
XRECORD
  5
37A
102
{ACAD_REACTORS
330
379
102
}
330
379
100
AcDbXrecord
280
     1
290
     1
  0
SORTENTSTABLE
  5
319
102
{ACAD_REACTORS
330
318
102
}
330
318
100
AcDbSortentsTable
330
1F
331
31A
  5
285
331
31B
  5
29E
331
31C
  5
31A
331
31D
  5
31B
331
31E
  5
31C
331
31F
  5
31D
331
320
  5
31E
331
321
  5
31F
331
322
  5
320
331
323
  5
321
331
324
  5
322
331
325
  5
323
331
326
  5
324
331
327
  5
325
331
328
  5
326
331
329
  5
327
331
32A
  5
328
331
32B
  5
329
331
32C
  5
32A
331
32D
  5
32B
331
32E
  5
32C
331
32F
  5
32D
331
330
  5
32E
331
331
  5
32F
331
332
  5
330
331
333
  5
331
331
334
  5
332
331
335
  5
333
331
336
  5
334
331
347
  5
34C
331
348
  5
34D
331
349
  5
34E
331
34A
  5
34F
331
34C
  5
352
331
34D
  5
353
331
34E
  5
354
331
34F
  5
347
331
350
  5
348
331
351
  5
349
331
352
  5
34A
331
353
  5
350
331
354
  5
351
  0
ACDBDETAILVIEWSTYLE
  5
314
102
{ACAD_XDICTIONARY
360
3B4
102
}
102
{ACAD_REACTORS
330
30E
102
}
330
30E
100
AcDbModelDocViewStyle
 70
     0
  3
Metric50
290
     0
100
AcDbDetailViewStyle
 70
     0
 71
     0
 90
        3
 71
     1
340
11
 62
   256
 40
5.0
340
0
 62
   256
 40
5.0
300

 40
0.0
280
     1
 71
     2
340
16
 90
       25
 62
   256
 71
     3
340
11
 62
   256
 40
5.0
 90
        0
 40
15.0
 90
        1
300
%<\AcVar ViewDetailId>% (%<\AcVar ViewScale \f "%sn">%)
 71
     4
340
16
 90
       25
 62
   256
340
16
 90
       25
 62
   256
280
     0
  0
GROUP
  5
362
102
{ACAD_REACTORS
330
D
102
}
330
D
100
AcDbGroup
300

 70
     0
 71
     1
340
73
  0
LAYOUT
  5
1E
102
{ACAD_REACTORS
330
1A
102
}
330
1A
100
AcDbPlotSettings
  1

  2
none_device
  4

  6

 40
0.0
 41
0.0
 42
0.0
 43
0.0
 44
0.0
 45
0.0
 46
0.0
 47
0.0
 48
0.0
 49
0.0
140
0.0
141
0.0
142
1.0
143
1.0
 70
   688
 72
     0
 73
     0
 74
     5
  7

 75
    16
147
1.0
 76
     0
 77
     2
 78
   300
148
0.0
149
0.0
100
AcDbLayout
  1
Layout1
 70
     1
 71
     1
 10
-0.5
 20
-0.5
 11
5.0
 21
5.0
 12
0.0
 22
0.0
 32
0.0
 14
-0.5
 24
-0.5
 34
-0.5
 15
5.0
 25
5.0
 35
5.0
146
0.0
 13
0.0
 23
0.0
 33
0.0
 16
1.0
 26
0.0
 36
0.0
 17
0.0
 27
1.0
 37
0.0
 76
     0
330
1B
  0
LAYOUT
  5
26
102
{ACAD_REACTORS
330
1A
102
}
330
1A
100
AcDbPlotSettings
  1

  2
none_device
  4

  6

 40
0.0
 41
0.0
 42
0.0
 43
0.0
 44
0.0
 45
0.0
 46
0.0
 47
0.0
 48
0.0
 49
0.0
140
0.0
141
0.0
142
1.0
143
1.0
 70
   688
 72
     0
 73
     0
 74
     5
  7

 75
    16
147
1.0
 76
     0
 77
     2
 78
   300
148
0.0
149
0.0
100
AcDbLayout
  1
Layout2
 70
     1
 71
     2
 10
0.0
 20
0.0
 11
0.0
 21
0.0
 12
0.0
 22
0.0
 32
0.0
 14
0.0
 24
0.0
 34
0.0
 15
0.0
 25
0.0
 35
0.0
146
0.0
 13
0.0
 23
0.0
 33
0.0
 16
1.0
 26
0.0
 36
0.0
 17
0.0
 27
1.0
 37
0.0
 76
     0
330
23
  0
LAYOUT
  5
22
102
{ACAD_REACTORS
330
1A
102
}
330
1A
100
AcDbPlotSettings
  1

  2
none_device
  4
Letter_(8.50_x_11.00_Inches)
  6

 40
6.349999999999999
 41
6.349999999999999
 42
6.350005
 43
6.350005
 44
215.9
 45
279.4
 46
0.0
 47
0.0
 48
0.0
 49
0.0
140
0.0
141
0.0
142
1.0
143
1.0
 70
  1712
 72
     0
 73
     0
 74
     0
  7

 75
     0
147
1.0
 76
     0
 77
     2
 78
   300
148
0.0
149
0.0
100
AcDbLayout
  1
Model
 70
     1
 71
     0
 10
-0.5
 20
-0.5
 11
5.0
 21
5.0
 12
0.0
 22
0.0
 32
0.0
 14
-0.5
 24
-0.5
 34
-0.5
 15
5.0
 25
5.0
 35
5.0
146
0.0
 13
0.0
 23
0.0
 33
0.0
 16
1.0
 26
0.0
 36
0.0
 17
0.0
 27
1.0
 37
0.0
 76
     0
330
1F
331
29
  0
MATERIAL
  5
45
102
{ACAD_XDICTIONARY
360
301
102
}
102
{ACAD_REACTORS
330
43
102
}
330
43
100
AcDbMaterial
  1
ByBlock
  0
MATERIAL
  5
44
102
{ACAD_XDICTIONARY
360
2FF
102
}
102
{ACAD_REACTORS
330
43
102
}
330
43
100
AcDbMaterial
  1
ByLayer
  0
MATERIAL
  5
46
102
{ACAD_XDICTIONARY
360
303
102
}
102
{ACAD_REACTORS
330
43
102
}
330
43
100
AcDbMaterial
  1
Global
  0
MLEADERSTYLE
  5
6C
102
{ACAD_REACTORS
330
6B
102
}
330
6B
100
AcDbMLeaderStyle
170
     2
171
     1
172
     0
 90
        2
 40
0.0
 41
0.0
173
     1
 91
-1056964608
340
14
 92
       -2
290
     1
 42
0.09
291
     1
 43
0.36
  3
Standard
 44
0.18
300

342
11
174
     1
178
     6
175
     1
176
     0
 93
-1056964608
 45
0.18
292
     0
297
     0
 46
0.18
 94
-1056964608
 47
1.0
 49
1.0
140
1.0
293
     1
141
0.0
294
     1
177
     0
142
1.0
295
     0
296
     0
143
0.125
1001
ACAD_MLEADERVER
1070
     2
  0
MLINESTYLE
  5
18
102
{ACAD_REACTORS
330
17
102
}
330
17
100
AcDbMlineStyle
  2
STANDARD
 70
     0
  3

 62
   256
 51
90.0
 52
90.0
 71
     2
 49
0.5
 62
   256
  6
BYLAYER
 49
-0.5
 62
   256
  6
BYLAYER
  0
ACDBPLACEHOLDER
  5
F
102
{ACAD_REACTORS
330
E
102
}
330
E
  0
SCALE
  5
48
102
{ACAD_REACTORS
330
47
102
}
330
47
100
AcDbScale
 70
     0
300
1:1
140
1.0
141
1.0
290
     1
  0
SCALE
  5
49
102
{ACAD_REACTORS
330
47
102
}
330
47
100
AcDbScale
 70
     0
300
1:2
140
1.0
141
2.0
290
     0
  0
SCALE
  5
4A
102
{ACAD_REACTORS
330
47
102
}
330
47
100
AcDbScale
 70
     0
300
1:4
140
1.0
141
4.0
290
     0
  0
SCALE
  5
4B
102
{ACAD_REACTORS
330
47
102
}
330
47
100
AcDbScale
 70
     0
300
1:5
140
1.0
141
5.0
290
     0
  0
SCALE
  5
4C
102
{ACAD_REACTORS
330
47
102
}
330
47
100
AcDbScale
 70
     0
300
1:8
140
1.0
141
8.0
290
     0
  0
SCALE
  5
4D
102
{ACAD_REACTORS
330
47
102
}
330
47
100
AcDbScale
 70
     0
300
1:10
140
1.0
141
10.0
290
     0
  0
SCALE
  5
4E
102
{ACAD_REACTORS
330
47
102
}
330
47
100
AcDbScale
 70
     0
300
1:16
140
1.0
141
16.0
290
     0
  0
SCALE
  5
4F
102
{ACAD_REACTORS
330
47
102
}
330
47
100
AcDbScale
 70
     0
300
1:20
140
1.0
141
20.0
290
     0
  0
SCALE
  5
50
102
{ACAD_REACTORS
330
47
102
}
330
47
100
AcDbScale
 70
     0
300
1:30
140
1.0
141
30.0
290
     0
  0
SCALE
  5
51
102
{ACAD_REACTORS
330
47
102
}
330
47
100
AcDbScale
 70
     0
300
1:40
140
1.0
141
40.0
290
     0
  0
SCALE
  5
52
102
{ACAD_REACTORS
330
47
102
}
330
47
100
AcDbScale
 70
     0
300
1:50
140
1.0
141
50.0
290
     0
  0
SCALE
  5
53
102
{ACAD_REACTORS
330
47
102
}
330
47
100
AcDbScale
 70
     0
300
1:100
140
1.0
141
100.0
290
     0
  0
SCALE
  5
54
102
{ACAD_REACTORS
330
47
102
}
330
47
100
AcDbScale
 70
     0
300
2:1
140
2.0
141
1.0
290
     0
  0
SCALE
  5
55
102
{ACAD_REACTORS
330
47
102
}
330
47
100
AcDbScale
 70
     0
300
4:1
140
4.0
141
1.0
290
     0
  0
SCALE
  5
56
102
{ACAD_REACTORS
330
47
102
}
330
47
100
AcDbScale
 70
     0
300
8:1
140
8.0
141
1.0
290
     0
  0
SCALE
  5
57
102
{ACAD_REACTORS
330
47
102
}
330
47
100
AcDbScale
 70
     0
300
10:1
140
10.0
141
1.0
290
     0
  0
SCALE
  5
58
102
{ACAD_REACTORS
330
47
102
}
330
47
100
AcDbScale
 70
     0
300
100:1
140
100.0
141
1.0
290
     0
  0
SCALE
  5
59
102
{ACAD_REACTORS
330
47
102
}
330
47
100
AcDbScale
 70
     0
300
1/128" = 1'-0"
140
0.007812
141
12.0
290
     0
  0
SCALE
  5
5A
102
{ACAD_REACTORS
330
47
102
}
330
47
100
AcDbScale
 70
     0
300
1/64" = 1'-0"
140
0.015625
141
12.0
290
     0
  0
SCALE
  5
5B
102
{ACAD_REACTORS
330
47
102
}
330
47
100
AcDbScale
 70
     0
300
1/32" = 1'-0"
140
0.03125
141
12.0
290
     0
  0
SCALE
  5
5C
102
{ACAD_REACTORS
330
47
102
}
330
47
100
AcDbScale
 70
     0
300
1/16" = 1'-0"
140
0.0625
141
12.0
290
     0
  0
SCALE
  5
5D
102
{ACAD_REACTORS
330
47
102
}
330
47
100
AcDbScale
 70
     0
300
3/32" = 1'-0"
140
0.09375
141
12.0
290
     0
  0
SCALE
  5
5E
102
{ACAD_REACTORS
330
47
102
}
330
47
100
AcDbScale
 70
     0
300
1/8" = 1'-0"
140
0.125
141
12.0
290
     0
  0
SCALE
  5
5F
102
{ACAD_REACTORS
330
47
102
}
330
47
100
AcDbScale
 70
     0
300
3/16" = 1'-0"
140
0.1875
141
12.0
290
     0
  0
SCALE
  5
60
102
{ACAD_REACTORS
330
47
102
}
330
47
100
AcDbScale
 70
     0
300
1/4" = 1'-0"
140
0.25
141
12.0
290
     0
  0
SCALE
  5
61
102
{ACAD_REACTORS
330
47
102
}
330
47
100
AcDbScale
 70
     0
300
3/8" = 1'-0"
140
0.375
141
12.0
290
     0
  0
SCALE
  5
62
102
{ACAD_REACTORS
330
47
102
}
330
47
100
AcDbScale
 70
     0
300
1/2" = 1'-0"
140
0.5
141
12.0
290
     0
  0
SCALE
  5
63
102
{ACAD_REACTORS
330
47
102
}
330
47
100
AcDbScale
 70
     0
300
3/4" = 1'-0"
140
0.75
141
12.0
290
     0
  0
SCALE
  5
64
102
{ACAD_REACTORS
330
47
102
}
330
47
100
AcDbScale
 70
     0
300
1" = 1'-0"
140
1.0
141
12.0
290
     0
  0
SCALE
  5
65
102
{ACAD_REACTORS
330
47
102
}
330
47
100
AcDbScale
 70
     0
300
1-1/2" = 1'-0"
140
1.5
141
12.0
290
     0
  0
SCALE
  5
66
102
{ACAD_REACTORS
330
47
102
}
330
47
100
AcDbScale
 70
     0
300
3" = 1'-0"
140
3.0
141
12.0
290
     0
  0
SCALE
  5
67
102
{ACAD_REACTORS
330
47
102
}
330
47
100
AcDbScale
 70
     0
300
6" = 1'-0"
140
6.0
141
12.0
290
     0
  0
SCALE
  5
68
102
{ACAD_REACTORS
330
47
102
}
330
47
100
AcDbScale
 70
     0
300
1'-0" = 1'-0"
140
12.0
141
12.0
290
     0
  0
ACDBSECTIONVIEWSTYLE
  5
313
102
{ACAD_XDICTIONARY
360
3B2
102
}
102
{ACAD_REACTORS
330
30F
102
}
330
30F
100
AcDbModelDocViewStyle
 70
     0
  3
Metric50
290
     0
100
AcDbSectionViewStyle
 70
     0
 71
     0
 90
      102
 71
     1
340
11
 62
   256
 40
5.0
340
0
340
0
 62
   256
 40
5.0
300
I, O, Q, S, X, Z
 40
10.0
 90
        0
 40
2.5
 90
        0
 71
     2
340
16
 90
       25
 62
   256
340
16
 90
       50
 62
   256
 40
5.0
 40
2.5
 40
5.0
 71
     3
340
11
 62
   256
 40
5.0
 90
        0
 40
15.0
 90
        1
300
%<\AcVar ViewSectionStartId>%-%<\AcVar ViewSectionEndId>% (%<\AcVar ViewScale \f "%sn">%)
 71
     4
 62
   256
 62
   257
300
ANSI31
 40
1.0
 90
        0
290
     0
290
     0
 90
        6
 40
0.0
 40
1.570796326794896
 40
0.2617993877991494
 40
1.308996938995747
 40
-0.2617993877991494
 40
1.832595714594046
  0
TABLESTYLE
  5
6A
102
{ACAD_XDICTIONARY
360
305
102
}
102
{ACAD_REACTORS
330
69
102
}
330
69
100
AcDbTableStyle
  3
Standard
 70
     0
 71
     0
 40
0.06
 41
0.06
280
     0
281
     0
  7
Standard
140
0.18
170
     2
 62
     0
 63
     7
283
     0
274
    -2
284
     1
 64
     0
275
    -2
285
     1
 65
     0
276
    -2
286
     1
 66
     0
277
    -2
287
     1
 67
     0
278
    -2
288
     1
 68
     0
279
    -2
289
     1
 69
     0
  7
Standard
140
0.25
170
     5
 62
     0
 63
     7
283
     0
274
    -2
284
     1
 64
     0
275
    -2
285
     1
 65
     0
276
    -2
286
     1
 66
     0
277
    -2
287
     1
 67
     0
278
    -2
288
     1
 68
     0
279
    -2
289
     1
 69
     0
  7
Standard
140
0.18
170
     5
 62
     0
 63
     7
283
     0
274
    -2
284
     1
 64
     0
275
    -2
285
     1
 65
     0
276
    -2
286
     1
 66
     0
277
    -2
287
     1
 67
     0
278
    -2
288
     1
 68
     0
279
    -2
289
     1
 69
     0
  0
VISUALSTYLE
  5
2F
102
{ACAD_XDICTIONARY
360
389
102
}
102
{ACAD_REACTORS
330
2A
102
}
330
2A
100
AcDbVisualStyle
  2

 70
     4
 71
     0
 72
     2
 73
     0
 90
        0
 40
-0.6
 41
-30.0
 62
     5
 63
     7
421
 16777215
 74
     1
 91
        4
 64
     7
 65
   257
 75
     1
175
     1
 42
1.0
 92
        0
 66
   257
 43
1.0
 76
     1
 77
     6
 78
     2
 67
     7
 79
     5
170
     0
171
     0
290
     0
174
     0
 93
        1
 44
0.0
173
     0
291
     0
 45
0.0
1001
ACAD
1000
AcDbSavedByObjectVersion
1070
     0
  0
VISUALSTYLE
  5
32
102
{ACAD_XDICTIONARY
360
38F
102
}
102
{ACAD_REACTORS
330
2A
102
}
330
2A
100
AcDbVisualStyle
  2

 70
     7
 71
     1
 72
     0
 73
     1
 90
        0
 40
-0.6
 41
-30.0
 62
     5
 63
     7
421
 16777215
 74
     0
 91
        4
 64
     7
 65
   257
 75
     1
175
     1
 42
1.0
 92
        8
 66
     7
 43
1.0
 76
     1
 77
     6
 78
     2
 67
     7
 79
     5
170
     0
171
     0
290
     0
174
     0
 93
        1
 44
0.0
173
     0
291
     1
 45
0.0
1001
ACAD
1000
AcDbSavedByObjectVersion
1070
     0
  0
VISUALSTYLE
  5
36
102
{ACAD_XDICTIONARY
360
397
102
}
102
{ACAD_REACTORS
330
2A
102
}
330
2A
100
AcDbVisualStyle
  2

 70
    12
 71
     2
 72
     2
 73
     0
 90
        0
 40
-0.6
 41
-30.0
 62
     5
 63
     7
421
 16777215
 74
     1
 91
        4
 64
     7
 65
   257
 75
     1
175
     1
 42
1.0
 92
        8
 66
     7
 43
1.0
 76
     1
 77
     6
 78
     2
 67
     7
 79
     5
170
     0
171
     0
290
     0
174
     0
 93
        1
 44
50.0
173
     0
291
     1
 45
0.0
1001
ACAD
1000
AcDbSavedByObjectVersion
1070
     0
  0
VISUALSTYLE
  5
3A
102
{ACAD_XDICTIONARY
360
39F
102
}
102
{ACAD_REACTORS
330
2A
102
}
330
2A
100
AcDbVisualStyle
  2

 70
    16
 71
     2
 72
     2
 73
     3
 90
        0
 40
-0.6
 41
-30.0
 62
     5
 63
     8
421
  8421504
 74
     1
 91
        4
 64
     7
 65
   257
 75
     1
175
     1
 42
1.0
 92
        8
 66
     8
424
  8421504
 43
1.0
 76
     1
 77
     6
 78
     2
 67
     7
 79
     5
170
     0
171
     0
290
     0
174
     0
 93
        1
 44
0.0
173
     0
291
     1
 45
0.0
1001
ACAD
1000
AcDbSavedByObjectVersion
1070
     0
  0
VISUALSTYLE
  5
34
102
{ACAD_XDICTIONARY
360
393
102
}
102
{ACAD_REACTORS
330
2A
102
}
330
2A
100
AcDbVisualStyle
  2

 70
     9
 71
     3
 72
     2
 73
     0
 90
        0
 40
-0.6
 41
-30.0
 62
     5
 63
     7
421
 16777215
 74
     2
 91
        2
 64
     7
 65
   257
 75
     1
175
     1
 42
179.0
 92
        8
 66
     7
 43
1.0
 76
     1
 77
     6
 78
     2
 67
     7
 79
     3
170
     0
171
     0
290
     0
174
     0
 93
        1
 44
0.0
173
     0
291
     0
 45
0.0
1001
ACAD
1000
AcDbSavedByObjectVersion
1070
     0
  0
VISUALSTYLE
  5
35
102
{ACAD_XDICTIONARY
360
395
102
}
102
{ACAD_REACTORS
330
2A
102
}
330
2A
100
AcDbVisualStyle
  2

 70
    11
 71
     2
 72
     2
 73
     0
 90
        0
 40
-0.6
 41
-30.0
 62
     5
 63
     7
421
 16777215
 74
     1
 91
        4
 64
     7
 65
   257
 75
     1
175
     1
 42
1.0
 92
        8
 66
     7
 43
1.0
 76
     1
 77
     6
 78
     2
 67
     7
 79
     5
170
     0
171
     0
290
     0
174
     0
 93
        1
 44
-50.0
173
     0
291
     1
 45
0.0
1001
ACAD
1000
AcDbSavedByObjectVersion
1070
     0
  0
VISUALSTYLE
  5
3D
102
{ACAD_XDICTIONARY
360
3A5
102
}
102
{ACAD_REACTORS
330
2A
102
}
330
2A
100
AcDbVisualStyle
  2

 70
    22
 71
     2
 72
     2
 73
     0
 90
        0
 40
-0.6
 41
-30.0
 62
     5
 63
     7
421
 16777215
 74
     1
 91
        4
 64
     7
 65
   257
 75
     1
175
     1
 42
1.0
 92
        8
 66
     7
 43
1.0
 76
     1
 77
     6
 78
     2
 67
     7
 79
     5
170
     0
171
     0
290
     0
174
     0
 93
        1
 44
0.0
173
     0
291
     1
 45
0.0
1001
ACAD
1000
AcDbSavedByObjectVersion
1070
     0
  0
VISUALSTYLE
  5
39
102
{ACAD_XDICTIONARY
360
39D
102
}
102
{ACAD_REACTORS
330
2A
102
}
330
2A
100
AcDbVisualStyle
  2

 70
    15
 71
     2
 72
     2
 73
     0
 90
        0
 40
-0.6
 41
-30.0
 62
     5
 63
     7
421
 16777215
 74
     1
 91
        4
 64
     7
 65
   257
 75
     1
175
     1
 42
1.0
 92
        8
 66
     7
 43
1.0
 76
     1
 77
     6
 78
     2
 67
     7
 79
     5
170
     0
171
     0
290
     0
174
     0
 93
        1
 44
0.0
173
     0
291
     1
 45
0.0
1001
ACAD
1000
AcDbSavedByObjectVersion
1070
     0
  0
VISUALSTYLE
  5
2B
102
{ACAD_XDICTIONARY
360
381
102
}
102
{ACAD_REACTORS
330
2A
102
}
330
2A
100
AcDbVisualStyle
  2

 70
     0
 71
     2
 72
     1
 73
     1
 90
        2
 40
-0.6
 41
30.0
 62
     5
 63
     7
421
 16777215
 74
     0
 91
        0
 64
     7
 65
   257
 75
     1
175
     1
 42
1.0
 92
        8
 66
     7
 43
1.0
 76
     1
 77
     6
 78
     2
 67
     7
 79
     5
170
     0
171
     0
290
     0
174
     0
 93
       13
 44
0.0
173
     0
291
     1
 45
0.0
1001
ACAD
1000
AcDbSavedByObjectVersion
1070
     0
  0
VISUALSTYLE
  5
2C
102
{ACAD_XDICTIONARY
360
383
102
}
102
{ACAD_REACTORS
330
2A
102
}
330
2A
100
AcDbVisualStyle
  2

 70
     1
 71
     2
 72
     1
 73
     1
 90
        2
 40
-0.6
 41
30.0
 62
     5
 63
     7
421
 16777215
 74
     1
 91
        0
 64
     7
 65
   257
 75
     1
175
     1
 42
1.0
 92
        0
 66
   257
 43
1.0
 76
     1
 77
     6
 78
     2
 67
     7
 79
     5
170
     0
171
     0
290
     0
174
     0
 93
       13
 44
0.0
173
     0
291
     1
 45
0.0
1001
ACAD
1000
AcDbSavedByObjectVersion
1070
     0
  0
VISUALSTYLE
  5
2D
102
{ACAD_XDICTIONARY
360
385
102
}
102
{ACAD_REACTORS
330
2A
102
}
330
2A
100
AcDbVisualStyle
  2

 70
     2
 71
     2
 72
     2
 73
     1
 90
        2
 40
-0.6
 41
30.0
 62
     5
 63
     7
421
 16777215
 74
     0
 91
        0
 64
     7
 65
   257
 75
     1
175
     1
 42
1.0
 92
        0
 66
     7
 43
1.0
 76
     1
 77
     6
 78
     2
 67
     7
 79
     5
170
     0
171
     0
290
     0
174
     0
 93
       13
 44
0.0
173
     0
291
     1
 45
0.0
1001
ACAD
1000
AcDbSavedByObjectVersion
1070
     0
  0
VISUALSTYLE
  5
2E
102
{ACAD_XDICTIONARY
360
387
102
}
102
{ACAD_REACTORS
330
2A
102
}
330
2A
100
AcDbVisualStyle
  2

 70
     3
 71
     2
 72
     2
 73
     1
 90
        2
 40
-0.6
 41
30.0
 62
     5
 63
     7
421
 16777215
 74
     1
 91
        0
 64
     7
 65
   257
 75
     1
175
     1
 42
1.0
 92
        0
 66
   257
 43
1.0
 76
     1
 77
     6
 78
     2
 67
     7
 79
     5
170
     0
171
     0
290
     0
174
     0
 93
       13
 44
0.0
173
     0
291
     1
 45
0.0
1001
ACAD
1000
AcDbSavedByObjectVersion
1070
     0
  0
VISUALSTYLE
  5
31
102
{ACAD_XDICTIONARY
360
38D
102
}
102
{ACAD_REACTORS
330
2A
102
}
330
2A
100
AcDbVisualStyle
  2

 70
     6
 71
     1
 72
     2
 73
     2
 90
        0
 40
-0.6
 41
-30.0
 62
     5
 63
     7
421
 16777215
 74
     2
 91
        2
 64
     7
 65
   257
 75
     2
175
     1
 42
40.0
 92
        0
 66
   257
 43
1.0
 76
     1
 77
     6
 78
     2
 67
     7
 79
     3
170
     0
171
     0
290
     0
174
     0
 93
        1
 44
0.0
173
     0
291
     0
 45
0.0
1001
ACAD
1000
AcDbSavedByObjectVersion
1070
     0
  0
VISUALSTYLE
  5
3B
102
{ACAD_XDICTIONARY
360
3A1
102
}
102
{ACAD_REACTORS
330
2A
102
}
330
2A
100
AcDbVisualStyle
  2

 70
    20
 71
     2
 72
     2
 73
     0
 90
        0
 40
-0.6
 41
-30.0
 62
     5
 63
     7
421
 16777215
 74
     1
 91
        4
 64
     7
 65
   257
 75
     1
175
     1
 42
1.0
 92
       10
 66
     7
 43
1.0
 76
     1
 77
     6
 78
     2
 67
     7
 79
     5
170
     0
171
     0
290
     0
174
     0
 93
        1
 44
0.0
173
     0
291
     1
 45
0.0
1001
ACAD
1000
AcDbSavedByObjectVersion
1070
     0
  0
VISUALSTYLE
  5
38
102
{ACAD_XDICTIONARY
360
39B
102
}
102
{ACAD_REACTORS
330
2A
102
}
330
2A
100
AcDbVisualStyle
  2

 70
    14
 71
     2
 72
     2
 73
     0
 90
        0
 40
-0.6
 41
-30.0
 62
     5
 63
     7
421
 16777215
 74
     1
 91
        4
 64
     7
 65
   257
 75
     7
175
     7
 42
1.0
 92
        8
 66
     7
 43
1.0
 76
     1
 77
     6
 78
     2
 67
     7
 79
     5
170
     0
171
     0
290
     0
174
     0
 93
        1
 44
0.0
173
     0
291
     1
 45
0.0
1001
ACAD
1000
AcDbSavedByObjectVersion
1070
     0
  0
VISUALSTYLE
  5
3C
102
{ACAD_XDICTIONARY
360
3A3
102
}
102
{ACAD_REACTORS
330
2A
102
}
330
2A
100
AcDbVisualStyle
  2

 70
    21
 71
     2
 72
     2
 73
     0
 90
        0
 40
-0.6
 41
-30.0
 62
     5
 63
     7
421
 16777215
 74
     1
 91
        4
 64
     7
 65
   257
 75
     1
175
     1
 42
1.0
 92
        9
 66
     7
 43
1.0
 76
     1
 77
     6
 78
     2
 67
     7
 79
     5
170
     0
171
     0
290
     0
174
     0
 93
        1
 44
0.0
173
     0
291
     1
 45
0.0
1001
ACAD
1000
AcDbSavedByObjectVersion
1070
     0
  0
VISUALSTYLE
  5
33
102
{ACAD_XDICTIONARY
360
391
102
}
102
{ACAD_REACTORS
330
2A
102
}
330
2A
100
AcDbVisualStyle
  2

 70
     8
 71
     2
 72
     3
 73
     0
 90
        2
 40
-0.6
 41
30.0
 62
     5
 63
     7
421
 16777215
 74
     0
 91
        0
 64
     7
 65
   257
 75
     1
175
     1
 42
1.0
 92
        8
 66
   257
 43
1.0
 76
     1
 77
     6
 78
     2
 67
     7
 79
     3
170
     0
171
     0
290
     0
174
     0
 93
       13
 44
0.0
173
     0
291
     0
 45
0.0
1001
ACAD
1000
AcDbSavedByObjectVersion
1070
     0
  0
VISUALSTYLE
  5
42
102
{ACAD_XDICTIONARY
360
3AF
102
}
102
{ACAD_REACTORS
330
2A
102
}
330
2A
100
AcDbVisualStyle
  2

 70
    27
 71
     2
 72
     2
 73
     1
 90
        2
 40
-0.6
 41
30.0
 62
     5
 63
     7
421
 16777215
 74
     0
 91
        4
 64
     7
 65
   257
 75
     1
175
     1
 42
1.0
 92
        8
 66
   257
 43
1.0
 76
     1
 77
     6
 78
     2
 67
     8
425
  7895160
 79
     3
170
     0
171
     0
290
     0
174
     0
 93
        5
 44
0.0
173
     0
291
     0
 45
0.0
1001
ACAD
1000
AcDbSavedByObjectVersion
1070
     0
  0
VISUALSTYLE
  5
41
102
{ACAD_XDICTIONARY
360
3AD
102
}
102
{ACAD_REACTORS
330
2A
102
}
330
2A
100
AcDbVisualStyle
  2

 70
    26
 71
     2
 72
     2
 73
     1
 90
        2
 40
-0.6
 41
30.0
 62
     5
 63
     7
421
 16777215
 74
     1
 91
       10
 64
     7
 65
   257
 75
     2
175
     1
 42
1.0
 92
        8
 66
   257
 43
1.0
 76
     1
 77
     6
 78
     2
 67
     7
 79
     3
170
     0
171
     0
290
     0
174
     0
 93
        5
 44
0.0
173
     0
291
     0
 45
0.0
1001
ACAD
1000
AcDbSavedByObjectVersion
1070
     0
  0
VISUALSTYLE
  5
3E
102
{ACAD_XDICTIONARY
360
3A7
102
}
102
{ACAD_REACTORS
330
2A
102
}
330
2A
100
AcDbVisualStyle
  2

 70
    23
 71
     2
 72
     2
 73
     3
 90
        0
 40
-0.6
 41
-30.0
 62
     5
 63
     7
421
 16777215
 74
     2
 91
        2
 64
     7
 65
     7
 75
     1
175
     1
 42
40.0
 92
        8
 66
     7
 43
1.0
 76
     1
 77
     6
 78
     2
 67
     7
 79
     3
170
     0
171
     0
290
     0
174
     0
 93
        1
 44
0.0
173
     0
291
     0
 45
0.0
1001
ACAD
1000
AcDbSavedByObjectVersion
1070
     0
  0
VISUALSTYLE
  5
3F
102
{ACAD_XDICTIONARY
360
3A9
102
}
102
{ACAD_REACTORS
330
2A
102
}
330
2A
100
AcDbVisualStyle
  2

 70
    24
 71
     1
 72
     2
 73
     2
 90
        0
 40
-0.6
 41
-30.0
 62
     5
 63
     7
421
 16777215
 74
     2
 91
        2
 64
     7
 65
     7
 75
     1
175
     1
 42
40.0
 92
       11
 66
     7
 43
1.0
 76
     1
 77
     6
 78
     2
 67
     7
 79
     6
170
     0
171
     0
290
     0
174
     0
 93
        1
 44
0.0
173
     0
291
     0
 45
0.0
1001
ACAD
1000
AcDbSavedByObjectVersion
1070
     0
  0
VISUALSTYLE
  5
37
102
{ACAD_XDICTIONARY
360
399
102
}
102
{ACAD_REACTORS
330
2A
102
}
330
2A
100
AcDbVisualStyle
  2

 70
    13
 71
     2
 72
     2
 73
     0
 90
        0
 40
-0.6
 41
-30.0
 62
     5
 63
     7
421
 16777215
 74
     1
 91
        4
 64
     7
 65
   257
 75
     1
175
     1
 42
1.0
 92
       12
 66
     7
 43
1.0
 76
     1
 77
     6
 78
     2
 67
     7
 79
     5
170
     0
171
     0
290
     0
174
     0
 93
        1
 44
0.0
173
     0
291
     1
 45
0.0
1001
ACAD
1000
AcDbSavedByObjectVersion
1070
     0
  0
VISUALSTYLE
  5
30
102
{ACAD_XDICTIONARY
360
38B
102
}
102
{ACAD_REACTORS
330
2A
102
}
330
2A
100
AcDbVisualStyle
  2

 70
     5
 71
     0
 72
     2
 73
     0
 90
        0
 40
-0.6
 41
-30.0
 62
     5
 63
     7
421
 16777215
 74
     1
 91
        4
 64
     7
 65
   257
 75
     1
175
     1
 42
1.0
 92
        0
 66
   257
 43
1.0
 76
     1
 77
     6
 78
     2
 67
     7
 79
     3
170
     0
171
     0
290
     0
174
     0
 93
        1
 44
0.0
173
     0
291
     0
 45
0.0
1001
ACAD
1000
AcDbSavedByObjectVersion
1070
     0
  0
VISUALSTYLE
  5
40
102
{ACAD_XDICTIONARY
360
3AB
102
}
102
{ACAD_REACTORS
330
2A
102
}
330
2A
100
AcDbVisualStyle
  2

 70
    25
 71
     2
 72
     2
 73
     1
 90
        1
 40
0.5
 41
-30.0
 62
     5
 63
     7
421
 16777215
 74
     1
 91
        0
 64
     7
 65
   257
 75
     1
175
     1
 42
1.0
 92
        8
 66
     7
 43
1.0
 76
     1
 77
     6
 78
     2
 67
     7
 79
     3
170
     0
171
     0
290
     0
174
     0
 93
       13
 44
0.0
173
     0
291
     0
 45
0.0
1001
ACAD
1000
AcDbSavedByObjectVersion
1070
     0
  0
DICTIONARYVAR
  5
2CC
102
{ACAD_REACTORS
330
2CB
102
}
330
2CB
100
DictionaryVariables
280
     0
  1
1:1
  0
DICTIONARYVAR
  5
30D
102
{ACAD_REACTORS
330
2CB
102
}
330
2CB
100
DictionaryVariables
280
     0
  1
STANDARD
  0
DICTIONARYVAR
  5
30C
102
{ACAD_REACTORS
330
2CB
102
}
330
2CB
100
DictionaryVariables
280
     0
  1
STANDARD
  0
DICTIONARYVAR
  5
37B
102
{ACAD_REACTORS
330
2CB
102
}
330
2CB
100
DictionaryVariables
280
     0
  1
Metric50
  0
DICTIONARYVAR
  5
37C
102
{ACAD_REACTORS
330
2CB
102
}
330
2CB
100
DictionaryVariables
280
     0
  1
Metric50
  0
DICTIONARYVAR
  5
2CD
102
{ACAD_REACTORS
330
2CB
102
}
330
2CB
100
DictionaryVariables
280
     0
  1
1
  0
DICTIONARYVAR
  5
37D
102
{ACAD_REACTORS
330
2CB
102
}
330
2CB
100
DictionaryVariables
280
     0
  1
2
  0
DICTIONARY
  5
3B4
330
314
100
AcDbDictionary
280
     1
281
     1
  3
ACAD_XREC_ROUNDTRIP
360
3B5
  0
DICTIONARY
  5
301
330
45
100
AcDbDictionary
280
     1
281
     1
  3
ACAD_XREC_ROUNDTRIP
360
302
  0
DICTIONARY
  5
2FF
330
44
100
AcDbDictionary
280
     1
281
     1
  3
ACAD_XREC_ROUNDTRIP
360
300
  0
DICTIONARY
  5
303
330
46
100
AcDbDictionary
280
     1
281
     1
  3
ACAD_XREC_ROUNDTRIP
360
304
  0
DICTIONARY
  5
3B2
330
313
100
AcDbDictionary
280
     1
281
     1
  3
ACAD_XREC_ROUNDTRIP
360
3B3
  0
DICTIONARY
  5
305
330
6A
100
AcDbDictionary
280
     1
281
     1
  3
ACAD_ROUNDTRIP_2008_TABLESTYLE_CELLSTYLEMAP
360
37F
  3
ACAD_XREC_ROUNDTRIP
360
3B1
  0
DICTIONARY
  5
389
330
2F
100
AcDbDictionary
280
     1
281
     1
  3
ACAD_XREC_ROUNDTRIP
360
38A
  0
DICTIONARY
  5
38F
330
32
100
AcDbDictionary
280
     1
281
     1
  3
ACAD_XREC_ROUNDTRIP
360
390
  0
DICTIONARY
  5
397
330
36
100
AcDbDictionary
280
     1
281
     1
  3
ACAD_XREC_ROUNDTRIP
360
398
  0
DICTIONARY
  5
39F
330
3A
100
AcDbDictionary
280
     1
281
     1
  3
ACAD_XREC_ROUNDTRIP
360
3A0
  0
DICTIONARY
  5
393
330
34
100
AcDbDictionary
280
     1
281
     1
  3
ACAD_XREC_ROUNDTRIP
360
394
  0
DICTIONARY
  5
395
330
35
100
AcDbDictionary
280
     1
281
     1
  3
ACAD_XREC_ROUNDTRIP
360
396
  0
DICTIONARY
  5
3A5
330
3D
100
AcDbDictionary
280
     1
281
     1
  3
ACAD_XREC_ROUNDTRIP
360
3A6
  0
DICTIONARY
  5
39D
330
39
100
AcDbDictionary
280
     1
281
     1
  3
ACAD_XREC_ROUNDTRIP
360
39E
  0
DICTIONARY
  5
381
330
2B
100
AcDbDictionary
280
     1
281
     1
  3
ACAD_XREC_ROUNDTRIP
360
382
  0
DICTIONARY
  5
383
330
2C
100
AcDbDictionary
280
     1
281
     1
  3
ACAD_XREC_ROUNDTRIP
360
384
  0
DICTIONARY
  5
385
330
2D
100
AcDbDictionary
280
     1
281
     1
  3
ACAD_XREC_ROUNDTRIP
360
386
  0
DICTIONARY
  5
387
330
2E
100
AcDbDictionary
280
     1
281
     1
  3
ACAD_XREC_ROUNDTRIP
360
388
  0
DICTIONARY
  5
38D
330
31
100
AcDbDictionary
280
     1
281
     1
  3
ACAD_XREC_ROUNDTRIP
360
38E
  0
DICTIONARY
  5
3A1
330
3B
100
AcDbDictionary
280
     1
281
     1
  3
ACAD_XREC_ROUNDTRIP
360
3A2
  0
DICTIONARY
  5
39B
330
38
100
AcDbDictionary
280
     1
281
     1
  3
ACAD_XREC_ROUNDTRIP
360
39C
  0
DICTIONARY
  5
3A3
330
3C
100
AcDbDictionary
280
     1
281
     1
  3
ACAD_XREC_ROUNDTRIP
360
3A4
  0
DICTIONARY
  5
391
330
33
100
AcDbDictionary
280
     1
281
     1
  3
ACAD_XREC_ROUNDTRIP
360
392
  0
DICTIONARY
  5
3AF
330
42
100
AcDbDictionary
280
     1
281
     1
  3
ACAD_XREC_ROUNDTRIP
360
3B0
  0
DICTIONARY
  5
3AD
330
41
100
AcDbDictionary
280
     1
281
     1
  3
ACAD_XREC_ROUNDTRIP
360
3AE
  0
DICTIONARY
  5
3A7
330
3E
100
AcDbDictionary
280
     1
281
     1
  3
ACAD_XREC_ROUNDTRIP
360
3A8
  0
DICTIONARY
  5
3A9
330
3F
100
AcDbDictionary
280
     1
281
     1
  3
ACAD_XREC_ROUNDTRIP
360
3AA
  0
DICTIONARY
  5
399
330
37
100
AcDbDictionary
280
     1
281
     1
  3
ACAD_XREC_ROUNDTRIP
360
39A
  0
DICTIONARY
  5
38B
330
30
100
AcDbDictionary
280
     1
281
     1
  3
ACAD_XREC_ROUNDTRIP
360
38C
  0
DICTIONARY
  5
3AB
330
40
100
AcDbDictionary
280
     1
281
     1
  3
ACAD_XREC_ROUNDTRIP
360
3AC
  0
XRECORD
  5
3B5
102
{ACAD_REACTORS
330
3B4
102
}
330
3B4
100
AcDbXrecord
280
     1
102
DISPLAYNAME
  1
Metric50
102
FLAGS
 90
        0
  0
XRECORD
  5
302
102
{ACAD_REACTORS
330
301
102
}
330
301
100
AcDbXrecord
280
     1
102
MATERIAL
148
0.0
149
0.0
149
0.0
 93
        0
 94
      127
282
     0
 72
     1
 77
     1
171
     1
175
     1
179
     1
273
     0
  0
XRECORD
  5
300
102
{ACAD_REACTORS
330
2FF
102
}
330
2FF
100
AcDbXrecord
280
     1
102
MATERIAL
148
0.0
149
0.0
149
0.0
 93
        0
 94
      127
282
     0
 72
     1
 77
     1
171
     1
175
     1
179
     1
273
     0
  0
XRECORD
  5
304
102
{ACAD_REACTORS
330
303
102
}
330
303
100
AcDbXrecord
280
     1
102
MATERIAL
148
0.0
149
0.0
149
0.0
 93
        0
 94
      127
282
     0
 72
     1
 77
     1
171
     1
175
     1
179
     1
273
     0
  0
XRECORD
  5
3B3
102
{ACAD_REACTORS
330
3B2
102
}
330
3B2
100
AcDbXrecord
280
     1
102
DISPLAYNAME
  1
Metric50
102
FLAGS
 90
        0
  0
CELLSTYLEMAP
  5
37F
102
{ACAD_REACTORS
330
305
102
}
330
305
100
AcDbCellStyleMap
 90
        3
300
CELLSTYLE
  1
TABLEFORMAT_BEGIN
 90
        5
170
     1
 91
        0
 92
    32768
 62
   257
 93
        1
300
CONTENTFORMAT
  1
CONTENTFORMAT_BEGIN
 90
        0
 91
        0
 92
        4
 93
        0
300

 40
0.0
140
1.0
 94
        5
 62
     0
340
11
144
0.25
309
CONTENTFORMAT_END
171
     1
301
MARGIN
  1
CELLMARGIN_BEGIN
 40
0.06
 40
0.06
 40
0.06
 40
0.06
 40
0.18
 40
0.18
309
CELLMARGIN_END
 94
        6
 95
        1
302
GRIDFORMAT
  1
GRIDFORMAT_BEGIN
 90
        0
 91
        1
 62
     0
 92
       -2
340
14
 93
        0
 40
0.045
309
GRIDFORMAT_END
 95
        2
302
GRIDFORMAT
  1
GRIDFORMAT_BEGIN
 90
        0
 91
        1
 62
     0
 92
       -2
340
14
 93
        0
 40
0.045
309
GRIDFORMAT_END
 95
        4
302
GRIDFORMAT
  1
GRIDFORMAT_BEGIN
 90
        0
 91
        1
 62
     0
 92
       -2
340
14
 93
        0
 40
0.045
309
GRIDFORMAT_END
 95
        8
302
GRIDFORMAT
  1
GRIDFORMAT_BEGIN
 90
        0
 91
        1
 62
     0
 92
       -2
340
14
 93
        0
 40
0.045
309
GRIDFORMAT_END
 95
       16
302
GRIDFORMAT
  1
GRIDFORMAT_BEGIN
 90
        0
 91
        1
 62
     0
 92
       -2
340
14
 93
        0
 40
0.045
309
GRIDFORMAT_END
 95
       32
302
GRIDFORMAT
  1
GRIDFORMAT_BEGIN
 90
        0
 91
        1
 62
     0
 92
       -2
340
14
 93
        0
 40
0.045
309
GRIDFORMAT_END
309
TABLEFORMAT_END
  1
CELLSTYLE_BEGIN
 90
        1
 91
        1
300
_TITLE
309
CELLSTYLE_END
300
CELLSTYLE
  1
TABLEFORMAT_BEGIN
 90
        5
170
     1
 91
        0
 92
        0
 62
   257
 93
        1
300
CONTENTFORMAT
  1
CONTENTFORMAT_BEGIN
 90
        0
 91
        0
 92
        4
 93
        0
300

 40
0.0
140
1.0
 94
        5
 62
     0
340
11
144
0.18
309
CONTENTFORMAT_END
171
     1
301
MARGIN
  1
CELLMARGIN_BEGIN
 40
0.06
 40
0.06
 40
0.06
 40
0.06
 40
0.18
 40
0.18
309
CELLMARGIN_END
 94
        6
 95
        1
302
GRIDFORMAT
  1
GRIDFORMAT_BEGIN
 90
        0
 91
        1
 62
     0
 92
       -2
340
14
 93
        0
 40
0.045
309
GRIDFORMAT_END
 95
        2
302
GRIDFORMAT
  1
GRIDFORMAT_BEGIN
 90
        0
 91
        1
 62
     0
 92
       -2
340
14
 93
        0
 40
0.045
309
GRIDFORMAT_END
 95
        4
302
GRIDFORMAT
  1
GRIDFORMAT_BEGIN
 90
        0
 91
        1
 62
     0
 92
       -2
340
14
 93
        0
 40
0.045
309
GRIDFORMAT_END
 95
        8
302
GRIDFORMAT
  1
GRIDFORMAT_BEGIN
 90
        0
 91
        1
 62
     0
 92
       -2
340
14
 93
        0
 40
0.045
309
GRIDFORMAT_END
 95
       16
302
GRIDFORMAT
  1
GRIDFORMAT_BEGIN
 90
        0
 91
        1
 62
     0
 92
       -2
340
14
 93
        0
 40
0.045
309
GRIDFORMAT_END
 95
       32
302
GRIDFORMAT
  1
GRIDFORMAT_BEGIN
 90
        0
 91
        1
 62
     0
 92
       -2
340
14
 93
        0
 40
0.045
309
GRIDFORMAT_END
309
TABLEFORMAT_END
  1
CELLSTYLE_BEGIN
 90
        2
 91
        1
300
_HEADER
309
CELLSTYLE_END
300
CELLSTYLE
  1
TABLEFORMAT_BEGIN
 90
        5
170
     1
 91
        0
 92
        0
 62
   257
 93
        1
300
CONTENTFORMAT
  1
CONTENTFORMAT_BEGIN
 90
        0
 91
        0
 92
        4
 93
        0
300

 40
0.0
140
1.0
 94
        2
 62
     0
340
11
144
0.18
309
CONTENTFORMAT_END
171
     1
301
MARGIN
  1
CELLMARGIN_BEGIN
 40
0.06
 40
0.06
 40
0.06
 40
0.06
 40
0.18
 40
0.18
309
CELLMARGIN_END
 94
        6
 95
        1
302
GRIDFORMAT
  1
GRIDFORMAT_BEGIN
 90
        0
 91
        1
 62
     0
 92
       -2
340
14
 93
        0
 40
0.045
309
GRIDFORMAT_END
 95
        2
302
GRIDFORMAT
  1
GRIDFORMAT_BEGIN
 90
        0
 91
        1
 62
     0
 92
       -2
340
14
 93
        0
 40
0.045
309
GRIDFORMAT_END
 95
        4
302
GRIDFORMAT
  1
GRIDFORMAT_BEGIN
 90
        0
 91
        1
 62
     0
 92
       -2
340
14
 93
        0
 40
0.045
309
GRIDFORMAT_END
 95
        8
302
GRIDFORMAT
  1
GRIDFORMAT_BEGIN
 90
        0
 91
        1
 62
     0
 92
       -2
340
14
 93
        0
 40
0.045
309
GRIDFORMAT_END
 95
       16
302
GRIDFORMAT
  1
GRIDFORMAT_BEGIN
 90
        0
 91
        1
 62
     0
 92
       -2
340
14
 93
        0
 40
0.045
309
GRIDFORMAT_END
 95
       32
302
GRIDFORMAT
  1
GRIDFORMAT_BEGIN
 90
        0
 91
        1
 62
     0
 92
       -2
340
14
 93
        0
 40
0.045
309
GRIDFORMAT_END
309
TABLEFORMAT_END
  1
CELLSTYLE_BEGIN
 90
        3
 91
        2
300
_DATA
309
CELLSTYLE_END
  0
XRECORD
  5
3B1
102
{ACAD_REACTORS
330
305
102
}
330
305
100
AcDbXrecord
280
     1
102
ACAD_ROUNDTRIP_PRE2007_TABLESTYLE
 90
        4
 91
        0
  1

 92
        4
 93
        0
  2

 94
        4
 95
        0
  3

  0
XRECORD
  5
38A
102
{ACAD_REACTORS
330
389
102
}
330
389
100
AcDbXrecord
280
     1
102
RTVSPost2010Prop28
280
     1
102
RTVSPost2010PropOp28
 70
     1
102
RTVSPost2010Prop29
280
     1
102
RTVSPost2010PropOp29
 70
     1
102
RTVSPost2010Prop30
280
     0
102
RTVSPost2010PropOp30
 70
     1
102
RTVSPost2010Prop31
280
     0
102
RTVSPost2010PropOp31
 70
     1
102
RTVSPost2010Prop32
280
     0
102
RTVSPost2010PropOp32
 70
     1
102
RTVSPost2010Prop33
280
     0
102
RTVSPost2010PropOp33
 70
     1
102
RTVSPost2010Prop34
280
     0
102
RTVSPost2010PropOp34
 70
     1
102
RTVSPost2010Prop35
280
     0
102
RTVSPost2010PropOp35
 70
     1
102
RTVSPost2010Prop36
280
     0
102
RTVSPost2010PropOp36
 70
     1
102
RTVSPost2010Prop37
 90
       50
102
RTVSPost2010PropOp37
 70
     1
102
RTVSPost2010Prop38
140
0.0
102
RTVSPost2010PropOp38
 70
     1
102
RTVSPost2010Prop39
140
1.0
102
RTVSPost2010PropOp39
 70
     1
102
RTVSPost2010Prop40
 90
        0
102
RTVSPost2010PropOp40
 70
     1
102
RTVSPost2010Prop41ColorIndex
 90
       18
102
RTVSPost2010Prop41ColorRGB
 90
        0
102
RTVSPost2010PropOp41
 70
     1
102
RTVSPost2010Prop42
 90
       50
102
RTVSPost2010PropOp42
 70
     1
102
RTVSPost2010Prop43
 90
        3
102
RTVSPost2010PropOp43
 70
     1
102
RTVSPost2010Prop44ColorIndex
 90
        5
102
RTVSPost2010Prop44ColorRGB
 90
      255
102
RTVSPost2010PropOp44
 70
     1
102
RTVSPost2010Prop45
280
     0
102
RTVSPost2010PropOp45
 70
     1
102
RTVSPost2010Prop46
 90
       50
102
RTVSPost2010PropOp46
 70
     1
102
RTVSPost2010Prop47
 90
       50
102
RTVSPost2010PropOp47
 70
     1
102
RTVSPost2010Prop48
 90
       50
102
RTVSPost2010PropOp48
 70
     1
102
RTVSPost2010Prop49
280
     0
102
RTVSPost2010PropOp49
 70
     1
102
RTVSPost2010Prop50
 90
       50
102
RTVSPost2010PropOp50
 70
     1
102
RTVSPost2010Prop51ColorIndex
 90
      256
102
RTVSPost2010Prop51ColorRGB
 90
-16777216
102
RTVSPost2010PropOp51
 70
     0
102
RTVSPost2010Prop52
140
1.0
102
RTVSPost2010PropOp52
 70
     0
102
RTVSPost2010Prop53
 90
        2
102
RTVSPost2010PropOp53
 70
     1
102
RTVSPost2010Prop54
  1
strokes_ogs.tif
102
RTVSPost2010PropOp54
 70
     1
102
RTVSPost2010Prop55
280
     0
102
RTVSPost2010PropOp55
 70
     1
102
RTVSPost2010Prop56
140
1.0
102
RTVSPost2010PropOp56
 70
     1
102
RTVSPost2010Prop57
140
1.0
102
RTVSPost2010PropOp57
 70
     1
102
RTVSPropertyOp0
 70
     1
102
RTVSPropertyOp1
 70
     1
102
RTVSPropertyOp2
 70
     1
102
RTVSPropertyOp3
 70
     1
102
RTVSPropertyOp4
 70
     1
102
RTVSPropertyOp5
 70
     1
102
RTVSPropertyOp6
 70
     1
102
RTVSPropertyOp7
 70
     1
102
RTVSPropertyOp8
 70
     1
102
RTVSPropertyOp9
 70
     1
102
RTVSPropertyOp10
 70
     1
102
RTVSPropertyOp11
 70
     1
102
RTVSPropertyOp12
 70
     1
102
RTVSPropertyOp13
 70
     1
102
RTVSPropertyOp14
 70
     1
102
RTVSPropertyOp15
 70
     1
102
RTVSPropertyOp16
 70
     1
102
RTVSPropertyOp17
 70
     1
102
RTVSPropertyOp18
 70
     1
102
RTVSPropertyOp19
 70
     1
102
RTVSPropertyOp20
 70
     1
102
RTVSPropertyOp21
 70
     1
102
RTVSPropertyOp22
 70
     1
102
RTVSPropertyOp23
 70
     1
102
RTVSPropertyOp24
 70
     1
102
RTVSPropertyOp25
 70
     1
102
RTVSPropertyOp26
 70
     1
102
RTVSPropertyOp27
 70
     1
102
RTVSPropertyOp28
 70
     1
102
RTVSPropertyOp29
 70
     1
102
RTVSPropertyOp30
 70
     1
102
RTVSPropertyOp31
 70
     1
102
RTVSPropertyOp32
 70
     1
102
RTVSPropertyOp33
 70
     1
102
RTVSPropertyOp34
 70
     1
102
RTVSPropertyOp35
 70
     1
102
RTVSPropertyOp36
 70
     1
102
RTVSPropertyOp37
 70
     1
102
RTVSPropertyOp38
 70
     1
102
RTVSPropertyOp39
 70
     1
102
RTVSPropertyOp40
 70
     1
102
RTVSPropertyOp41
 70
     1
102
RTVSPropertyOp42
 70
     1
102
RTVSPropertyOp43
 70
     1
102
RTVSPropertyOp44
 70
     1
102
RTVSPropertyOp45
 70
     1
102
RTVSPropertyOp46
 70
     1
102
RTVSPropertyOp47
 70
     1
102
RTVSPropertyOp48
 70
     1
102
RTVSPropertyOp49
 70
     1
102
RTVSPropertyOp50
 70
     1
102
RTVSPropertyOp51
 70
     0
102
RTVSPropertyOp52
 70
     0
102
RTVSPropertyOp53
 70
     1
102
RTVSPropertyOp54
 70
     1
102
RTVSPropertyOp55
 70
     1
102
RTVSPropertyOp56
 70
     1
102
RTVSPropertyOp57
 70
     1
102
RTVSPropertyOp58
 70
     1
102
RTVSPropertyOp59
 70
     1
102
RTVSPropertyOp60
 70
     1
102
RTVSPropertyOp61
 70
     1
102
RTVSPropertyOp62
 70
     1
  0
XRECORD
  5
390
102
{ACAD_REACTORS
330
38F
102
}
330
38F
100
AcDbXrecord
280
     1
102
RTVSPost2010Prop28
280
     0
102
RTVSPost2010PropOp28
 70
     1
102
RTVSPost2010Prop29
280
     1
102
RTVSPost2010PropOp29
 70
     1
102
RTVSPost2010Prop30
280
     1
102
RTVSPost2010PropOp30
 70
     1
102
RTVSPost2010Prop31
280
     0
102
RTVSPost2010PropOp31
 70
     1
102
RTVSPost2010Prop32
280
     0
102
RTVSPost2010PropOp32
 70
     1
102
RTVSPost2010Prop33
280
     0
102
RTVSPost2010PropOp33
 70
     1
102
RTVSPost2010Prop34
280
     0
102
RTVSPost2010PropOp34
 70
     1
102
RTVSPost2010Prop35
280
     0
102
RTVSPost2010PropOp35
 70
     1
102
RTVSPost2010Prop36
280
     0
102
RTVSPost2010PropOp36
 70
     1
102
RTVSPost2010Prop37
 90
       50
102
RTVSPost2010PropOp37
 70
     1
102
RTVSPost2010Prop38
140
0.0
102
RTVSPost2010PropOp38
 70
     1
102
RTVSPost2010Prop39
140
1.0
102
RTVSPost2010PropOp39
 70
     1
102
RTVSPost2010Prop40
 90
        0
102
RTVSPost2010PropOp40
 70
     1
102
RTVSPost2010Prop41ColorIndex
 90
       18
102
RTVSPost2010Prop41ColorRGB
 90
        0
102
RTVSPost2010PropOp41
 70
     1
102
RTVSPost2010Prop42
 90
       50
102
RTVSPost2010PropOp42
 70
     1
102
RTVSPost2010Prop43
 90
        3
102
RTVSPost2010PropOp43
 70
     1
102
RTVSPost2010Prop44ColorIndex
 90
        5
102
RTVSPost2010Prop44ColorRGB
 90
      255
102
RTVSPost2010PropOp44
 70
     1
102
RTVSPost2010Prop45
280
     0
102
RTVSPost2010PropOp45
 70
     1
102
RTVSPost2010Prop46
 90
       50
102
RTVSPost2010PropOp46
 70
     1
102
RTVSPost2010Prop47
 90
       50
102
RTVSPost2010PropOp47
 70
     1
102
RTVSPost2010Prop48
 90
       50
102
RTVSPost2010PropOp48
 70
     1
102
RTVSPost2010Prop49
280
     0
102
RTVSPost2010PropOp49
 70
     1
102
RTVSPost2010Prop50
 90
       50
102
RTVSPost2010PropOp50
 70
     1
102
RTVSPost2010Prop51ColorIndex
 90
      256
102
RTVSPost2010Prop51ColorRGB
 90
-16777216
102
RTVSPost2010PropOp51
 70
     0
102
RTVSPost2010Prop52
140
1.0
102
RTVSPost2010PropOp52
 70
     0
102
RTVSPost2010Prop53
 90
        2
102
RTVSPost2010PropOp53
 70
     1
102
RTVSPost2010Prop54
  1
strokes_ogs.tif
102
RTVSPost2010PropOp54
 70
     1
102
RTVSPost2010Prop55
280
     0
102
RTVSPost2010PropOp55
 70
     1
102
RTVSPost2010Prop56
140
1.0
102
RTVSPost2010PropOp56
 70
     1
102
RTVSPost2010Prop57
140
1.0
102
RTVSPost2010PropOp57
 70
     1
102
RTVSPropertyOp0
 70
     1
102
RTVSPropertyOp1
 70
     1
102
RTVSPropertyOp2
 70
     1
102
RTVSPropertyOp3
 70
     1
102
RTVSPropertyOp4
 70
     1
102
RTVSPropertyOp5
 70
     1
102
RTVSPropertyOp6
 70
     1
102
RTVSPropertyOp7
 70
     1
102
RTVSPropertyOp8
 70
     1
102
RTVSPropertyOp9
 70
     1
102
RTVSPropertyOp10
 70
     1
102
RTVSPropertyOp11
 70
     1
102
RTVSPropertyOp12
 70
     1
102
RTVSPropertyOp13
 70
     1
102
RTVSPropertyOp14
 70
     1
102
RTVSPropertyOp15
 70
     1
102
RTVSPropertyOp16
 70
     1
102
RTVSPropertyOp17
 70
     1
102
RTVSPropertyOp18
 70
     1
102
RTVSPropertyOp19
 70
     1
102
RTVSPropertyOp20
 70
     1
102
RTVSPropertyOp21
 70
     1
102
RTVSPropertyOp22
 70
     1
102
RTVSPropertyOp23
 70
     1
102
RTVSPropertyOp24
 70
     1
102
RTVSPropertyOp25
 70
     1
102
RTVSPropertyOp26
 70
     1
102
RTVSPropertyOp27
 70
     1
102
RTVSPropertyOp28
 70
     1
102
RTVSPropertyOp29
 70
     1
102
RTVSPropertyOp30
 70
     1
102
RTVSPropertyOp31
 70
     1
102
RTVSPropertyOp32
 70
     1
102
RTVSPropertyOp33
 70
     1
102
RTVSPropertyOp34
 70
     1
102
RTVSPropertyOp35
 70
     1
102
RTVSPropertyOp36
 70
     1
102
RTVSPropertyOp37
 70
     1
102
RTVSPropertyOp38
 70
     1
102
RTVSPropertyOp39
 70
     1
102
RTVSPropertyOp40
 70
     1
102
RTVSPropertyOp41
 70
     1
102
RTVSPropertyOp42
 70
     1
102
RTVSPropertyOp43
 70
     1
102
RTVSPropertyOp44
 70
     1
102
RTVSPropertyOp45
 70
     1
102
RTVSPropertyOp46
 70
     1
102
RTVSPropertyOp47
 70
     1
102
RTVSPropertyOp48
 70
     1
102
RTVSPropertyOp49
 70
     1
102
RTVSPropertyOp50
 70
     1
102
RTVSPropertyOp51
 70
     0
102
RTVSPropertyOp52
 70
     0
102
RTVSPropertyOp53
 70
     1
102
RTVSPropertyOp54
 70
     1
102
RTVSPropertyOp55
 70
     1
102
RTVSPropertyOp56
 70
     1
102
RTVSPropertyOp57
 70
     1
102
RTVSPropertyOp58
 70
     1
102
RTVSPropertyOp59
 70
     1
102
RTVSPropertyOp60
 70
     1
102
RTVSPropertyOp61
 70
     1
102
RTVSPropertyOp62
 70
     1
  0
XRECORD
  5
398
102
{ACAD_REACTORS
330
397
102
}
330
397
100
AcDbXrecord
280
     1
102
RTVSPost2010Prop28
280
     0
102
RTVSPost2010PropOp28
 70
     1
102
RTVSPost2010Prop29
280
     1
102
RTVSPost2010PropOp29
 70
     1
102
RTVSPost2010Prop30
280
     1
102
RTVSPost2010PropOp30
 70
     1
102
RTVSPost2010Prop31
280
     0
102
RTVSPost2010PropOp31
 70
     1
102
RTVSPost2010Prop32
280
     0
102
RTVSPost2010PropOp32
 70
     1
102
RTVSPost2010Prop33
280
     0
102
RTVSPost2010PropOp33
 70
     1
102
RTVSPost2010Prop34
280
     0
102
RTVSPost2010PropOp34
 70
     1
102
RTVSPost2010Prop35
280
     0
102
RTVSPost2010PropOp35
 70
     1
102
RTVSPost2010Prop36
280
     0
102
RTVSPost2010PropOp36
 70
     1
102
RTVSPost2010Prop37
 90
       50
102
RTVSPost2010PropOp37
 70
     1
102
RTVSPost2010Prop38
140
0.0
102
RTVSPost2010PropOp38
 70
     1
102
RTVSPost2010Prop39
140
1.0
102
RTVSPost2010PropOp39
 70
     1
102
RTVSPost2010Prop40
 90
        0
102
RTVSPost2010PropOp40
 70
     1
102
RTVSPost2010Prop41ColorIndex
 90
       18
102
RTVSPost2010Prop41ColorRGB
 90
        0
102
RTVSPost2010PropOp41
 70
     1
102
RTVSPost2010Prop42
 90
       50
102
RTVSPost2010PropOp42
 70
     1
102
RTVSPost2010Prop43
 90
        3
102
RTVSPost2010PropOp43
 70
     1
102
RTVSPost2010Prop44ColorIndex
 90
        5
102
RTVSPost2010Prop44ColorRGB
 90
      255
102
RTVSPost2010PropOp44
 70
     1
102
RTVSPost2010Prop45
280
     0
102
RTVSPost2010PropOp45
 70
     1
102
RTVSPost2010Prop46
 90
       50
102
RTVSPost2010PropOp46
 70
     1
102
RTVSPost2010Prop47
 90
       50
102
RTVSPost2010PropOp47
 70
     1
102
RTVSPost2010Prop48
 90
       50
102
RTVSPost2010PropOp48
 70
     1
102
RTVSPost2010Prop49
280
     0
102
RTVSPost2010PropOp49
 70
     1
102
RTVSPost2010Prop50
 90
       50
102
RTVSPost2010PropOp50
 70
     1
102
RTVSPost2010Prop51ColorIndex
 90
      256
102
RTVSPost2010Prop51ColorRGB
 90
-16777216
102
RTVSPost2010PropOp51
 70
     0
102
RTVSPost2010Prop52
140
1.0
102
RTVSPost2010PropOp52
 70
     0
102
RTVSPost2010Prop53
 90
        2
102
RTVSPost2010PropOp53
 70
     1
102
RTVSPost2010Prop54
  1
strokes_ogs.tif
102
RTVSPost2010PropOp54
 70
     1
102
RTVSPost2010Prop55
280
     0
102
RTVSPost2010PropOp55
 70
     1
102
RTVSPost2010Prop56
140
1.0
102
RTVSPost2010PropOp56
 70
     1
102
RTVSPost2010Prop57
140
1.0
102
RTVSPost2010PropOp57
 70
     1
102
RTVSPropertyOp0
 70
     1
102
RTVSPropertyOp1
 70
     1
102
RTVSPropertyOp2
 70
     1
102
RTVSPropertyOp3
 70
     1
102
RTVSPropertyOp4
 70
     1
102
RTVSPropertyOp5
 70
     1
102
RTVSPropertyOp6
 70
     1
102
RTVSPropertyOp7
 70
     1
102
RTVSPropertyOp8
 70
     1
102
RTVSPropertyOp9
 70
     1
102
RTVSPropertyOp10
 70
     1
102
RTVSPropertyOp11
 70
     1
102
RTVSPropertyOp12
 70
     1
102
RTVSPropertyOp13
 70
     1
102
RTVSPropertyOp14
 70
     1
102
RTVSPropertyOp15
 70
     1
102
RTVSPropertyOp16
 70
     1
102
RTVSPropertyOp17
 70
     1
102
RTVSPropertyOp18
 70
     1
102
RTVSPropertyOp19
 70
     1
102
RTVSPropertyOp20
 70
     1
102
RTVSPropertyOp21
 70
     1
102
RTVSPropertyOp22
 70
     1
102
RTVSPropertyOp23
 70
     1
102
RTVSPropertyOp24
 70
     1
102
RTVSPropertyOp25
 70
     1
102
RTVSPropertyOp26
 70
     1
102
RTVSPropertyOp27
 70
     1
102
RTVSPropertyOp28
 70
     1
102
RTVSPropertyOp29
 70
     1
102
RTVSPropertyOp30
 70
     1
102
RTVSPropertyOp31
 70
     1
102
RTVSPropertyOp32
 70
     1
102
RTVSPropertyOp33
 70
     1
102
RTVSPropertyOp34
 70
     1
102
RTVSPropertyOp35
 70
     1
102
RTVSPropertyOp36
 70
     1
102
RTVSPropertyOp37
 70
     1
102
RTVSPropertyOp38
 70
     1
102
RTVSPropertyOp39
 70
     1
102
RTVSPropertyOp40
 70
     1
102
RTVSPropertyOp41
 70
     1
102
RTVSPropertyOp42
 70
     1
102
RTVSPropertyOp43
 70
     1
102
RTVSPropertyOp44
 70
     1
102
RTVSPropertyOp45
 70
     1
102
RTVSPropertyOp46
 70
     1
102
RTVSPropertyOp47
 70
     1
102
RTVSPropertyOp48
 70
     1
102
RTVSPropertyOp49
 70
     1
102
RTVSPropertyOp50
 70
     1
102
RTVSPropertyOp51
 70
     0
102
RTVSPropertyOp52
 70
     0
102
RTVSPropertyOp53
 70
     1
102
RTVSPropertyOp54
 70
     1
102
RTVSPropertyOp55
 70
     1
102
RTVSPropertyOp56
 70
     1
102
RTVSPropertyOp57
 70
     1
102
RTVSPropertyOp58
 70
     1
102
RTVSPropertyOp59
 70
     1
102
RTVSPropertyOp60
 70
     1
102
RTVSPropertyOp61
 70
     1
102
RTVSPropertyOp62
 70
     1
  0
XRECORD
  5
3A0
102
{ACAD_REACTORS
330
39F
102
}
330
39F
100
AcDbXrecord
280
     1
102
RTVSPost2010Prop28
280
     0
102
RTVSPost2010PropOp28
 70
     1
102
RTVSPost2010Prop29
280
     1
102
RTVSPost2010PropOp29
 70
     1
102
RTVSPost2010Prop30
280
     1
102
RTVSPost2010PropOp30
 70
     1
102
RTVSPost2010Prop31
280
     0
102
RTVSPost2010PropOp31
 70
     1
102
RTVSPost2010Prop32
280
     0
102
RTVSPost2010PropOp32
 70
     1
102
RTVSPost2010Prop33
280
     0
102
RTVSPost2010PropOp33
 70
     1
102
RTVSPost2010Prop34
280
     0
102
RTVSPost2010PropOp34
 70
     1
102
RTVSPost2010Prop35
280
     0
102
RTVSPost2010PropOp35
 70
     1
102
RTVSPost2010Prop36
280
     0
102
RTVSPost2010PropOp36
 70
     1
102
RTVSPost2010Prop37
 90
       50
102
RTVSPost2010PropOp37
 70
     1
102
RTVSPost2010Prop38
140
0.0
102
RTVSPost2010PropOp38
 70
     1
102
RTVSPost2010Prop39
140
1.0
102
RTVSPost2010PropOp39
 70
     1
102
RTVSPost2010Prop40
 90
        0
102
RTVSPost2010PropOp40
 70
     1
102
RTVSPost2010Prop41ColorIndex
 90
       18
102
RTVSPost2010Prop41ColorRGB
 90
        0
102
RTVSPost2010PropOp41
 70
     1
102
RTVSPost2010Prop42
 90
       50
102
RTVSPost2010PropOp42
 70
     1
102
RTVSPost2010Prop43
 90
        3
102
RTVSPost2010PropOp43
 70
     1
102
RTVSPost2010Prop44ColorIndex
 90
        5
102
RTVSPost2010Prop44ColorRGB
 90
      255
102
RTVSPost2010PropOp44
 70
     1
102
RTVSPost2010Prop45
280
     0
102
RTVSPost2010PropOp45
 70
     1
102
RTVSPost2010Prop46
 90
       50
102
RTVSPost2010PropOp46
 70
     1
102
RTVSPost2010Prop47
 90
       50
102
RTVSPost2010PropOp47
 70
     1
102
RTVSPost2010Prop48
 90
       50
102
RTVSPost2010PropOp48
 70
     1
102
RTVSPost2010Prop49
280
     0
102
RTVSPost2010PropOp49
 70
     1
102
RTVSPost2010Prop50
 90
       50
102
RTVSPost2010PropOp50
 70
     1
102
RTVSPost2010Prop51ColorIndex
 90
      256
102
RTVSPost2010Prop51ColorRGB
 90
-16777216
102
RTVSPost2010PropOp51
 70
     0
102
RTVSPost2010Prop52
140
1.0
102
RTVSPost2010PropOp52
 70
     0
102
RTVSPost2010Prop53
 90
        2
102
RTVSPost2010PropOp53
 70
     1
102
RTVSPost2010Prop54
  1
strokes_ogs.tif
102
RTVSPost2010PropOp54
 70
     1
102
RTVSPost2010Prop55
280
     0
102
RTVSPost2010PropOp55
 70
     1
102
RTVSPost2010Prop56
140
1.0
102
RTVSPost2010PropOp56
 70
     1
102
RTVSPost2010Prop57
140
1.0
102
RTVSPost2010PropOp57
 70
     1
102
RTVSPropertyOp0
 70
     1
102
RTVSPropertyOp1
 70
     1
102
RTVSPropertyOp2
 70
     1
102
RTVSPropertyOp3
 70
     1
102
RTVSPropertyOp4
 70
     1
102
RTVSPropertyOp5
 70
     1
102
RTVSPropertyOp6
 70
     1
102
RTVSPropertyOp7
 70
     1
102
RTVSPropertyOp8
 70
     1
102
RTVSPropertyOp9
 70
     1
102
RTVSPropertyOp10
 70
     1
102
RTVSPropertyOp11
 70
     1
102
RTVSPropertyOp12
 70
     1
102
RTVSPropertyOp13
 70
     1
102
RTVSPropertyOp14
 70
     1
102
RTVSPropertyOp15
 70
     1
102
RTVSPropertyOp16
 70
     1
102
RTVSPropertyOp17
 70
     1
102
RTVSPropertyOp18
 70
     1
102
RTVSPropertyOp19
 70
     1
102
RTVSPropertyOp20
 70
     1
102
RTVSPropertyOp21
 70
     1
102
RTVSPropertyOp22
 70
     1
102
RTVSPropertyOp23
 70
     1
102
RTVSPropertyOp24
 70
     1
102
RTVSPropertyOp25
 70
     1
102
RTVSPropertyOp26
 70
     1
102
RTVSPropertyOp27
 70
     1
102
RTVSPropertyOp28
 70
     1
102
RTVSPropertyOp29
 70
     1
102
RTVSPropertyOp30
 70
     1
102
RTVSPropertyOp31
 70
     1
102
RTVSPropertyOp32
 70
     1
102
RTVSPropertyOp33
 70
     1
102
RTVSPropertyOp34
 70
     1
102
RTVSPropertyOp35
 70
     1
102
RTVSPropertyOp36
 70
     1
102
RTVSPropertyOp37
 70
     1
102
RTVSPropertyOp38
 70
     1
102
RTVSPropertyOp39
 70
     1
102
RTVSPropertyOp40
 70
     1
102
RTVSPropertyOp41
 70
     1
102
RTVSPropertyOp42
 70
     1
102
RTVSPropertyOp43
 70
     1
102
RTVSPropertyOp44
 70
     1
102
RTVSPropertyOp45
 70
     1
102
RTVSPropertyOp46
 70
     1
102
RTVSPropertyOp47
 70
     1
102
RTVSPropertyOp48
 70
     1
102
RTVSPropertyOp49
 70
     1
102
RTVSPropertyOp50
 70
     1
102
RTVSPropertyOp51
 70
     0
102
RTVSPropertyOp52
 70
     0
102
RTVSPropertyOp53
 70
     1
102
RTVSPropertyOp54
 70
     1
102
RTVSPropertyOp55
 70
     1
102
RTVSPropertyOp56
 70
     1
102
RTVSPropertyOp57
 70
     1
102
RTVSPropertyOp58
 70
     1
102
RTVSPropertyOp59
 70
     1
102
RTVSPropertyOp60
 70
     1
102
RTVSPropertyOp61
 70
     1
102
RTVSPropertyOp62
 70
     1
  0
XRECORD
  5
394
102
{ACAD_REACTORS
330
393
102
}
330
393
100
AcDbXrecord
280
     1
102
RTVSPost2010Prop28
280
     0
102
RTVSPost2010PropOp28
 70
     1
102
RTVSPost2010Prop29
280
     1
102
RTVSPost2010PropOp29
 70
     1
102
RTVSPost2010Prop30
280
     1
102
RTVSPost2010PropOp30
 70
     1
102
RTVSPost2010Prop31
280
     0
102
RTVSPost2010PropOp31
 70
     1
102
RTVSPost2010Prop32
280
     0
102
RTVSPost2010PropOp32
 70
     1
102
RTVSPost2010Prop33
280
     0
102
RTVSPost2010PropOp33
 70
     1
102
RTVSPost2010Prop34
280
     0
102
RTVSPost2010PropOp34
 70
     1
102
RTVSPost2010Prop35
280
     0
102
RTVSPost2010PropOp35
 70
     1
102
RTVSPost2010Prop36
280
     0
102
RTVSPost2010PropOp36
 70
     1
102
RTVSPost2010Prop37
 90
       50
102
RTVSPost2010PropOp37
 70
     1
102
RTVSPost2010Prop38
140
0.0
102
RTVSPost2010PropOp38
 70
     1
102
RTVSPost2010Prop39
140
1.0
102
RTVSPost2010PropOp39
 70
     1
102
RTVSPost2010Prop40
 90
        0
102
RTVSPost2010PropOp40
 70
     1
102
RTVSPost2010Prop41ColorIndex
 90
       18
102
RTVSPost2010Prop41ColorRGB
 90
        0
102
RTVSPost2010PropOp41
 70
     1
102
RTVSPost2010Prop42
 90
       50
102
RTVSPost2010PropOp42
 70
     1
102
RTVSPost2010Prop43
 90
        3
102
RTVSPost2010PropOp43
 70
     1
102
RTVSPost2010Prop44ColorIndex
 90
        5
102
RTVSPost2010Prop44ColorRGB
 90
      255
102
RTVSPost2010PropOp44
 70
     1
102
RTVSPost2010Prop45
280
     0
102
RTVSPost2010PropOp45
 70
     1
102
RTVSPost2010Prop46
 90
       50
102
RTVSPost2010PropOp46
 70
     1
102
RTVSPost2010Prop47
 90
       50
102
RTVSPost2010PropOp47
 70
     1
102
RTVSPost2010Prop48
 90
       50
102
RTVSPost2010PropOp48
 70
     1
102
RTVSPost2010Prop49
280
     0
102
RTVSPost2010PropOp49
 70
     1
102
RTVSPost2010Prop50
 90
       50
102
RTVSPost2010PropOp50
 70
     1
102
RTVSPost2010Prop51ColorIndex
 90
      256
102
RTVSPost2010Prop51ColorRGB
 90
-16777216
102
RTVSPost2010PropOp51
 70
     0
102
RTVSPost2010Prop52
140
1.0
102
RTVSPost2010PropOp52
 70
     0
102
RTVSPost2010Prop53
 90
        2
102
RTVSPost2010PropOp53
 70
     1
102
RTVSPost2010Prop54
  1
strokes_ogs.tif
102
RTVSPost2010PropOp54
 70
     1
102
RTVSPost2010Prop55
280
     0
102
RTVSPost2010PropOp55
 70
     1
102
RTVSPost2010Prop56
140
1.0
102
RTVSPost2010PropOp56
 70
     1
102
RTVSPost2010Prop57
140
1.0
102
RTVSPost2010PropOp57
 70
     1
102
RTVSPropertyOp0
 70
     1
102
RTVSPropertyOp1
 70
     1
102
RTVSPropertyOp2
 70
     1
102
RTVSPropertyOp3
 70
     1
102
RTVSPropertyOp4
 70
     1
102
RTVSPropertyOp5
 70
     1
102
RTVSPropertyOp6
 70
     1
102
RTVSPropertyOp7
 70
     1
102
RTVSPropertyOp8
 70
     1
102
RTVSPropertyOp9
 70
     1
102
RTVSPropertyOp10
 70
     1
102
RTVSPropertyOp11
 70
     1
102
RTVSPropertyOp12
 70
     1
102
RTVSPropertyOp13
 70
     1
102
RTVSPropertyOp14
 70
     1
102
RTVSPropertyOp15
 70
     1
102
RTVSPropertyOp16
 70
     1
102
RTVSPropertyOp17
 70
     1
102
RTVSPropertyOp18
 70
     1
102
RTVSPropertyOp19
 70
     1
102
RTVSPropertyOp20
 70
     1
102
RTVSPropertyOp21
 70
     1
102
RTVSPropertyOp22
 70
     1
102
RTVSPropertyOp23
 70
     1
102
RTVSPropertyOp24
 70
     1
102
RTVSPropertyOp25
 70
     1
102
RTVSPropertyOp26
 70
     1
102
RTVSPropertyOp27
 70
     1
102
RTVSPropertyOp28
 70
     1
102
RTVSPropertyOp29
 70
     1
102
RTVSPropertyOp30
 70
     1
102
RTVSPropertyOp31
 70
     1
102
RTVSPropertyOp32
 70
     1
102
RTVSPropertyOp33
 70
     1
102
RTVSPropertyOp34
 70
     1
102
RTVSPropertyOp35
 70
     1
102
RTVSPropertyOp36
 70
     1
102
RTVSPropertyOp37
 70
     1
102
RTVSPropertyOp38
 70
     1
102
RTVSPropertyOp39
 70
     1
102
RTVSPropertyOp40
 70
     1
102
RTVSPropertyOp41
 70
     1
102
RTVSPropertyOp42
 70
     1
102
RTVSPropertyOp43
 70
     1
102
RTVSPropertyOp44
 70
     1
102
RTVSPropertyOp45
 70
     1
102
RTVSPropertyOp46
 70
     1
102
RTVSPropertyOp47
 70
     1
102
RTVSPropertyOp48
 70
     1
102
RTVSPropertyOp49
 70
     1
102
RTVSPropertyOp50
 70
     1
102
RTVSPropertyOp51
 70
     0
102
RTVSPropertyOp52
 70
     0
102
RTVSPropertyOp53
 70
     1
102
RTVSPropertyOp54
 70
     1
102
RTVSPropertyOp55
 70
     1
102
RTVSPropertyOp56
 70
     1
102
RTVSPropertyOp57
 70
     1
102
RTVSPropertyOp58
 70
     1
102
RTVSPropertyOp59
 70
     1
102
RTVSPropertyOp60
 70
     1
102
RTVSPropertyOp61
 70
     1
102
RTVSPropertyOp62
 70
     1
  0
XRECORD
  5
396
102
{ACAD_REACTORS
330
395
102
}
330
395
100
AcDbXrecord
280
     1
102
RTVSPost2010Prop28
280
     0
102
RTVSPost2010PropOp28
 70
     1
102
RTVSPost2010Prop29
280
     1
102
RTVSPost2010PropOp29
 70
     1
102
RTVSPost2010Prop30
280
     1
102
RTVSPost2010PropOp30
 70
     1
102
RTVSPost2010Prop31
280
     0
102
RTVSPost2010PropOp31
 70
     1
102
RTVSPost2010Prop32
280
     0
102
RTVSPost2010PropOp32
 70
     1
102
RTVSPost2010Prop33
280
     0
102
RTVSPost2010PropOp33
 70
     1
102
RTVSPost2010Prop34
280
     0
102
RTVSPost2010PropOp34
 70
     1
102
RTVSPost2010Prop35
280
     0
102
RTVSPost2010PropOp35
 70
     1
102
RTVSPost2010Prop36
280
     0
102
RTVSPost2010PropOp36
 70
     1
102
RTVSPost2010Prop37
 90
       50
102
RTVSPost2010PropOp37
 70
     1
102
RTVSPost2010Prop38
140
0.0
102
RTVSPost2010PropOp38
 70
     1
102
RTVSPost2010Prop39
140
1.0
102
RTVSPost2010PropOp39
 70
     1
102
RTVSPost2010Prop40
 90
        0
102
RTVSPost2010PropOp40
 70
     1
102
RTVSPost2010Prop41ColorIndex
 90
       18
102
RTVSPost2010Prop41ColorRGB
 90
        0
102
RTVSPost2010PropOp41
 70
     1
102
RTVSPost2010Prop42
 90
       50
102
RTVSPost2010PropOp42
 70
     1
102
RTVSPost2010Prop43
 90
        3
102
RTVSPost2010PropOp43
 70
     1
102
RTVSPost2010Prop44ColorIndex
 90
        5
102
RTVSPost2010Prop44ColorRGB
 90
      255
102
RTVSPost2010PropOp44
 70
     1
102
RTVSPost2010Prop45
280
     0
102
RTVSPost2010PropOp45
 70
     1
102
RTVSPost2010Prop46
 90
       50
102
RTVSPost2010PropOp46
 70
     1
102
RTVSPost2010Prop47
 90
       50
102
RTVSPost2010PropOp47
 70
     1
102
RTVSPost2010Prop48
 90
       50
102
RTVSPost2010PropOp48
 70
     1
102
RTVSPost2010Prop49
280
     0
102
RTVSPost2010PropOp49
 70
     1
102
RTVSPost2010Prop50
 90
       50
102
RTVSPost2010PropOp50
 70
     1
102
RTVSPost2010Prop51ColorIndex
 90
      256
102
RTVSPost2010Prop51ColorRGB
 90
-16777216
102
RTVSPost2010PropOp51
 70
     0
102
RTVSPost2010Prop52
140
1.0
102
RTVSPost2010PropOp52
 70
     0
102
RTVSPost2010Prop53
 90
        2
102
RTVSPost2010PropOp53
 70
     1
102
RTVSPost2010Prop54
  1
strokes_ogs.tif
102
RTVSPost2010PropOp54
 70
     1
102
RTVSPost2010Prop55
280
     0
102
RTVSPost2010PropOp55
 70
     1
102
RTVSPost2010Prop56
140
1.0
102
RTVSPost2010PropOp56
 70
     1
102
RTVSPost2010Prop57
140
1.0
102
RTVSPost2010PropOp57
 70
     1
102
RTVSPropertyOp0
 70
     1
102
RTVSPropertyOp1
 70
     1
102
RTVSPropertyOp2
 70
     1
102
RTVSPropertyOp3
 70
     1
102
RTVSPropertyOp4
 70
     1
102
RTVSPropertyOp5
 70
     1
102
RTVSPropertyOp6
 70
     1
102
RTVSPropertyOp7
 70
     1
102
RTVSPropertyOp8
 70
     1
102
RTVSPropertyOp9
 70
     1
102
RTVSPropertyOp10
 70
     1
102
RTVSPropertyOp11
 70
     1
102
RTVSPropertyOp12
 70
     1
102
RTVSPropertyOp13
 70
     1
102
RTVSPropertyOp14
 70
     1
102
RTVSPropertyOp15
 70
     1
102
RTVSPropertyOp16
 70
     1
102
RTVSPropertyOp17
 70
     1
102
RTVSPropertyOp18
 70
     1
102
RTVSPropertyOp19
 70
     1
102
RTVSPropertyOp20
 70
     1
102
RTVSPropertyOp21
 70
     1
102
RTVSPropertyOp22
 70
     1
102
RTVSPropertyOp23
 70
     1
102
RTVSPropertyOp24
 70
     1
102
RTVSPropertyOp25
 70
     1
102
RTVSPropertyOp26
 70
     1
102
RTVSPropertyOp27
 70
     1
102
RTVSPropertyOp28
 70
     1
102
RTVSPropertyOp29
 70
     1
102
RTVSPropertyOp30
 70
     1
102
RTVSPropertyOp31
 70
     1
102
RTVSPropertyOp32
 70
     1
102
RTVSPropertyOp33
 70
     1
102
RTVSPropertyOp34
 70
     1
102
RTVSPropertyOp35
 70
     1
102
RTVSPropertyOp36
 70
     1
102
RTVSPropertyOp37
 70
     1
102
RTVSPropertyOp38
 70
     1
102
RTVSPropertyOp39
 70
     1
102
RTVSPropertyOp40
 70
     1
102
RTVSPropertyOp41
 70
     1
102
RTVSPropertyOp42
 70
     1
102
RTVSPropertyOp43
 70
     1
102
RTVSPropertyOp44
 70
     1
102
RTVSPropertyOp45
 70
     1
102
RTVSPropertyOp46
 70
     1
102
RTVSPropertyOp47
 70
     1
102
RTVSPropertyOp48
 70
     1
102
RTVSPropertyOp49
 70
     1
102
RTVSPropertyOp50
 70
     1
102
RTVSPropertyOp51
 70
     0
102
RTVSPropertyOp52
 70
     0
102
RTVSPropertyOp53
 70
     1
102
RTVSPropertyOp54
 70
     1
102
RTVSPropertyOp55
 70
     1
102
RTVSPropertyOp56
 70
     1
102
RTVSPropertyOp57
 70
     1
102
RTVSPropertyOp58
 70
     1
102
RTVSPropertyOp59
 70
     1
102
RTVSPropertyOp60
 70
     1
102
RTVSPropertyOp61
 70
     1
102
RTVSPropertyOp62
 70
     1
  0
XRECORD
  5
3A6
102
{ACAD_REACTORS
330
3A5
102
}
330
3A5
100
AcDbXrecord
280
     1
102
RTVSPost2010Prop28
280
     0
102
RTVSPost2010PropOp28
 70
     0
102
RTVSPost2010Prop29
280
     1
102
RTVSPost2010PropOp29
 70
     0
102
RTVSPost2010Prop30
280
     1
102
RTVSPost2010PropOp30
 70
     0
102
RTVSPost2010Prop31
280
     0
102
RTVSPost2010PropOp31
 70
     0
102
RTVSPost2010Prop32
280
     0
102
RTVSPost2010PropOp32
 70
     0
102
RTVSPost2010Prop33
280
     0
102
RTVSPost2010PropOp33
 70
     0
102
RTVSPost2010Prop34
280
     0
102
RTVSPost2010PropOp34
 70
     0
102
RTVSPost2010Prop35
280
     0
102
RTVSPost2010PropOp35
 70
     0
102
RTVSPost2010Prop36
280
     0
102
RTVSPost2010PropOp36
 70
     0
102
RTVSPost2010Prop37
 90
       50
102
RTVSPost2010PropOp37
 70
     0
102
RTVSPost2010Prop38
140
0.0
102
RTVSPost2010PropOp38
 70
     0
102
RTVSPost2010Prop39
140
1.0
102
RTVSPost2010PropOp39
 70
     0
102
RTVSPost2010Prop40
 90
        0
102
RTVSPost2010PropOp40
 70
     0
102
RTVSPost2010Prop41ColorIndex
 90
       18
102
RTVSPost2010Prop41ColorRGB
 90
        0
102
RTVSPost2010PropOp41
 70
     0
102
RTVSPost2010Prop42
 90
       50
102
RTVSPost2010PropOp42
 70
     0
102
RTVSPost2010Prop43
 90
        3
102
RTVSPost2010PropOp43
 70
     0
102
RTVSPost2010Prop44ColorIndex
 90
        5
102
RTVSPost2010Prop44ColorRGB
 90
      255
102
RTVSPost2010PropOp44
 70
     0
102
RTVSPost2010Prop45
280
     0
102
RTVSPost2010PropOp45
 70
     0
102
RTVSPost2010Prop46
 90
       50
102
RTVSPost2010PropOp46
 70
     0
102
RTVSPost2010Prop47
 90
       50
102
RTVSPost2010PropOp47
 70
     0
102
RTVSPost2010Prop48
 90
       50
102
RTVSPost2010PropOp48
 70
     0
102
RTVSPost2010Prop49
280
     0
102
RTVSPost2010PropOp49
 70
     0
102
RTVSPost2010Prop50
 90
       50
102
RTVSPost2010PropOp50
 70
     0
102
RTVSPost2010Prop51ColorIndex
 90
      256
102
RTVSPost2010Prop51ColorRGB
 90
-16777216
102
RTVSPost2010PropOp51
 70
     0
102
RTVSPost2010Prop52
140
1.0
102
RTVSPost2010PropOp52
 70
     0
102
RTVSPost2010Prop53
 90
        2
102
RTVSPost2010PropOp53
 70
     0
102
RTVSPost2010Prop54
  1
strokes_ogs.tif
102
RTVSPost2010PropOp54
 70
     0
102
RTVSPost2010Prop55
280
     0
102
RTVSPost2010PropOp55
 70
     0
102
RTVSPost2010Prop56
140
1.0
102
RTVSPost2010PropOp56
 70
     0
102
RTVSPost2010Prop57
140
1.0
102
RTVSPost2010PropOp57
 70
     0
102
RTVSPropertyOp0
 70
     0
102
RTVSPropertyOp1
 70
     0
102
RTVSPropertyOp2
 70
     0
102
RTVSPropertyOp3
 70
     0
102
RTVSPropertyOp4
 70
     0
102
RTVSPropertyOp5
 70
     0
102
RTVSPropertyOp6
 70
     0
102
RTVSPropertyOp7
 70
     0
102
RTVSPropertyOp8
 70
     0
102
RTVSPropertyOp9
 70
     0
102
RTVSPropertyOp10
 70
     0
102
RTVSPropertyOp11
 70
     0
102
RTVSPropertyOp12
 70
     0
102
RTVSPropertyOp13
 70
     0
102
RTVSPropertyOp14
 70
     2
102
RTVSPropertyOp15
 70
     0
102
RTVSPropertyOp16
 70
     0
102
RTVSPropertyOp17
 70
     0
102
RTVSPropertyOp18
 70
     0
102
RTVSPropertyOp19
 70
     0
102
RTVSPropertyOp20
 70
     0
102
RTVSPropertyOp21
 70
     0
102
RTVSPropertyOp22
 70
     0
102
RTVSPropertyOp23
 70
     0
102
RTVSPropertyOp24
 70
     0
102
RTVSPropertyOp25
 70
     0
102
RTVSPropertyOp26
 70
     0
102
RTVSPropertyOp27
 70
     0
102
RTVSPropertyOp28
 70
     0
102
RTVSPropertyOp29
 70
     0
102
RTVSPropertyOp30
 70
     0
102
RTVSPropertyOp31
 70
     0
102
RTVSPropertyOp32
 70
     0
102
RTVSPropertyOp33
 70
     0
102
RTVSPropertyOp34
 70
     0
102
RTVSPropertyOp35
 70
     0
102
RTVSPropertyOp36
 70
     0
102
RTVSPropertyOp37
 70
     0
102
RTVSPropertyOp38
 70
     0
102
RTVSPropertyOp39
 70
     0
102
RTVSPropertyOp40
 70
     0
102
RTVSPropertyOp41
 70
     0
102
RTVSPropertyOp42
 70
     0
102
RTVSPropertyOp43
 70
     0
102
RTVSPropertyOp44
 70
     0
102
RTVSPropertyOp45
 70
     0
102
RTVSPropertyOp46
 70
     0
102
RTVSPropertyOp47
 70
     0
102
RTVSPropertyOp48
 70
     0
102
RTVSPropertyOp49
 70
     0
102
RTVSPropertyOp50
 70
     0
102
RTVSPropertyOp51
 70
     0
102
RTVSPropertyOp52
 70
     0
102
RTVSPropertyOp53
 70
     0
102
RTVSPropertyOp54
 70
     0
102
RTVSPropertyOp55
 70
     0
102
RTVSPropertyOp56
 70
     0
102
RTVSPropertyOp57
 70
     0
102
RTVSPropertyOp58
 70
     1
102
RTVSPropertyOp59
 70
     1
102
RTVSPropertyOp60
 70
     1
102
RTVSPropertyOp61
 70
     1
102
RTVSPropertyOp62
 70
     1
  0
XRECORD
  5
39E
102
{ACAD_REACTORS
330
39D
102
}
330
39D
100
AcDbXrecord
280
     1
102
RTVSPost2010Prop28
280
     0
102
RTVSPost2010PropOp28
 70
     1
102
RTVSPost2010Prop29
280
     1
102
RTVSPost2010PropOp29
 70
     1
102
RTVSPost2010Prop30
280
     1
102
RTVSPost2010PropOp30
 70
     1
102
RTVSPost2010Prop31
280
     0
102
RTVSPost2010PropOp31
 70
     1
102
RTVSPost2010Prop32
280
     0
102
RTVSPost2010PropOp32
 70
     1
102
RTVSPost2010Prop33
280
     0
102
RTVSPost2010PropOp33
 70
     1
102
RTVSPost2010Prop34
280
     0
102
RTVSPost2010PropOp34
 70
     1
102
RTVSPost2010Prop35
280
     0
102
RTVSPost2010PropOp35
 70
     1
102
RTVSPost2010Prop36
280
     0
102
RTVSPost2010PropOp36
 70
     1
102
RTVSPost2010Prop37
 90
       50
102
RTVSPost2010PropOp37
 70
     1
102
RTVSPost2010Prop38
140
0.0
102
RTVSPost2010PropOp38
 70
     1
102
RTVSPost2010Prop39
140
1.0
102
RTVSPost2010PropOp39
 70
     1
102
RTVSPost2010Prop40
 90
        0
102
RTVSPost2010PropOp40
 70
     1
102
RTVSPost2010Prop41ColorIndex
 90
       18
102
RTVSPost2010Prop41ColorRGB
 90
        0
102
RTVSPost2010PropOp41
 70
     1
102
RTVSPost2010Prop42
 90
       50
102
RTVSPost2010PropOp42
 70
     1
102
RTVSPost2010Prop43
 90
        3
102
RTVSPost2010PropOp43
 70
     1
102
RTVSPost2010Prop44ColorIndex
 90
        5
102
RTVSPost2010Prop44ColorRGB
 90
      255
102
RTVSPost2010PropOp44
 70
     1
102
RTVSPost2010Prop45
280
     0
102
RTVSPost2010PropOp45
 70
     1
102
RTVSPost2010Prop46
 90
       50
102
RTVSPost2010PropOp46
 70
     1
102
RTVSPost2010Prop47
 90
       50
102
RTVSPost2010PropOp47
 70
     1
102
RTVSPost2010Prop48
 90
       50
102
RTVSPost2010PropOp48
 70
     1
102
RTVSPost2010Prop49
280
     0
102
RTVSPost2010PropOp49
 70
     1
102
RTVSPost2010Prop50
 90
       50
102
RTVSPost2010PropOp50
 70
     1
102
RTVSPost2010Prop51ColorIndex
 90
      256
102
RTVSPost2010Prop51ColorRGB
 90
-16777216
102
RTVSPost2010PropOp51
 70
     0
102
RTVSPost2010Prop52
140
1.0
102
RTVSPost2010PropOp52
 70
     0
102
RTVSPost2010Prop53
 90
        2
102
RTVSPost2010PropOp53
 70
     1
102
RTVSPost2010Prop54
  1
strokes_ogs.tif
102
RTVSPost2010PropOp54
 70
     1
102
RTVSPost2010Prop55
280
     0
102
RTVSPost2010PropOp55
 70
     1
102
RTVSPost2010Prop56
140
1.0
102
RTVSPost2010PropOp56
 70
     1
102
RTVSPost2010Prop57
140
1.0
102
RTVSPost2010PropOp57
 70
     1
102
RTVSPropertyOp0
 70
     1
102
RTVSPropertyOp1
 70
     1
102
RTVSPropertyOp2
 70
     1
102
RTVSPropertyOp3
 70
     1
102
RTVSPropertyOp4
 70
     1
102
RTVSPropertyOp5
 70
     1
102
RTVSPropertyOp6
 70
     1
102
RTVSPropertyOp7
 70
     1
102
RTVSPropertyOp8
 70
     1
102
RTVSPropertyOp9
 70
     1
102
RTVSPropertyOp10
 70
     1
102
RTVSPropertyOp11
 70
     1
102
RTVSPropertyOp12
 70
     1
102
RTVSPropertyOp13
 70
     1
102
RTVSPropertyOp14
 70
     1
102
RTVSPropertyOp15
 70
     1
102
RTVSPropertyOp16
 70
     1
102
RTVSPropertyOp17
 70
     1
102
RTVSPropertyOp18
 70
     1
102
RTVSPropertyOp19
 70
     1
102
RTVSPropertyOp20
 70
     1
102
RTVSPropertyOp21
 70
     1
102
RTVSPropertyOp22
 70
     1
102
RTVSPropertyOp23
 70
     1
102
RTVSPropertyOp24
 70
     1
102
RTVSPropertyOp25
 70
     1
102
RTVSPropertyOp26
 70
     1
102
RTVSPropertyOp27
 70
     1
102
RTVSPropertyOp28
 70
     1
102
RTVSPropertyOp29
 70
     1
102
RTVSPropertyOp30
 70
     1
102
RTVSPropertyOp31
 70
     1
102
RTVSPropertyOp32
 70
     1
102
RTVSPropertyOp33
 70
     1
102
RTVSPropertyOp34
 70
     1
102
RTVSPropertyOp35
 70
     1
102
RTVSPropertyOp36
 70
     1
102
RTVSPropertyOp37
 70
     1
102
RTVSPropertyOp38
 70
     1
102
RTVSPropertyOp39
 70
     1
102
RTVSPropertyOp40
 70
     1
102
RTVSPropertyOp41
 70
     1
102
RTVSPropertyOp42
 70
     1
102
RTVSPropertyOp43
 70
     1
102
RTVSPropertyOp44
 70
     1
102
RTVSPropertyOp45
 70
     1
102
RTVSPropertyOp46
 70
     1
102
RTVSPropertyOp47
 70
     1
102
RTVSPropertyOp48
 70
     1
102
RTVSPropertyOp49
 70
     1
102
RTVSPropertyOp50
 70
     1
102
RTVSPropertyOp51
 70
     0
102
RTVSPropertyOp52
 70
     0
102
RTVSPropertyOp53
 70
     1
102
RTVSPropertyOp54
 70
     1
102
RTVSPropertyOp55
 70
     1
102
RTVSPropertyOp56
 70
     1
102
RTVSPropertyOp57
 70
     1
102
RTVSPropertyOp58
 70
     1
102
RTVSPropertyOp59
 70
     1
102
RTVSPropertyOp60
 70
     1
102
RTVSPropertyOp61
 70
     1
102
RTVSPropertyOp62
 70
     1
  0
XRECORD
  5
382
102
{ACAD_REACTORS
330
381
102
}
330
381
100
AcDbXrecord
280
     1
102
RTVSPost2010Prop28
280
     0
102
RTVSPost2010PropOp28
 70
     1
102
RTVSPost2010Prop29
280
     1
102
RTVSPost2010PropOp29
 70
     1
102
RTVSPost2010Prop30
280
     1
102
RTVSPost2010PropOp30
 70
     1
102
RTVSPost2010Prop31
280
     0
102
RTVSPost2010PropOp31
 70
     1
102
RTVSPost2010Prop32
280
     0
102
RTVSPost2010PropOp32
 70
     1
102
RTVSPost2010Prop33
280
     0
102
RTVSPost2010PropOp33
 70
     1
102
RTVSPost2010Prop34
280
     0
102
RTVSPost2010PropOp34
 70
     1
102
RTVSPost2010Prop35
280
     0
102
RTVSPost2010PropOp35
 70
     1
102
RTVSPost2010Prop36
280
     0
102
RTVSPost2010PropOp36
 70
     1
102
RTVSPost2010Prop37
 90
       50
102
RTVSPost2010PropOp37
 70
     1
102
RTVSPost2010Prop38
140
0.0
102
RTVSPost2010PropOp38
 70
     1
102
RTVSPost2010Prop39
140
1.0
102
RTVSPost2010PropOp39
 70
     1
102
RTVSPost2010Prop40
 90
        0
102
RTVSPost2010PropOp40
 70
     1
102
RTVSPost2010Prop41ColorIndex
 90
       18
102
RTVSPost2010Prop41ColorRGB
 90
        0
102
RTVSPost2010PropOp41
 70
     1
102
RTVSPost2010Prop42
 90
       50
102
RTVSPost2010PropOp42
 70
     1
102
RTVSPost2010Prop43
 90
        3
102
RTVSPost2010PropOp43
 70
     1
102
RTVSPost2010Prop44ColorIndex
 90
        5
102
RTVSPost2010Prop44ColorRGB
 90
      255
102
RTVSPost2010PropOp44
 70
     1
102
RTVSPost2010Prop45
280
     0
102
RTVSPost2010PropOp45
 70
     1
102
RTVSPost2010Prop46
 90
       50
102
RTVSPost2010PropOp46
 70
     1
102
RTVSPost2010Prop47
 90
       50
102
RTVSPost2010PropOp47
 70
     1
102
RTVSPost2010Prop48
 90
       50
102
RTVSPost2010PropOp48
 70
     1
102
RTVSPost2010Prop49
280
     0
102
RTVSPost2010PropOp49
 70
     1
102
RTVSPost2010Prop50
 90
       50
102
RTVSPost2010PropOp50
 70
     1
102
RTVSPost2010Prop51ColorIndex
 90
      256
102
RTVSPost2010Prop51ColorRGB
 90
-16777216
102
RTVSPost2010PropOp51
 70
     0
102
RTVSPost2010Prop52
140
1.0
102
RTVSPost2010PropOp52
 70
     0
102
RTVSPost2010Prop53
 90
        2
102
RTVSPost2010PropOp53
 70
     1
102
RTVSPost2010Prop54
  1
strokes_ogs.tif
102
RTVSPost2010PropOp54
 70
     1
102
RTVSPost2010Prop55
280
     0
102
RTVSPost2010PropOp55
 70
     1
102
RTVSPost2010Prop56
140
1.0
102
RTVSPost2010PropOp56
 70
     1
102
RTVSPost2010Prop57
140
1.0
102
RTVSPost2010PropOp57
 70
     1
102
RTVSPropertyOp0
 70
     1
102
RTVSPropertyOp1
 70
     1
102
RTVSPropertyOp2
 70
     1
102
RTVSPropertyOp3
 70
     1
102
RTVSPropertyOp4
 70
     1
102
RTVSPropertyOp5
 70
     1
102
RTVSPropertyOp6
 70
     1
102
RTVSPropertyOp7
 70
     1
102
RTVSPropertyOp8
 70
     1
102
RTVSPropertyOp9
 70
     1
102
RTVSPropertyOp10
 70
     1
102
RTVSPropertyOp11
 70
     1
102
RTVSPropertyOp12
 70
     1
102
RTVSPropertyOp13
 70
     1
102
RTVSPropertyOp14
 70
     1
102
RTVSPropertyOp15
 70
     1
102
RTVSPropertyOp16
 70
     1
102
RTVSPropertyOp17
 70
     1
102
RTVSPropertyOp18
 70
     1
102
RTVSPropertyOp19
 70
     1
102
RTVSPropertyOp20
 70
     1
102
RTVSPropertyOp21
 70
     1
102
RTVSPropertyOp22
 70
     1
102
RTVSPropertyOp23
 70
     1
102
RTVSPropertyOp24
 70
     1
102
RTVSPropertyOp25
 70
     1
102
RTVSPropertyOp26
 70
     1
102
RTVSPropertyOp27
 70
     1
102
RTVSPropertyOp28
 70
     1
102
RTVSPropertyOp29
 70
     1
102
RTVSPropertyOp30
 70
     1
102
RTVSPropertyOp31
 70
     1
102
RTVSPropertyOp32
 70
     1
102
RTVSPropertyOp33
 70
     1
102
RTVSPropertyOp34
 70
     1
102
RTVSPropertyOp35
 70
     1
102
RTVSPropertyOp36
 70
     1
102
RTVSPropertyOp37
 70
     1
102
RTVSPropertyOp38
 70
     1
102
RTVSPropertyOp39
 70
     1
102
RTVSPropertyOp40
 70
     1
102
RTVSPropertyOp41
 70
     1
102
RTVSPropertyOp42
 70
     1
102
RTVSPropertyOp43
 70
     1
102
RTVSPropertyOp44
 70
     1
102
RTVSPropertyOp45
 70
     1
102
RTVSPropertyOp46
 70
     1
102
RTVSPropertyOp47
 70
     1
102
RTVSPropertyOp48
 70
     1
102
RTVSPropertyOp49
 70
     1
102
RTVSPropertyOp50
 70
     1
102
RTVSPropertyOp51
 70
     0
102
RTVSPropertyOp52
 70
     0
102
RTVSPropertyOp53
 70
     1
102
RTVSPropertyOp54
 70
     1
102
RTVSPropertyOp55
 70
     1
102
RTVSPropertyOp56
 70
     1
102
RTVSPropertyOp57
 70
     1
102
RTVSPropertyOp58
 70
     1
102
RTVSPropertyOp59
 70
     1
102
RTVSPropertyOp60
 70
     1
102
RTVSPropertyOp61
 70
     1
102
RTVSPropertyOp62
 70
     1
  0
XRECORD
  5
384
102
{ACAD_REACTORS
330
383
102
}
330
383
100
AcDbXrecord
280
     1
102
RTVSPost2010Prop28
280
     0
102
RTVSPost2010PropOp28
 70
     1
102
RTVSPost2010Prop29
280
     1
102
RTVSPost2010PropOp29
 70
     1
102
RTVSPost2010Prop30
280
     1
102
RTVSPost2010PropOp30
 70
     1
102
RTVSPost2010Prop31
280
     0
102
RTVSPost2010PropOp31
 70
     1
102
RTVSPost2010Prop32
280
     0
102
RTVSPost2010PropOp32
 70
     1
102
RTVSPost2010Prop33
280
     0
102
RTVSPost2010PropOp33
 70
     1
102
RTVSPost2010Prop34
280
     0
102
RTVSPost2010PropOp34
 70
     1
102
RTVSPost2010Prop35
280
     0
102
RTVSPost2010PropOp35
 70
     1
102
RTVSPost2010Prop36
280
     0
102
RTVSPost2010PropOp36
 70
     1
102
RTVSPost2010Prop37
 90
       50
102
RTVSPost2010PropOp37
 70
     1
102
RTVSPost2010Prop38
140
0.0
102
RTVSPost2010PropOp38
 70
     1
102
RTVSPost2010Prop39
140
1.0
102
RTVSPost2010PropOp39
 70
     1
102
RTVSPost2010Prop40
 90
        0
102
RTVSPost2010PropOp40
 70
     1
102
RTVSPost2010Prop41ColorIndex
 90
       18
102
RTVSPost2010Prop41ColorRGB
 90
        0
102
RTVSPost2010PropOp41
 70
     1
102
RTVSPost2010Prop42
 90
       50
102
RTVSPost2010PropOp42
 70
     1
102
RTVSPost2010Prop43
 90
        3
102
RTVSPost2010PropOp43
 70
     1
102
RTVSPost2010Prop44ColorIndex
 90
        5
102
RTVSPost2010Prop44ColorRGB
 90
      255
102
RTVSPost2010PropOp44
 70
     1
102
RTVSPost2010Prop45
280
     0
102
RTVSPost2010PropOp45
 70
     1
102
RTVSPost2010Prop46
 90
       50
102
RTVSPost2010PropOp46
 70
     1
102
RTVSPost2010Prop47
 90
       50
102
RTVSPost2010PropOp47
 70
     1
102
RTVSPost2010Prop48
 90
       50
102
RTVSPost2010PropOp48
 70
     1
102
RTVSPost2010Prop49
280
     0
102
RTVSPost2010PropOp49
 70
     1
102
RTVSPost2010Prop50
 90
       50
102
RTVSPost2010PropOp50
 70
     1
102
RTVSPost2010Prop51ColorIndex
 90
      256
102
RTVSPost2010Prop51ColorRGB
 90
-16777216
102
RTVSPost2010PropOp51
 70
     0
102
RTVSPost2010Prop52
140
1.0
102
RTVSPost2010PropOp52
 70
     0
102
RTVSPost2010Prop53
 90
        2
102
RTVSPost2010PropOp53
 70
     1
102
RTVSPost2010Prop54
  1
strokes_ogs.tif
102
RTVSPost2010PropOp54
 70
     1
102
RTVSPost2010Prop55
280
     0
102
RTVSPost2010PropOp55
 70
     1
102
RTVSPost2010Prop56
140
1.0
102
RTVSPost2010PropOp56
 70
     1
102
RTVSPost2010Prop57
140
1.0
102
RTVSPost2010PropOp57
 70
     1
102
RTVSPropertyOp0
 70
     1
102
RTVSPropertyOp1
 70
     1
102
RTVSPropertyOp2
 70
     1
102
RTVSPropertyOp3
 70
     1
102
RTVSPropertyOp4
 70
     1
102
RTVSPropertyOp5
 70
     1
102
RTVSPropertyOp6
 70
     1
102
RTVSPropertyOp7
 70
     1
102
RTVSPropertyOp8
 70
     1
102
RTVSPropertyOp9
 70
     1
102
RTVSPropertyOp10
 70
     1
102
RTVSPropertyOp11
 70
     1
102
RTVSPropertyOp12
 70
     1
102
RTVSPropertyOp13
 70
     1
102
RTVSPropertyOp14
 70
     1
102
RTVSPropertyOp15
 70
     1
102
RTVSPropertyOp16
 70
     1
102
RTVSPropertyOp17
 70
     1
102
RTVSPropertyOp18
 70
     1
102
RTVSPropertyOp19
 70
     1
102
RTVSPropertyOp20
 70
     1
102
RTVSPropertyOp21
 70
     1
102
RTVSPropertyOp22
 70
     1
102
RTVSPropertyOp23
 70
     1
102
RTVSPropertyOp24
 70
     1
102
RTVSPropertyOp25
 70
     1
102
RTVSPropertyOp26
 70
     1
102
RTVSPropertyOp27
 70
     1
102
RTVSPropertyOp28
 70
     1
102
RTVSPropertyOp29
 70
     1
102
RTVSPropertyOp30
 70
     1
102
RTVSPropertyOp31
 70
     1
102
RTVSPropertyOp32
 70
     1
102
RTVSPropertyOp33
 70
     1
102
RTVSPropertyOp34
 70
     1
102
RTVSPropertyOp35
 70
     1
102
RTVSPropertyOp36
 70
     1
102
RTVSPropertyOp37
 70
     1
102
RTVSPropertyOp38
 70
     1
102
RTVSPropertyOp39
 70
     1
102
RTVSPropertyOp40
 70
     1
102
RTVSPropertyOp41
 70
     1
102
RTVSPropertyOp42
 70
     1
102
RTVSPropertyOp43
 70
     1
102
RTVSPropertyOp44
 70
     1
102
RTVSPropertyOp45
 70
     1
102
RTVSPropertyOp46
 70
     1
102
RTVSPropertyOp47
 70
     1
102
RTVSPropertyOp48
 70
     1
102
RTVSPropertyOp49
 70
     1
102
RTVSPropertyOp50
 70
     1
102
RTVSPropertyOp51
 70
     0
102
RTVSPropertyOp52
 70
     0
102
RTVSPropertyOp53
 70
     1
102
RTVSPropertyOp54
 70
     1
102
RTVSPropertyOp55
 70
     1
102
RTVSPropertyOp56
 70
     1
102
RTVSPropertyOp57
 70
     1
102
RTVSPropertyOp58
 70
     1
102
RTVSPropertyOp59
 70
     1
102
RTVSPropertyOp60
 70
     1
102
RTVSPropertyOp61
 70
     1
102
RTVSPropertyOp62
 70
     1
  0
XRECORD
  5
386
102
{ACAD_REACTORS
330
385
102
}
330
385
100
AcDbXrecord
280
     1
102
RTVSPost2010Prop28
280
     0
102
RTVSPost2010PropOp28
 70
     1
102
RTVSPost2010Prop29
280
     1
102
RTVSPost2010PropOp29
 70
     1
102
RTVSPost2010Prop30
280
     1
102
RTVSPost2010PropOp30
 70
     1
102
RTVSPost2010Prop31
280
     0
102
RTVSPost2010PropOp31
 70
     1
102
RTVSPost2010Prop32
280
     0
102
RTVSPost2010PropOp32
 70
     1
102
RTVSPost2010Prop33
280
     0
102
RTVSPost2010PropOp33
 70
     1
102
RTVSPost2010Prop34
280
     0
102
RTVSPost2010PropOp34
 70
     1
102
RTVSPost2010Prop35
280
     0
102
RTVSPost2010PropOp35
 70
     1
102
RTVSPost2010Prop36
280
     0
102
RTVSPost2010PropOp36
 70
     1
102
RTVSPost2010Prop37
 90
       50
102
RTVSPost2010PropOp37
 70
     1
102
RTVSPost2010Prop38
140
0.0
102
RTVSPost2010PropOp38
 70
     1
102
RTVSPost2010Prop39
140
1.0
102
RTVSPost2010PropOp39
 70
     1
102
RTVSPost2010Prop40
 90
        0
102
RTVSPost2010PropOp40
 70
     1
102
RTVSPost2010Prop41ColorIndex
 90
       18
102
RTVSPost2010Prop41ColorRGB
 90
        0
102
RTVSPost2010PropOp41
 70
     1
102
RTVSPost2010Prop42
 90
       50
102
RTVSPost2010PropOp42
 70
     1
102
RTVSPost2010Prop43
 90
        3
102
RTVSPost2010PropOp43
 70
     1
102
RTVSPost2010Prop44ColorIndex
 90
        5
102
RTVSPost2010Prop44ColorRGB
 90
      255
102
RTVSPost2010PropOp44
 70
     1
102
RTVSPost2010Prop45
280
     0
102
RTVSPost2010PropOp45
 70
     1
102
RTVSPost2010Prop46
 90
       50
102
RTVSPost2010PropOp46
 70
     1
102
RTVSPost2010Prop47
 90
       50
102
RTVSPost2010PropOp47
 70
     1
102
RTVSPost2010Prop48
 90
       50
102
RTVSPost2010PropOp48
 70
     1
102
RTVSPost2010Prop49
280
     0
102
RTVSPost2010PropOp49
 70
     1
102
RTVSPost2010Prop50
 90
       50
102
RTVSPost2010PropOp50
 70
     1
102
RTVSPost2010Prop51ColorIndex
 90
      256
102
RTVSPost2010Prop51ColorRGB
 90
-16777216
102
RTVSPost2010PropOp51
 70
     0
102
RTVSPost2010Prop52
140
1.0
102
RTVSPost2010PropOp52
 70
     0
102
RTVSPost2010Prop53
 90
        2
102
RTVSPost2010PropOp53
 70
     1
102
RTVSPost2010Prop54
  1
strokes_ogs.tif
102
RTVSPost2010PropOp54
 70
     1
102
RTVSPost2010Prop55
280
     0
102
RTVSPost2010PropOp55
 70
     1
102
RTVSPost2010Prop56
140
1.0
102
RTVSPost2010PropOp56
 70
     1
102
RTVSPost2010Prop57
140
1.0
102
RTVSPost2010PropOp57
 70
     1
102
RTVSPropertyOp0
 70
     1
102
RTVSPropertyOp1
 70
     1
102
RTVSPropertyOp2
 70
     1
102
RTVSPropertyOp3
 70
     1
102
RTVSPropertyOp4
 70
     1
102
RTVSPropertyOp5
 70
     1
102
RTVSPropertyOp6
 70
     1
102
RTVSPropertyOp7
 70
     1
102
RTVSPropertyOp8
 70
     1
102
RTVSPropertyOp9
 70
     1
102
RTVSPropertyOp10
 70
     1
102
RTVSPropertyOp11
 70
     1
102
RTVSPropertyOp12
 70
     1
102
RTVSPropertyOp13
 70
     1
102
RTVSPropertyOp14
 70
     1
102
RTVSPropertyOp15
 70
     1
102
RTVSPropertyOp16
 70
     1
102
RTVSPropertyOp17
 70
     1
102
RTVSPropertyOp18
 70
     1
102
RTVSPropertyOp19
 70
     1
102
RTVSPropertyOp20
 70
     1
102
RTVSPropertyOp21
 70
     1
102
RTVSPropertyOp22
 70
     1
102
RTVSPropertyOp23
 70
     1
102
RTVSPropertyOp24
 70
     1
102
RTVSPropertyOp25
 70
     1
102
RTVSPropertyOp26
 70
     1
102
RTVSPropertyOp27
 70
     1
102
RTVSPropertyOp28
 70
     1
102
RTVSPropertyOp29
 70
     1
102
RTVSPropertyOp30
 70
     1
102
RTVSPropertyOp31
 70
     1
102
RTVSPropertyOp32
 70
     1
102
RTVSPropertyOp33
 70
     1
102
RTVSPropertyOp34
 70
     1
102
RTVSPropertyOp35
 70
     1
102
RTVSPropertyOp36
 70
     1
102
RTVSPropertyOp37
 70
     1
102
RTVSPropertyOp38
 70
     1
102
RTVSPropertyOp39
 70
     1
102
RTVSPropertyOp40
 70
     1
102
RTVSPropertyOp41
 70
     1
102
RTVSPropertyOp42
 70
     1
102
RTVSPropertyOp43
 70
     1
102
RTVSPropertyOp44
 70
     1
102
RTVSPropertyOp45
 70
     1
102
RTVSPropertyOp46
 70
     1
102
RTVSPropertyOp47
 70
     1
102
RTVSPropertyOp48
 70
     1
102
RTVSPropertyOp49
 70
     1
102
RTVSPropertyOp50
 70
     1
102
RTVSPropertyOp51
 70
     0
102
RTVSPropertyOp52
 70
     0
102
RTVSPropertyOp53
 70
     1
102
RTVSPropertyOp54
 70
     1
102
RTVSPropertyOp55
 70
     1
102
RTVSPropertyOp56
 70
     1
102
RTVSPropertyOp57
 70
     1
102
RTVSPropertyOp58
 70
     1
102
RTVSPropertyOp59
 70
     1
102
RTVSPropertyOp60
 70
     1
102
RTVSPropertyOp61
 70
     1
102
RTVSPropertyOp62
 70
     1
  0
XRECORD
  5
388
102
{ACAD_REACTORS
330
387
102
}
330
387
100
AcDbXrecord
280
     1
102
RTVSPost2010Prop28
280
     0
102
RTVSPost2010PropOp28
 70
     1
102
RTVSPost2010Prop29
280
     1
102
RTVSPost2010PropOp29
 70
     1
102
RTVSPost2010Prop30
280
     1
102
RTVSPost2010PropOp30
 70
     1
102
RTVSPost2010Prop31
280
     0
102
RTVSPost2010PropOp31
 70
     1
102
RTVSPost2010Prop32
280
     0
102
RTVSPost2010PropOp32
 70
     1
102
RTVSPost2010Prop33
280
     0
102
RTVSPost2010PropOp33
 70
     1
102
RTVSPost2010Prop34
280
     0
102
RTVSPost2010PropOp34
 70
     1
102
RTVSPost2010Prop35
280
     0
102
RTVSPost2010PropOp35
 70
     1
102
RTVSPost2010Prop36
280
     0
102
RTVSPost2010PropOp36
 70
     1
102
RTVSPost2010Prop37
 90
       50
102
RTVSPost2010PropOp37
 70
     1
102
RTVSPost2010Prop38
140
0.0
102
RTVSPost2010PropOp38
 70
     1
102
RTVSPost2010Prop39
140
1.0
102
RTVSPost2010PropOp39
 70
     1
102
RTVSPost2010Prop40
 90
        0
102
RTVSPost2010PropOp40
 70
     1
102
RTVSPost2010Prop41ColorIndex
 90
       18
102
RTVSPost2010Prop41ColorRGB
 90
        0
102
RTVSPost2010PropOp41
 70
     1
102
RTVSPost2010Prop42
 90
       50
102
RTVSPost2010PropOp42
 70
     1
102
RTVSPost2010Prop43
 90
        3
102
RTVSPost2010PropOp43
 70
     1
102
RTVSPost2010Prop44ColorIndex
 90
        5
102
RTVSPost2010Prop44ColorRGB
 90
      255
102
RTVSPost2010PropOp44
 70
     1
102
RTVSPost2010Prop45
280
     0
102
RTVSPost2010PropOp45
 70
     1
102
RTVSPost2010Prop46
 90
       50
102
RTVSPost2010PropOp46
 70
     1
102
RTVSPost2010Prop47
 90
       50
102
RTVSPost2010PropOp47
 70
     1
102
RTVSPost2010Prop48
 90
       50
102
RTVSPost2010PropOp48
 70
     1
102
RTVSPost2010Prop49
280
     0
102
RTVSPost2010PropOp49
 70
     1
102
RTVSPost2010Prop50
 90
       50
102
RTVSPost2010PropOp50
 70
     1
102
RTVSPost2010Prop51ColorIndex
 90
      256
102
RTVSPost2010Prop51ColorRGB
 90
-16777216
102
RTVSPost2010PropOp51
 70
     0
102
RTVSPost2010Prop52
140
1.0
102
RTVSPost2010PropOp52
 70
     0
102
RTVSPost2010Prop53
 90
        2
102
RTVSPost2010PropOp53
 70
     1
102
RTVSPost2010Prop54
  1
strokes_ogs.tif
102
RTVSPost2010PropOp54
 70
     1
102
RTVSPost2010Prop55
280
     0
102
RTVSPost2010PropOp55
 70
     1
102
RTVSPost2010Prop56
140
1.0
102
RTVSPost2010PropOp56
 70
     1
102
RTVSPost2010Prop57
140
1.0
102
RTVSPost2010PropOp57
 70
     1
102
RTVSPropertyOp0
 70
     1
102
RTVSPropertyOp1
 70
     1
102
RTVSPropertyOp2
 70
     1
102
RTVSPropertyOp3
 70
     1
102
RTVSPropertyOp4
 70
     1
102
RTVSPropertyOp5
 70
     1
102
RTVSPropertyOp6
 70
     1
102
RTVSPropertyOp7
 70
     1
102
RTVSPropertyOp8
 70
     1
102
RTVSPropertyOp9
 70
     1
102
RTVSPropertyOp10
 70
     1
102
RTVSPropertyOp11
 70
     1
102
RTVSPropertyOp12
 70
     1
102
RTVSPropertyOp13
 70
     1
102
RTVSPropertyOp14
 70
     1
102
RTVSPropertyOp15
 70
     1
102
RTVSPropertyOp16
 70
     1
102
RTVSPropertyOp17
 70
     1
102
RTVSPropertyOp18
 70
     1
102
RTVSPropertyOp19
 70
     1
102
RTVSPropertyOp20
 70
     1
102
RTVSPropertyOp21
 70
     1
102
RTVSPropertyOp22
 70
     1
102
RTVSPropertyOp23
 70
     1
102
RTVSPropertyOp24
 70
     1
102
RTVSPropertyOp25
 70
     1
102
RTVSPropertyOp26
 70
     1
102
RTVSPropertyOp27
 70
     1
102
RTVSPropertyOp28
 70
     1
102
RTVSPropertyOp29
 70
     1
102
RTVSPropertyOp30
 70
     1
102
RTVSPropertyOp31
 70
     1
102
RTVSPropertyOp32
 70
     1
102
RTVSPropertyOp33
 70
     1
102
RTVSPropertyOp34
 70
     1
102
RTVSPropertyOp35
 70
     1
102
RTVSPropertyOp36
 70
     1
102
RTVSPropertyOp37
 70
     1
102
RTVSPropertyOp38
 70
     1
102
RTVSPropertyOp39
 70
     1
102
RTVSPropertyOp40
 70
     1
102
RTVSPropertyOp41
 70
     1
102
RTVSPropertyOp42
 70
     1
102
RTVSPropertyOp43
 70
     1
102
RTVSPropertyOp44
 70
     1
102
RTVSPropertyOp45
 70
     1
102
RTVSPropertyOp46
 70
     1
102
RTVSPropertyOp47
 70
     1
102
RTVSPropertyOp48
 70
     1
102
RTVSPropertyOp49
 70
     1
102
RTVSPropertyOp50
 70
     1
102
RTVSPropertyOp51
 70
     0
102
RTVSPropertyOp52
 70
     0
102
RTVSPropertyOp53
 70
     1
102
RTVSPropertyOp54
 70
     1
102
RTVSPropertyOp55
 70
     1
102
RTVSPropertyOp56
 70
     1
102
RTVSPropertyOp57
 70
     1
102
RTVSPropertyOp58
 70
     1
102
RTVSPropertyOp59
 70
     1
102
RTVSPropertyOp60
 70
     1
102
RTVSPropertyOp61
 70
     1
102
RTVSPropertyOp62
 70
     1
  0
XRECORD
  5
38E
102
{ACAD_REACTORS
330
38D
102
}
330
38D
100
AcDbXrecord
280
     1
102
RTVSPost2010Prop28
280
     0
102
RTVSPost2010PropOp28
 70
     1
102
RTVSPost2010Prop29
280
     1
102
RTVSPost2010PropOp29
 70
     1
102
RTVSPost2010Prop30
280
     1
102
RTVSPost2010PropOp30
 70
     1
102
RTVSPost2010Prop31
280
     0
102
RTVSPost2010PropOp31
 70
     1
102
RTVSPost2010Prop32
280
     0
102
RTVSPost2010PropOp32
 70
     1
102
RTVSPost2010Prop33
280
     0
102
RTVSPost2010PropOp33
 70
     1
102
RTVSPost2010Prop34
280
     0
102
RTVSPost2010PropOp34
 70
     1
102
RTVSPost2010Prop35
280
     0
102
RTVSPost2010PropOp35
 70
     1
102
RTVSPost2010Prop36
280
     0
102
RTVSPost2010PropOp36
 70
     1
102
RTVSPost2010Prop37
 90
       50
102
RTVSPost2010PropOp37
 70
     1
102
RTVSPost2010Prop38
140
0.0
102
RTVSPost2010PropOp38
 70
     1
102
RTVSPost2010Prop39
140
1.0
102
RTVSPost2010PropOp39
 70
     1
102
RTVSPost2010Prop40
 90
        0
102
RTVSPost2010PropOp40
 70
     1
102
RTVSPost2010Prop41ColorIndex
 90
       18
102
RTVSPost2010Prop41ColorRGB
 90
        0
102
RTVSPost2010PropOp41
 70
     1
102
RTVSPost2010Prop42
 90
       50
102
RTVSPost2010PropOp42
 70
     1
102
RTVSPost2010Prop43
 90
        3
102
RTVSPost2010PropOp43
 70
     1
102
RTVSPost2010Prop44ColorIndex
 90
        5
102
RTVSPost2010Prop44ColorRGB
 90
      255
102
RTVSPost2010PropOp44
 70
     1
102
RTVSPost2010Prop45
280
     0
102
RTVSPost2010PropOp45
 70
     1
102
RTVSPost2010Prop46
 90
       50
102
RTVSPost2010PropOp46
 70
     1
102
RTVSPost2010Prop47
 90
       50
102
RTVSPost2010PropOp47
 70
     1
102
RTVSPost2010Prop48
 90
       50
102
RTVSPost2010PropOp48
 70
     1
102
RTVSPost2010Prop49
280
     0
102
RTVSPost2010PropOp49
 70
     1
102
RTVSPost2010Prop50
 90
       50
102
RTVSPost2010PropOp50
 70
     1
102
RTVSPost2010Prop51ColorIndex
 90
      256
102
RTVSPost2010Prop51ColorRGB
 90
-16777216
102
RTVSPost2010PropOp51
 70
     0
102
RTVSPost2010Prop52
140
1.0
102
RTVSPost2010PropOp52
 70
     0
102
RTVSPost2010Prop53
 90
        2
102
RTVSPost2010PropOp53
 70
     1
102
RTVSPost2010Prop54
  1
strokes_ogs.tif
102
RTVSPost2010PropOp54
 70
     1
102
RTVSPost2010Prop55
280
     0
102
RTVSPost2010PropOp55
 70
     1
102
RTVSPost2010Prop56
140
1.0
102
RTVSPost2010PropOp56
 70
     1
102
RTVSPost2010Prop57
140
1.0
102
RTVSPost2010PropOp57
 70
     1
102
RTVSPropertyOp0
 70
     1
102
RTVSPropertyOp1
 70
     1
102
RTVSPropertyOp2
 70
     1
102
RTVSPropertyOp3
 70
     1
102
RTVSPropertyOp4
 70
     1
102
RTVSPropertyOp5
 70
     1
102
RTVSPropertyOp6
 70
     1
102
RTVSPropertyOp7
 70
     1
102
RTVSPropertyOp8
 70
     1
102
RTVSPropertyOp9
 70
     1
102
RTVSPropertyOp10
 70
     1
102
RTVSPropertyOp11
 70
     1
102
RTVSPropertyOp12
 70
     1
102
RTVSPropertyOp13
 70
     1
102
RTVSPropertyOp14
 70
     1
102
RTVSPropertyOp15
 70
     1
102
RTVSPropertyOp16
 70
     1
102
RTVSPropertyOp17
 70
     1
102
RTVSPropertyOp18
 70
     1
102
RTVSPropertyOp19
 70
     1
102
RTVSPropertyOp20
 70
     1
102
RTVSPropertyOp21
 70
     1
102
RTVSPropertyOp22
 70
     1
102
RTVSPropertyOp23
 70
     1
102
RTVSPropertyOp24
 70
     1
102
RTVSPropertyOp25
 70
     1
102
RTVSPropertyOp26
 70
     1
102
RTVSPropertyOp27
 70
     1
102
RTVSPropertyOp28
 70
     1
102
RTVSPropertyOp29
 70
     1
102
RTVSPropertyOp30
 70
     1
102
RTVSPropertyOp31
 70
     1
102
RTVSPropertyOp32
 70
     1
102
RTVSPropertyOp33
 70
     1
102
RTVSPropertyOp34
 70
     1
102
RTVSPropertyOp35
 70
     1
102
RTVSPropertyOp36
 70
     1
102
RTVSPropertyOp37
 70
     1
102
RTVSPropertyOp38
 70
     1
102
RTVSPropertyOp39
 70
     1
102
RTVSPropertyOp40
 70
     1
102
RTVSPropertyOp41
 70
     1
102
RTVSPropertyOp42
 70
     1
102
RTVSPropertyOp43
 70
     1
102
RTVSPropertyOp44
 70
     1
102
RTVSPropertyOp45
 70
     1
102
RTVSPropertyOp46
 70
     1
102
RTVSPropertyOp47
 70
     1
102
RTVSPropertyOp48
 70
     1
102
RTVSPropertyOp49
 70
     1
102
RTVSPropertyOp50
 70
     1
102
RTVSPropertyOp51
 70
     0
102
RTVSPropertyOp52
 70
     0
102
RTVSPropertyOp53
 70
     1
102
RTVSPropertyOp54
 70
     1
102
RTVSPropertyOp55
 70
     1
102
RTVSPropertyOp56
 70
     1
102
RTVSPropertyOp57
 70
     1
102
RTVSPropertyOp58
 70
     1
102
RTVSPropertyOp59
 70
     1
102
RTVSPropertyOp60
 70
     1
102
RTVSPropertyOp61
 70
     1
102
RTVSPropertyOp62
 70
     1
  0
XRECORD
  5
3A2
102
{ACAD_REACTORS
330
3A1
102
}
330
3A1
100
AcDbXrecord
280
     1
102
RTVSPost2010Prop28
280
     0
102
RTVSPost2010PropOp28
 70
     0
102
RTVSPost2010Prop29
280
     1
102
RTVSPost2010PropOp29
 70
     0
102
RTVSPost2010Prop30
280
     1
102
RTVSPost2010PropOp30
 70
     0
102
RTVSPost2010Prop31
280
     0
102
RTVSPost2010PropOp31
 70
     0
102
RTVSPost2010Prop32
280
     0
102
RTVSPost2010PropOp32
 70
     0
102
RTVSPost2010Prop33
280
     0
102
RTVSPost2010PropOp33
 70
     0
102
RTVSPost2010Prop34
280
     0
102
RTVSPost2010PropOp34
 70
     0
102
RTVSPost2010Prop35
280
     0
102
RTVSPost2010PropOp35
 70
     0
102
RTVSPost2010Prop36
280
     0
102
RTVSPost2010PropOp36
 70
     0
102
RTVSPost2010Prop37
 90
       50
102
RTVSPost2010PropOp37
 70
     0
102
RTVSPost2010Prop38
140
0.0
102
RTVSPost2010PropOp38
 70
     0
102
RTVSPost2010Prop39
140
1.0
102
RTVSPost2010PropOp39
 70
     0
102
RTVSPost2010Prop40
 90
        0
102
RTVSPost2010PropOp40
 70
     0
102
RTVSPost2010Prop41ColorIndex
 90
       18
102
RTVSPost2010Prop41ColorRGB
 90
        0
102
RTVSPost2010PropOp41
 70
     0
102
RTVSPost2010Prop42
 90
       50
102
RTVSPost2010PropOp42
 70
     0
102
RTVSPost2010Prop43
 90
        3
102
RTVSPost2010PropOp43
 70
     0
102
RTVSPost2010Prop44ColorIndex
 90
        5
102
RTVSPost2010Prop44ColorRGB
 90
      255
102
RTVSPost2010PropOp44
 70
     0
102
RTVSPost2010Prop45
280
     0
102
RTVSPost2010PropOp45
 70
     0
102
RTVSPost2010Prop46
 90
       50
102
RTVSPost2010PropOp46
 70
     0
102
RTVSPost2010Prop47
 90
       50
102
RTVSPost2010PropOp47
 70
     0
102
RTVSPost2010Prop48
 90
       50
102
RTVSPost2010PropOp48
 70
     0
102
RTVSPost2010Prop49
280
     0
102
RTVSPost2010PropOp49
 70
     0
102
RTVSPost2010Prop50
 90
       50
102
RTVSPost2010PropOp50
 70
     0
102
RTVSPost2010Prop51ColorIndex
 90
      256
102
RTVSPost2010Prop51ColorRGB
 90
-16777216
102
RTVSPost2010PropOp51
 70
     0
102
RTVSPost2010Prop52
140
1.0
102
RTVSPost2010PropOp52
 70
     0
102
RTVSPost2010Prop53
 90
        2
102
RTVSPost2010PropOp53
 70
     0
102
RTVSPost2010Prop54
  1
strokes_ogs.tif
102
RTVSPost2010PropOp54
 70
     0
102
RTVSPost2010Prop55
280
     0
102
RTVSPost2010PropOp55
 70
     0
102
RTVSPost2010Prop56
140
1.0
102
RTVSPost2010PropOp56
 70
     0
102
RTVSPost2010Prop57
140
1.0
102
RTVSPost2010PropOp57
 70
     0
102
RTVSPropertyOp0
 70
     0
102
RTVSPropertyOp1
 70
     0
102
RTVSPropertyOp2
 70
     0
102
RTVSPropertyOp3
 70
     0
102
RTVSPropertyOp4
 70
     0
102
RTVSPropertyOp5
 70
     0
102
RTVSPropertyOp6
 70
     0
102
RTVSPropertyOp7
 70
     0
102
RTVSPropertyOp8
 70
     0
102
RTVSPropertyOp9
 70
     0
102
RTVSPropertyOp10
 70
     0
102
RTVSPropertyOp11
 70
     0
102
RTVSPropertyOp12
 70
     0
102
RTVSPropertyOp13
 70
     0
102
RTVSPropertyOp14
 70
     2
102
RTVSPropertyOp15
 70
     0
102
RTVSPropertyOp16
 70
     0
102
RTVSPropertyOp17
 70
     0
102
RTVSPropertyOp18
 70
     0
102
RTVSPropertyOp19
 70
     0
102
RTVSPropertyOp20
 70
     0
102
RTVSPropertyOp21
 70
     0
102
RTVSPropertyOp22
 70
     0
102
RTVSPropertyOp23
 70
     0
102
RTVSPropertyOp24
 70
     0
102
RTVSPropertyOp25
 70
     0
102
RTVSPropertyOp26
 70
     0
102
RTVSPropertyOp27
 70
     0
102
RTVSPropertyOp28
 70
     0
102
RTVSPropertyOp29
 70
     0
102
RTVSPropertyOp30
 70
     0
102
RTVSPropertyOp31
 70
     0
102
RTVSPropertyOp32
 70
     0
102
RTVSPropertyOp33
 70
     0
102
RTVSPropertyOp34
 70
     0
102
RTVSPropertyOp35
 70
     0
102
RTVSPropertyOp36
 70
     0
102
RTVSPropertyOp37
 70
     0
102
RTVSPropertyOp38
 70
     0
102
RTVSPropertyOp39
 70
     0
102
RTVSPropertyOp40
 70
     0
102
RTVSPropertyOp41
 70
     0
102
RTVSPropertyOp42
 70
     0
102
RTVSPropertyOp43
 70
     0
102
RTVSPropertyOp44
 70
     0
102
RTVSPropertyOp45
 70
     0
102
RTVSPropertyOp46
 70
     0
102
RTVSPropertyOp47
 70
     0
102
RTVSPropertyOp48
 70
     0
102
RTVSPropertyOp49
 70
     0
102
RTVSPropertyOp50
 70
     0
102
RTVSPropertyOp51
 70
     0
102
RTVSPropertyOp52
 70
     0
102
RTVSPropertyOp53
 70
     0
102
RTVSPropertyOp54
 70
     0
102
RTVSPropertyOp55
 70
     0
102
RTVSPropertyOp56
 70
     0
102
RTVSPropertyOp57
 70
     0
102
RTVSPropertyOp58
 70
     1
102
RTVSPropertyOp59
 70
     1
102
RTVSPropertyOp60
 70
     1
102
RTVSPropertyOp61
 70
     1
102
RTVSPropertyOp62
 70
     1
  0
XRECORD
  5
39C
102
{ACAD_REACTORS
330
39B
102
}
330
39B
100
AcDbXrecord
280
     1
102
RTVSPost2010Prop28
280
     0
102
RTVSPost2010PropOp28
 70
     1
102
RTVSPost2010Prop29
280
     1
102
RTVSPost2010PropOp29
 70
     1
102
RTVSPost2010Prop30
280
     1
102
RTVSPost2010PropOp30
 70
     1
102
RTVSPost2010Prop31
280
     0
102
RTVSPost2010PropOp31
 70
     1
102
RTVSPost2010Prop32
280
     0
102
RTVSPost2010PropOp32
 70
     1
102
RTVSPost2010Prop33
280
     0
102
RTVSPost2010PropOp33
 70
     1
102
RTVSPost2010Prop34
280
     0
102
RTVSPost2010PropOp34
 70
     1
102
RTVSPost2010Prop35
280
     0
102
RTVSPost2010PropOp35
 70
     1
102
RTVSPost2010Prop36
280
     0
102
RTVSPost2010PropOp36
 70
     1
102
RTVSPost2010Prop37
 90
       50
102
RTVSPost2010PropOp37
 70
     1
102
RTVSPost2010Prop38
140
0.0
102
RTVSPost2010PropOp38
 70
     1
102
RTVSPost2010Prop39
140
1.0
102
RTVSPost2010PropOp39
 70
     1
102
RTVSPost2010Prop40
 90
        0
102
RTVSPost2010PropOp40
 70
     1
102
RTVSPost2010Prop41ColorIndex
 90
       18
102
RTVSPost2010Prop41ColorRGB
 90
        0
102
RTVSPost2010PropOp41
 70
     1
102
RTVSPost2010Prop42
 90
       50
102
RTVSPost2010PropOp42
 70
     1
102
RTVSPost2010Prop43
 90
        3
102
RTVSPost2010PropOp43
 70
     1
102
RTVSPost2010Prop44ColorIndex
 90
        5
102
RTVSPost2010Prop44ColorRGB
 90
      255
102
RTVSPost2010PropOp44
 70
     1
102
RTVSPost2010Prop45
280
     0
102
RTVSPost2010PropOp45
 70
     1
102
RTVSPost2010Prop46
 90
       50
102
RTVSPost2010PropOp46
 70
     1
102
RTVSPost2010Prop47
 90
       50
102
RTVSPost2010PropOp47
 70
     1
102
RTVSPost2010Prop48
 90
       50
102
RTVSPost2010PropOp48
 70
     1
102
RTVSPost2010Prop49
280
     0
102
RTVSPost2010PropOp49
 70
     1
102
RTVSPost2010Prop50
 90
       50
102
RTVSPost2010PropOp50
 70
     1
102
RTVSPost2010Prop51ColorIndex
 90
      256
102
RTVSPost2010Prop51ColorRGB
 90
-16777216
102
RTVSPost2010PropOp51
 70
     0
102
RTVSPost2010Prop52
140
1.0
102
RTVSPost2010PropOp52
 70
     0
102
RTVSPost2010Prop53
 90
        2
102
RTVSPost2010PropOp53
 70
     1
102
RTVSPost2010Prop54
  1
strokes_ogs.tif
102
RTVSPost2010PropOp54
 70
     1
102
RTVSPost2010Prop55
280
     0
102
RTVSPost2010PropOp55
 70
     1
102
RTVSPost2010Prop56
140
1.0
102
RTVSPost2010PropOp56
 70
     1
102
RTVSPost2010Prop57
140
1.0
102
RTVSPost2010PropOp57
 70
     1
102
RTVSPropertyOp0
 70
     1
102
RTVSPropertyOp1
 70
     1
102
RTVSPropertyOp2
 70
     1
102
RTVSPropertyOp3
 70
     1
102
RTVSPropertyOp4
 70
     1
102
RTVSPropertyOp5
 70
     1
102
RTVSPropertyOp6
 70
     1
102
RTVSPropertyOp7
 70
     1
102
RTVSPropertyOp8
 70
     1
102
RTVSPropertyOp9
 70
     1
102
RTVSPropertyOp10
 70
     1
102
RTVSPropertyOp11
 70
     1
102
RTVSPropertyOp12
 70
     1
102
RTVSPropertyOp13
 70
     1
102
RTVSPropertyOp14
 70
     1
102
RTVSPropertyOp15
 70
     1
102
RTVSPropertyOp16
 70
     1
102
RTVSPropertyOp17
 70
     1
102
RTVSPropertyOp18
 70
     1
102
RTVSPropertyOp19
 70
     1
102
RTVSPropertyOp20
 70
     1
102
RTVSPropertyOp21
 70
     1
102
RTVSPropertyOp22
 70
     1
102
RTVSPropertyOp23
 70
     1
102
RTVSPropertyOp24
 70
     1
102
RTVSPropertyOp25
 70
     1
102
RTVSPropertyOp26
 70
     1
102
RTVSPropertyOp27
 70
     1
102
RTVSPropertyOp28
 70
     1
102
RTVSPropertyOp29
 70
     1
102
RTVSPropertyOp30
 70
     1
102
RTVSPropertyOp31
 70
     1
102
RTVSPropertyOp32
 70
     1
102
RTVSPropertyOp33
 70
     1
102
RTVSPropertyOp34
 70
     1
102
RTVSPropertyOp35
 70
     1
102
RTVSPropertyOp36
 70
     1
102
RTVSPropertyOp37
 70
     1
102
RTVSPropertyOp38
 70
     1
102
RTVSPropertyOp39
 70
     1
102
RTVSPropertyOp40
 70
     1
102
RTVSPropertyOp41
 70
     1
102
RTVSPropertyOp42
 70
     1
102
RTVSPropertyOp43
 70
     1
102
RTVSPropertyOp44
 70
     1
102
RTVSPropertyOp45
 70
     1
102
RTVSPropertyOp46
 70
     1
102
RTVSPropertyOp47
 70
     1
102
RTVSPropertyOp48
 70
     1
102
RTVSPropertyOp49
 70
     1
102
RTVSPropertyOp50
 70
     1
102
RTVSPropertyOp51
 70
     0
102
RTVSPropertyOp52
 70
     0
102
RTVSPropertyOp53
 70
     1
102
RTVSPropertyOp54
 70
     1
102
RTVSPropertyOp55
 70
     1
102
RTVSPropertyOp56
 70
     1
102
RTVSPropertyOp57
 70
     1
102
RTVSPropertyOp58
 70
     1
102
RTVSPropertyOp59
 70
     1
102
RTVSPropertyOp60
 70
     1
102
RTVSPropertyOp61
 70
     1
102
RTVSPropertyOp62
 70
     1
  0
XRECORD
  5
3A4
102
{ACAD_REACTORS
330
3A3
102
}
330
3A3
100
AcDbXrecord
280
     1
102
RTVSPost2010Prop28
280
     0
102
RTVSPost2010PropOp28
 70
     0
102
RTVSPost2010Prop29
280
     1
102
RTVSPost2010PropOp29
 70
     0
102
RTVSPost2010Prop30
280
     1
102
RTVSPost2010PropOp30
 70
     0
102
RTVSPost2010Prop31
280
     0
102
RTVSPost2010PropOp31
 70
     0
102
RTVSPost2010Prop32
280
     0
102
RTVSPost2010PropOp32
 70
     0
102
RTVSPost2010Prop33
280
     0
102
RTVSPost2010PropOp33
 70
     0
102
RTVSPost2010Prop34
280
     0
102
RTVSPost2010PropOp34
 70
     0
102
RTVSPost2010Prop35
280
     0
102
RTVSPost2010PropOp35
 70
     0
102
RTVSPost2010Prop36
280
     0
102
RTVSPost2010PropOp36
 70
     0
102
RTVSPost2010Prop37
 90
       50
102
RTVSPost2010PropOp37
 70
     0
102
RTVSPost2010Prop38
140
0.0
102
RTVSPost2010PropOp38
 70
     0
102
RTVSPost2010Prop39
140
1.0
102
RTVSPost2010PropOp39
 70
     0
102
RTVSPost2010Prop40
 90
        0
102
RTVSPost2010PropOp40
 70
     0
102
RTVSPost2010Prop41ColorIndex
 90
       18
102
RTVSPost2010Prop41ColorRGB
 90
        0
102
RTVSPost2010PropOp41
 70
     0
102
RTVSPost2010Prop42
 90
       50
102
RTVSPost2010PropOp42
 70
     0
102
RTVSPost2010Prop43
 90
        3
102
RTVSPost2010PropOp43
 70
     0
102
RTVSPost2010Prop44ColorIndex
 90
        5
102
RTVSPost2010Prop44ColorRGB
 90
      255
102
RTVSPost2010PropOp44
 70
     0
102
RTVSPost2010Prop45
280
     0
102
RTVSPost2010PropOp45
 70
     0
102
RTVSPost2010Prop46
 90
       50
102
RTVSPost2010PropOp46
 70
     0
102
RTVSPost2010Prop47
 90
       50
102
RTVSPost2010PropOp47
 70
     0
102
RTVSPost2010Prop48
 90
       50
102
RTVSPost2010PropOp48
 70
     0
102
RTVSPost2010Prop49
280
     0
102
RTVSPost2010PropOp49
 70
     0
102
RTVSPost2010Prop50
 90
       50
102
RTVSPost2010PropOp50
 70
     0
102
RTVSPost2010Prop51ColorIndex
 90
      256
102
RTVSPost2010Prop51ColorRGB
 90
-16777216
102
RTVSPost2010PropOp51
 70
     0
102
RTVSPost2010Prop52
140
1.0
102
RTVSPost2010PropOp52
 70
     0
102
RTVSPost2010Prop53
 90
        2
102
RTVSPost2010PropOp53
 70
     0
102
RTVSPost2010Prop54
  1
strokes_ogs.tif
102
RTVSPost2010PropOp54
 70
     0
102
RTVSPost2010Prop55
280
     0
102
RTVSPost2010PropOp55
 70
     0
102
RTVSPost2010Prop56
140
1.0
102
RTVSPost2010PropOp56
 70
     0
102
RTVSPost2010Prop57
140
1.0
102
RTVSPost2010PropOp57
 70
     0
102
RTVSPropertyOp0
 70
     0
102
RTVSPropertyOp1
 70
     0
102
RTVSPropertyOp2
 70
     0
102
RTVSPropertyOp3
 70
     0
102
RTVSPropertyOp4
 70
     0
102
RTVSPropertyOp5
 70
     0
102
RTVSPropertyOp6
 70
     0
102
RTVSPropertyOp7
 70
     0
102
RTVSPropertyOp8
 70
     0
102
RTVSPropertyOp9
 70
     0
102
RTVSPropertyOp10
 70
     0
102
RTVSPropertyOp11
 70
     0
102
RTVSPropertyOp12
 70
     0
102
RTVSPropertyOp13
 70
     0
102
RTVSPropertyOp14
 70
     2
102
RTVSPropertyOp15
 70
     0
102
RTVSPropertyOp16
 70
     0
102
RTVSPropertyOp17
 70
     0
102
RTVSPropertyOp18
 70
     0
102
RTVSPropertyOp19
 70
     0
102
RTVSPropertyOp20
 70
     0
102
RTVSPropertyOp21
 70
     0
102
RTVSPropertyOp22
 70
     0
102
RTVSPropertyOp23
 70
     0
102
RTVSPropertyOp24
 70
     0
102
RTVSPropertyOp25
 70
     0
102
RTVSPropertyOp26
 70
     0
102
RTVSPropertyOp27
 70
     0
102
RTVSPropertyOp28
 70
     0
102
RTVSPropertyOp29
 70
     0
102
RTVSPropertyOp30
 70
     0
102
RTVSPropertyOp31
 70
     0
102
RTVSPropertyOp32
 70
     0
102
RTVSPropertyOp33
 70
     0
102
RTVSPropertyOp34
 70
     0
102
RTVSPropertyOp35
 70
     0
102
RTVSPropertyOp36
 70
     0
102
RTVSPropertyOp37
 70
     0
102
RTVSPropertyOp38
 70
     0
102
RTVSPropertyOp39
 70
     0
102
RTVSPropertyOp40
 70
     0
102
RTVSPropertyOp41
 70
     0
102
RTVSPropertyOp42
 70
     0
102
RTVSPropertyOp43
 70
     0
102
RTVSPropertyOp44
 70
     0
102
RTVSPropertyOp45
 70
     0
102
RTVSPropertyOp46
 70
     0
102
RTVSPropertyOp47
 70
     0
102
RTVSPropertyOp48
 70
     0
102
RTVSPropertyOp49
 70
     0
102
RTVSPropertyOp50
 70
     0
102
RTVSPropertyOp51
 70
     0
102
RTVSPropertyOp52
 70
     0
102
RTVSPropertyOp53
 70
     0
102
RTVSPropertyOp54
 70
     0
102
RTVSPropertyOp55
 70
     0
102
RTVSPropertyOp56
 70
     0
102
RTVSPropertyOp57
 70
     0
102
RTVSPropertyOp58
 70
     1
102
RTVSPropertyOp59
 70
     1
102
RTVSPropertyOp60
 70
     1
102
RTVSPropertyOp61
 70
     1
102
RTVSPropertyOp62
 70
     1
  0
XRECORD
  5
392
102
{ACAD_REACTORS
330
391
102
}
330
391
100
AcDbXrecord
280
     1
102
RTVSPost2010Prop28
280
     0
102
RTVSPost2010PropOp28
 70
     1
102
RTVSPost2010Prop29
280
     1
102
RTVSPost2010PropOp29
 70
     1
102
RTVSPost2010Prop30
280
     1
102
RTVSPost2010PropOp30
 70
     1
102
RTVSPost2010Prop31
280
     0
102
RTVSPost2010PropOp31
 70
     1
102
RTVSPost2010Prop32
280
     0
102
RTVSPost2010PropOp32
 70
     1
102
RTVSPost2010Prop33
280
     0
102
RTVSPost2010PropOp33
 70
     1
102
RTVSPost2010Prop34
280
     0
102
RTVSPost2010PropOp34
 70
     1
102
RTVSPost2010Prop35
280
     0
102
RTVSPost2010PropOp35
 70
     1
102
RTVSPost2010Prop36
280
     0
102
RTVSPost2010PropOp36
 70
     1
102
RTVSPost2010Prop37
 90
       50
102
RTVSPost2010PropOp37
 70
     1
102
RTVSPost2010Prop38
140
0.0
102
RTVSPost2010PropOp38
 70
     1
102
RTVSPost2010Prop39
140
1.0
102
RTVSPost2010PropOp39
 70
     1
102
RTVSPost2010Prop40
 90
        0
102
RTVSPost2010PropOp40
 70
     1
102
RTVSPost2010Prop41ColorIndex
 90
       18
102
RTVSPost2010Prop41ColorRGB
 90
        0
102
RTVSPost2010PropOp41
 70
     1
102
RTVSPost2010Prop42
 90
       50
102
RTVSPost2010PropOp42
 70
     1
102
RTVSPost2010Prop43
 90
        3
102
RTVSPost2010PropOp43
 70
     1
102
RTVSPost2010Prop44ColorIndex
 90
        5
102
RTVSPost2010Prop44ColorRGB
 90
      255
102
RTVSPost2010PropOp44
 70
     1
102
RTVSPost2010Prop45
280
     0
102
RTVSPost2010PropOp45
 70
     1
102
RTVSPost2010Prop46
 90
       50
102
RTVSPost2010PropOp46
 70
     1
102
RTVSPost2010Prop47
 90
       50
102
RTVSPost2010PropOp47
 70
     1
102
RTVSPost2010Prop48
 90
       50
102
RTVSPost2010PropOp48
 70
     1
102
RTVSPost2010Prop49
280
     0
102
RTVSPost2010PropOp49
 70
     1
102
RTVSPost2010Prop50
 90
       50
102
RTVSPost2010PropOp50
 70
     1
102
RTVSPost2010Prop51ColorIndex
 90
      256
102
RTVSPost2010Prop51ColorRGB
 90
-16777216
102
RTVSPost2010PropOp51
 70
     0
102
RTVSPost2010Prop52
140
1.0
102
RTVSPost2010PropOp52
 70
     0
102
RTVSPost2010Prop53
 90
        2
102
RTVSPost2010PropOp53
 70
     1
102
RTVSPost2010Prop54
  1
strokes_ogs.tif
102
RTVSPost2010PropOp54
 70
     1
102
RTVSPost2010Prop55
280
     0
102
RTVSPost2010PropOp55
 70
     1
102
RTVSPost2010Prop56
140
1.0
102
RTVSPost2010PropOp56
 70
     1
102
RTVSPost2010Prop57
140
1.0
102
RTVSPost2010PropOp57
 70
     1
102
RTVSPropertyOp0
 70
     1
102
RTVSPropertyOp1
 70
     1
102
RTVSPropertyOp2
 70
     1
102
RTVSPropertyOp3
 70
     1
102
RTVSPropertyOp4
 70
     1
102
RTVSPropertyOp5
 70
     1
102
RTVSPropertyOp6
 70
     1
102
RTVSPropertyOp7
 70
     1
102
RTVSPropertyOp8
 70
     1
102
RTVSPropertyOp9
 70
     1
102
RTVSPropertyOp10
 70
     1
102
RTVSPropertyOp11
 70
     1
102
RTVSPropertyOp12
 70
     1
102
RTVSPropertyOp13
 70
     1
102
RTVSPropertyOp14
 70
     1
102
RTVSPropertyOp15
 70
     1
102
RTVSPropertyOp16
 70
     1
102
RTVSPropertyOp17
 70
     1
102
RTVSPropertyOp18
 70
     1
102
RTVSPropertyOp19
 70
     1
102
RTVSPropertyOp20
 70
     1
102
RTVSPropertyOp21
 70
     1
102
RTVSPropertyOp22
 70
     1
102
RTVSPropertyOp23
 70
     1
102
RTVSPropertyOp24
 70
     1
102
RTVSPropertyOp25
 70
     1
102
RTVSPropertyOp26
 70
     1
102
RTVSPropertyOp27
 70
     1
102
RTVSPropertyOp28
 70
     1
102
RTVSPropertyOp29
 70
     1
102
RTVSPropertyOp30
 70
     1
102
RTVSPropertyOp31
 70
     1
102
RTVSPropertyOp32
 70
     1
102
RTVSPropertyOp33
 70
     1
102
RTVSPropertyOp34
 70
     1
102
RTVSPropertyOp35
 70
     1
102
RTVSPropertyOp36
 70
     1
102
RTVSPropertyOp37
 70
     1
102
RTVSPropertyOp38
 70
     1
102
RTVSPropertyOp39
 70
     1
102
RTVSPropertyOp40
 70
     1
102
RTVSPropertyOp41
 70
     1
102
RTVSPropertyOp42
 70
     1
102
RTVSPropertyOp43
 70
     1
102
RTVSPropertyOp44
 70
     1
102
RTVSPropertyOp45
 70
     1
102
RTVSPropertyOp46
 70
     1
102
RTVSPropertyOp47
 70
     1
102
RTVSPropertyOp48
 70
     1
102
RTVSPropertyOp49
 70
     1
102
RTVSPropertyOp50
 70
     1
102
RTVSPropertyOp51
 70
     0
102
RTVSPropertyOp52
 70
     0
102
RTVSPropertyOp53
 70
     1
102
RTVSPropertyOp54
 70
     1
102
RTVSPropertyOp55
 70
     1
102
RTVSPropertyOp56
 70
     1
102
RTVSPropertyOp57
 70
     1
102
RTVSPropertyOp58
 70
     1
102
RTVSPropertyOp59
 70
     1
102
RTVSPropertyOp60
 70
     1
102
RTVSPropertyOp61
 70
     1
102
RTVSPropertyOp62
 70
     1
  0
XRECORD
  5
3B0
102
{ACAD_REACTORS
330
3AF
102
}
330
3AF
100
AcDbXrecord
280
     1
102
RTVSPost2010Prop28
280
     0
102
RTVSPost2010PropOp28
 70
     1
102
RTVSPost2010Prop29
280
     1
102
RTVSPost2010PropOp29
 70
     1
102
RTVSPost2010Prop30
280
     1
102
RTVSPost2010PropOp30
 70
     1
102
RTVSPost2010Prop31
280
     0
102
RTVSPost2010PropOp31
 70
     1
102
RTVSPost2010Prop32
280
     0
102
RTVSPost2010PropOp32
 70
     1
102
RTVSPost2010Prop33
280
     0
102
RTVSPost2010PropOp33
 70
     1
102
RTVSPost2010Prop34
280
     0
102
RTVSPost2010PropOp34
 70
     1
102
RTVSPost2010Prop35
280
     0
102
RTVSPost2010PropOp35
 70
     1
102
RTVSPost2010Prop36
280
     0
102
RTVSPost2010PropOp36
 70
     1
102
RTVSPost2010Prop37
 90
       50
102
RTVSPost2010PropOp37
 70
     1
102
RTVSPost2010Prop38
140
0.0
102
RTVSPost2010PropOp38
 70
     1
102
RTVSPost2010Prop39
140
1.0
102
RTVSPost2010PropOp39
 70
     1
102
RTVSPost2010Prop40
 90
        0
102
RTVSPost2010PropOp40
 70
     1
102
RTVSPost2010Prop41ColorIndex
 90
       18
102
RTVSPost2010Prop41ColorRGB
 90
        0
102
RTVSPost2010PropOp41
 70
     1
102
RTVSPost2010Prop42
 90
       50
102
RTVSPost2010PropOp42
 70
     1
102
RTVSPost2010Prop43
 90
        3
102
RTVSPost2010PropOp43
 70
     1
102
RTVSPost2010Prop44ColorIndex
 90
        5
102
RTVSPost2010Prop44ColorRGB
 90
      255
102
RTVSPost2010PropOp44
 70
     1
102
RTVSPost2010Prop45
280
     0
102
RTVSPost2010PropOp45
 70
     1
102
RTVSPost2010Prop46
 90
       50
102
RTVSPost2010PropOp46
 70
     1
102
RTVSPost2010Prop47
 90
       50
102
RTVSPost2010PropOp47
 70
     1
102
RTVSPost2010Prop48
 90
       50
102
RTVSPost2010PropOp48
 70
     1
102
RTVSPost2010Prop49
280
     0
102
RTVSPost2010PropOp49
 70
     1
102
RTVSPost2010Prop50
 90
       50
102
RTVSPost2010PropOp50
 70
     1
102
RTVSPost2010Prop51ColorIndex
 90
      256
102
RTVSPost2010Prop51ColorRGB
 90
-16777216
102
RTVSPost2010PropOp51
 70
     0
102
RTVSPost2010Prop52
140
1.0
102
RTVSPost2010PropOp52
 70
     0
102
RTVSPost2010Prop53
 90
        2
102
RTVSPost2010PropOp53
 70
     1
102
RTVSPost2010Prop54
  1
strokes_ogs.tif
102
RTVSPost2010PropOp54
 70
     1
102
RTVSPost2010Prop55
280
     0
102
RTVSPost2010PropOp55
 70
     1
102
RTVSPost2010Prop56
140
1.0
102
RTVSPost2010PropOp56
 70
     1
102
RTVSPost2010Prop57
140
1.0
102
RTVSPost2010PropOp57
 70
     1
102
RTVSPropertyOp0
 70
     1
102
RTVSPropertyOp1
 70
     1
102
RTVSPropertyOp2
 70
     1
102
RTVSPropertyOp3
 70
     1
102
RTVSPropertyOp4
 70
     1
102
RTVSPropertyOp5
 70
     1
102
RTVSPropertyOp6
 70
     1
102
RTVSPropertyOp7
 70
     1
102
RTVSPropertyOp8
 70
     1
102
RTVSPropertyOp9
 70
     1
102
RTVSPropertyOp10
 70
     1
102
RTVSPropertyOp11
 70
     1
102
RTVSPropertyOp12
 70
     1
102
RTVSPropertyOp13
 70
     1
102
RTVSPropertyOp14
 70
     1
102
RTVSPropertyOp15
 70
     1
102
RTVSPropertyOp16
 70
     1
102
RTVSPropertyOp17
 70
     1
102
RTVSPropertyOp18
 70
     1
102
RTVSPropertyOp19
 70
     1
102
RTVSPropertyOp20
 70
     1
102
RTVSPropertyOp21
 70
     1
102
RTVSPropertyOp22
 70
     1
102
RTVSPropertyOp23
 70
     1
102
RTVSPropertyOp24
 70
     1
102
RTVSPropertyOp25
 70
     1
102
RTVSPropertyOp26
 70
     1
102
RTVSPropertyOp27
 70
     1
102
RTVSPropertyOp28
 70
     1
102
RTVSPropertyOp29
 70
     1
102
RTVSPropertyOp30
 70
     1
102
RTVSPropertyOp31
 70
     1
102
RTVSPropertyOp32
 70
     1
102
RTVSPropertyOp33
 70
     1
102
RTVSPropertyOp34
 70
     1
102
RTVSPropertyOp35
 70
     1
102
RTVSPropertyOp36
 70
     1
102
RTVSPropertyOp37
 70
     1
102
RTVSPropertyOp38
 70
     1
102
RTVSPropertyOp39
 70
     1
102
RTVSPropertyOp40
 70
     1
102
RTVSPropertyOp41
 70
     1
102
RTVSPropertyOp42
 70
     1
102
RTVSPropertyOp43
 70
     1
102
RTVSPropertyOp44
 70
     1
102
RTVSPropertyOp45
 70
     1
102
RTVSPropertyOp46
 70
     1
102
RTVSPropertyOp47
 70
     1
102
RTVSPropertyOp48
 70
     1
102
RTVSPropertyOp49
 70
     1
102
RTVSPropertyOp50
 70
     1
102
RTVSPropertyOp51
 70
     0
102
RTVSPropertyOp52
 70
     0
102
RTVSPropertyOp53
 70
     1
102
RTVSPropertyOp54
 70
     1
102
RTVSPropertyOp55
 70
     1
102
RTVSPropertyOp56
 70
     1
102
RTVSPropertyOp57
 70
     1
102
RTVSPropertyOp58
 70
     1
102
RTVSPropertyOp59
 70
     1
102
RTVSPropertyOp60
 70
     1
102
RTVSPropertyOp61
 70
     1
102
RTVSPropertyOp62
 70
     1
  0
XRECORD
  5
3AE
102
{ACAD_REACTORS
330
3AD
102
}
330
3AD
100
AcDbXrecord
280
     1
102
RTVSPost2010Prop28
280
     0
102
RTVSPost2010PropOp28
 70
     1
102
RTVSPost2010Prop29
280
     1
102
RTVSPost2010PropOp29
 70
     1
102
RTVSPost2010Prop30
280
     1
102
RTVSPost2010PropOp30
 70
     1
102
RTVSPost2010Prop31
280
     0
102
RTVSPost2010PropOp31
 70
     1
102
RTVSPost2010Prop32
280
     0
102
RTVSPost2010PropOp32
 70
     1
102
RTVSPost2010Prop33
280
     0
102
RTVSPost2010PropOp33
 70
     1
102
RTVSPost2010Prop34
280
     0
102
RTVSPost2010PropOp34
 70
     1
102
RTVSPost2010Prop35
280
     0
102
RTVSPost2010PropOp35
 70
     1
102
RTVSPost2010Prop36
280
     0
102
RTVSPost2010PropOp36
 70
     1
102
RTVSPost2010Prop37
 90
       50
102
RTVSPost2010PropOp37
 70
     1
102
RTVSPost2010Prop38
140
0.0
102
RTVSPost2010PropOp38
 70
     1
102
RTVSPost2010Prop39
140
1.0
102
RTVSPost2010PropOp39
 70
     1
102
RTVSPost2010Prop40
 90
        0
102
RTVSPost2010PropOp40
 70
     1
102
RTVSPost2010Prop41ColorIndex
 90
       18
102
RTVSPost2010Prop41ColorRGB
 90
        0
102
RTVSPost2010PropOp41
 70
     1
102
RTVSPost2010Prop42
 90
       50
102
RTVSPost2010PropOp42
 70
     1
102
RTVSPost2010Prop43
 90
        3
102
RTVSPost2010PropOp43
 70
     1
102
RTVSPost2010Prop44ColorIndex
 90
        5
102
RTVSPost2010Prop44ColorRGB
 90
      255
102
RTVSPost2010PropOp44
 70
     1
102
RTVSPost2010Prop45
280
     0
102
RTVSPost2010PropOp45
 70
     1
102
RTVSPost2010Prop46
 90
       50
102
RTVSPost2010PropOp46
 70
     1
102
RTVSPost2010Prop47
 90
       50
102
RTVSPost2010PropOp47
 70
     1
102
RTVSPost2010Prop48
 90
       50
102
RTVSPost2010PropOp48
 70
     1
102
RTVSPost2010Prop49
280
     0
102
RTVSPost2010PropOp49
 70
     1
102
RTVSPost2010Prop50
 90
       50
102
RTVSPost2010PropOp50
 70
     1
102
RTVSPost2010Prop51ColorIndex
 90
      256
102
RTVSPost2010Prop51ColorRGB
 90
-16777216
102
RTVSPost2010PropOp51
 70
     0
102
RTVSPost2010Prop52
140
1.0
102
RTVSPost2010PropOp52
 70
     0
102
RTVSPost2010Prop53
 90
        2
102
RTVSPost2010PropOp53
 70
     1
102
RTVSPost2010Prop54
  1
strokes_ogs.tif
102
RTVSPost2010PropOp54
 70
     1
102
RTVSPost2010Prop55
280
     0
102
RTVSPost2010PropOp55
 70
     1
102
RTVSPost2010Prop56
140
1.0
102
RTVSPost2010PropOp56
 70
     1
102
RTVSPost2010Prop57
140
1.0
102
RTVSPost2010PropOp57
 70
     1
102
RTVSPropertyOp0
 70
     1
102
RTVSPropertyOp1
 70
     1
102
RTVSPropertyOp2
 70
     1
102
RTVSPropertyOp3
 70
     1
102
RTVSPropertyOp4
 70
     1
102
RTVSPropertyOp5
 70
     1
102
RTVSPropertyOp6
 70
     1
102
RTVSPropertyOp7
 70
     1
102
RTVSPropertyOp8
 70
     1
102
RTVSPropertyOp9
 70
     1
102
RTVSPropertyOp10
 70
     1
102
RTVSPropertyOp11
 70
     1
102
RTVSPropertyOp12
 70
     1
102
RTVSPropertyOp13
 70
     1
102
RTVSPropertyOp14
 70
     1
102
RTVSPropertyOp15
 70
     1
102
RTVSPropertyOp16
 70
     1
102
RTVSPropertyOp17
 70
     1
102
RTVSPropertyOp18
 70
     1
102
RTVSPropertyOp19
 70
     1
102
RTVSPropertyOp20
 70
     1
102
RTVSPropertyOp21
 70
     1
102
RTVSPropertyOp22
 70
     1
102
RTVSPropertyOp23
 70
     1
102
RTVSPropertyOp24
 70
     1
102
RTVSPropertyOp25
 70
     1
102
RTVSPropertyOp26
 70
     1
102
RTVSPropertyOp27
 70
     1
102
RTVSPropertyOp28
 70
     1
102
RTVSPropertyOp29
 70
     1
102
RTVSPropertyOp30
 70
     1
102
RTVSPropertyOp31
 70
     1
102
RTVSPropertyOp32
 70
     1
102
RTVSPropertyOp33
 70
     1
102
RTVSPropertyOp34
 70
     1
102
RTVSPropertyOp35
 70
     1
102
RTVSPropertyOp36
 70
     1
102
RTVSPropertyOp37
 70
     1
102
RTVSPropertyOp38
 70
     1
102
RTVSPropertyOp39
 70
     1
102
RTVSPropertyOp40
 70
     1
102
RTVSPropertyOp41
 70
     1
102
RTVSPropertyOp42
 70
     1
102
RTVSPropertyOp43
 70
     1
102
RTVSPropertyOp44
 70
     1
102
RTVSPropertyOp45
 70
     1
102
RTVSPropertyOp46
 70
     1
102
RTVSPropertyOp47
 70
     1
102
RTVSPropertyOp48
 70
     1
102
RTVSPropertyOp49
 70
     1
102
RTVSPropertyOp50
 70
     1
102
RTVSPropertyOp51
 70
     0
102
RTVSPropertyOp52
 70
     0
102
RTVSPropertyOp53
 70
     1
102
RTVSPropertyOp54
 70
     1
102
RTVSPropertyOp55
 70
     1
102
RTVSPropertyOp56
 70
     1
102
RTVSPropertyOp57
 70
     1
102
RTVSPropertyOp58
 70
     1
102
RTVSPropertyOp59
 70
     1
102
RTVSPropertyOp60
 70
     1
102
RTVSPropertyOp61
 70
     1
102
RTVSPropertyOp62
 70
     1
  0
XRECORD
  5
3A8
102
{ACAD_REACTORS
330
3A7
102
}
330
3A7
100
AcDbXrecord
280
     1
102
RTVSPost2010Prop28
280
     0
102
RTVSPost2010PropOp28
 70
     1
102
RTVSPost2010Prop29
280
     1
102
RTVSPost2010PropOp29
 70
     1
102
RTVSPost2010Prop30
280
     1
102
RTVSPost2010PropOp30
 70
     1
102
RTVSPost2010Prop31
280
     0
102
RTVSPost2010PropOp31
 70
     1
102
RTVSPost2010Prop32
280
     0
102
RTVSPost2010PropOp32
 70
     1
102
RTVSPost2010Prop33
280
     0
102
RTVSPost2010PropOp33
 70
     1
102
RTVSPost2010Prop34
280
     0
102
RTVSPost2010PropOp34
 70
     1
102
RTVSPost2010Prop35
280
     0
102
RTVSPost2010PropOp35
 70
     1
102
RTVSPost2010Prop36
280
     0
102
RTVSPost2010PropOp36
 70
     1
102
RTVSPost2010Prop37
 90
       50
102
RTVSPost2010PropOp37
 70
     1
102
RTVSPost2010Prop38
140
0.0
102
RTVSPost2010PropOp38
 70
     1
102
RTVSPost2010Prop39
140
1.0
102
RTVSPost2010PropOp39
 70
     1
102
RTVSPost2010Prop40
 90
        0
102
RTVSPost2010PropOp40
 70
     1
102
RTVSPost2010Prop41ColorIndex
 90
       18
102
RTVSPost2010Prop41ColorRGB
 90
        0
102
RTVSPost2010PropOp41
 70
     1
102
RTVSPost2010Prop42
 90
       50
102
RTVSPost2010PropOp42
 70
     1
102
RTVSPost2010Prop43
 90
        3
102
RTVSPost2010PropOp43
 70
     1
102
RTVSPost2010Prop44ColorIndex
 90
        5
102
RTVSPost2010Prop44ColorRGB
 90
      255
102
RTVSPost2010PropOp44
 70
     1
102
RTVSPost2010Prop45
280
     0
102
RTVSPost2010PropOp45
 70
     1
102
RTVSPost2010Prop46
 90
       50
102
RTVSPost2010PropOp46
 70
     1
102
RTVSPost2010Prop47
 90
       50
102
RTVSPost2010PropOp47
 70
     1
102
RTVSPost2010Prop48
 90
       50
102
RTVSPost2010PropOp48
 70
     1
102
RTVSPost2010Prop49
280
     0
102
RTVSPost2010PropOp49
 70
     1
102
RTVSPost2010Prop50
 90
       50
102
RTVSPost2010PropOp50
 70
     1
102
RTVSPost2010Prop51ColorIndex
 90
      256
102
RTVSPost2010Prop51ColorRGB
 90
-16777216
102
RTVSPost2010PropOp51
 70
     0
102
RTVSPost2010Prop52
140
1.0
102
RTVSPost2010PropOp52
 70
     0
102
RTVSPost2010Prop53
 90
        2
102
RTVSPost2010PropOp53
 70
     1
102
RTVSPost2010Prop54
  1
strokes_ogs.tif
102
RTVSPost2010PropOp54
 70
     1
102
RTVSPost2010Prop55
280
     0
102
RTVSPost2010PropOp55
 70
     1
102
RTVSPost2010Prop56
140
1.0
102
RTVSPost2010PropOp56
 70
     1
102
RTVSPost2010Prop57
140
1.0
102
RTVSPost2010PropOp57
 70
     1
102
RTVSPropertyOp0
 70
     1
102
RTVSPropertyOp1
 70
     1
102
RTVSPropertyOp2
 70
     1
102
RTVSPropertyOp3
 70
     1
102
RTVSPropertyOp4
 70
     1
102
RTVSPropertyOp5
 70
     1
102
RTVSPropertyOp6
 70
     1
102
RTVSPropertyOp7
 70
     1
102
RTVSPropertyOp8
 70
     1
102
RTVSPropertyOp9
 70
     1
102
RTVSPropertyOp10
 70
     1
102
RTVSPropertyOp11
 70
     1
102
RTVSPropertyOp12
 70
     1
102
RTVSPropertyOp13
 70
     1
102
RTVSPropertyOp14
 70
     1
102
RTVSPropertyOp15
 70
     1
102
RTVSPropertyOp16
 70
     1
102
RTVSPropertyOp17
 70
     1
102
RTVSPropertyOp18
 70
     1
102
RTVSPropertyOp19
 70
     1
102
RTVSPropertyOp20
 70
     1
102
RTVSPropertyOp21
 70
     1
102
RTVSPropertyOp22
 70
     1
102
RTVSPropertyOp23
 70
     1
102
RTVSPropertyOp24
 70
     1
102
RTVSPropertyOp25
 70
     1
102
RTVSPropertyOp26
 70
     1
102
RTVSPropertyOp27
 70
     1
102
RTVSPropertyOp28
 70
     1
102
RTVSPropertyOp29
 70
     1
102
RTVSPropertyOp30
 70
     1
102
RTVSPropertyOp31
 70
     1
102
RTVSPropertyOp32
 70
     1
102
RTVSPropertyOp33
 70
     1
102
RTVSPropertyOp34
 70
     1
102
RTVSPropertyOp35
 70
     1
102
RTVSPropertyOp36
 70
     1
102
RTVSPropertyOp37
 70
     1
102
RTVSPropertyOp38
 70
     1
102
RTVSPropertyOp39
 70
     1
102
RTVSPropertyOp40
 70
     1
102
RTVSPropertyOp41
 70
     1
102
RTVSPropertyOp42
 70
     1
102
RTVSPropertyOp43
 70
     1
102
RTVSPropertyOp44
 70
     1
102
RTVSPropertyOp45
 70
     1
102
RTVSPropertyOp46
 70
     1
102
RTVSPropertyOp47
 70
     1
102
RTVSPropertyOp48
 70
     1
102
RTVSPropertyOp49
 70
     1
102
RTVSPropertyOp50
 70
     1
102
RTVSPropertyOp51
 70
     0
102
RTVSPropertyOp52
 70
     0
102
RTVSPropertyOp53
 70
     1
102
RTVSPropertyOp54
 70
     1
102
RTVSPropertyOp55
 70
     1
102
RTVSPropertyOp56
 70
     1
102
RTVSPropertyOp57
 70
     1
102
RTVSPropertyOp58
 70
     1
102
RTVSPropertyOp59
 70
     1
102
RTVSPropertyOp60
 70
     1
102
RTVSPropertyOp61
 70
     1
102
RTVSPropertyOp62
 70
     1
  0
XRECORD
  5
3AA
102
{ACAD_REACTORS
330
3A9
102
}
330
3A9
100
AcDbXrecord
280
     1
102
RTVSPost2010Prop28
280
     0
102
RTVSPost2010PropOp28
 70
     1
102
RTVSPost2010Prop29
280
     1
102
RTVSPost2010PropOp29
 70
     1
102
RTVSPost2010Prop30
280
     1
102
RTVSPost2010PropOp30
 70
     1
102
RTVSPost2010Prop31
280
     0
102
RTVSPost2010PropOp31
 70
     1
102
RTVSPost2010Prop32
280
     0
102
RTVSPost2010PropOp32
 70
     1
102
RTVSPost2010Prop33
280
     0
102
RTVSPost2010PropOp33
 70
     1
102
RTVSPost2010Prop34
280
     0
102
RTVSPost2010PropOp34
 70
     1
102
RTVSPost2010Prop35
280
     0
102
RTVSPost2010PropOp35
 70
     1
102
RTVSPost2010Prop36
280
     0
102
RTVSPost2010PropOp36
 70
     1
102
RTVSPost2010Prop37
 90
       50
102
RTVSPost2010PropOp37
 70
     1
102
RTVSPost2010Prop38
140
0.0
102
RTVSPost2010PropOp38
 70
     1
102
RTVSPost2010Prop39
140
1.0
102
RTVSPost2010PropOp39
 70
     1
102
RTVSPost2010Prop40
 90
        0
102
RTVSPost2010PropOp40
 70
     1
102
RTVSPost2010Prop41ColorIndex
 90
       18
102
RTVSPost2010Prop41ColorRGB
 90
        0
102
RTVSPost2010PropOp41
 70
     1
102
RTVSPost2010Prop42
 90
       50
102
RTVSPost2010PropOp42
 70
     1
102
RTVSPost2010Prop43
 90
        3
102
RTVSPost2010PropOp43
 70
     1
102
RTVSPost2010Prop44ColorIndex
 90
        5
102
RTVSPost2010Prop44ColorRGB
 90
      255
102
RTVSPost2010PropOp44
 70
     1
102
RTVSPost2010Prop45
280
     0
102
RTVSPost2010PropOp45
 70
     1
102
RTVSPost2010Prop46
 90
       50
102
RTVSPost2010PropOp46
 70
     1
102
RTVSPost2010Prop47
 90
       50
102
RTVSPost2010PropOp47
 70
     1
102
RTVSPost2010Prop48
 90
       50
102
RTVSPost2010PropOp48
 70
     1
102
RTVSPost2010Prop49
280
     0
102
RTVSPost2010PropOp49
 70
     1
102
RTVSPost2010Prop50
 90
       50
102
RTVSPost2010PropOp50
 70
     1
102
RTVSPost2010Prop51ColorIndex
 90
      256
102
RTVSPost2010Prop51ColorRGB
 90
-16777216
102
RTVSPost2010PropOp51
 70
     0
102
RTVSPost2010Prop52
140
1.0
102
RTVSPost2010PropOp52
 70
     0
102
RTVSPost2010Prop53
 90
        2
102
RTVSPost2010PropOp53
 70
     1
102
RTVSPost2010Prop54
  1
strokes_ogs.tif
102
RTVSPost2010PropOp54
 70
     1
102
RTVSPost2010Prop55
280
     0
102
RTVSPost2010PropOp55
 70
     1
102
RTVSPost2010Prop56
140
1.0
102
RTVSPost2010PropOp56
 70
     1
102
RTVSPost2010Prop57
140
1.0
102
RTVSPost2010PropOp57
 70
     1
102
RTVSPropertyOp0
 70
     1
102
RTVSPropertyOp1
 70
     1
102
RTVSPropertyOp2
 70
     1
102
RTVSPropertyOp3
 70
     1
102
RTVSPropertyOp4
 70
     1
102
RTVSPropertyOp5
 70
     1
102
RTVSPropertyOp6
 70
     1
102
RTVSPropertyOp7
 70
     1
102
RTVSPropertyOp8
 70
     1
102
RTVSPropertyOp9
 70
     1
102
RTVSPropertyOp10
 70
     1
102
RTVSPropertyOp11
 70
     1
102
RTVSPropertyOp12
 70
     1
102
RTVSPropertyOp13
 70
     1
102
RTVSPropertyOp14
 70
     1
102
RTVSPropertyOp15
 70
     1
102
RTVSPropertyOp16
 70
     1
102
RTVSPropertyOp17
 70
     1
102
RTVSPropertyOp18
 70
     1
102
RTVSPropertyOp19
 70
     1
102
RTVSPropertyOp20
 70
     1
102
RTVSPropertyOp21
 70
     1
102
RTVSPropertyOp22
 70
     1
102
RTVSPropertyOp23
 70
     1
102
RTVSPropertyOp24
 70
     1
102
RTVSPropertyOp25
 70
     1
102
RTVSPropertyOp26
 70
     1
102
RTVSPropertyOp27
 70
     1
102
RTVSPropertyOp28
 70
     1
102
RTVSPropertyOp29
 70
     1
102
RTVSPropertyOp30
 70
     1
102
RTVSPropertyOp31
 70
     1
102
RTVSPropertyOp32
 70
     1
102
RTVSPropertyOp33
 70
     1
102
RTVSPropertyOp34
 70
     1
102
RTVSPropertyOp35
 70
     1
102
RTVSPropertyOp36
 70
     1
102
RTVSPropertyOp37
 70
     1
102
RTVSPropertyOp38
 70
     1
102
RTVSPropertyOp39
 70
     1
102
RTVSPropertyOp40
 70
     1
102
RTVSPropertyOp41
 70
     1
102
RTVSPropertyOp42
 70
     1
102
RTVSPropertyOp43
 70
     1
102
RTVSPropertyOp44
 70
     1
102
RTVSPropertyOp45
 70
     1
102
RTVSPropertyOp46
 70
     1
102
RTVSPropertyOp47
 70
     1
102
RTVSPropertyOp48
 70
     1
102
RTVSPropertyOp49
 70
     1
102
RTVSPropertyOp50
 70
     1
102
RTVSPropertyOp51
 70
     0
102
RTVSPropertyOp52
 70
     0
102
RTVSPropertyOp53
 70
     1
102
RTVSPropertyOp54
 70
     1
102
RTVSPropertyOp55
 70
     1
102
RTVSPropertyOp56
 70
     1
102
RTVSPropertyOp57
 70
     1
102
RTVSPropertyOp58
 70
     1
102
RTVSPropertyOp59
 70
     1
102
RTVSPropertyOp60
 70
     1
102
RTVSPropertyOp61
 70
     1
102
RTVSPropertyOp62
 70
     1
  0
XRECORD
  5
39A
102
{ACAD_REACTORS
330
399
102
}
330
399
100
AcDbXrecord
280
     1
102
RTVSPost2010Prop28
280
     0
102
RTVSPost2010PropOp28
 70
     1
102
RTVSPost2010Prop29
280
     1
102
RTVSPost2010PropOp29
 70
     1
102
RTVSPost2010Prop30
280
     1
102
RTVSPost2010PropOp30
 70
     1
102
RTVSPost2010Prop31
280
     0
102
RTVSPost2010PropOp31
 70
     1
102
RTVSPost2010Prop32
280
     0
102
RTVSPost2010PropOp32
 70
     1
102
RTVSPost2010Prop33
280
     0
102
RTVSPost2010PropOp33
 70
     1
102
RTVSPost2010Prop34
280
     0
102
RTVSPost2010PropOp34
 70
     1
102
RTVSPost2010Prop35
280
     0
102
RTVSPost2010PropOp35
 70
     1
102
RTVSPost2010Prop36
280
     0
102
RTVSPost2010PropOp36
 70
     1
102
RTVSPost2010Prop37
 90
       50
102
RTVSPost2010PropOp37
 70
     1
102
RTVSPost2010Prop38
140
0.0
102
RTVSPost2010PropOp38
 70
     1
102
RTVSPost2010Prop39
140
1.0
102
RTVSPost2010PropOp39
 70
     1
102
RTVSPost2010Prop40
 90
        0
102
RTVSPost2010PropOp40
 70
     1
102
RTVSPost2010Prop41ColorIndex
 90
       18
102
RTVSPost2010Prop41ColorRGB
 90
        0
102
RTVSPost2010PropOp41
 70
     1
102
RTVSPost2010Prop42
 90
       50
102
RTVSPost2010PropOp42
 70
     1
102
RTVSPost2010Prop43
 90
        3
102
RTVSPost2010PropOp43
 70
     1
102
RTVSPost2010Prop44ColorIndex
 90
        5
102
RTVSPost2010Prop44ColorRGB
 90
      255
102
RTVSPost2010PropOp44
 70
     1
102
RTVSPost2010Prop45
280
     0
102
RTVSPost2010PropOp45
 70
     1
102
RTVSPost2010Prop46
 90
       50
102
RTVSPost2010PropOp46
 70
     1
102
RTVSPost2010Prop47
 90
       50
102
RTVSPost2010PropOp47
 70
     1
102
RTVSPost2010Prop48
 90
       50
102
RTVSPost2010PropOp48
 70
     1
102
RTVSPost2010Prop49
280
     0
102
RTVSPost2010PropOp49
 70
     1
102
RTVSPost2010Prop50
 90
       50
102
RTVSPost2010PropOp50
 70
     1
102
RTVSPost2010Prop51ColorIndex
 90
      256
102
RTVSPost2010Prop51ColorRGB
 90
-16777216
102
RTVSPost2010PropOp51
 70
     0
102
RTVSPost2010Prop52
140
1.0
102
RTVSPost2010PropOp52
 70
     0
102
RTVSPost2010Prop53
 90
        2
102
RTVSPost2010PropOp53
 70
     1
102
RTVSPost2010Prop54
  1
strokes_ogs.tif
102
RTVSPost2010PropOp54
 70
     1
102
RTVSPost2010Prop55
280
     0
102
RTVSPost2010PropOp55
 70
     1
102
RTVSPost2010Prop56
140
1.0
102
RTVSPost2010PropOp56
 70
     1
102
RTVSPost2010Prop57
140
1.0
102
RTVSPost2010PropOp57
 70
     1
102
RTVSPropertyOp0
 70
     1
102
RTVSPropertyOp1
 70
     1
102
RTVSPropertyOp2
 70
     1
102
RTVSPropertyOp3
 70
     1
102
RTVSPropertyOp4
 70
     1
102
RTVSPropertyOp5
 70
     1
102
RTVSPropertyOp6
 70
     1
102
RTVSPropertyOp7
 70
     1
102
RTVSPropertyOp8
 70
     1
102
RTVSPropertyOp9
 70
     1
102
RTVSPropertyOp10
 70
     1
102
RTVSPropertyOp11
 70
     1
102
RTVSPropertyOp12
 70
     1
102
RTVSPropertyOp13
 70
     1
102
RTVSPropertyOp14
 70
     1
102
RTVSPropertyOp15
 70
     1
102
RTVSPropertyOp16
 70
     1
102
RTVSPropertyOp17
 70
     1
102
RTVSPropertyOp18
 70
     1
102
RTVSPropertyOp19
 70
     1
102
RTVSPropertyOp20
 70
     1
102
RTVSPropertyOp21
 70
     1
102
RTVSPropertyOp22
 70
     1
102
RTVSPropertyOp23
 70
     1
102
RTVSPropertyOp24
 70
     1
102
RTVSPropertyOp25
 70
     1
102
RTVSPropertyOp26
 70
     1
102
RTVSPropertyOp27
 70
     1
102
RTVSPropertyOp28
 70
     1
102
RTVSPropertyOp29
 70
     1
102
RTVSPropertyOp30
 70
     1
102
RTVSPropertyOp31
 70
     1
102
RTVSPropertyOp32
 70
     1
102
RTVSPropertyOp33
 70
     1
102
RTVSPropertyOp34
 70
     1
102
RTVSPropertyOp35
 70
     1
102
RTVSPropertyOp36
 70
     1
102
RTVSPropertyOp37
 70
     1
102
RTVSPropertyOp38
 70
     1
102
RTVSPropertyOp39
 70
     1
102
RTVSPropertyOp40
 70
     1
102
RTVSPropertyOp41
 70
     1
102
RTVSPropertyOp42
 70
     1
102
RTVSPropertyOp43
 70
     1
102
RTVSPropertyOp44
 70
     1
102
RTVSPropertyOp45
 70
     1
102
RTVSPropertyOp46
 70
     1
102
RTVSPropertyOp47
 70
     1
102
RTVSPropertyOp48
 70
     1
102
RTVSPropertyOp49
 70
     1
102
RTVSPropertyOp50
 70
     1
102
RTVSPropertyOp51
 70
     0
102
RTVSPropertyOp52
 70
     0
102
RTVSPropertyOp53
 70
     1
102
RTVSPropertyOp54
 70
     1
102
RTVSPropertyOp55
 70
     1
102
RTVSPropertyOp56
 70
     1
102
RTVSPropertyOp57
 70
     1
102
RTVSPropertyOp58
 70
     1
102
RTVSPropertyOp59
 70
     1
102
RTVSPropertyOp60
 70
     1
102
RTVSPropertyOp61
 70
     1
102
RTVSPropertyOp62
 70
     1
  0
XRECORD
  5
38C
102
{ACAD_REACTORS
330
38B
102
}
330
38B
100
AcDbXrecord
280
     1
102
RTVSPost2010Prop28
280
     0
102
RTVSPost2010PropOp28
 70
     1
102
RTVSPost2010Prop29
280
     1
102
RTVSPost2010PropOp29
 70
     1
102
RTVSPost2010Prop30
280
     1
102
RTVSPost2010PropOp30
 70
     1
102
RTVSPost2010Prop31
280
     0
102
RTVSPost2010PropOp31
 70
     1
102
RTVSPost2010Prop32
280
     0
102
RTVSPost2010PropOp32
 70
     1
102
RTVSPost2010Prop33
280
     0
102
RTVSPost2010PropOp33
 70
     1
102
RTVSPost2010Prop34
280
     0
102
RTVSPost2010PropOp34
 70
     1
102
RTVSPost2010Prop35
280
     0
102
RTVSPost2010PropOp35
 70
     1
102
RTVSPost2010Prop36
280
     0
102
RTVSPost2010PropOp36
 70
     1
102
RTVSPost2010Prop37
 90
       50
102
RTVSPost2010PropOp37
 70
     1
102
RTVSPost2010Prop38
140
0.0
102
RTVSPost2010PropOp38
 70
     1
102
RTVSPost2010Prop39
140
1.0
102
RTVSPost2010PropOp39
 70
     1
102
RTVSPost2010Prop40
 90
        0
102
RTVSPost2010PropOp40
 70
     1
102
RTVSPost2010Prop41ColorIndex
 90
       18
102
RTVSPost2010Prop41ColorRGB
 90
        0
102
RTVSPost2010PropOp41
 70
     1
102
RTVSPost2010Prop42
 90
       50
102
RTVSPost2010PropOp42
 70
     1
102
RTVSPost2010Prop43
 90
        3
102
RTVSPost2010PropOp43
 70
     1
102
RTVSPost2010Prop44ColorIndex
 90
        5
102
RTVSPost2010Prop44ColorRGB
 90
      255
102
RTVSPost2010PropOp44
 70
     1
102
RTVSPost2010Prop45
280
     0
102
RTVSPost2010PropOp45
 70
     1
102
RTVSPost2010Prop46
 90
       50
102
RTVSPost2010PropOp46
 70
     1
102
RTVSPost2010Prop47
 90
       50
102
RTVSPost2010PropOp47
 70
     1
102
RTVSPost2010Prop48
 90
       50
102
RTVSPost2010PropOp48
 70
     1
102
RTVSPost2010Prop49
280
     0
102
RTVSPost2010PropOp49
 70
     1
102
RTVSPost2010Prop50
 90
       50
102
RTVSPost2010PropOp50
 70
     1
102
RTVSPost2010Prop51ColorIndex
 90
      256
102
RTVSPost2010Prop51ColorRGB
 90
-16777216
102
RTVSPost2010PropOp51
 70
     0
102
RTVSPost2010Prop52
140
1.0
102
RTVSPost2010PropOp52
 70
     0
102
RTVSPost2010Prop53
 90
        2
102
RTVSPost2010PropOp53
 70
     1
102
RTVSPost2010Prop54
  1
strokes_ogs.tif
102
RTVSPost2010PropOp54
 70
     1
102
RTVSPost2010Prop55
280
     0
102
RTVSPost2010PropOp55
 70
     1
102
RTVSPost2010Prop56
140
1.0
102
RTVSPost2010PropOp56
 70
     1
102
RTVSPost2010Prop57
140
1.0
102
RTVSPost2010PropOp57
 70
     1
102
RTVSPropertyOp0
 70
     1
102
RTVSPropertyOp1
 70
     1
102
RTVSPropertyOp2
 70
     1
102
RTVSPropertyOp3
 70
     1
102
RTVSPropertyOp4
 70
     1
102
RTVSPropertyOp5
 70
     1
102
RTVSPropertyOp6
 70
     1
102
RTVSPropertyOp7
 70
     1
102
RTVSPropertyOp8
 70
     1
102
RTVSPropertyOp9
 70
     1
102
RTVSPropertyOp10
 70
     1
102
RTVSPropertyOp11
 70
     1
102
RTVSPropertyOp12
 70
     1
102
RTVSPropertyOp13
 70
     1
102
RTVSPropertyOp14
 70
     1
102
RTVSPropertyOp15
 70
     1
102
RTVSPropertyOp16
 70
     1
102
RTVSPropertyOp17
 70
     1
102
RTVSPropertyOp18
 70
     1
102
RTVSPropertyOp19
 70
     1
102
RTVSPropertyOp20
 70
     1
102
RTVSPropertyOp21
 70
     1
102
RTVSPropertyOp22
 70
     1
102
RTVSPropertyOp23
 70
     1
102
RTVSPropertyOp24
 70
     1
102
RTVSPropertyOp25
 70
     1
102
RTVSPropertyOp26
 70
     1
102
RTVSPropertyOp27
 70
     1
102
RTVSPropertyOp28
 70
     1
102
RTVSPropertyOp29
 70
     1
102
RTVSPropertyOp30
 70
     1
102
RTVSPropertyOp31
 70
     1
102
RTVSPropertyOp32
 70
     1
102
RTVSPropertyOp33
 70
     1
102
RTVSPropertyOp34
 70
     1
102
RTVSPropertyOp35
 70
     1
102
RTVSPropertyOp36
 70
     1
102
RTVSPropertyOp37
 70
     1
102
RTVSPropertyOp38
 70
     1
102
RTVSPropertyOp39
 70
     1
102
RTVSPropertyOp40
 70
     1
102
RTVSPropertyOp41
 70
     1
102
RTVSPropertyOp42
 70
     1
102
RTVSPropertyOp43
 70
     1
102
RTVSPropertyOp44
 70
     1
102
RTVSPropertyOp45
 70
     1
102
RTVSPropertyOp46
 70
     1
102
RTVSPropertyOp47
 70
     1
102
RTVSPropertyOp48
 70
     1
102
RTVSPropertyOp49
 70
     1
102
RTVSPropertyOp50
 70
     1
102
RTVSPropertyOp51
 70
     0
102
RTVSPropertyOp52
 70
     0
102
RTVSPropertyOp53
 70
     1
102
RTVSPropertyOp54
 70
     1
102
RTVSPropertyOp55
 70
     1
102
RTVSPropertyOp56
 70
     1
102
RTVSPropertyOp57
 70
     1
102
RTVSPropertyOp58
 70
     1
102
RTVSPropertyOp59
 70
     1
102
RTVSPropertyOp60
 70
     1
102
RTVSPropertyOp61
 70
     1
102
RTVSPropertyOp62
 70
     1
  0
XRECORD
  5
3AC
102
{ACAD_REACTORS
330
3AB
102
}
330
3AB
100
AcDbXrecord
280
     1
102
RTVSPost2010Prop28
280
     0
102
RTVSPost2010PropOp28
 70
     1
102
RTVSPost2010Prop29
280
     1
102
RTVSPost2010PropOp29
 70
     1
102
RTVSPost2010Prop30
280
     1
102
RTVSPost2010PropOp30
 70
     1
102
RTVSPost2010Prop31
280
     0
102
RTVSPost2010PropOp31
 70
     1
102
RTVSPost2010Prop32
280
     0
102
RTVSPost2010PropOp32
 70
     1
102
RTVSPost2010Prop33
280
     0
102
RTVSPost2010PropOp33
 70
     1
102
RTVSPost2010Prop34
280
     0
102
RTVSPost2010PropOp34
 70
     1
102
RTVSPost2010Prop35
280
     0
102
RTVSPost2010PropOp35
 70
     1
102
RTVSPost2010Prop36
280
     0
102
RTVSPost2010PropOp36
 70
     1
102
RTVSPost2010Prop37
 90
       50
102
RTVSPost2010PropOp37
 70
     1
102
RTVSPost2010Prop38
140
0.0
102
RTVSPost2010PropOp38
 70
     1
102
RTVSPost2010Prop39
140
1.0
102
RTVSPost2010PropOp39
 70
     1
102
RTVSPost2010Prop40
 90
        0
102
RTVSPost2010PropOp40
 70
     1
102
RTVSPost2010Prop41ColorIndex
 90
       18
102
RTVSPost2010Prop41ColorRGB
 90
        0
102
RTVSPost2010PropOp41
 70
     1
102
RTVSPost2010Prop42
 90
       50
102
RTVSPost2010PropOp42
 70
     1
102
RTVSPost2010Prop43
 90
        3
102
RTVSPost2010PropOp43
 70
     1
102
RTVSPost2010Prop44ColorIndex
 90
        5
102
RTVSPost2010Prop44ColorRGB
 90
      255
102
RTVSPost2010PropOp44
 70
     1
102
RTVSPost2010Prop45
280
     0
102
RTVSPost2010PropOp45
 70
     1
102
RTVSPost2010Prop46
 90
       50
102
RTVSPost2010PropOp46
 70
     1
102
RTVSPost2010Prop47
 90
       50
102
RTVSPost2010PropOp47
 70
     1
102
RTVSPost2010Prop48
 90
       50
102
RTVSPost2010PropOp48
 70
     1
102
RTVSPost2010Prop49
280
     0
102
RTVSPost2010PropOp49
 70
     1
102
RTVSPost2010Prop50
 90
       50
102
RTVSPost2010PropOp50
 70
     1
102
RTVSPost2010Prop51ColorIndex
 90
      256
102
RTVSPost2010Prop51ColorRGB
 90
-16777216
102
RTVSPost2010PropOp51
 70
     0
102
RTVSPost2010Prop52
140
1.0
102
RTVSPost2010PropOp52
 70
     0
102
RTVSPost2010Prop53
 90
        2
102
RTVSPost2010PropOp53
 70
     1
102
RTVSPost2010Prop54
  1
strokes_ogs.tif
102
RTVSPost2010PropOp54
 70
     1
102
RTVSPost2010Prop55
280
     0
102
RTVSPost2010PropOp55
 70
     1
102
RTVSPost2010Prop56
140
1.0
102
RTVSPost2010PropOp56
 70
     1
102
RTVSPost2010Prop57
140
1.0
102
RTVSPost2010PropOp57
 70
     1
102
RTVSPropertyOp0
 70
     1
102
RTVSPropertyOp1
 70
     1
102
RTVSPropertyOp2
 70
     1
102
RTVSPropertyOp3
 70
     1
102
RTVSPropertyOp4
 70
     1
102
RTVSPropertyOp5
 70
     1
102
RTVSPropertyOp6
 70
     1
102
RTVSPropertyOp7
 70
     1
102
RTVSPropertyOp8
 70
     1
102
RTVSPropertyOp9
 70
     1
102
RTVSPropertyOp10
 70
     1
102
RTVSPropertyOp11
 70
     1
102
RTVSPropertyOp12
 70
     1
102
RTVSPropertyOp13
 70
     1
102
RTVSPropertyOp14
 70
     1
102
RTVSPropertyOp15
 70
     1
102
RTVSPropertyOp16
 70
     1
102
RTVSPropertyOp17
 70
     1
102
RTVSPropertyOp18
 70
     1
102
RTVSPropertyOp19
 70
     1
102
RTVSPropertyOp20
 70
     1
102
RTVSPropertyOp21
 70
     1
102
RTVSPropertyOp22
 70
     1
102
RTVSPropertyOp23
 70
     1
102
RTVSPropertyOp24
 70
     1
102
RTVSPropertyOp25
 70
     1
102
RTVSPropertyOp26
 70
     1
102
RTVSPropertyOp27
 70
     1
102
RTVSPropertyOp28
 70
     1
102
RTVSPropertyOp29
 70
     1
102
RTVSPropertyOp30
 70
     1
102
RTVSPropertyOp31
 70
     1
102
RTVSPropertyOp32
 70
     1
102
RTVSPropertyOp33
 70
     1
102
RTVSPropertyOp34
 70
     1
102
RTVSPropertyOp35
 70
     1
102
RTVSPropertyOp36
 70
     1
102
RTVSPropertyOp37
 70
     1
102
RTVSPropertyOp38
 70
     1
102
RTVSPropertyOp39
 70
     1
102
RTVSPropertyOp40
 70
     1
102
RTVSPropertyOp41
 70
     1
102
RTVSPropertyOp42
 70
     1
102
RTVSPropertyOp43
 70
     1
102
RTVSPropertyOp44
 70
     1
102
RTVSPropertyOp45
 70
     1
102
RTVSPropertyOp46
 70
     1
102
RTVSPropertyOp47
 70
     1
102
RTVSPropertyOp48
 70
     1
102
RTVSPropertyOp49
 70
     1
102
RTVSPropertyOp50
 70
     1
102
RTVSPropertyOp51
 70
     0
102
RTVSPropertyOp52
 70
     0
102
RTVSPropertyOp53
 70
     1
102
RTVSPropertyOp54
 70
     1
102
RTVSPropertyOp55
 70
     1
102
RTVSPropertyOp56
 70
     1
102
RTVSPropertyOp57
 70
     1
102
RTVSPropertyOp58
 70
     1
102
RTVSPropertyOp59
 70
     1
102
RTVSPropertyOp60
 70
     1
102
RTVSPropertyOp61
 70
     1
102
RTVSPropertyOp62
 70
     1
  0
ENDSEC
  0
EOF
