  0
SECTION
  2
HEADER
  9
$ACADVER
  1
AC1018
  9
$ACADMAINTVER
 70
   104
  9
$DWGCODEPAGE
  3
ANSI_1250
  9
$LASTSAVEDBY
  1
wq7085
  9
$INSBASE
 10
0.0
 20
0.0
 30
0.0
  9
$EXTMIN
 10
176.0944603333333
 20
242.8189356666665
 30
0.0
  9
$EXTMAX
 10
443.5607499999999
 20
348.3591736666667
 30
0.0
  9
$LIMMIN
 10
-0.5
 20
-0.5
  9
$LIMMAX
 10
5.0
 20
5.0
  9
$ORTHOMODE
 70
     0
  9
$REGENMODE
 70
     1
  9
$FILLMODE
 70
     1
  9
$QTEXTMODE
 70
     0
  9
$MIRRTEXT
 70
     1
  9
$LTSCALE
 40
1.0
  9
$ATTMODE
 70
     1
  9
$TEXTSIZE
 40
0.2
  9
$TRACEWID
 40
0.05
  9
$TEXTSTYLE
  7
Standard
  9
$CLAYER
  8
0
  9
$CELTYPE
  6
ByLayer
  9
$CECOLOR
 62
   256
  9
$CELTSCALE
 40
1.0
  9
$DISPSILH
 70
     0
  9
$DIMSCALE
 40
1.0
  9
$DIMASZ
 40
0.18
  9
$DIMEXO
 40
0.0625
  9
$DIMDLI
 40
0.38
  9
$DIMRND
 40
0.0
  9
$DIMDLE
 40
0.0
  9
$DIMEXE
 40
0.18
  9
$DIMTP
 40
0.0
  9
$DIMTM
 40
0.0
  9
$DIMTXT
 40
0.18
  9
$DIMCEN
 40
0.09
  9
$DIMTSZ
 40
0.0
  9
$DIMTOL
 70
     0
  9
$DIMLIM
 70
     0
  9
$DIMTIH
 70
     1
  9
$DIMTOH
 70
     1
  9
$DIMSE1
 70
     0
  9
$DIMSE2
 70
     0
  9
$DIMTAD
 70
     0
  9
$DIMZIN
 70
     0
  9
$DIMBLK
  1

  9
$DIMASO
 70
     1
  9
$DIMSHO
 70
     1
  9
$DIMPOST
  1

  9
$DIMAPOST
  1

  9
$DIMALT
 70
     0
  9
$DIMALTD
 70
     2
  9
$DIMALTF
 40
25.4
  9
$DIMLFAC
 40
1.0
  9
$DIMTOFL
 70
     0
  9
$DIMTVP
 40
0.0
  9
$DIMTIX
 70
     0
  9
$DIMSOXD
 70
     0
  9
$DIMSAH
 70
     0
  9
$DIMBLK1
  1

  9
$DIMBLK2
  1

  9
$DIMSTYLE
  2
Standard
  9
$DIMCLRD
 70
     0
  9
$DIMCLRE
 70
     0
  9
$DIMCLRT
 70
     0
  9
$DIMTFAC
 40
1.0
  9
$DIMGAP
 40
0.09
  9
$DIMJUST
 70
     0
  9
$DIMSD1
 70
     0
  9
$DIMSD2
 70
     0
  9
$DIMTOLJ
 70
     1
  9
$DIMTZIN
 70
     0
  9
$DIMALTZ
 70
     0
  9
$DIMALTTZ
 70
     0
  9
$DIMUPT
 70
     0
  9
$DIMDEC
 70
     4
  9
$DIMTDEC
 70
     4
  9
$DIMALTU
 70
     2
  9
$DIMALTTD
 70
     2
  9
$DIMTXSTY
  7
Standard
  9
$DIMAUNIT
 70
     0
  9
$DIMADEC
 70
     0
  9
$DIMALTRND
 40
0.0
  9
$DIMAZIN
 70
     0
  9
$DIMDSEP
 70
    46
  9
$DIMATFIT
 70
     3
  9
$DIMFRAC
 70
     0
  9
$DIMLDRBLK
  1

  9
$DIMLUNIT
 70
     2
  9
$DIMLWD
 70
    -2
  9
$DIMLWE
 70
    -2
  9
$DIMTMOVE
 70
     0
  9
$LUNITS
 70
     2
  9
$LUPREC
 70
     4
  9
$SKETCHINC
 40
0.1
  9
$FILLETRAD
 40
0.5
  9
$AUNITS
 70
     0
  9
$AUPREC
 70
     0
  9
$MENU
  1
.
  9
$ELEVATION
 40
0.0
  9
$PELEVATION
 40
0.0
  9
$THICKNESS
 40
0.0
  9
$LIMCHECK
 70
     0
  9
$CHAMFERA
 40
0.0
  9
$CHAMFERB
 40
0.0
  9
$CHAMFERC
 40
0.0
  9
$CHAMFERD
 40
0.0
  9
$SKPOLY
 70
     0
  9
$TDCREATE
 40
2459087.411412037
  9
$TDUCREATE
 40
2459087.328080706
  9
$TDUPDATE
 40
2459087.441018518
  9
$TDUUPDATE
 40
2459087.357685185
  9
$TDINDWG
 40
0.0291551042
  9
$TDUSRTIMER
 40
0.0291551042
  9
$USRTIMER
 70
     1
  9
$ANGBASE
 50
0.0
  9
$ANGDIR
 70
     0
  9
$PDMODE
 70
     0
  9
$PDSIZE
 40
0.0
  9
$PLINEWID
 40
0.0
  9
$SPLFRAME
 70
     0
  9
$SPLINETYPE
 70
     6
  9
$SPLINESEGS
 70
     8
  9
$HANDSEED
  5
3B5
  9
$SURFTAB1
 70
     6
  9
$SURFTAB2
 70
     6
  9
$SURFTYPE
 70
     6
  9
$SURFU
 70
     6
  9
$SURFV
 70
     6
  9
$UCSBASE
  2

  9
$UCSNAME
  2

  9
$UCSORG
 10
274.404842
 20
288.907994
 30
0.0
  9
$UCSXDIR
 10
1.0
 20
0.0
 30
0.0
  9
$UCSYDIR
 10
0.0
 20
1.0
 30
0.0
  9
$UCSORTHOREF
  2

  9
$UCSORTHOVIEW
 70
     0
  9
$UCSORGTOP
 10
0.0
 20
0.0
 30
0.0
  9
$UCSORGBOTTOM
 10
0.0
 20
0.0
 30
0.0
  9
$UCSORGLEFT
 10
0.0
 20
0.0
 30
0.0
  9
$UCSORGRIGHT
 10
0.0
 20
0.0
 30
0.0
  9
$UCSORGFRONT
 10
0.0
 20
0.0
 30
0.0
  9
$UCSORGBACK
 10
0.0
 20
0.0
 30
0.0
  9
$PUCSBASE
  2

  9
$PUCSNAME
  2

  9
$PUCSORG
 10
0.0
 20
0.0
 30
0.0
  9
$PUCSXDIR
 10
1.0
 20
0.0
 30
0.0
  9
$PUCSYDIR
 10
0.0
 20
1.0
 30
0.0
  9
$PUCSORTHOREF
  2

  9
$PUCSORTHOVIEW
 70
     0
  9
$PUCSORGTOP
 10
0.0
 20
0.0
 30
0.0
  9
$PUCSORGBOTTOM
 10
0.0
 20
0.0
 30
0.0
  9
$PUCSORGLEFT
 10
0.0
 20
0.0
 30
0.0
  9
$PUCSORGRIGHT
 10
0.0
 20
0.0
 30
0.0
  9
$PUCSORGFRONT
 10
0.0
 20
0.0
 30
0.0
  9
$PUCSORGBACK
 10
0.0
 20
0.0
 30
0.0
  9
$USERI1
 70
     0
  9
$USERI2
 70
     0
  9
$USERI3
 70
     0
  9
$USERI4
 70
     0
  9
$USERI5
 70
     0
  9
$USERR1
 40
0.0
  9
$USERR2
 40
0.0
  9
$USERR3
 40
0.0
  9
$USERR4
 40
0.0
  9
$USERR5
 40
0.0
  9
$WORLDVIEW
 70
     1
  9
$SHADEDGE
 70
     3
  9
$SHADEDIF
 70
    70
  9
$TILEMODE
 70
     1
  9
$MAXACTVP
 70
    64
  9
$PINSBASE
 10
0.0
 20
0.0
 30
0.0
  9
$PLIMCHECK
 70
     0
  9
$PEXTMIN
 10
-0.5
 20
-0.5
 30
-0.5
  9
$PEXTMAX
 10
5.0
 20
5.0
 30
5.0
  9
$PLIMMIN
 10
-0.5
 20
-0.5
  9
$PLIMMAX
 10
5.0
 20
5.0
  9
$UNITMODE
 70
     0
  9
$VISRETAIN
 70
     1
  9
$PLINEGEN
 70
     0
  9
$PSLTSCALE
 70
     1
  9
$TREEDEPTH
 70
  3020
  9
$CMLSTYLE
  2
Standard
  9
$CMLJUST
 70
     0
  9
$CMLSCALE
 40
1.0
  9
$PROXYGRAPHICS
 70
     1
  9
$MEASUREMENT
 70
     1
  9
$CELWEIGHT
370
    13
  9
$ENDCAPS
280
     0
  9
$JOINSTYLE
280
     0
  9
$LWDISPLAY
290
     0
  9
$INSUNITS
 70
     4
  9
$HYPERLINKBASE
  1

  9
$STYLESHEET
  1

  9
$XEDIT
290
     1
  9
$CEPSNTYPE
380
     0
  9
$PSTYLEMODE
290
     1
  9
$FINGERPRINTGUID
  2
{5C47E745-B4FB-4B1F-930D-0AA19237AB44}
  9
$VERSIONGUID
  2
{665F9F21-FF7F-9D42-BF5B-CDA5F25957A7}
  9
$EXTNAMES
290
     1
  9
$PSVPSCALE
 40
0.0
  9
$OLESTARTUP
290
     0
  9
$SORTENTS
280
   127
  9
$INDEXCTL
280
     0
  9
$HIDETEXT
280
     1
  9
$XCLIPFRAME
290
     0
  9
$HALOGAP
280
     0
  9
$OBSCOLOR
 70
   257
  9
$OBSLTYPE
280
     0
  9
$INTERSECTIONDISPLAY
280
     0
  9
$INTERSECTIONCOLOR
 70
   257
  9
$DIMASSOC
280
     2
  9
$PROJECTNAME
  1

  0
ENDSEC
  0
SECTION
  2
CLASSES
  0
CLASS
  1
ACDBDICTIONARYWDFLT
  2
AcDbDictionaryWithDefault
  3
ObjectDBX Classes
 90
        0
 91
        1
280
     0
281
     0
  0
CLASS
  1
VISUALSTYLE
  2
AcDbVisualStyle
  3
ObjectDBX Classes
 90
     4095
 91
       24
280
     0
281
     0
  0
CLASS
  1
MATERIAL
  2
AcDbMaterial
  3
ObjectDBX Classes
 90
     1153
 91
        3
280
     0
281
     0
  0
CLASS
  1
SCALE
  2
AcDbScale
  3
ObjectDBX Classes
 90
     1153
 91
       33
280
     0
281
     0
  0
CLASS
  1
TABLESTYLE
  2
AcDbTableStyle
  3
ObjectDBX Classes
 90
     4095
 91
        1
280
     0
281
     0
  0
CLASS
  1
MLEADERSTYLE
  2
AcDbMLeaderStyle
  3
ACDB_MLEADERSTYLE_CLASS
 90
     4095
 91
        1
280
     0
281
     0
  0
CLASS
  1
SUN
  2
AcDbSun
  3
SCENEOE
 90
     1153
 91
        0
280
     0
281
     0
  0
CLASS
  1
DIMASSOC
  2
AcDbDimAssoc
  3
"AcDbDimAssoc|Product Desc:     AcDim ARX App For Dimension|Company:          Autodesk, Inc.|WEB Address:      www.autodesk.com"
 90
        0
 91
        7
280
     0
281
     0
  0
CLASS
  1
DICTIONARYVAR
  2
AcDbDictionaryVar
  3
ObjectDBX Classes
 90
        0
 91
       18
280
     0
281
     0
  0
CLASS
  1
CELLSTYLEMAP
  2
AcDbCellStyleMap
  3
ObjectDBX Classes
 90
     1152
 91
        2
280
     0
281
     0
  0
CLASS
  1
ACDBSECTIONVIEWSTYLE
  2
AcDbSectionViewStyle
  3
ObjectDBX Classes
 90
     1025
 91
        1
280
     0
281
     0
  0
CLASS
  1
ACDBDETAILVIEWSTYLE
  2
AcDbDetailViewStyle
  3
ObjectDBX Classes
 90
     1025
 91
        1
280
     0
281
     0
  0
CLASS
  1
SORTENTSTABLE
  2
AcDbSortentsTable
  3
ObjectDBX Classes
 90
        0
 91
        1
280
     0
281
     0
  0
ENDSEC
  0
SECTION
  2
TABLES
  0
TABLE
  2
VPORT
  5
8
330
0
100
AcDbSymbolTable
 70
    16
  0
VPORT
  5
29
330
8
100
AcDbSymbolTableRecord
100
AcDbViewportTableRecord
  2
*Active
 70
     0
 10
0.0
 20
0.0
 11
1.0
 21
1.0
 12
272.4857181461008
 22
284.0927486701454
 13
0.0
 23
0.0
 14
0.5
 24
0.5
 15
0.5
 25
0.5
 16
0.0
 26
0.0
 36
1.0
 17
0.0
 27
0.0
 37
0.0
 40
233.9752874666314
 41
2.292712066905615
 42
50.0
 43
476.3584279999999
 44
-476.3584279999999
 50
0.0
 51
0.0
 71
     0
 72
   100
 73
     1
 74
     3
 75
     0
 76
     0
 77
     0
 78
     0
281
     0
 65
     1
110
274.404842
120
288.907994
130
0.0
111
1.0
121
0.0
131
0.0
112
0.0
122
1.0
132
0.0
 79
     0
146
0.0
1001
ACAD_NAV_VCDISPLAY
1070
     3
  0
VPORT
  5
2AC
330
8
100
AcDbSymbolTableRecord
100
AcDbViewportTableRecord
  2
L1
 70
     0
 10
0.0
 20
0.0
 11
1.0
 21
1.0
 12
309.323402
 22
231.442436
 13
0.0
 23
0.0
 14
0.5
 24
0.5
 15
0.5
 25
0.5
 16
0.0
 26
0.0
 36
1.0
 17
0.0
 27
0.0
 37
0.0
 40
207.433333
 41
0.085602
 42
50.0
 43
476.3584279999999
 44
-476.3584279999999
 50
0.0
 51
0.0
 71
     0
 72
   100
 73
     1
 74
     3
 75
     0
 76
     0
 77
     0
 78
     0
281
     0
 65
     1
110
0.0
120
0.0
130
0.0
111
1.0
121
0.0
131
0.0
112
0.0
122
1.0
132
0.0
 79
     0
146
0.0
  0
VPORT
  5
2AD
330
8
100
AcDbSymbolTableRecord
100
AcDbViewportTableRecord
  2
L2
 70
     0
 10
0.0
 20
0.0
 11
0.5
 21
1.0
 12
0.0
 22
0.0
 13
0.0
 23
0.0
 14
0.5
 24
0.5
 15
0.5
 25
0.5
 16
0.0
 26
-1.0
 36
0.0
 17
0.0
 27
0.0
 37
0.0
 40
1316.18997
 41
0.013491
 42
50.0
 43
678.00864
 44
-678.00864
 50
0.0
 51
0.0
 71
     0
 72
   100
 73
     1
 74
     3
 75
     0
 76
     0
 77
     0
 78
     0
281
     0
 65
     1
110
0.0
120
0.0
130
0.0
111
1.0
121
0.0
131
0.0
112
0.0
122
1.0
132
0.0
 79
     0
146
0.0
  0
VPORT
  5
2AE
330
8
100
AcDbSymbolTableRecord
100
AcDbViewportTableRecord
  2
L2
 70
     0
 10
0.5
 20
0.0
 11
1.0
 21
1.0
 12
0.0
 22
0.0
 13
0.0
 23
0.0
 14
0.5
 24
0.5
 15
0.5
 25
0.5
 16
1.0
 26
0.0
 36
0.0
 17
0.0
 27
0.0
 37
0.0
 40
1316.18997
 41
0.013491
 42
50.0
 43
666.2177989999999
 44
-666.2177989999999
 50
0.0
 51
0.0
 71
     0
 72
   100
 73
     1
 74
     3
 75
     0
 76
     0
 77
     0
 78
     0
281
     0
 65
     1
110
0.0
120
0.0
130
0.0
111
1.0
121
0.0
131
0.0
112
0.0
122
1.0
132
0.0
 79
     0
146
0.0
  0
VPORT
  5
2AF
330
8
100
AcDbSymbolTableRecord
100
AcDbViewportTableRecord
  2
L3
 70
     0
 10
0.0
 20
0.5
 11
1.0
 21
1.0
 12
309.323402
 22
231.442436
 13
0.0
 23
0.0
 14
0.5
 24
0.5
 15
0.5
 25
0.5
 16
0.0
 26
0.0
 36
1.0
 17
0.0
 27
0.0
 37
0.0
 40
207.433333
 41
0.085602
 42
50.0
 43
476.3584279999999
 44
-476.3584279999999
 50
0.0
 51
0.0
 71
     0
 72
   100
 73
     1
 74
     3
 75
     0
 76
     0
 77
     0
 78
     0
281
     0
 65
     1
110
0.0
120
0.0
130
0.0
111
1.0
121
0.0
131
0.0
112
0.0
122
1.0
132
0.0
 79
     0
146
0.0
  0
VPORT
  5
2B0
330
8
100
AcDbSymbolTableRecord
100
AcDbViewportTableRecord
  2
L3
 70
     0
 10
0.0
 20
0.0
 11
1.0
 21
0.5
 12
0.0
 22
0.0
 13
0.0
 23
0.0
 14
0.5
 24
0.5
 15
0.5
 25
0.5
 16
0.0
 26
-1.0
 36
0.0
 17
0.0
 27
0.0
 37
0.0
 40
1316.18997
 41
0.013491
 42
50.0
 43
678.00864
 44
-678.00864
 50
0.0
 51
0.0
 71
     0
 72
   100
 73
     1
 74
     3
 75
     0
 76
     0
 77
     0
 78
     0
281
     0
 65
     1
110
0.0
120
0.0
130
0.0
111
1.0
121
0.0
131
0.0
112
0.0
122
1.0
132
0.0
 79
     0
146
0.0
  0
VPORT
  5
2B1
330
8
100
AcDbSymbolTableRecord
100
AcDbViewportTableRecord
  2
L4
 70
     0
 10
0.0
 20
0.5
 11
0.5
 21
1.0
 12
309.323402
 22
231.442436
 13
0.0
 23
0.0
 14
0.5
 24
0.5
 15
0.5
 25
0.5
 16
0.0
 26
0.0
 36
1.0
 17
0.0
 27
0.0
 37
0.0
 40
207.433333
 41
0.085602
 42
50.0
 43
476.3584279999999
 44
-476.3584279999999
 50
0.0
 51
0.0
 71
     0
 72
   100
 73
     1
 74
     3
 75
     0
 76
     0
 77
     0
 78
     0
281
     0
 65
     1
110
0.0
120
0.0
130
0.0
111
1.0
121
0.0
131
0.0
112
0.0
122
1.0
132
0.0
 79
     0
146
0.0
  0
VPORT
  5
2B2
330
8
100
AcDbSymbolTableRecord
100
AcDbViewportTableRecord
  2
L4
 70
     0
 10
0.0
 20
0.0
 11
0.5
 21
0.5
 12
0.0
 22
0.0
 13
0.0
 23
0.0
 14
0.5
 24
0.5
 15
0.5
 25
0.5
 16
0.0
 26
-1.0
 36
0.0
 17
0.0
 27
0.0
 37
0.0
 40
1316.18997
 41
0.013491
 42
50.0
 43
678.00864
 44
-678.00864
 50
0.0
 51
0.0
 71
     0
 72
   100
 73
     1
 74
     3
 75
     0
 76
     0
 77
     0
 78
     0
281
     0
 65
     1
110
0.0
120
0.0
130
0.0
111
1.0
121
0.0
131
0.0
112
0.0
122
1.0
132
0.0
 79
     0
146
0.0
  0
VPORT
  5
2B3
330
8
100
AcDbSymbolTableRecord
100
AcDbViewportTableRecord
  2
L4
 70
     0
 10
0.5
 20
0.0
 11
1.0
 21
0.5
 12
0.0
 22
0.0
 13
0.0
 23
0.0
 14
0.5
 24
0.5
 15
0.5
 25
0.5
 16
1.0
 26
0.0
 36
0.0
 17
0.0
 27
0.0
 37
0.0
 40
1316.18997
 41
0.013491
 42
50.0
 43
666.2177989999999
 44
-666.2177989999999
 50
0.0
 51
0.0
 71
     0
 72
   100
 73
     1
 74
     3
 75
     0
 76
     0
 77
     0
 78
     0
281
     0
 65
     1
110
0.0
120
0.0
130
0.0
111
1.0
121
0.0
131
0.0
112
0.0
122
1.0
132
0.0
 79
     0
146
0.0
  0
VPORT
  5
2B4
330
8
100
AcDbSymbolTableRecord
100
AcDbViewportTableRecord
  2
L4
 70
     0
 10
0.5
 20
0.5
 11
1.0
 21
1.0
 12
0.0
 22
0.0
 13
0.0
 23
0.0
 14
0.5
 24
0.5
 15
0.5
 25
0.5
 16
0.5773502691896259
 26
-0.5773502691896259
 36
0.5773502691896259
 17
0.0
 27
0.0
 37
0.0
 40
1292.532264
 41
0.013738
 42
50.0
 43
673.245608
 44
-673.245608
 50
0.0
 51
0.0
 71
     0
 72
   100
 73
     1
 74
     3
 75
     0
 76
     0
 77
     0
 78
     0
281
     0
 65
     1
110
0.0
120
0.0
130
0.0
111
1.0
121
0.0
131
0.0
112
0.0
122
1.0
132
0.0
 79
     0
146
0.0
  0
VPORT
  5
2B5
330
8
100
AcDbSymbolTableRecord
100
AcDbViewportTableRecord
  2
L6
 70
     0
 10
0.0
 20
0.5
 11
0.333333
 21
1.0
 12
0.0
 22
0.0
 13
0.0
 23
0.0
 14
0.5
 24
0.5
 15
0.5
 25
0.5
 16
0.7188730927569434
 26
-0.5850486126764433
 36
0.3754192287502549
 17
0.0
 27
0.0
 37
0.0
 40
1364.064247
 41
0.013018
 42
50.0
 43
706.2613849999999
 44
-706.2613849999999
 50
0.0
 51
0.0
 71
     0
 72
   100
 73
     1
 74
     3
 75
     0
 76
     0
 77
     0
 78
     0
281
     0
 65
     1
110
0.0
120
0.0
130
0.0
111
1.0
121
0.0
131
0.0
112
0.0
122
1.0
132
0.0
 79
     0
146
0.0
  0
VPORT
  5
2B6
330
8
100
AcDbSymbolTableRecord
100
AcDbViewportTableRecord
  2
L6
 70
     0
 10
0.0
 20
0.0
 11
0.333333
 21
0.5
 12
0.0
 22
0.0
 13
0.0
 23
0.0
 14
0.5
 24
0.5
 15
0.5
 25
0.5
 16
-1.0
 26
0.0
 36
0.0
 17
0.0
 27
0.0
 37
0.0
 40
1316.18997
 41
0.013491
 42
50.0
 43
666.2177989999999
 44
-666.2177989999999
 50
0.0
 51
0.0
 71
     0
 72
   100
 73
     1
 74
     3
 75
     0
 76
     0
 77
     0
 78
     0
281
     0
 65
     1
110
0.0
120
0.0
130
0.0
111
1.0
121
0.0
131
0.0
112
0.0
122
1.0
132
0.0
 79
     0
146
0.0
  0
VPORT
  5
2B7
330
8
100
AcDbSymbolTableRecord
100
AcDbViewportTableRecord
  2
L6
 70
     0
 10
0.333333
 20
0.5
 11
0.666667
 21
1.0
 12
309.323402
 22
231.442436
 13
0.0
 23
0.0
 14
0.5
 24
0.5
 15
0.5
 25
0.5
 16
0.0
 26
0.0
 36
1.0
 17
0.0
 27
0.0
 37
0.0
 40
207.433333
 41
0.085602
 42
50.0
 43
476.3584279999999
 44
-476.3584279999999
 50
0.0
 51
0.0
 71
     0
 72
   100
 73
     1
 74
     3
 75
     0
 76
     0
 77
     0
 78
     0
281
     0
 65
     1
110
0.0
120
0.0
130
0.0
111
1.0
121
0.0
131
0.0
112
0.0
122
1.0
132
0.0
 79
     0
146
0.0
  0
VPORT
  5
2B8
330
8
100
AcDbSymbolTableRecord
100
AcDbViewportTableRecord
  2
L6
 70
     0
 10
0.333333
 20
0.0
 11
0.666667
 21
0.5
 12
0.0
 22
0.0
 13
0.0
 23
0.0
 14
0.5
 24
0.5
 15
0.5
 25
0.5
 16
0.0
 26
-1.0
 36
0.0
 17
0.0
 27
0.0
 37
0.0
 40
1316.18997
 41
0.013491
 42
50.0
 43
678.00864
 44
-678.00864
 50
0.0
 51
0.0
 71
     0
 72
   100
 73
     1
 74
     3
 75
     0
 76
     0
 77
     0
 78
     0
281
     0
 65
     1
110
0.0
120
0.0
130
0.0
111
1.0
121
0.0
131
0.0
112
0.0
122
1.0
132
0.0
 79
     0
146
0.0
  0
VPORT
  5
2B9
330
8
100
AcDbSymbolTableRecord
100
AcDbViewportTableRecord
  2
L6
 70
     0
 10
0.666667
 20
0.5
 11
1.0
 21
1.0
 12
0.0
 22
0.0
 13
0.0
 23
0.0
 14
0.5
 24
0.5
 15
0.5
 25
0.5
 16
0.5773502691896259
 26
-0.5773502691896259
 36
0.5773502691896259
 17
0.0
 27
0.0
 37
0.0
 40
1292.532264
 41
0.013738
 42
50.0
 43
673.245608
 44
-673.245608
 50
0.0
 51
0.0
 71
     0
 72
   100
 73
     1
 74
     3
 75
     0
 76
     0
 77
     0
 78
     0
281
     0
 65
     1
110
0.0
120
0.0
130
0.0
111
1.0
121
0.0
131
0.0
112
0.0
122
1.0
132
0.0
 79
     0
146
0.0
  0
VPORT
  5
2BA
330
8
100
AcDbSymbolTableRecord
100
AcDbViewportTableRecord
  2
L6
 70
     0
 10
0.666667
 20
0.0
 11
1.0
 21
0.5
 12
0.0
 22
0.0
 13
0.0
 23
0.0
 14
0.5
 24
0.5
 15
0.5
 25
0.5
 16
1.0
 26
0.0
 36
0.0
 17
0.0
 27
0.0
 37
0.0
 40
1316.18997
 41
0.013491
 42
50.0
 43
666.2177989999999
 44
-666.2177989999999
 50
0.0
 51
0.0
 71
     0
 72
   100
 73
     1
 74
     3
 75
     0
 76
     0
 77
     0
 78
     0
281
     0
 65
     1
110
0.0
120
0.0
130
0.0
111
1.0
121
0.0
131
0.0
112
0.0
122
1.0
132
0.0
 79
     0
146
0.0
  0
ENDTAB
  0
TABLE
  2
LTYPE
  5
5
330
0
100
AcDbSymbolTable
 70
     7
  0
LTYPE
  5
14
330
5
100
AcDbSymbolTableRecord
100
AcDbLinetypeTableRecord
  2
ByBlock
 70
     0
  3

 72
    65
 73
     0
 40
0.0
  0
LTYPE
  5
15
330
5
100
AcDbSymbolTableRecord
100
AcDbLinetypeTableRecord
  2
ByLayer
 70
     0
  3

 72
    65
 73
     0
 40
0.0
  0
LTYPE
  5
16
330
5
100
AcDbSymbolTableRecord
100
AcDbLinetypeTableRecord
  2
Continuous
 70
     0
  3
Solid line
 72
    65
 73
     0
 40
0.0
  0
LTYPE
  5
6E
330
5
100
AcDbSymbolTableRecord
100
AcDbLinetypeTableRecord
  2
CENTER
 70
     0
  3
____ _ ____ _ ____ _ ____
 72
    65
 73
     4
 40
47.4
 49
22.0
 74
     4
 75
     0
340
0
 46
0.0
 50
0.0
 44
0.0
 45
0.0
 49
-8.5
 74
     4
 75
     0
340
0
 46
0.0
 50
0.0
 44
0.0
 45
0.0
 49
8.5
 74
     4
 75
     0
340
0
 46
0.0
 50
0.0
 44
0.0
 45
0.0
 49
-8.5
 74
     4
 75
     0
340
0
 46
0.0
 50
0.0
 44
0.0
 45
0.0
  0
LTYPE
  5
6F
330
5
100
AcDbSymbolTableRecord
100
AcDbLinetypeTableRecord
  2
DASHDOT
 70
     0
  3
_._._._._._._._._._._._._._._._.
 72
    65
 73
     4
 40
70.0
 49
31.0
 74
     4
 75
     0
340
0
 46
0.0
 50
0.0
 44
0.0
 45
0.0
 49
-13.0
 74
     4
 75
     0
340
0
 46
0.0
 50
0.0
 44
0.0
 45
0.0
 49
13.0
 74
     4
 75
     0
340
0
 46
0.0
 50
0.0
 44
0.0
 45
0.0
 49
-13.0
 74
     4
 75
     0
340
0
 46
0.0
 50
0.0
 44
0.0
 45
0.0
  0
LTYPE
  5
70
330
5
100
AcDbSymbolTableRecord
100
AcDbLinetypeTableRecord
  2
DASHED
 70
     0
  3
__ __ __ __ __ __ __ __ __
 72
    65
 73
     2
 40
25.72
 49
12.86
 74
     4
 75
     0
340
0
 46
0.0
 50
0.0
 44
0.0
 45
0.0
 49
-12.86
 74
     4
 75
     0
340
0
 46
0.0
 50
0.0
 44
0.0
 45
0.0
  0
LTYPE
  5
71
330
5
100
AcDbSymbolTableRecord
100
AcDbLinetypeTableRecord
  2
DOT
 70
     0
  3
.........................
 72
    65
 73
     2
 40
10.0
 49
0.0
 74
     4
 75
     0
340
0
 46
0.0
 50
0.0
 44
0.0
 45
0.0
 49
-10.0
 74
     4
 75
     0
340
0
 46
0.0
 50
0.0
 44
0.0
 45
0.0
  0
LTYPE
  5
72
330
5
100
AcDbSymbolTableRecord
100
AcDbLinetypeTableRecord
  2
PHANTOM
 70
     0
  3
____ _ _ ____ _ _ _____ _ _ ____
 72
    65
 73
     6
 40
50.5
 49
18.0
 74
     4
 75
     0
340
0
 46
0.0
 50
0.0
 44
0.0
 45
0.0
 49
-6.5
 74
     4
 75
     0
340
0
 46
0.0
 50
0.0
 44
0.0
 45
0.0
 49
6.5
 74
     4
 75
     0
340
0
 46
0.0
 50
0.0
 44
0.0
 45
0.0
 49
-6.5
 74
     4
 75
     0
340
0
 46
0.0
 50
0.0
 44
0.0
 45
0.0
 49
6.5
 74
     4
 75
     0
340
0
 46
0.0
 50
0.0
 44
0.0
 45
0.0
 49
-6.5
 74
     4
 75
     0
340
0
 46
0.0
 50
0.0
 44
0.0
 45
0.0
  0
LTYPE
  5
34D
330
5
100
AcDbSymbolTableRecord
100
AcDbLinetypeTableRecord
  2
CENTER2
 70
     0
  3
Center (.5x) ___ _ ___ _ ___ _ ___ _ ___ _ ___
 72
    65
 73
     4
 40
1.125
 49
0.75
 74
     0
 49
-0.125
 74
     0
 49
0.125
 74
     0
 49
-0.125
 74
     0
  0
ENDTAB
  0
TABLE
  2
LAYER
  5
2
330
0
100
AcDbSymbolTable
 70
    22
  0
LAYER
  5
10
102
{ACAD_XDICTIONARY
360
363
102
}
330
2
100
AcDbSymbolTableRecord
100
AcDbLayerTableRecord
  2
0
 70
     0
 62
     7
  6
Continuous
370
    -3
390
F
  0
LAYER
  5
206
330
2
100
AcDbSymbolTableRecord
100
AcDbLayerTableRecord
  2
Defpoints
 70
     0
 62
     7
  6
Continuous
290
     0
370
    -3
390
F
  0
LAYER
  5
34A
102
{ACAD_XDICTIONARY
360
365
102
}
330
2
100
AcDbSymbolTableRecord
100
AcDbLayerTableRecord
  2
1
 70
     0
 62
     4
  6
Continuous
370
    -3
390
F
  0
LAYER
  5
34B
102
{ACAD_XDICTIONARY
360
367
102
}
330
2
100
AcDbSymbolTableRecord
100
AcDbLayerTableRecord
  2
2
 70
     0
 62
     7
  6
Continuous
370
    -3
390
F
  0
LAYER
  5
34C
102
{ACAD_XDICTIONARY
360
369
102
}
330
2
100
AcDbSymbolTableRecord
100
AcDbLayerTableRecord
  2
4
 70
     0
 62
     2
  6
CENTER2
370
    -3
390
F
  0
LAYER
  5
34E
102
{ACAD_XDICTIONARY
360
36B
102
}
330
2
100
AcDbSymbolTableRecord
100
AcDbLayerTableRecord
  2
SK1
 70
     0
 62
     4
  6
Continuous
370
    -3
390
F
  0
LAYER
  5
34F
102
{ACAD_XDICTIONARY
360
36D
102
}
330
2
100
AcDbSymbolTableRecord
100
AcDbLayerTableRecord
  2
SK2
 70
     0
 62
     7
  6
Continuous
370
    -3
390
F
  0
LAYER
  5
351
102
{ACAD_XDICTIONARY
360
36F
102
}
330
2
100
AcDbSymbolTableRecord
100
AcDbLayerTableRecord
  2
SK4
 70
     0
 62
     2
  6
CENTER2
370
    -3
390
F
  0
LAYER
  5
352
102
{ACAD_XDICTIONARY
360
371
102
}
330
2
100
AcDbSymbolTableRecord
100
AcDbLayerTableRecord
  2
SK6
 70
     0
 62
     5
  6
Continuous
370
    -3
390
F
  0
LAYER
  5
353
102
{ACAD_XDICTIONARY
360
373
102
}
330
2
100
AcDbSymbolTableRecord
100
AcDbLayerTableRecord
  2
CUT
 70
     0
 62
     1
  6
Continuous
370
    -3
390
F
  0
LAYER
  5
354
102
{ACAD_XDICTIONARY
360
375
102
}
330
2
100
AcDbSymbolTableRecord
100
AcDbLayerTableRecord
  2
NOCUT
 70
     0
 62
     7
  6
Continuous
370
    -3
390
F
  0
LAYER
  5
355
102
{ACAD_XDICTIONARY
360
377
102
}
330
2
100
AcDbSymbolTableRecord
100
AcDbLayerTableRecord
  2
80
 70
     0
 62
     6
  6
Continuous
370
    -3
390
F
  0
LAYER
  5
356
102
{ACAD_XDICTIONARY
360
379
102
}
330
2
100
AcDbSymbolTableRecord
100
AcDbLayerTableRecord
  2
81
 70
     0
 62
     3
  6
Continuous
370
    -3
390
F
  0
ENDTAB
  0
TABLE
  2
STYLE
  5
3
330
0
100
AcDbSymbolTable
 70
     3
  0
STYLE
  5
11
330
3
100
AcDbSymbolTableRecord
100
AcDbTextStyleTableRecord
  2
Standard
 70
     0
 40
0.0
 41
1.0
 50
0.0
 71
     0
 42
0.2
  3
txt
  4

  0
STYLE
  5
1FF
330
3
100
AcDbSymbolTableRecord
100
AcDbTextStyleTableRecord
  2
cesky
 70
     0
 40
0.0
 41
1.0
 50
0.0
 71
     0
 42
0.2
  3
simplex.shx
  4

  0
STYLE
  5
200
330
3
100
AcDbSymbolTableRecord
100
AcDbTextStyleTableRecord
  2
DWGDirectTextStyle
 70
     0
 40
0.0
 41
1.0
 50
0.0
 71
     0
 42
0.2
  3
simplex
  4

  0
ENDTAB
  0
TABLE
  2
VIEW
  5
6
330
0
100
AcDbSymbolTable
 70
     0
  0
ENDTAB
  0
TABLE
  2
UCS
  5
7
330
0
100
AcDbSymbolTable
 70
     0
  0
ENDTAB
  0
TABLE
  2
APPID
  5
9
330
0
100
AcDbSymbolTable
 70
     7
  0
APPID
  5
12
330
9
100
AcDbSymbolTableRecord
100
AcDbRegAppTableRecord
  2
ACAD
 70
     0
  0
APPID
  5
202
330
9
100
AcDbSymbolTableRecord
100
AcDbRegAppTableRecord
  2
ACAD_DSTYLE_DIMBREAK
 70
     0
  0
APPID
  5
2BB
330
9
100
AcDbSymbolTableRecord
100
AcDbRegAppTableRecord
  2
ACAD_DSTYLE_DIM_LINETYPE
 70
     0
  0
APPID
  5
2BC
330
9
100
AcDbSymbolTableRecord
100
AcDbRegAppTableRecord
  2
ACAD_DSTYLE_DIM_EXT1_LINETYPE
 70
     0
  0
APPID
  5
2BD
330
9
100
AcDbSymbolTableRecord
100
AcDbRegAppTableRecord
  2
ACAD_DSTYLE_DIM_EXT2_LINETYPE
 70
     0
  0
APPID
  5
2FD
330
9
100
AcDbSymbolTableRecord
100
AcDbRegAppTableRecord
  2
ACAD_MLEADERVER
 70
     0
  0
APPID
  5
358
330
9
100
AcDbSymbolTableRecord
100
AcDbRegAppTableRecord
  2
ACAD_NAV_VCDISPLAY
 70
     0
  0
ENDTAB
  0
TABLE
  2
DIMSTYLE
  5
A
330
0
100
AcDbSymbolTable
 70
     1
100
AcDbDimStyleTable
 71
     0
  0
DIMSTYLE
105
27
330
A
100
AcDbSymbolTableRecord
100
AcDbDimStyleTableRecord
  2
Standard
 70
     0
340
11
1001
ACAD_DSTYLE_DIMBREAK
1070
   391
1040
6.349999999999999
  0
ENDTAB
  0
TABLE
  2
BLOCK_RECORD
  5
1
330
0
100
AcDbSymbolTable
 70
    16
  0
BLOCK_RECORD
  5
1F
102
{ACAD_XDICTIONARY
360
30D
102
}
330
1
100
AcDbSymbolTableRecord
100
AcDbBlockTableRecord
  2
*Model_Space
340
22
  0
BLOCK_RECORD
  5
1B
330
1
100
AcDbSymbolTableRecord
100
AcDbBlockTableRecord
  2
*Paper_Space
340
1E
  0
BLOCK_RECORD
  5
23
330
1
100
AcDbSymbolTableRecord
100
AcDbBlockTableRecord
  2
*Paper_Space0
340
26
  0
BLOCK_RECORD
  5
1F9
330
1
100
AcDbSymbolTableRecord
100
AcDbBlockTableRecord
  2
ASSORTED_DRAFT1
340
0
  0
BLOCK_RECORD
  5
207
330
1
100
AcDbSymbolTableRecord
100
AcDbBlockTableRecord
  2
*D2
340
0
  0
BLOCK_RECORD
  5
213
330
1
100
AcDbSymbolTableRecord
100
AcDbBlockTableRecord
  2
_U0
340
0
  0
BLOCK_RECORD
  5
21F
330
1
100
AcDbSymbolTableRecord
100
AcDbBlockTableRecord
  2
*D4
340
0
  0
BLOCK_RECORD
  5
22B
330
1
100
AcDbSymbolTableRecord
100
AcDbBlockTableRecord
  2
_U1
340
0
  0
BLOCK_RECORD
  5
237
330
1
100
AcDbSymbolTableRecord
100
AcDbBlockTableRecord
  2
*D6
340
0
  0
BLOCK_RECORD
  5
243
330
1
100
AcDbSymbolTableRecord
100
AcDbBlockTableRecord
  2
_U2
340
0
  0
BLOCK_RECORD
  5
24F
330
1
100
AcDbSymbolTableRecord
100
AcDbBlockTableRecord
  2
*D8
340
0
  0
BLOCK_RECORD
  5
25A
330
1
100
AcDbSymbolTableRecord
100
AcDbBlockTableRecord
  2
_U3
340
0
  0
BLOCK_RECORD
  5
265
330
1
100
AcDbSymbolTableRecord
100
AcDbBlockTableRecord
  2
*D10
340
0
  0
BLOCK_RECORD
  5
271
330
1
100
AcDbSymbolTableRecord
100
AcDbBlockTableRecord
  2
_U4
340
0
  0
BLOCK_RECORD
  5
27E
330
1
100
AcDbSymbolTableRecord
100
AcDbBlockTableRecord
  2
*D12
340
0
  0
BLOCK_RECORD
  5
28A
330
1
100
AcDbSymbolTableRecord
100
AcDbBlockTableRecord
  2
_U5
340
0
  0
BLOCK_RECORD
  5
297
330
1
100
AcDbSymbolTableRecord
100
AcDbBlockTableRecord
  2
*D14
340
0
  0
BLOCK_RECORD
  5
2A3
330
1
100
AcDbSymbolTableRecord
100
AcDbBlockTableRecord
  2
_U6
340
0
  0
ENDTAB
  0
ENDSEC
  0
SECTION
  2
BLOCKS
  0
BLOCK
  5
20
330
1F
100
AcDbEntity
  8
0
100
AcDbBlockBegin
  2
*Model_Space
 70
     0
 10
0.0
 20
0.0
 30
0.0
  3
*Model_Space
  1

  0
ENDBLK
  5
21
330
1F
100
AcDbEntity
  8
0
100
AcDbBlockEnd
  0
BLOCK
  5
1C
330
1B
100
AcDbEntity
 67
     1
  8
0
100
AcDbBlockBegin
  2
*Paper_Space
 70
     0
 10
0.0
 20
0.0
 30
0.0
  3
*Paper_Space
  1

  0
ENDBLK
  5
1D
330
1B
100
AcDbEntity
 67
     1
  8
0
100
AcDbBlockEnd
  0
BLOCK
  5
24
330
23
100
AcDbEntity
 67
     1
  8
0
100
AcDbBlockBegin
  2
*Paper_Space0
 70
     0
 10
0.0
 20
0.0
 30
0.0
  3
*Paper_Space0
  1

  0
ENDBLK
  5
25
330
23
100
AcDbEntity
 67
     1
  8
0
100
AcDbBlockEnd
  0
BLOCK
  5
1FC
330
1F9
100
AcDbEntity
  8
0
100
AcDbBlockBegin
  2
ASSORTED_DRAFT1
 70
     0
 10
0.0
 20
0.0
 30
0.0
  3
ASSORTED_DRAFT1
  1

  0
SOLID
  5
1FA
330
1F9
100
AcDbEntity
  8
0
 62
   254
370
    13
100
AcDbTrace
 10
270.185042
 20
168.534924
 30
0.0
 11
265.185046
 21
167.42645
 31
0.0
 12
265.1850379999999
 22
169.643397
 32
0.0
 13
270.185042
 23
168.534924
 33
0.0
  0
ENDBLK
  5
1FD
330
1F9
100
AcDbEntity
  8
0
100
AcDbBlockEnd
  0
BLOCK
  5
208
330
207
100
AcDbEntity
  8
0
100
AcDbBlockBegin
  2
*D2
 70
     1
 10
0.0
 20
0.0
 30
0.0
  3
*D2
  1

  0
LINE
  5
20A
330
207
100
AcDbEntity
  8
0
 62
   254
370
    -2
100
AcDbLine
 10
426.4048419999999
 20
306.782994
 30
0.0
 11
426.4048419999999
 21
344.81834
 31
0.0
  0
LINE
  5
20B
330
207
100
AcDbEntity
  8
0
 62
   254
370
    -2
100
AcDbLine
 10
207.404842
 20
306.357994
 30
0.0
 11
207.404842
 21
344.81834
 31
0.0
  0
LINE
  5
20C
330
207
100
AcDbEntity
  8
0
 62
   254
370
    -2
100
AcDbLine
 10
422.9048419999999
 20
343.81834
 30
0.0
 11
210.904842
 21
343.81834
 31
0.0
  0
SOLID
  5
20D
330
207
100
AcDbEntity
  8
0
 62
   254
100
AcDbTrace
 10
422.9048419999999
 20
343.235007
 30
0.0
 11
422.9048419999999
 21
344.401674
 31
0.0
 12
426.4048419999999
 22
343.81834
 32
0.0
 13
426.4048419999999
 23
343.81834
 33
0.0
  0
SOLID
  5
20E
330
207
100
AcDbEntity
  8
0
 62
   254
100
AcDbTrace
 10
210.904842
 20
344.401674
 30
0.0
 11
210.904842
 21
343.235007
 31
0.0
 12
207.404842
 22
343.81834
 32
0.0
 13
207.404842
 23
343.81834
 33
0.0
  0
MTEXT
  5
20F
330
207
100
AcDbEntity
  8
0
 62
   254
370
    13
100
AcDbMText
 10
316.904842
 20
349.06834
 30
0.0
 40
3.5
 41
0.0
 71
     5
 72
     1
  1
\A1;219
  7
cesky
 73
     1
 44
1.0
  0
POINT
  5
210
330
207
100
AcDbEntity
  8
Defpoints
 62
     0
100
AcDbPoint
 10
426.4048419999999
 20
306.782994
 30
0.0
  0
POINT
  5
211
330
207
100
AcDbEntity
  8
Defpoints
 62
     0
100
AcDbPoint
 10
207.404842
 20
306.357994
 30
0.0
  0
POINT
  5
212
330
207
100
AcDbEntity
  8
Defpoints
 62
     0
100
AcDbPoint
 10
207.404842
 20
343.81834
 30
0.0
  0
ENDBLK
  5
209
330
207
100
AcDbEntity
  8
0
100
AcDbBlockEnd
  0
BLOCK
  5
21A
330
213
100
AcDbEntity
  8
0
100
AcDbBlockBegin
  2
_U0
 70
     0
 10
0.0
 20
0.0
 30
0.0
  3
_U0
  1

  0
ENDBLK
  5
21B
330
213
100
AcDbEntity
  8
0
100
AcDbBlockEnd
  0
BLOCK
  5
220
330
21F
100
AcDbEntity
  8
0
100
AcDbBlockBegin
  2
*D4
 70
     1
 10
0.0
 20
0.0
 30
0.0
  3
*D4
  1

  0
LINE
  5
222
330
21F
100
AcDbEntity
  8
0
 62
   254
370
    -2
100
AcDbLine
 10
274.404842
 20
288.907994
 30
0.0
 11
274.404842
 21
331.120893
 31
0.0
  0
LINE
  5
223
330
21F
100
AcDbEntity
  8
0
 62
   254
370
    -2
100
AcDbLine
 10
207.404842
 20
297.632994
 30
0.0
 11
207.404842
 21
331.120893
 31
0.0
  0
LINE
  5
224
330
21F
100
AcDbEntity
  8
0
 62
   254
370
    -2
100
AcDbLine
 10
270.904842
 20
330.120893
 30
0.0
 11
210.904842
 21
330.120893
 31
0.0
  0
SOLID
  5
225
330
21F
100
AcDbEntity
  8
0
 62
   254
100
AcDbTrace
 10
270.904842
 20
329.53756
 30
0.0
 11
270.904842
 21
330.704227
 31
0.0
 12
274.404842
 22
330.120893
 32
0.0
 13
274.404842
 23
330.120893
 33
0.0
  0
SOLID
  5
226
330
21F
100
AcDbEntity
  8
0
 62
   254
100
AcDbTrace
 10
210.904842
 20
330.704227
 30
0.0
 11
210.904842
 21
329.53756
 31
0.0
 12
207.404842
 22
330.120893
 32
0.0
 13
207.404842
 23
330.120893
 33
0.0
  0
MTEXT
  5
227
330
21F
100
AcDbEntity
  8
0
 62
   254
370
    13
100
AcDbMText
 10
240.904842
 20
335.370893
 30
0.0
 40
3.5
 41
0.0
 71
     5
 72
     1
  1
\A1;67
  7
cesky
 73
     1
 44
1.0
  0
POINT
  5
228
330
21F
100
AcDbEntity
  8
Defpoints
 62
     0
100
AcDbPoint
 10
274.404842
 20
288.907994
 30
0.0
  0
POINT
  5
229
330
21F
100
AcDbEntity
  8
Defpoints
 62
     0
100
AcDbPoint
 10
207.404842
 20
297.632994
 30
0.0
  0
POINT
  5
22A
330
21F
100
AcDbEntity
  8
Defpoints
 62
     0
100
AcDbPoint
 10
207.404842
 20
330.120893
 30
0.0
  0
ENDBLK
  5
221
330
21F
100
AcDbEntity
  8
0
100
AcDbBlockEnd
  0
BLOCK
  5
232
330
22B
100
AcDbEntity
  8
0
100
AcDbBlockBegin
  2
_U1
 70
     0
 10
0.0
 20
0.0
 30
0.0
  3
_U1
  1

  0
ENDBLK
  5
233
330
22B
100
AcDbEntity
  8
0
100
AcDbBlockEnd
  0
BLOCK
  5
238
330
237
100
AcDbEntity
  8
0
100
AcDbBlockBegin
  2
*D6
 70
     1
 10
0.0
 20
0.0
 30
0.0
  3
*D6
  1

  0
LINE
  5
23A
330
237
100
AcDbEntity
  8
0
 62
   254
370
    -2
100
AcDbLine
 10
426.4048419999999
 20
304.782994
 30
0.0
 11
426.4048419999999
 21
317.733995
 31
0.0
  0
LINE
  5
23B
330
237
100
AcDbEntity
  8
0
 62
   254
370
    -2
100
AcDbLine
 10
295.082367
 20
304.563782
 30
0.0
 11
295.082367
 21
317.733995
 31
0.0
  0
LINE
  5
23C
330
237
100
AcDbEntity
  8
0
 62
   254
370
    -2
100
AcDbLine
 10
422.9048419999999
 20
316.733995
 30
0.0
 11
298.582367
 21
316.733995
 31
0.0
  0
SOLID
  5
23D
330
237
100
AcDbEntity
  8
0
 62
   254
100
AcDbTrace
 10
422.9048419999999
 20
316.150662
 30
0.0
 11
422.9048419999999
 21
317.317328
 31
0.0
 12
426.4048419999999
 22
316.733995
 32
0.0
 13
426.4048419999999
 23
316.733995
 33
0.0
  0
SOLID
  5
23E
330
237
100
AcDbEntity
  8
0
 62
   254
100
AcDbTrace
 10
298.582367
 20
317.317328
 30
0.0
 11
298.582367
 21
316.150662
 31
0.0
 12
295.082367
 22
316.733995
 32
0.0
 13
295.082367
 23
316.733995
 33
0.0
  0
MTEXT
  5
23F
330
237
100
AcDbEntity
  8
0
 62
   254
370
    13
100
AcDbMText
 10
360.743604
 20
321.983995
 30
0.0
 40
3.5
 41
0.0
 71
     5
 72
     1
  1
\A1;131.3
  7
cesky
 73
     1
 44
1.0
  0
POINT
  5
240
330
237
100
AcDbEntity
  8
Defpoints
 62
     0
100
AcDbPoint
 10
426.4048419999999
 20
304.782994
 30
0.0
  0
POINT
  5
241
330
237
100
AcDbEntity
  8
Defpoints
 62
     0
100
AcDbPoint
 10
295.082367
 20
304.563782
 30
0.0
  0
POINT
  5
242
330
237
100
AcDbEntity
  8
Defpoints
 62
     0
100
AcDbPoint
 10
295.082367
 20
316.733995
 30
0.0
  0
ENDBLK
  5
239
330
237
100
AcDbEntity
  8
0
100
AcDbBlockEnd
  0
BLOCK
  5
24A
330
243
100
AcDbEntity
  8
0
100
AcDbBlockBegin
  2
_U2
 70
     0
 10
0.0
 20
0.0
 30
0.0
  3
_U2
  1

  0
ENDBLK
  5
24B
330
243
100
AcDbEntity
  8
0
100
AcDbBlockEnd
  0
BLOCK
  5
250
330
24F
100
AcDbEntity
  8
0
100
AcDbBlockBegin
  2
*D8
 70
     1
 10
0.0
 20
0.0
 30
0.0
  3
*D8
  1

  0
LINE
  5
252
330
24F
100
AcDbEntity
  8
0
 62
   254
370
    -2
100
AcDbLine
 10
294.853832
 20
288.907994
 30
0.0
 11
443.5607499999999
 21
288.907994
 31
0.0
  0
LINE
  5
253
330
24F
100
AcDbEntity
  8
0
 62
   254
370
    -2
100
AcDbLine
 10
330.83929
 20
304.782994
 30
0.0
 11
443.5607499999999
 21
304.782994
 31
0.0
  0
LINE
  5
254
330
24F
100
AcDbEntity
  8
0
 62
   254
370
    -2
100
AcDbLine
 10
442.5607499999999
 20
288.907994
 30
0.0
 11
442.5607499999999
 21
304.782994
 31
0.0
  0
SOLID
  5
255
330
24F
100
AcDbEntity
  8
0
 62
   254
100
AcDbTrace
 10
443.1440839999999
 20
301.282994
 30
0.0
 11
441.977417
 21
301.282994
 31
0.0
 12
442.5607499999999
 22
304.782994
 32
0.0
 13
442.5607499999999
 23
304.782994
 33
0.0
  0
MTEXT
  5
256
330
24F
100
AcDbEntity
  8
0
 62
   254
370
    13
100
AcDbMText
 10
437.3107499999999
 20
276.907994
 30
0.0
 40
3.5
 41
0.0
 71
     5
 72
     1
  1
\A1;31.8
  7
cesky
 11
0.0
 21
1.0
 31
0.0
 73
     1
 44
1.0
  0
POINT
  5
257
330
24F
100
AcDbEntity
  8
Defpoints
 62
     0
100
AcDbPoint
 10
294.853832
 20
288.907994
 30
0.0
  0
POINT
  5
258
330
24F
100
AcDbEntity
  8
Defpoints
 62
     0
100
AcDbPoint
 10
330.83929
 20
304.782994
 30
0.0
  0
POINT
  5
259
330
24F
100
AcDbEntity
  8
Defpoints
 62
     0
100
AcDbPoint
 10
442.5607499999999
 20
304.782994
 30
0.0
  0
ENDBLK
  5
251
330
24F
100
AcDbEntity
  8
0
100
AcDbBlockEnd
  0
BLOCK
  5
260
330
25A
100
AcDbEntity
  8
0
100
AcDbBlockBegin
  2
_U3
 70
     0
 10
0.0
 20
0.0
 30
0.0
  3
_U3
  1

  0
ENDBLK
  5
261
330
25A
100
AcDbEntity
  8
0
100
AcDbBlockEnd
  0
BLOCK
  5
266
330
265
100
AcDbEntity
  8
0
100
AcDbBlockBegin
  2
*D10
 70
     1
 10
0.0
 20
0.0
 30
0.0
  3
*D10
  1

  0
LINE
  5
268
330
265
100
AcDbEntity
  8
0
 62
    95
370
    -2
100
AcDbLine
 10
209.004842
 20
307.957994
 30
0.0
 11
192.833766
 21
307.957994
 31
0.0
  0
LINE
  5
269
330
265
100
AcDbEntity
  8
0
 62
    95
370
    -2
100
AcDbLine
 10
209.004842
 20
269.857994
 30
0.0
 11
192.833766
 21
269.857994
 31
0.0
  0
LINE
  5
26A
330
265
100
AcDbEntity
  8
0
 62
    95
370
    -2
100
AcDbLine
 10
193.833766
 20
304.457994
 30
0.0
 11
193.833766
 21
273.357994
 31
0.0
  0
SOLID
  5
26B
330
265
100
AcDbEntity
  8
0
 62
    95
100
AcDbTrace
 10
194.417099
 20
304.457994
 30
0.0
 11
193.250432
 21
304.457994
 31
0.0
 12
193.833766
 22
307.957994
 32
0.0
 13
193.833766
 23
307.957994
 33
0.0
  0
SOLID
  5
26C
330
265
100
AcDbEntity
  8
0
 62
    95
100
AcDbTrace
 10
193.250432
 20
273.357994
 30
0.0
 11
194.417099
 21
273.357994
 31
0.0
 12
193.833766
 22
269.857994
 32
0.0
 13
193.833766
 23
269.857994
 33
0.0
  0
MTEXT
  5
26D
330
265
100
AcDbEntity
  8
0
 62
    95
370
    13
100
AcDbMText
 10
188.583766
 20
288.907994
 30
0.0
 40
3.5
 41
0.0
 71
     5
 72
     1
  1
\A1;38.1
  7
cesky
 11
0.0
 21
1.0
 31
0.0
 73
     1
 44
1.0
  0
POINT
  5
26E
330
265
100
AcDbEntity
  8
Defpoints
 62
     0
100
AcDbPoint
 10
209.004842
 20
307.957994
 30
0.0
  0
POINT
  5
26F
330
265
100
AcDbEntity
  8
Defpoints
 62
     0
100
AcDbPoint
 10
209.004842
 20
269.857994
 30
0.0
  0
POINT
  5
270
330
265
100
AcDbEntity
  8
Defpoints
 62
     0
100
AcDbPoint
 10
193.833766
 20
269.857994
 30
0.0
  0
ENDBLK
  5
267
330
265
100
AcDbEntity
  8
0
100
AcDbBlockEnd
  0
BLOCK
  5
279
330
271
100
AcDbEntity
  8
0
100
AcDbBlockBegin
  2
_U4
 70
     0
 10
0.0
 20
0.0
 30
0.0
  3
_U4
  1

  0
ENDBLK
  5
27A
330
271
100
AcDbEntity
  8
0
100
AcDbBlockEnd
  0
BLOCK
  5
27F
330
27E
100
AcDbEntity
  8
0
100
AcDbBlockBegin
  2
*D12
 70
     1
 10
0.0
 20
0.0
 30
0.0
  3
*D12
  1

  0
LINE
  5
281
330
27E
100
AcDbEntity
  8
0
 62
    95
370
    -2
100
AcDbLine
 10
277.154842
 20
313.907994
 30
0.0
 11
179.948543
 21
313.907994
 31
0.0
  0
LINE
  5
282
330
27E
100
AcDbEntity
  8
0
 62
    95
370
    -2
100
AcDbLine
 10
277.154842
 20
263.907994
 30
0.0
 11
179.948543
 21
263.907994
 31
0.0
  0
LINE
  5
283
330
27E
100
AcDbEntity
  8
0
 62
    95
370
    -2
100
AcDbLine
 10
180.948543
 20
310.407994
 30
0.0
 11
180.948543
 21
267.407994
 31
0.0
  0
SOLID
  5
284
330
27E
100
AcDbEntity
  8
0
 62
    95
100
AcDbTrace
 10
181.531877
 20
310.407994
 30
0.0
 11
180.36521
 21
310.407994
 31
0.0
 12
180.948543
 22
313.907994
 32
0.0
 13
180.948543
 23
313.907994
 33
0.0
  0
SOLID
  5
285
330
27E
100
AcDbEntity
  8
0
 62
    95
100
AcDbTrace
 10
180.36521
 20
267.407994
 30
0.0
 11
181.531877
 21
267.407994
 31
0.0
 12
180.948543
 22
263.907994
 32
0.0
 13
180.948543
 23
263.907994
 33
0.0
  0
MTEXT
  5
286
330
27E
100
AcDbEntity
  8
0
 62
    95
370
    13
100
AcDbMText
 10
175.698543
 20
288.907994
 30
0.0
 40
3.5
 41
0.0
 71
     5
 72
     1
  1
\A1;50
  7
cesky
 11
0.0
 21
1.0
 31
0.0
 73
     1
 44
1.0
  0
POINT
  5
287
330
27E
100
AcDbEntity
  8
Defpoints
 62
     0
100
AcDbPoint
 10
277.154842
 20
313.907994
 30
0.0
  0
POINT
  5
288
330
27E
100
AcDbEntity
  8
Defpoints
 62
     0
100
AcDbPoint
 10
277.154842
 20
263.907994
 30
0.0
  0
POINT
  5
289
330
27E
100
AcDbEntity
  8
Defpoints
 62
     0
100
AcDbPoint
 10
180.948543
 20
263.907994
 30
0.0
  0
ENDBLK
  5
280
330
27E
100
AcDbEntity
  8
0
100
AcDbBlockEnd
  0
BLOCK
  5
292
330
28A
100
AcDbEntity
  8
0
100
AcDbBlockBegin
  2
_U5
 70
     0
 10
0.0
 20
0.0
 30
0.0
  3
_U5
  1

  0
ENDBLK
  5
293
330
28A
100
AcDbEntity
  8
0
100
AcDbBlockEnd
  0
BLOCK
  5
298
330
297
100
AcDbEntity
  8
0
100
AcDbBlockBegin
  2
*D14
 70
     1
 10
0.0
 20
0.0
 30
0.0
  3
*D14
  1

  0
LINE
  5
29A
330
297
100
AcDbEntity
  8
0
 62
   254
370
    -2
100
AcDbLine
 10
426.4048419999999
 20
304.782994
 30
0.0
 11
426.4048419999999
 21
331.120893
 31
0.0
  0
LINE
  5
29B
330
297
100
AcDbEntity
  8
0
 62
   254
370
    -2
100
AcDbLine
 10
274.404842
 20
288.907994
 30
0.0
 11
274.404842
 21
331.120893
 31
0.0
  0
LINE
  5
29C
330
297
100
AcDbEntity
  8
0
 62
   254
370
    -2
100
AcDbLine
 10
422.9048419999999
 20
330.120893
 30
0.0
 11
277.904842
 21
330.120893
 31
0.0
  0
SOLID
  5
29D
330
297
100
AcDbEntity
  8
0
 62
   254
100
AcDbTrace
 10
422.9048419999999
 20
329.53756
 30
0.0
 11
422.9048419999999
 21
330.704227
 31
0.0
 12
426.4048419999999
 22
330.120893
 32
0.0
 13
426.4048419999999
 23
330.120893
 33
0.0
  0
SOLID
  5
29E
330
297
100
AcDbEntity
  8
0
 62
   254
100
AcDbTrace
 10
277.904842
 20
330.704227
 30
0.0
 11
277.904842
 21
329.53756
 31
0.0
 12
274.404842
 22
330.120893
 32
0.0
 13
274.404842
 23
330.120893
 33
0.0
  0
MTEXT
  5
29F
330
297
100
AcDbEntity
  8
0
 62
   254
370
    13
100
AcDbMText
 10
350.404842
 20
335.370893
 30
0.0
 40
3.5
 41
0.0
 71
     5
 72
     1
  1
\A1;152
  7
cesky
 73
     1
 44
1.0
  0
POINT
  5
2A0
330
297
100
AcDbEntity
  8
Defpoints
 62
     0
100
AcDbPoint
 10
426.4048419999999
 20
304.782994
 30
0.0
  0
POINT
  5
2A1
330
297
100
AcDbEntity
  8
Defpoints
 62
     0
100
AcDbPoint
 10
274.404842
 20
288.907994
 30
0.0
  0
POINT
  5
2A2
330
297
100
AcDbEntity
  8
Defpoints
 62
     0
100
AcDbPoint
 10
274.404842
 20
330.120893
 30
0.0
  0
ENDBLK
  5
299
330
297
100
AcDbEntity
  8
0
100
AcDbBlockEnd
  0
BLOCK
  5
2AA
330
2A3
100
AcDbEntity
  8
0
100
AcDbBlockBegin
  2
_U6
 70
     0
 10
0.0
 20
0.0
 30
0.0
  3
_U6
  1

  0
ENDBLK
  5
2AB
330
2A3
100
AcDbEntity
  8
0
100
AcDbBlockEnd
  0
ENDSEC
  0
SECTION
  2
ENTITIES
  0
POINT
  5
73
102
{ACAD_REACTORS
330
357
102
}
330
1F
100
AcDbEntity
  8
80
100
AcDbPoint
 10
274.404842
 20
288.907994
 30
0.0
  0
POINT
  5
76
330
1F
100
AcDbEntity
  8
SK4
 60
     1
100
AcDbPoint
 10
209.004842
 20
288.907994
 30
0.0
  0
POINT
  5
78
330
1F
100
AcDbEntity
  8
SK4
 60
     1
100
AcDbPoint
 10
274.404842
 20
288.907994
 30
0.0
  0
POINT
  5
79
330
1F
100
AcDbEntity
  8
4
 60
     1
100
AcDbPoint
 10
294.853832
 20
288.907994
 30
0.0
  0
POINT
  5
7A
330
1F
100
AcDbEntity
  8
4
 60
     1
100
AcDbPoint
 10
425.883428
 20
288.907994
 30
0.0
  0
POINT
  5
7B
330
1F
100
AcDbEntity
  8
SK6
 60
     1
100
AcDbPoint
 10
274.404842
 20
288.907994
 30
0.0
  0
POINT
  5
7C
330
1F
100
AcDbEntity
  8
SK6
 60
     1
100
AcDbPoint
 10
295.082367
 20
304.563782
 30
0.0
  0
LINE
  5
7D
330
1F
100
AcDbEntity
  8
1
100
AcDbLine
 10
413.957348
 20
291.797666
 30
0.0
 11
413.971518
 21
291.383511
 31
0.0
  0
LINE
  5
7F
330
1F
100
AcDbEntity
  8
1
100
AcDbLine
 10
422.296494
 20
300.357413
 30
0.0
 11
422.3274759999999
 21
300.463823
 31
0.0
  0
LINE
  5
81
330
1F
100
AcDbEntity
  8
1
100
AcDbLine
 10
420.3737789999999
 20
298.369303
 30
0.0
 11
420.343025
 21
298.2636779999999
 31
0.0
  0
LINE
  5
82
330
1F
100
AcDbEntity
  8
1
100
AcDbLine
 10
410.730897
 20
295.707162
 30
0.0
 11
409.905498
 21
296.182636
 31
0.0
  0
LINE
  5
83
330
1F
100
AcDbEntity
  8
1
100
AcDbLine
 10
413.9856339999999
 20
294.349402
 30
0.0
 11
413.989757
 21
294.36356
 31
0.0
  0
LINE
  5
84
330
1F
100
AcDbEntity
  8
1
100
AcDbLine
 10
425.682658
 20
290.047775
 30
0.0
 11
425.190758
 21
289.572752
 31
0.0
  0
LINE
  5
86
330
1F
100
AcDbEntity
  8
1
100
AcDbLine
 10
425.1228379999999
 20
289.507163
 30
0.0
 11
425.190758
 21
289.572752
 31
0.0
  0
LINE
  5
87
330
1F
100
AcDbEntity
  8
1
100
AcDbLine
 10
426.388062
 20
288.77519
 30
0.0
 11
425.724553
 21
288.609759
 31
0.0
  0
LINE
  5
88
330
1F
100
AcDbEntity
  8
1
100
AcDbLine
 10
425.117037
 20
288.458288
 30
0.0
 11
425.724553
 21
288.609759
 31
0.0
  0
LINE
  5
89
330
1F
100
AcDbEntity
  8
1
100
AcDbLine
 10
425.59984
 20
281.464907
 30
0.0
 11
424.9548559999999
 21
281.649853
 31
0.0
  0
LINE
  5
8A
330
1F
100
AcDbEntity
  8
1
100
AcDbLine
 10
425.59984
 20
281.464907
 30
0.0
 11
426.264067
 21
281.274443
 31
0.0
  0
LINE
  5
8B
330
1F
100
AcDbEntity
  8
1
100
AcDbLine
 10
424.8621909999999
 20
280.69776
 30
0.0
 11
425.032761
 21
280.52113
 31
0.0
  0
LINE
  5
8C
330
1F
100
AcDbEntity
  8
1
100
AcDbLine
 10
425.507783
 20
280.02923
 30
0.0
 11
425.032761
 21
280.52113
 31
0.0
  0
LINE
  5
8F
330
1F
100
AcDbEntity
  8
1
100
AcDbLine
 10
426.359382
 20
288.846592
 30
0.0
 11
425.728011
 21
289.985615
 31
0.0
  0
LINE
  5
90
330
1F
100
AcDbEntity
  8
1
100
AcDbLine
 10
425.623573
 20
290.096675
 30
0.0
 11
425.438136
 21
290.214481
 31
0.0
  0
LINE
  5
91
330
1F
100
AcDbEntity
  8
1
100
AcDbLine
 10
425.1827539999999
 20
290.36793
 30
0.0
 11
425.438136
 21
290.214481
 31
0.0
  0
LINE
  5
92
330
1F
100
AcDbEntity
  8
1
100
AcDbLine
 10
426.399861
 20
288.479483
 30
0.0
 11
426.275424
 21
281.350477
 31
0.0
  0
LINE
  5
93
330
1F
100
AcDbEntity
  8
1
100
AcDbLine
 10
425.8286059999999
 20
303.91885
 30
0.0
 11
426.115375
 21
295.958986
 31
0.0
  0
LINE
  5
94
330
1F
100
AcDbEntity
  8
1
100
AcDbLine
 10
417.055789
 20
304.385077
 30
0.0
 11
425.028465
 21
304.663041
 31
0.0
  0
LINE
  5
95
330
1F
100
AcDbEntity
  8
1
100
AcDbLine
 10
416.5979789999999
 20
295.627165
 30
0.0
 11
416.31121
 21
303.58703
 31
0.0
  0
LINE
  5
96
330
1F
100
AcDbEntity
  8
1
100
AcDbLine
 10
425.3707959999999
 20
295.160939
 30
0.0
 11
417.39812
 21
294.882974
 31
0.0
  0
LINE
  5
97
330
1F
100
AcDbEntity
  8
1
100
AcDbLine
 10
417.8392609999999
 20
296.150507
 30
0.0
 11
417.587679
 21
303.1336790000001
 31
0.0
  0
LINE
  5
98
330
1F
100
AcDbEntity
  8
1
100
AcDbLine
 10
424.833673
 20
296.394365
 30
0.0
 11
417.8392609999999
 21
296.150507
 31
0.0
  0
LINE
  5
99
330
1F
100
AcDbEntity
  8
1
100
AcDbLine
 10
424.5820909999999
 20
303.377537
 30
0.0
 11
424.833673
 21
296.394365
 31
0.0
  0
LINE
  5
9A
330
1F
100
AcDbEntity
  8
1
100
AcDbLine
 10
417.587679
 20
303.1336790000001
 30
0.0
 11
424.5820909999999
 21
303.377537
 31
0.0
  0
LINE
  5
9B
330
1F
100
AcDbEntity
  8
81
100
AcDbLine
 10
424.4048419999999
 20
304.782994
 30
0.0
 11
428.4048419999999
 21
304.782994
 31
0.0
  0
LINE
  5
9C
330
1F
100
AcDbEntity
  8
80
100
AcDbLine
 10
274.404842
 20
287.90842
 30
0.0
 11
274.404842
 21
289.907567
 31
0.0
  0
LINE
  5
9D
330
1F
100
AcDbEntity
  8
SK1
100
AcDbLine
 10
209.004842
 20
269.857994
 30
0.0
 11
274.404842
 21
269.857994
 31
0.0
  0
LINE
  5
9E
330
1F
100
AcDbEntity
  8
81
100
AcDbLine
 10
426.4048419999999
 20
306.782994
 30
0.0
 11
426.4048419999999
 21
302.782994
 31
0.0
  0
LINE
  5
9F
330
1F
100
AcDbEntity
  8
1
100
AcDbLine
 10
274.904842
 20
263.907994
 30
0.0
 11
279.404842
 21
263.907994
 31
0.0
  0
LINE
  5
A0
330
1F
100
AcDbEntity
  8
1
100
AcDbLine
 10
420.258645
 20
300.832278
 30
0.0
 11
420.2895919999999
 21
300.938567
 31
0.0
  0
LINE
  5
A1
330
1F
100
AcDbEntity
  8
1
100
AcDbLine
 10
419.524182
 20
299.649558
 30
0.0
 11
419.493754
 21
299.54505
 31
0.0
  0
LINE
  5
A2
330
1F
100
AcDbEntity
  8
1
100
AcDbLine
 10
419.5932309999999
 20
299.639614
 30
0.0
 11
419.5623659999999
 21
299.533609
 31
0.0
  0
LINE
  5
A3
330
1F
100
AcDbEntity
  8
1
100
AcDbLine
 10
422.4279309999999
 20
298.869708
 30
0.0
 11
422.458341
 21
298.97415
 31
0.0
  0
LINE
  5
A4
330
1F
100
AcDbEntity
  8
1
100
AcDbLine
 10
422.3571009999999
 20
298.889609
 30
0.0
 11
422.387971
 21
298.995632
 31
0.0
  0
LINE
  5
A5
330
1F
100
AcDbEntity
  8
1
100
AcDbLine
 10
421.0999099999999
 20
298.094536
 30
0.0
 11
421.1306999999999
 21
298.200286
 31
0.0
  0
LINE
  5
A6
330
1F
100
AcDbEntity
  8
1
100
AcDbLine
 10
421.101446
 20
298.07772
 30
0.0
 11
421.132124
 21
298.183085
 31
0.0
  0
LINE
  5
A7
330
1F
100
AcDbEntity
  8
1
100
AcDbLine
 10
423.9474379999999
 20
294.258349
 30
0.0
 11
417.4598259999999
 21
294.032161
 31
0.0
  0
LINE
  5
A8
330
1F
100
AcDbEntity
  8
1
100
AcDbLine
 10
289.054842
 20
304.01532
 30
0.0
 11
289.054842
 21
286.46114
 31
0.0
  0
LINE
  5
A9
330
1F
100
AcDbEntity
  8
1
100
AcDbLine
 10
425.6948419999999
 20
295.25713
 30
0.0
 11
425.6948419999999
 21
291.092185
 31
0.0
  0
LINE
  5
AA
330
1F
100
AcDbEntity
  8
1
100
AcDbLine
 10
425.533122
 20
294.978688
 30
0.0
 11
425.531237
 21
295.202626
 31
0.0
  0
LINE
  5
AB
330
1F
100
AcDbEntity
  8
1
100
AcDbLine
 10
425.533122
 20
294.978688
 30
0.0
 11
425.4911429999999
 21
294.959435
 31
0.0
  0
LINE
  5
AC
330
1F
100
AcDbEntity
  8
1
100
AcDbLine
 10
424.676403
 20
273.557994
 30
0.0
 11
425.2482769999999
 21
278.946057
 31
0.0
  0
LINE
  5
AD
330
1F
100
AcDbEntity
  8
1
100
AcDbLine
 10
425.2482769999999
 20
278.946057
 30
0.0
 11
425.206186
 21
278.94673
 31
0.0
  0
LINE
  5
AE
330
1F
100
AcDbEntity
  8
1
100
AcDbLine
 10
425.2314679999999
 20
279.184931
 30
0.0
 11
425.206186
 21
278.94673
 31
0.0
  0
LINE
  5
AF
330
1F
100
AcDbEntity
  8
1
100
AcDbLine
 10
425.2314679999999
 20
279.184931
 30
0.0
 11
424.989678
 21
279.577912
 31
0.0
  0
LINE
  5
B0
330
1F
100
AcDbEntity
  8
1
100
AcDbLine
 10
423.69487
 20
283.153494
 30
0.0
 11
425.122841
 21
283.153494
 31
0.0
  0
LINE
  5
B1
330
1F
100
AcDbEntity
  8
SK1
100
AcDbLine
 10
209.004842
 20
307.957994
 30
0.0
 11
209.004842
 21
269.857994
 31
0.0
  0
LINE
  5
B2
330
1F
100
AcDbEntity
  8
SK1
100
AcDbLine
 10
207.404842
 20
306.357994
 30
0.0
 11
207.404842
 21
271.457994
 31
0.0
  0
LINE
  5
B3
330
1F
100
AcDbEntity
  8
1
100
AcDbLine
 10
416.3265069999999
 20
297.469488
 30
0.0
 11
416.321275
 21
297.451517
 31
0.0
  0
LINE
  5
B4
330
1F
100
AcDbEntity
  8
1
100
AcDbLine
 10
416.3265069999999
 20
297.469488
 30
0.0
 11
416.0945069999999
 21
304.180742
 31
0.0
  0
LINE
  5
B5
330
1F
100
AcDbEntity
  8
1
100
AcDbLine
 10
416.0897939999999
 20
304.147726
 30
0.0
 11
416.321275
 21
297.451517
 31
0.0
  0
LINE
  5
B6
330
1F
100
AcDbEntity
  8
1
100
AcDbLine
 10
424.676403
 20
273.557994
 30
0.0
 11
401.181558
 21
273.557994
 31
0.0
  0
LINE
  5
B7
330
1F
100
AcDbEntity
  8
1
100
AcDbLine
 10
274.904842
 20
263.907994
 30
0.0
 11
274.904842
 21
288.907994
 31
0.0
  0
LINE
  5
B8
330
1F
100
AcDbEntity
  8
1
100
AcDbLine
 10
274.904842
 20
288.907994
 30
0.0
 11
274.904842
 21
313.907994
 31
0.0
  0
LINE
  5
B9
330
1F
100
AcDbEntity
  8
1
100
AcDbLine
 10
418.4327259999999
 20
300.447135
 30
0.0
 11
418.412274
 21
300.376893
 31
0.0
  0
LINE
  5
BA
330
1F
100
AcDbEntity
  8
1
100
AcDbLine
 10
423.6929909999999
 20
298.839352
 30
0.0
 11
423.713443
 21
298.909595
 31
0.0
  0
LINE
  5
BB
330
1F
100
AcDbEntity
  8
1
100
AcDbLine
 10
279.404842
 20
263.907994
 30
0.0
 11
284.954337
 21
269.457488
 31
0.0
  0
LINE
  5
BC
330
1F
100
AcDbEntity
  8
1
100
AcDbLine
 10
284.954337
 20
308.358499
 30
0.0
 11
279.404842
 21
313.907994
 31
0.0
  0
LINE
  5
BD
330
1F
100
AcDbEntity
  8
SK1
100
AcDbLine
 10
207.404842
 20
271.457994
 30
0.0
 11
209.004842
 21
269.857994
 31
0.0
  0
LINE
  5
BE
330
1F
100
AcDbEntity
  8
SK1
100
AcDbLine
 10
209.004842
 20
307.957994
 30
0.0
 11
207.404842
 21
306.357994
 31
0.0
  0
LINE
  5
BF
330
1F
100
AcDbEntity
  8
1
100
AcDbLine
 10
294.853832
 20
273.557994
 30
0.0
 11
302.072723
 21
273.557994
 31
0.0
  0
LINE
  5
C0
330
1F
100
AcDbEntity
  8
1
100
AcDbLine
 10
416.5341689999999
 20
304.257994
 30
0.0
 11
404.7974629999999
 21
304.257994
 31
0.0
  0
LINE
  5
C1
330
1F
100
AcDbEntity
  8
1
100
AcDbLine
 10
302.647286
 20
304.257994
 30
0.0
 11
294.853832
 21
304.257994
 31
0.0
  0
LINE
  5
C2
330
1F
100
AcDbEntity
  8
1
100
AcDbLine
 10
419.816155
 20
298.868588
 30
0.0
 11
419.847361
 21
298.975766
 31
0.0
  0
LINE
  5
C3
330
1F
100
AcDbEntity
  8
1
100
AcDbLine
 10
421.8857269999999
 20
298.577105
 30
0.0
 11
421.8542559999999
 21
298.469015
 31
0.0
  0
LINE
  5
C4
330
1F
100
AcDbEntity
  8
1
100
AcDbLine
 10
420.239588
 20
300.708002
 30
0.0
 11
420.2710589999999
 21
300.816092
 31
0.0
  0
LINE
  5
C5
330
1F
100
AcDbEntity
  8
1
100
AcDbLine
 10
422.3088940000001
 20
300.415607
 30
0.0
 11
422.277688
 21
300.308429
 31
0.0
  0
LINE
  5
C6
330
1F
100
AcDbEntity
  8
1
100
AcDbLine
 10
425.734349
 20
288.533649
 30
0.0
 11
425.6122849999999
 21
281.540629
 31
0.0
  0
LINE
  5
C7
330
1F
100
AcDbEntity
  8
1
100
AcDbLine
 10
424.971745
 20
280.474592
 30
0.0
 11
424.830174
 21
280.396117
 31
0.0
  0
LINE
  5
C8
330
1F
100
AcDbEntity
  8
1
100
AcDbLine
 10
416.5618929999999
 20
304.172165
 30
0.0
 11
416.558961
 21
304.256988
 31
0.0
  0
LINE
  5
C9
330
1F
100
AcDbEntity
  8
1
100
AcDbLine
 10
426.399861
 20
288.479483
 30
0.0
 11
426.3982219999999
 21
288.699171
 31
0.0
  0
LINE
  5
CA
330
1F
100
AcDbEntity
  8
1
100
AcDbLine
 10
424.790721
 20
279.620858
 30
0.0
 11
425.445624
 21
279.983876
 31
0.0
  0
LINE
  5
CB
330
1F
100
AcDbEntity
  8
1
100
AcDbLine
 10
425.556683
 20
280.088314
 30
0.0
 11
425.67449
 21
280.273751
 31
0.0
  0
LINE
  5
CC
330
1F
100
AcDbEntity
  8
1
100
AcDbLine
 10
426.2334059999999
 20
281.203944
 30
0.0
 11
425.67449
 21
280.273751
 31
0.0
  0
LINE
  5
CD
330
1F
100
AcDbEntity
  8
1
100
AcDbLine
 10
425.5702669999999
 20
281.394096
 30
0.0
 11
425.0814
 21
280.580484
 31
0.0
  0
LINE
  5
CE
330
1F
100
AcDbEntity
  8
1
100
AcDbLine
 10
425.237296
 20
289.511736
 30
0.0
 11
425.6974699999999
 21
288.681559
 31
0.0
  0
LINE
  5
CF
330
1F
100
AcDbEntity
  8
1
100
AcDbLine
 10
425.1228349999999
 20
289.62654
 30
0.0
 11
425.131403
 21
289.621391
 31
0.0
  0
LINE
  5
D0
330
1F
100
AcDbEntity
  8
1
100
AcDbLine
 10
425.6948419999999
 20
290.99217
 30
0.0
 11
425.6948419999999
 21
291.092185
 31
0.0
  0
LINE
  5
D1
330
1F
100
AcDbEntity
  8
1
100
AcDbLine
 10
416.3327339999999
 20
303.779383
 30
0.0
 11
416.3188729999999
 21
304.180349
 31
0.0
  0
LINE
  5
D2
330
1F
100
AcDbEntity
  8
1
100
AcDbLine
 10
419.254055
 20
294.741981
 30
0.0
 11
425.4911429999999
 21
294.959435
 31
0.0
  0
LINE
  5
D3
330
1F
100
AcDbEntity
  8
1
100
AcDbLine
 10
425.4923869999999
 20
294.811638
 30
0.0
 11
425.4911429999999
 21
294.959435
 31
0.0
  0
LINE
  5
D4
330
1F
100
AcDbEntity
  8
1
100
AcDbLine
 10
422.3624849999999
 20
300.496176
 30
0.0
 11
422.3572639999999
 21
300.492784
 31
0.0
  0
LINE
  5
D5
330
1F
100
AcDbEntity
  8
1
100
AcDbLine
 10
425.412089
 20
294.273607
 30
0.0
 11
417.4678399999999
 21
293.996634
 31
0.0
  0
LINE
  5
D6
330
1F
100
AcDbEntity
  8
1
100
AcDbLine
 10
425.412089
 20
294.273607
 30
0.0
 11
423.561898
 21
291.208135
 31
0.0
  0
LINE
  5
D7
330
1F
100
AcDbEntity
  8
1
100
AcDbLine
 10
424.989678
 20
279.577912
 30
0.0
 11
424.813908
 21
279.580724
 31
0.0
  0
LINE
  5
D8
330
1F
100
AcDbEntity
  8
1
100
AcDbLine
 10
424.796742
 20
280.081063
 30
0.0
 11
425.122841
 21
283.153494
 31
0.0
  0
LINE
  5
D9
330
1F
100
AcDbEntity
  8
1
100
AcDbLine
 10
425.122841
 20
283.153494
 30
0.0
 11
425.122841
 21
289.874346
 31
0.0
  0
LINE
  5
DA
330
1F
100
AcDbEntity
  8
1
100
AcDbLine
 10
425.193111
 20
290.373196
 30
0.0
 11
425.3691799999999
 21
290.370122
 31
0.0
  0
LINE
  5
DB
330
1F
100
AcDbEntity
  8
1
100
AcDbLine
 10
279.404842
 20
263.907994
 30
0.0
 11
279.404842
 21
269.122032
 31
0.0
  0
LINE
  5
DC
330
1F
100
AcDbEntity
  8
1
100
AcDbLine
 10
279.404842
 20
313.907994
 30
0.0
 11
279.404842
 21
277.356286
 31
0.0
  0
LINE
  5
DD
330
1F
100
AcDbEntity
  8
1
100
AcDbLine
 10
425.412089
 20
294.273607
 30
0.0
 11
425.426623
 21
294.280273
 31
0.0
  0
LINE
  5
DE
330
1F
100
AcDbEntity
  8
1
100
AcDbLine
 10
425.533122
 20
294.978688
 30
0.0
 11
419.259287
 21
294.759953
 31
0.0
  0
LINE
  5
DF
330
1F
100
AcDbEntity
  8
1
100
AcDbLine
 10
419.254055
 20
294.741981
 30
0.0
 11
419.259287
 21
294.759953
 31
0.0
  0
LINE
  5
E0
330
1F
100
AcDbEntity
  8
1
100
AcDbLine
 10
425.3691799999999
 20
290.370122
 30
0.0
 11
425.6526799999999
 21
290.754295
 31
0.0
  0
LINE
  5
E1
330
1F
100
AcDbEntity
  8
1
100
AcDbLine
 10
425.6526799999999
 20
290.992906
 30
0.0
 11
425.6526799999999
 21
290.754295
 31
0.0
  0
LINE
  5
E2
330
1F
100
AcDbEntity
  8
1
100
AcDbLine
 10
425.6526799999999
 20
290.992906
 30
0.0
 11
425.6948419999999
 21
290.99217
 31
0.0
  0
LINE
  5
E3
330
1F
100
AcDbEntity
  8
SK1
100
AcDbLine
 10
274.404842
 20
307.957994
 30
0.0
 11
209.004842
 21
307.957994
 31
0.0
  0
LINE
  5
E4
330
1F
100
AcDbEntity
  8
1
100
AcDbLine
 10
274.904842
 20
263.907994
 30
0.0
 11
274.404842
 21
264.407994
 31
0.0
  0
LINE
  5
E5
330
1F
100
AcDbEntity
  8
1
100
AcDbLine
 10
274.404842
 20
313.407994
 30
0.0
 11
274.904842
 21
313.907994
 31
0.0
  0
LINE
  5
E6
330
1F
100
AcDbEntity
  8
1
100
AcDbLine
 10
279.404842
 20
313.907994
 30
0.0
 11
274.904842
 21
313.907994
 31
0.0
  0
LINE
  5
E9
330
1F
100
AcDbEntity
  8
80
100
AcDbLine
 10
275.404416
 20
288.907994
 30
0.0
 11
273.405268
 21
288.907994
 31
0.0
  0
LINE
  5
EA
330
1F
100
AcDbEntity
  8
1
100
AcDbLine
 10
274.404842
 20
313.407994
 30
0.0
 11
274.404842
 21
288.907994
 31
0.0
  0
LINE
  5
EB
330
1F
100
AcDbEntity
  8
1
100
AcDbLine
 10
274.404842
 20
288.907994
 30
0.0
 11
274.404842
 21
264.407994
 31
0.0
  0
LINE
  5
116
330
1F
100
AcDbEntity
  8
NOCUT
100
AcDbLine
 10
294.853832
 20
304.257994
 30
0.0
 11
425.3860769999999
 21
304.257994
 31
0.0
  0
LINE
  5
117
330
1F
100
AcDbEntity
  8
NOCUT
100
AcDbLine
 10
425.3860769999999
 20
304.257994
 30
0.0
 11
425.6948419999999
 21
295.487191
 31
0.0
  0
LINE
  5
118
330
1F
100
AcDbEntity
  8
NOCUT
100
AcDbLine
 10
425.6948419999999
 20
295.487191
 30
0.0
 11
425.6948419999999
 21
288.907994
 31
0.0
  0
LINE
  5
119
330
1F
100
AcDbEntity
  8
NOCUT
100
AcDbLine
 10
425.6948419999999
 20
288.907994
 30
0.0
 11
207.404842
 21
288.907994
 31
0.0
  0
LINE
  5
11A
330
1F
100
AcDbEntity
  8
NOCUT
100
AcDbLine
 10
207.404842
 20
306.357994
 30
0.0
 11
209.004842
 21
307.957994
 31
0.0
  0
LINE
  5
11B
330
1F
100
AcDbEntity
  8
NOCUT
100
AcDbLine
 10
274.404842
 20
307.957994
 30
0.0
 11
209.004842
 21
307.957994
 31
0.0
  0
LINE
  5
11C
330
1F
100
AcDbEntity
  8
NOCUT
100
AcDbLine
 10
279.404842
 20
313.907994
 30
0.0
 11
274.904842
 21
313.907994
 31
0.0
  0
LINE
  5
11D
330
1F
100
AcDbEntity
  8
NOCUT
100
AcDbLine
 10
207.404842
 20
306.357994
 30
0.0
 11
207.404842
 21
288.907994
 31
0.0
  0
LINE
  5
11E
330
1F
100
AcDbEntity
  8
NOCUT
100
AcDbLine
 10
274.404842
 20
307.957994
 30
0.0
 11
274.404842
 21
313.407994
 31
0.0
  0
LINE
  5
11F
330
1F
100
AcDbEntity
  8
NOCUT
100
AcDbLine
 10
274.404842
 20
313.407994
 30
0.0
 11
274.904842
 21
313.907994
 31
0.0
  0
LINE
  5
120
330
1F
100
AcDbEntity
  8
NOCUT
100
AcDbLine
 10
279.404842
 20
313.907994
 30
0.0
 11
284.954337
 21
308.358499
 31
0.0
  0
ARC
  5
129
330
1F
100
AcDbEntity
  8
1
100
AcDbCircle
 10
294.853832
 20
259.557994
 30
0.0
 40
14.0
100
AcDbArc
 50
90.0
 51
135.0
  0
ARC
  5
12A
330
1F
100
AcDbEntity
  8
1
100
AcDbCircle
 10
294.853832
 20
318.257994
 30
0.0
 40
14.0
100
AcDbArc
 50
225.0
 51
270.0
  0
ARC
  5
12B
330
1F
100
AcDbEntity
  8
1
100
AcDbCircle
 10
420.418941
 20
285.29888
 30
0.0
 40
1.75
100
AcDbArc
 50
75.0
 51
345.0
  0
CIRCLE
  5
12C
330
1F
100
AcDbEntity
  8
1
100
AcDbCircle
 10
420.418941
 20
285.29888
 30
0.0
 40
1.35
  0
ARC
  5
13B
330
1F
100
AcDbEntity
  8
NOCUT
100
AcDbCircle
 10
294.853832
 20
318.257994
 30
0.0
 40
14.0
100
AcDbArc
 50
225.0
 51
270.0
  0
ELLIPSE
  5
13C
330
1F
100
AcDbEntity
  8
1
100
AcDbEllipse
 10
421.2333499999999
 20
299.841898
 30
0.0
 11
2.971847526405754
 21
-0.8652871965691545
 31
0.0
210
0.0
220
0.0
230
0.9999999999999998
 40
0.998052
 41
2.153645304639026
 42
6.283185307179585
  0
ELLIPSE
  5
13D
330
1F
100
AcDbEntity
  8
1
100
AcDbEllipse
 10
421.2333499999999
 20
299.841898
 30
0.0
 11
2.971847526405754
 21
-0.8652871965691545
 31
0.0
210
0.0
220
0.0
230
0.9999999999999998
 40
0.998052
 41
0.0
 42
0.9879180006003217
  0
ELLIPSE
  5
13E
330
1F
100
AcDbEntity
  8
1
100
AcDbEllipse
 10
417.317006
 20
295.555721
 30
0.0
 11
0.9632000791721651
 21
1.03399203797794
 31
0.0
210
0.0
220
0.0
230
1.0
 40
0.019879
 41
0.9765435779924571
 42
1.531354610097039
  0
ELLIPSE
  5
13F
330
1F
100
AcDbEntity
  8
1
100
AcDbEllipse
 10
421.213554
 20
299.773906
 30
0.0
 11
3.028958793588651
 21
-0.8819157913520669
 31
0.0
210
0.0
220
0.0
230
1.0
 40
0.998052
 41
0.0
 42
6.283185307179585
  0
ELLIPSE
  5
140
330
1F
100
AcDbEntity
  8
1
100
AcDbEllipse
 10
421.210676
 20
299.764022
 30
0.0
 11
-3.120423489392261
 21
0.9085467774688648
 31
0.0
210
0.0
220
0.0
230
1.0
 40
0.998052
 41
0.0
 42
6.283185307179585
  0
ELLIPSE
  5
141
330
1F
100
AcDbEntity
  8
1
100
AcDbEllipse
 10
425.364142
 20
295.836281
 30
0.0
 11
1.034591724717225
 21
-0.9637587085332286
 31
0.0
210
0.0
220
0.0
230
0.9999999999999998
 40
0.039416
 41
1.590649521701324
 42
2.145460555176951
  0
ELLIPSE
  5
142
330
1F
100
AcDbEntity
  8
1
100
AcDbEllipse
 10
417.027559
 20
303.589926
 30
0.0
 11
1.034591724502174
 21
-0.9637587084069831
 31
0.0
210
0.0
220
0.0
230
0.9999999999999998
 40
0.039416
 41
1.035838489110847
 42
1.59064952268945
  0
ELLIPSE
  5
143
330
1F
100
AcDbEntity
  8
1
100
AcDbEllipse
 10
425.0746949999999
 20
303.870486
 30
0.0
 11
0.9632000780033587
 21
1.03399203667585
 31
0.0
210
0.0
220
0.0
230
1.0
 40
0.019879
 41
1.531354611217182
 42
2.086165643984975
  0
ELLIPSE
  5
144
330
1F
100
AcDbEntity
  8
1
100
AcDbEllipse
 10
417.01395
 20
306.602114
 30
0.0
 11
-12.09764183579768
 21
3.522365968033132
 31
0.0
210
0.0
220
0.0
230
1.0
 40
0.998052
 41
1.331467778459207
 42
1.889001414641993
  0
ELLIPSE
  5
145
330
1F
100
AcDbEntity
  8
1
100
AcDbEllipse
 10
425.422421
 20
294.779551
 30
0.0
 11
0.0003004688427651
 21
0.5003080941024777
 31
0.0
210
0.0
220
0.0
230
1.0
 40
0.140095
 41
3.205856114033628
 42
4.776652440836708
  0
ELLIPSE
  5
146
330
1F
100
AcDbEntity
  8
1
100
AcDbEllipse
 10
426.305608
 20
288.907994
 30
0.0
 11
1.661465110602278
 21
15.34826399499342
 31
0.0
210
0.0
220
0.0
230
0.9999999999999996
 40
0.138944
 41
1.970109865328602
 42
3.156632395651091
  0
ELLIPSE
  5
147
330
1F
100
AcDbEntity
  8
1
100
AcDbEllipse
 10
425.6948419999999
 20
288.907994
 30
0.0
 11
0.0
 21
15.34999999967877
 31
0.0
210
0.0
220
0.0
230
1.0
 40
0.140541
 41
1.42038345579851
 42
1.955070123275584
  0
ELLIPSE
  5
148
330
1F
100
AcDbEntity
  8
1
100
AcDbEllipse
 10
417.9322349999999
 20
296.424064
 30
0.0
 11
-1.920260608856773
 21
0.5591057092116079
 31
0.0
210
0.0
220
0.0
230
1.0
 40
0.998052
 41
0.0651734313057157
 42
1.889555020043255
  0
ELLIPSE
  5
149
330
1F
100
AcDbEntity
  8
1
100
AcDbEllipse
 10
417.9322349999999
 20
296.424064
 30
0.0
 11
-1.920260608856773
 21
0.5591057092116079
 31
0.0
210
0.0
220
0.0
230
1.0
 40
0.998052
 41
1.889555020043257
 42
2.593860668040893
  0
ELLIPSE
  5
14A
330
1F
100
AcDbEntity
  8
1
100
AcDbEllipse
 10
417.864735
 20
296.192234
 30
0.0
 11
-1.920260608856773
 21
0.5591057092116079
 31
0.0
210
0.0
220
0.0
230
1.0
 40
0.998052
 41
5.729902201158855
 42
5.872831053994996
  0
ELLIPSE
  5
14B
330
1F
100
AcDbEntity
  8
1
100
AcDbEllipse
 10
417.8595029999999
 20
296.174263
 30
0.0
 11
1.920260608856771
 21
-0.5591057092116088
 31
0.0
210
0.0
220
0.0
230
1.0
 40
0.998052
 41
2.731238400405209
 42
4.395444007950848
  0
ELLIPSE
  5
14C
330
1F
100
AcDbEntity
  8
1
100
AcDbEllipse
 10
416.634743
 20
288.9083
 30
0.0
 11
0.5130482205618198
 21
-15.34969045360298
 31
0.0
210
0.0
220
0.0
230
0.9999999999999998
 40
0.01946
 41
3.241311572569627
 42
3.260878324011561
  0
ELLIPSE
  5
14D
330
1F
100
AcDbEntity
  8
1
100
AcDbEllipse
 10
363.341338
 20
288.909002
 30
0.0
 11
879.9060292341319
 21
-0.9199770349147582
 31
0.0
210
0.0
220
0.0
230
0.9999999999999998
 40
0.017413
 41
1.510830738851284
 42
1.515996260678875
  0
ELLIPSE
  5
14E
330
1F
100
AcDbEntity
  8
1
100
AcDbEllipse
 10
417.068369
 20
288.907994
 30
0.0
 11
0.5130590983194844
 21
-15.34999654715719
 31
0.0
210
0.0
220
0.0
230
1.0
 40
0.01946
 41
3.060188853208279
 42
3.129494943897636
  0
ELLIPSE
  5
14F
330
1F
100
AcDbEntity
  8
1
100
AcDbEllipse
 10
257.891606
 20
288.907989
 30
0.0
 11
53.48862722886903
 21
-11.97980940191609
 31
0.0
210
0.0
220
0.0
230
1.0
 40
0.179425
 41
5.514694948714322
 42
5.536774770337344
  0
ELLIPSE
  5
150
330
1F
100
AcDbEntity
  8
1
100
AcDbEllipse
 10
422.8782339999999
 20
288.907994
 30
0.0
 11
26.33543116627393
 21
-15.14372491209916
 31
0.0
210
0.0
220
0.0
230
1.0
 40
0.095233
 41
4.261850135530782
 42
4.294549599629758
  0
ELLIPSE
  5
151
330
1F
100
AcDbEntity
  8
1
100
AcDbEllipse
 10
425.2487359999999
 20
281.565584
 30
0.0
 11
0.3598828755425476
 21
-0.0632201120510778
 31
0.0
210
0.0
220
0.0
230
0.9999999999999998
 40
0.81881
 41
6.264719805410437
 42
6.411625116775564
  0
ELLIPSE
  5
152
330
1F
100
AcDbEntity
  8
1
100
AcDbEllipse
 10
425.37015
 20
288.521396
 30
0.0
 11
0.3618699859940127
 21
0.0506218682351881
 31
0.0
210
0.0
220
0.0
230
0.9999999999999998
 40
0.8188099999999998
 41
6.154745494683619
 42
6.301650807801138
  0
ELLIPSE
  5
153
330
1F
100
AcDbEntity
  8
1
100
AcDbEllipse
 10
424.7790349999999
 20
280.78387
 30
0.0
 11
0.2247748177490003
 21
-0.2880776667653759
 31
0.0
210
0.0
220
0.0
230
1.0
 40
0.8188099999999998
 41
6.154745493454992
 42
6.301650806444086
  0
ELLIPSE
  5
154
330
1F
100
AcDbEntity
  8
1
100
AcDbEllipse
 10
416.9362539999999
 20
288.907994
 30
0.0
 11
0.4102258618172396
 21
-15.34989124508562
 31
0.0
210
0.0
220
0.0
230
1.0
 40
0.140844
 41
3.12638131326906
 42
3.238452139388723
  0
ELLIPSE
  5
155
330
1F
100
AcDbEntity
  8
1
100
AcDbEllipse
 10
425.4734269999999
 20
289.845723
 30
0.0
 11
0.1593661327218399
 21
-0.2546671899291792
 31
0.0
210
0.0
220
0.0
230
1.0
 40
0.9668319999999999
 41
1.515965210122173
 42
2.029724468603693
  0
ELLIPSE
  5
156
330
1F
100
AcDbEntity
  8
1
100
AcDbEllipse
 10
426.1058379999999
 20
288.704824
 30
0.0
 11
0.1315188414592775
 21
-0.2701031954509281
 31
0.0
210
0.0
220
0.0
230
0.9999999999999998
 40
0.9668319999999999
 41
1.111868186027487
 42
1.625627444602591
  0
ELLIPSE
  5
157
330
1F
100
AcDbEntity
  8
1
100
AcDbEllipse
 10
425.305732
 20
280.23846
 30
0.0
 11
0.2546671892542218
 21
0.1593661334786172
 31
0.0
210
0.0
220
0.0
230
1.0
 40
0.9668319999999999
 41
4.657557860238203
 42
5.171317119006083
  0
ELLIPSE
  5
158
330
1F
100
AcDbEntity
  8
1
100
AcDbEllipse
 10
425.969907
 20
281.358792
 30
0.0
 11
-0.2941597133632818
 21
0.0843489404830548
 31
0.0
210
0.0
220
0.0
230
0.9999999999999996
 40
0.9803469999999999
 41
2.884713024277101
 42
3.398472282902498
  0
ELLIPSE
  5
159
330
1F
100
AcDbEntity
  8
1
100
AcDbEllipse
 10
424.7790349999999
 20
280.78387
 30
0.0
 11
0.2800576453656984
 21
-0.2346916538671704
 31
0.0
210
0.0
220
0.0
230
0.9999999999999998
 40
0.81881
 41
6.264719809248935
 42
6.411625123247494
  0
ELLIPSE
  5
15A
330
1F
100
AcDbEntity
  8
1
100
AcDbEllipse
 10
425.2487359999999
 20
281.565584
 30
0.0
 11
0.3386995414432335
 21
-0.1370951724064289
 31
0.0
210
0.0
220
0.0
230
1.0
 40
0.81881
 41
6.154745497266099
 42
6.301650808907278
  0
ELLIPSE
  5
15B
330
1F
100
AcDbEntity
  8
1
100
AcDbEllipse
 10
425.37015
 20
288.521396
 30
0.0
 11
0.3432777712640637
 21
0.1251912165654009
 31
0.0
210
0.0
220
0.0
230
0.9999999999999998
 40
0.81881
 41
6.264719803594881
 42
6.41162511433178
  0
ELLIPSE
  5
15C
330
1F
100
AcDbEntity
  8
1
100
AcDbEllipse
 10
424.928017
 20
289.3190259999999
 30
0.0
 11
0.2880776862774871
 21
0.2247748285084976
 31
0.0
210
0.0
220
0.0
230
0.9999999999999998
 40
0.8188100000000002
 41
6.154745505215639
 42
6.301650813773223
  0
ELLIPSE
  5
15D
330
1F
100
AcDbEntity
  8
1
100
AcDbEllipse
 10
424.928017
 20
289.3190259999999
 30
0.0
 11
0.2346916582609974
 21
0.2800576534252074
 31
0.0
210
0.0
220
0.0
230
0.9999999999999998
 40
0.81881
 41
6.264719805426311
 42
6.411625117609472
  0
ELLIPSE
  5
15E
330
1F
100
AcDbEntity
  8
1
100
AcDbEllipse
 10
417.8595029999999
 20
296.174263
 30
0.0
 11
1.920260608856771
 21
-0.5591057092116088
 31
0.0
210
0.0
220
0.0
230
1.0
 40
0.998052
 41
5.648680162846035
 42
5.766932522207543
  0
ELLIPSE
  5
15F
330
1F
100
AcDbEntity
  8
1
100
AcDbEllipse
 10
415.163386
 20
292.336889
 30
0.0
 11
-3.898330034805856
 21
-0.153255550084221
 31
0.0
210
0.0
220
0.0
230
0.9999999999999998
 40
0.22151
 41
2.219298114991494
 42
4.061631238843586
  0
ELLIPSE
  5
160
330
1F
100
AcDbEntity
  8
1
100
AcDbEllipse
 10
421.073084
 20
299.678365
 30
0.0
 11
-2.640358337178063
 21
0.7687703501659611
 31
0.0
210
0.0
220
0.0
230
1.0
 40
0.9980519999999998
 41
3.141676065826233
 42
6.283170368985074
  0
ELLIPSE
  5
161
330
1F
100
AcDbEntity
  8
1
100
AcDbEllipse
 10
421.052632
 20
299.6081220000001
 30
0.0
 11
2.640358337178063
 21
-0.7687703501659624
 31
0.0
210
0.0
220
0.0
230
1.0
 40
0.9980519999999998
 41
0.0
 42
6.283185307179585
  0
ELLIPSE
  5
162
330
1F
100
AcDbEntity
  8
1
100
AcDbEllipse
 10
420.423654
 20
298.212863
 30
0.0
 11
-0.0915171458923713
 21
0.0266462575564882
 31
0.0
210
0.0
220
0.0
230
1.0
 40
0.998052
 41
5.401613433948424
 42
6.078345350829315
  0
ELLIPSE
  5
163
330
1F
100
AcDbEntity
  8
1
100
AcDbEllipse
 10
420.255265
 20
298.3022
 30
0.0
 11
-0.0915171458923711
 21
0.0266462575564882
 31
0.0
210
0.0
220
0.0
230
1.0
 40
0.998052
 41
1.736422004760393
 42
2.936752697239461
  0
ELLIPSE
  5
164
330
1F
100
AcDbEntity
  8
1
100
AcDbEllipse
 10
420.3143639999999
 20
298.803346
 30
0.0
 11
-0.5769369382086555
 21
0.1679817492062003
 31
0.0
210
0.0
220
0.0
230
1.0
 40
0.998052
 41
0.471891960530337
 42
1.736422004760516
  0
ELLIPSE
  5
165
330
1F
100
AcDbEntity
  8
1
100
AcDbEllipse
 10
419.817874
 20
298.709007
 30
0.0
 11
-0.0915171458923733
 21
0.0266462575564888
 31
0.0
210
0.0
220
0.0
230
1.0
 40
0.9980519999999998
 41
5.554746575230947
 42
6.755077267709789
  0
ELLIPSE
  5
166
330
1F
100
AcDbEntity
  8
1
100
AcDbEllipse
 10
419.716699
 20
298.870384
 30
0.0
 11
-0.0915171458923733
 21
0.0266462575564888
 31
0.0
210
0.0
220
0.0
230
1.0
 40
0.9980519999999998
 41
2.41315392164118
 42
3.089885838522011
  0
ELLIPSE
  5
167
330
1F
100
AcDbEntity
  8
1
100
AcDbEllipse
 10
419.2392179999999
 20
299.03657
 30
0.0
 11
-0.5769369382086551
 21
0.1679817492062002
 31
0.0
210
0.0
220
0.0
230
0.9999999999999998
 40
0.998052
 41
3.089885838521776
 42
4.354415882752043
  0
ELLIPSE
  5
168
330
1F
100
AcDbEntity
  8
1
100
AcDbEllipse
 10
419.541416
 20
299.440812
 30
0.0
 11
-0.0915171458923713
 21
0.0266462575564882
 31
0.0
210
0.0
220
0.0
230
1.0
 40
0.998052
 41
4.354415882752355
 42
5.031147799633034
  0
ELLIPSE
  5
169
330
1F
100
AcDbEntity
  8
1
100
AcDbEllipse
 10
419.534565
 20
299.630988
 30
0.0
 11
-0.0915171458923711
 21
0.0266462575564882
 31
0.0
210
0.0
220
0.0
230
1.0
 40
0.998052
 41
0.6892244535634318
 42
1.889555146042675
  0
ELLIPSE
  5
16A
330
1F
100
AcDbEntity
  8
1
100
AcDbEllipse
 10
419.9988879999999
 20
299.83001
 30
0.0
 11
-0.5769369382086555
 21
0.1679817492062003
 31
0.0
210
0.0
220
0.0
230
1.0
 40
0.998052
 41
5.707879716513318
 42
6.972409760743509
  0
ELLIPSE
  5
16B
330
1F
100
AcDbEntity
  8
1
100
AcDbEllipse
 10
277.294092
 20
288.90799
 30
0.0
 11
400.4170446930978
 21
14.96919760966168
 31
0.0
210
0.0
220
0.0
230
0.9999999999999998
 40
0.008486
 41
5.06999347698234
 42
5.086014593945789
  0
ELLIPSE
  5
16C
330
1F
100
AcDbEntity
  8
1
100
AcDbEllipse
 10
424.8668929999999
 20
280.07994
 30
0.0
 11
0.0538770024364448
 21
0.499161142513856
 31
0.0
210
0.0
220
0.0
230
1.0
 40
0.139171
 41
1.58356817925779
 42
3.154364506041858
  0
ELLIPSE
  5
16D
330
1F
100
AcDbEntity
  8
1
100
AcDbEllipse
 10
425.193111
 20
289.87312
 30
0.0
 11
0.0001758288816837
 21
-0.5000776676616077
 31
0.0
210
0.0
220
0.0
230
0.9999999999999998
 40
0.140519
 41
3.139090475969142
 42
4.709886802772856
  0
ELLIPSE
  5
16E
330
1F
100
AcDbEntity
  8
1
100
AcDbEllipse
 10
315.938878
 20
288.907994
 30
0.0
 11
53.48863986369553
 21
-11.979813878274
 31
0.0
210
0.0
220
0.0
230
1.0
 40
0.179425
 41
4.347705394534328
 42
4.452373128016193
  0
ELLIPSE
  5
16F
330
1F
100
AcDbEntity
  8
1
100
AcDbEllipse
 10
417.864735
 20
296.192234
 30
0.0
 11
-1.920260608856773
 21
0.5591057092116079
 31
0.0
210
0.0
220
0.0
230
1.0
 40
0.998052
 41
2.625339868617759
 42
2.756391476033031
  0
ELLIPSE
  5
170
330
1F
100
AcDbEntity
  8
1
100
AcDbEllipse
 10
419.668358
 20
300.212192
 30
0.0
 11
-0.0915171458923733
 21
0.0266462575564888
 31
0.0
210
0.0
220
0.0
230
1.0
 40
0.9980519999999998
 41
4.507549024034208
 42
5.707879716513517
  0
ELLIPSE
  5
171
330
1F
100
AcDbEntity
  8
1
100
AcDbEllipse
 10
419.757665
 20
300.380211
 30
0.0
 11
-0.0915171458923733
 21
0.0266462575564888
 31
0.0
210
0.0
220
0.0
230
1.0
 40
0.9980519999999998
 41
1.365956370444662
 42
2.04268828732534
  0
ELLIPSE
  5
172
330
1F
100
AcDbEntity
  8
1
100
AcDbEllipse
 10
419.6626509999999
 20
300.875984
 30
0.0
 11
-0.5769369382086551
 21
0.1679817492062002
 31
0.0
210
0.0
220
0.0
230
0.9999999999999998
 40
0.998052
 41
2.042688287325213
 42
3.307218331555421
  0
ELLIPSE
  5
173
330
1F
100
AcDbEntity
  8
1
100
AcDbEllipse
 10
420.1646839999999
 20
300.8164569999999
 30
0.0
 11
-0.0915171458923713
 21
0.0266462575564882
 31
0.0
210
0.0
220
0.0
230
1.0
 40
0.998052
 41
3.307218331555446
 42
3.983950248436086
  0
ELLIPSE
  5
174
330
1F
100
AcDbEntity
  8
1
100
AcDbEllipse
 10
420.326221
 20
300.917297
 30
0.0
 11
-0.0915171458923711
 21
0.0266462575564882
 31
0.0
210
0.0
220
0.0
230
1.0
 40
0.998052
 41
5.925212209547022
 42
7.125542902025878
  0
ELLIPSE
  5
175
330
1F
100
AcDbEntity
  8
1
100
AcDbEllipse
 10
420.731446
 20
300.615173
 30
0.0
 11
-0.5769369382086555
 21
0.1679817492062003
 31
0.0
210
0.0
220
0.0
230
1.0
 40
0.998052
 41
4.660682165316706
 42
5.925212209546896
  0
ELLIPSE
  5
176
330
1F
100
AcDbEntity
  8
1
100
AcDbEllipse
 10
420.8974059999999
 20
301.091694
 30
0.0
 11
-0.0915171458923733
 21
0.0266462575564888
 31
0.0
210
0.0
220
0.0
230
1.0
 40
0.9980519999999998
 41
3.460351472837754
 42
4.660682165316957
  0
ELLIPSE
  5
177
330
1F
100
AcDbEntity
  8
1
100
AcDbEllipse
 10
421.087888
 20
301.0983359999999
 30
0.0
 11
-0.0915171458923733
 21
0.0266462575564888
 31
0.0
210
0.0
220
0.0
230
1.0
 40
0.9980519999999998
 41
0.3187588192480813
 42
0.9954907361287803
  0
ELLIPSE
  5
178
330
1F
100
AcDbEntity
  8
1
100
AcDbEllipse
 10
421.470354
 20
301.427922
 30
0.0
 11
-0.5769369382086551
 21
0.1679817492062002
 31
0.0
210
0.0
220
0.0
230
0.9999999999999998
 40
0.998052
 41
0.9954907361285671
 42
2.260020780358742
  0
ELLIPSE
  5
179
330
1F
100
AcDbEntity
  8
1
100
AcDbEllipse
 10
421.67019
 20
300.964154
 30
0.0
 11
-0.0915171458923713
 21
0.0266462575564882
 31
0.0
210
0.0
220
0.0
230
1.0
 40
0.998052
 41
2.260020780358908
 42
2.936752697239596
  0
ELLIPSE
  5
17A
330
1F
100
AcDbEntity
  8
1
100
AcDbEllipse
 10
421.838578
 20
300.874817
 30
0.0
 11
-0.0915171458923711
 21
0.0266462575564882
 31
0.0
210
0.0
220
0.0
230
1.0
 40
0.998052
 41
4.878014658350174
 42
6.078345350829108
  0
ELLIPSE
  5
17B
330
1F
100
AcDbEntity
  8
1
100
AcDbEllipse
 10
421.779479
 20
300.373671
 30
0.0
 11
-0.5769369382086555
 21
0.1679817492062003
 31
0.0
210
0.0
220
0.0
230
1.0
 40
0.998052
 41
3.61348461412013
 42
4.878014658350313
  0
ELLIPSE
  5
17C
330
1F
100
AcDbEntity
  8
1
100
AcDbEllipse
 10
422.27597
 20
300.468011
 30
0.0
 11
-0.0915171458923733
 21
0.0266462575564888
 31
0.0
210
0.0
220
0.0
230
1.0
 40
0.9980519999999998
 41
2.413153921640957
 42
3.613484614120131
  0
ELLIPSE
  5
17D
330
1F
100
AcDbEntity
  8
1
100
AcDbEllipse
 10
422.377144
 20
300.306633
 30
0.0
 11
-0.0915171458923733
 21
0.0266462575564888
 31
0.0
210
0.0
220
0.0
230
1.0
 40
0.9980519999999998
 41
5.554746575231568
 42
6.231478492111759
  0
ELLIPSE
  5
17E
330
1F
100
AcDbEntity
  8
1
100
AcDbEllipse
 10
422.8546249999999
 20
300.140447
 30
0.0
 11
-0.5769369382086551
 21
0.1679817492062002
 31
0.0
210
0.0
220
0.0
230
0.9999999999999998
 40
0.998052
 41
6.231478492111567
 42
7.496008536341783
  0
ELLIPSE
  5
17F
330
1F
100
AcDbEntity
  8
1
100
AcDbEllipse
 10
422.5524269999999
 20
299.736205
 30
0.0
 11
-0.0915171458923713
 21
0.0266462575564882
 31
0.0
210
0.0
220
0.0
230
1.0
 40
0.998052
 41
1.212823229162255
 42
1.889555146042675
  0
ELLIPSE
  5
180
330
1F
100
AcDbEntity
  8
1
100
AcDbEllipse
 10
422.559279
 20
299.546029
 30
0.0
 11
-0.0915171458923711
 21
0.0266462575564882
 31
0.0
210
0.0
220
0.0
230
1.0
 40
0.998052
 41
3.830817107153397
 42
5.031147799632492
  0
ELLIPSE
  5
181
330
1F
100
AcDbEntity
  8
1
100
AcDbEllipse
 10
422.0949549999999
 20
299.347007
 30
0.0
 11
-0.5769369382086555
 21
0.1679817492062003
 31
0.0
210
0.0
220
0.0
230
1.0
 40
0.998052
 41
2.566287062923509
 42
3.830817107153713
  0
ELLIPSE
  5
182
330
1F
100
AcDbEntity
  8
1
100
AcDbEllipse
 10
422.425486
 20
298.964825
 30
0.0
 11
-0.0915171458923733
 21
0.0266462575564888
 31
0.0
210
0.0
220
0.0
230
1.0
 40
0.9980519999999998
 41
1.365956370444109
 42
2.566287062923374
  0
ELLIPSE
  5
183
330
1F
100
AcDbEntity
  8
1
100
AcDbEllipse
 10
422.336178
 20
298.796806
 30
0.0
 11
-0.0915171458923733
 21
0.0266462575564888
 31
0.0
210
0.0
220
0.0
230
1.0
 40
0.9980519999999998
 41
4.507549024034469
 42
5.184280940915297
  0
ELLIPSE
  5
184
330
1F
100
AcDbEntity
  8
1
100
AcDbEllipse
 10
422.4311929999999
 20
298.301033
 30
0.0
 11
-0.5769369382086551
 21
0.1679817492062002
 31
0.0
210
0.0
220
0.0
230
0.9999999999999998
 40
0.998052
 41
5.184280940915037
 42
6.448810985145173
  0
ELLIPSE
  5
185
330
1F
100
AcDbEntity
  8
1
100
AcDbEllipse
 10
421.929159
 20
298.36056
 30
0.0
 11
-0.0915171458923713
 21
0.0266462575564882
 31
0.0
210
0.0
220
0.0
230
1.0
 40
0.998052
 41
0.1656256779656544
 42
0.8423575948461701
  0
ELLIPSE
  5
186
330
1F
100
AcDbEntity
  8
1
100
AcDbEllipse
 10
421.7676219999999
 20
298.25972
 30
0.0
 11
-0.0915171458923711
 21
0.0266462575564882
 31
0.0
210
0.0
220
0.0
230
1.0
 40
0.998052
 41
2.78361955595716
 42
3.983950248436086
  0
ELLIPSE
  5
187
330
1F
100
AcDbEntity
  8
1
100
AcDbEllipse
 10
421.362398
 20
298.561845
 30
0.0
 11
-0.5769369382086555
 21
0.1679817492062003
 31
0.0
210
0.0
220
0.0
230
1.0
 40
0.998052
 41
1.51908951172696
 42
2.783619555957096
  0
ELLIPSE
  5
188
330
1F
100
AcDbEntity
  8
1
100
AcDbEllipse
 10
421.196438
 20
298.085323
 30
0.0
 11
-0.0915171458923733
 21
0.0266462575564888
 31
0.0
210
0.0
220
0.0
230
1.0
 40
0.9980519999999998
 41
0.3187588192479879
 42
1.519089511727176
  0
ELLIPSE
  5
189
330
1F
100
AcDbEntity
  8
1
100
AcDbEllipse
 10
421.0059549999999
 20
298.078682
 30
0.0
 11
-0.0915171458923733
 21
0.0266462575564888
 31
0.0
210
0.0
220
0.0
230
1.0
 40
0.9980519999999998
 41
3.460351472837825
 42
4.137083389718283
  0
ELLIPSE
  5
18A
330
1F
100
AcDbEntity
  8
1
100
AcDbEllipse
 10
420.6234889999999
 20
297.749095
 30
0.0
 11
-0.5769369382086551
 21
0.1679817492062002
 31
0.0
210
0.0
220
0.0
230
0.9999999999999998
 40
0.998052
 41
4.137083389718419
 42
5.401613433948616
  0
ELLIPSE
  5
18B
330
1F
100
AcDbEntity
  8
1
100
AcDbEllipse
 10
421.046922
 20
299.588509
 30
0.0
 11
1.728234547971096
 21
-0.5031951382904483
 31
0.0
210
0.0
220
0.0
230
0.9999999999999998
 40
0.9980519999999998
 41
0.0
 42
6.283185307179585
  0
SPLINE
  5
193
330
1F
100
AcDbEntity
  8
1
100
AcDbSpline
210
0.0
220
0.0
230
1.0
 70
     8
 71
     3
 72
    36
 73
    32
 74
     0
 42
0.000000001
 43
0.0000000001
 40
0.0
 40
0.0
 40
0.0
 40
0.0
 40
0.1250000000001125
 40
0.1250000000001125
 40
0.1875000000001688
 40
0.1875000000001688
 40
0.218750000000199
 40
0.218750000000199
 40
0.2500000000002292
 40
0.2500000000002292
 40
0.3750000000003131
 40
0.3750000000003131
 40
0.4062500000003224
 40
0.4062500000003224
 40
0.4375000000003315
 40
0.4375000000003315
 40
0.5000000000003499
 40
0.5000000000003499
 40
0.6250000000003866
 40
0.6250000000003866
 40
0.6562500000004103
 40
0.6562500000004103
 40
0.6875000000004339
 40
0.7500000000004158
 40
0.8125000000003977
 40
0.8125000000003977
 40
0.8437500000003543
 40
0.8437500000003543
 40
0.875000000000311
 40
0.875000000000311
 40
1.0
 40
1.0
 40
1.0
 40
1.0
 10
425.8286060818003
 20
303.9188504006394
 30
0.0
 10
425.826774484653
 20
303.9696901714511
 30
0.0
 10
425.8197948778956
 20
304.0194672392757
 30
0.0
 10
425.8020831099527
 20
304.0926378019859
 30
0.0
 10
425.7949620725879
 20
304.1167767407153
 30
0.0
 10
425.7824287100554
 20
304.1526028806258
 30
0.0
 10
425.7779284550046
 20
304.164512619722
 30
0.0
 10
425.7683694331102
 20
304.1880301618235
 30
0.0
 10
425.7633171933566
 20
304.1996274954495
 30
0.0
 10
425.736723197136
 20
304.2568252355921
 30
0.0
 10
425.7112225848993
 20
304.300082261192
 30
0.0
 10
425.6741440241731
 20
304.3510738322266
 30
0.0
 10
425.6664657251017
 20
304.3611167123315
 30
0.0
 10
425.6505759841401
 20
304.3808868872357
 30
0.0
 10
425.6423493039903
 20
304.3906292066754
 30
0.0
 10
425.6171208026266
 20
304.4190808004361
 30
0.0
 10
425.5995019290779
 20
304.4371104837148
 30
0.0
 10
425.5443118828875
 20
304.4884630225793
 30
0.0
 10
425.5044305516439
 20
304.5190766533628
 30
0.0
 10
425.4505857954896
 20
304.5526608167586
 30
0.0
 10
425.4396014528251
 20
304.5591469986124
 30
0.0
 10
425.4174653951038
 20
304.5715036352278
 30
0.0
 10
425.3839264417264
 20
304.5891690172298
 30
0.0
 10
425.326382318003
 20
304.6143373753936
 30
0.0
 10
425.2786024393264
 20
304.6299417851642
 30
0.0
 10
425.2420973775659
 20
304.639904858183
 30
0.0
 10
425.2298171222963
 20
304.6429353001643
 30
0.0
 10
425.2050274369026
 20
304.6484010691437
 30
0.0
 10
425.1925017649606
 20
304.6508376562429
 30
0.0
 10
425.1298808677182
 20
304.6613986489237
 30
0.0
 10
425.0793810019661
 20
304.6648164313142
 30
0.0
 10
425.0284650116671
 20
304.6630412629657
 30
0.0
  0
SPLINE
  5
194
330
1F
100
AcDbEntity
  8
1
100
AcDbSpline
210
0.0
220
0.0
230
1.0
 70
     8
 71
     3
 72
    36
 73
    32
 74
     0
 42
0.000000001
 43
0.0000000001
 40
0.0
 40
0.0
 40
0.0
 40
0.0
 40
0.1249999999999108
 40
0.1249999999999108
 40
0.1874999999998321
 40
0.1874999999998321
 40
0.2187499999998258
 40
0.2187499999998258
 40
0.2499999999998195
 40
0.2499999999998195
 40
0.3749999999997284
 40
0.3749999999997284
 40
0.4062499999997214
 40
0.4062499999997214
 40
0.4374999999997144
 40
0.4374999999997144
 40
0.4999999999997489
 40
0.4999999999997489
 40
0.6249999999998175
 40
0.6249999999998175
 40
0.656249999999842
 40
0.656249999999842
 40
0.6874999999998665
 40
0.7499999999998809
 40
0.8124999999998953
 40
0.8124999999998953
 40
0.8437499999999094
 40
0.8437499999999094
 40
0.8749999999999234
 40
0.8749999999999234
 40
1.0
 40
1.0
 40
1.0
 40
1.0
 10
417.0557887655625
 20
304.3850766698991
 30
0.0
 10
417.0048671658821
 20
304.3833013059817
 30
0.0
 10
416.9550154090793
 20
304.3763852804653
 30
0.0
 10
416.8817428574908
 20
304.3587792217629
 30
0.0
 10
416.8575716105123
 20
304.3516951580603
 30
0.0
 10
416.8216995765406
 20
304.3392198991968
 30
0.0
 10
416.8097749302273
 20
304.3347395081753
 30
0.0
 10
416.786228655753
 20
304.3252208161388
 30
0.0
 10
416.7746175073843
 20
304.3201890205267
 30
0.0
 10
416.7173533883741
 20
304.2936986094974
 30
0.0
 10
416.6740518032498
 20
304.2682851912839
 30
0.0
 10
416.6230150525913
 20
304.2313209495731
 30
0.0
 10
416.6129636674987
 20
304.2236657831346
 30
0.0
 10
416.5931775606061
 20
304.2078228532561
 30
0.0
 10
416.5834278053687
 20
304.1996198923293
 30
0.0
 10
416.5549557556146
 20
304.1744626382932
 30
0.0
 10
416.5369148175823
 20
304.156891595499
 30
0.0
 10
416.4855354650162
 20
304.1018460116612
 30
0.0
 10
416.454913156539
 20
304.0620622724321
 30
0.0
 10
416.4213300402229
 20
304.0083411663683
 30
0.0
 10
416.4148446732157
 20
303.997381666245
 30
0.0
 10
416.4024908557748
 20
303.9752949240839
 30
0.0
 10
416.3848314855126
 20
303.9418295840482
 30
0.0
 10
416.3596819102385
 20
303.8844063798387
 30
0.0
 10
416.3441018156881
 20
303.8367213612643
 30
0.0
 10
416.3341605472713
 20
303.8002867241332
 30
0.0
 10
416.3311379693029
 20
303.7880298234405
 30
0.0
 10
416.3256891485763
 20
303.7632866008266
 30
0.0
 10
416.3232616606446
 20
303.7507840650992
 30
0.0
 10
416.3127488277518
 20
303.6882771386884
 30
0.0
 10
416.3093782826238
 20
303.6378638452985
 30
0.0
 10
416.3112096780075
 20
303.5870296748541
 30
0.0
  0
SPLINE
  5
195
330
1F
100
AcDbEntity
  8
1
100
AcDbSpline
210
0.0
220
0.0
230
1.0
 70
     8
 71
     3
 72
    36
 73
    32
 74
     0
 42
0.000000001
 43
0.0000000001
 40
0.0
 40
0.0
 40
0.0
 40
0.0
 40
0.1250000000001196
 40
0.1250000000001196
 40
0.1875000000001794
 40
0.1875000000001794
 40
0.218750000000198
 40
0.218750000000198
 40
0.2500000000002165
 40
0.2500000000002165
 40
0.3750000000002581
 40
0.3750000000002581
 40
0.4062500000002584
 40
0.4062500000002584
 40
0.4375000000002587
 40
0.4375000000002587
 40
0.500000000000261
 40
0.500000000000261
 40
0.6250000000002655
 40
0.6250000000002655
 40
0.6562500000002231
 40
0.6562500000002231
 40
0.6875000000001807
 40
0.7500000000001577
 40
0.8125000000001346
 40
0.8125000000001346
 40
0.8437500000000897
 40
0.8437500000000897
 40
0.8750000000000447
 40
0.8750000000000447
 40
1.0
 40
1.0
 40
1.0
 40
1.0
 10
416.5979785768801
 20
295.6271651841167
 30
0.0
 10
416.5998101740274
 20
295.5763254133048
 30
0.0
 10
416.6067897807849
 20
295.5265483454803
 30
0.0
 10
416.6245015487278
 20
295.4533777827702
 30
0.0
 10
416.6316225860925
 20
295.4292388440408
 30
0.0
 10
416.644155948625
 20
295.3934127041303
 30
0.0
 10
416.6486562036756
 20
295.3815029650341
 30
0.0
 10
416.6582152255702
 20
295.3579854229326
 30
0.0
 10
416.6632674653238
 20
295.3463880893066
 30
0.0
 10
416.6898614615444
 20
295.289190349164
 30
0.0
 10
416.7153620737812
 20
295.245933323564
 30
0.0
 10
416.7524406345073
 20
295.1949417525295
 30
0.0
 10
416.7601189335786
 20
295.1848988724247
 30
0.0
 10
416.7760086745404
 20
295.1651286975204
 30
0.0
 10
416.7842353546901
 20
295.1553863780807
 30
0.0
 10
416.8094638560538
 20
295.12693478432
 30
0.0
 10
416.8270827296025
 20
295.1089051010413
 30
0.0
 10
416.8822727757929
 20
295.0575525621767
 30
0.0
 10
416.9221541070365
 20
295.0269389313933
 30
0.0
 10
416.9759988631908
 20
294.9933547679975
 30
0.0
 10
416.9869832058553
 20
294.9868685861437
 30
0.0
 10
417.0091192635765
 20
294.9745119495283
 30
0.0
 10
417.042658216954
 20
294.9568465675263
 30
0.0
 10
417.1002023406776
 20
294.9316782093625
 30
0.0
 10
417.1479822193538
 20
294.916073799592
 30
0.0
 10
417.1844872811145
 20
294.906110726573
 30
0.0
 10
417.1967675363841
 20
294.9030802845919
 30
0.0
 10
417.221557221778
 20
294.8976145156123
 30
0.0
 10
417.2340828937199
 20
294.8951779285132
 30
0.0
 10
417.2967037909622
 20
294.8846169358323
 30
0.0
 10
417.3472036567143
 20
294.881199153442
 30
0.0
 10
417.3981196470132
 20
294.8829743217904
 30
0.0
  0
SPLINE
  5
196
330
1F
100
AcDbEntity
  8
1
100
AcDbSpline
210
0.0
220
0.0
230
1.0
 70
     8
 71
     3
 72
    36
 73
    32
 74
     0
 42
0.000000001
 43
0.0000000001
 40
0.0
 40
0.0
 40
0.0
 40
0.0
 40
0.1250000000002306
 40
0.1250000000002306
 40
0.1875000000003126
 40
0.1875000000003126
 40
0.2187500000003212
 40
0.2187500000003212
 40
0.2500000000003299
 40
0.2500000000003299
 40
0.3750000000002996
 40
0.3750000000002996
 40
0.406250000000306
 40
0.406250000000306
 40
0.4375000000003123
 40
0.4375000000003123
 40
0.5000000000002752
 40
0.5000000000002752
 40
0.6250000000001993
 40
0.6250000000001993
 40
0.6562500000001898
 40
0.6562500000001898
 40
0.6875000000001803
 40
0.7500000000001306
 40
0.812500000000081
 40
0.812500000000081
 40
0.8437500000000653
 40
0.8437500000000653
 40
0.8750000000000495
 40
0.8750000000000495
 40
1.0
 40
1.0
 40
1.0
 40
1.0
 10
425.3707958931179
 20
295.160938914857
 30
0.0
 10
425.4217174927984
 20
295.1627142787744
 30
0.0
 10
425.4715692496011
 20
295.1696303042908
 30
0.0
 10
425.5448418011894
 20
295.1872363629932
 30
0.0
 10
425.569013048168
 20
295.1943204266958
 30
0.0
 10
425.6048850821398
 20
295.2067956855593
 30
0.0
 10
425.6168097284531
 20
295.2112760765808
 30
0.0
 10
425.6403560029274
 20
295.2207947686174
 30
0.0
 10
425.6519671512963
 20
295.2258265642295
 30
0.0
 10
425.7092312703063
 20
295.2523169752587
 30
0.0
 10
425.7525328554306
 20
295.2777303934722
 30
0.0
 10
425.8035696060892
 20
295.3146946351829
 30
0.0
 10
425.8136209911818
 20
295.3223498016215
 30
0.0
 10
425.8334070980743
 20
295.3381927315
 30
0.0
 10
425.8431568533117
 20
295.3463956924267
 30
0.0
 10
425.8716289030657
 20
295.3715529464629
 30
0.0
 10
425.8896698410981
 20
295.389123989257
 30
0.0
 10
425.941049193664
 20
295.4441695730949
 30
0.0
 10
425.9716715021414
 20
295.483953312324
 30
0.0
 10
426.0052546184576
 20
295.5376744183878
 30
0.0
 10
426.0117399854647
 20
295.5486339185112
 30
0.0
 10
426.0240938029056
 20
295.5707206606722
 30
0.0
 10
426.041753173168
 20
295.604186000708
 30
0.0
 10
426.0669027484418
 20
295.6616092049175
 30
0.0
 10
426.0824828429923
 20
295.7092942234918
 30
0.0
 10
426.0924241114087
 20
295.7457288606229
 30
0.0
 10
426.0954466893776
 20
295.7579857613156
 30
0.0
 10
426.1008955101043
 20
295.7827289839295
 30
0.0
 10
426.1033229980358
 20
295.7952315196568
 30
0.0
 10
426.1138358309286
 20
295.8577384460676
 30
0.0
 10
426.1172063760566
 20
295.9081517394577
 30
0.0
 10
426.1153749806729
 20
295.958985909902
 30
0.0
  0
SPLINE
  5
197
330
1F
100
AcDbEntity
  8
1
100
AcDbSpline
210
0.0
220
0.0
230
1.0
 70
     9
 71
     3
 72
   128
 73
   124
 74
     0
 42
0.000000001
 43
0.0000000001
 40
0.0
 40
0.0
 40
0.0
 40
0.0
 40
0.0312499999999684
 40
0.0312499999999684
 40
0.0468749999999535
 40
0.0468749999999535
 40
0.0624999999999385
 40
0.0624999999999385
 40
0.0937499999999122
 40
0.0937499999999122
 40
0.1093749999998991
 40
0.1093749999998991
 40
0.1249999999998859
 40
0.1249999999998859
 40
0.1562499999998532
 40
0.1562499999998532
 40
0.1640624999998469
 40
0.1640624999998469
 40
0.1718749999998407
 40
0.1718749999998407
 40
0.1874999999998361
 40
0.2031249999998316
 40
0.2031249999998316
 40
0.2109374999998293
 40
0.2109374999998293
 40
0.2187499999998271
 40
0.2187499999998271
 40
0.2499999999998267
 40
0.2499999999998267
 40
0.2656249999998265
 40
0.2656249999998265
 40
0.2734374999998264
 40
0.2734374999998264
 40
0.2812499999998264
 40
0.2812499999998264
 40
0.312499999999826
 40
0.312499999999826
 40
0.320312499999828
 40
0.320312499999828
 40
0.3281249999998299
 40
0.3281249999998299
 40
0.3437499999998261
 40
0.3593749999998223
 40
0.3593749999998223
 40
0.3671874999998204
 40
0.3671874999998204
 40
0.3749999999998185
 40
0.3749999999998185
 40
0.4062499999998232
 40
0.4062499999998232
 40
0.4218749999998277
 40
0.4218749999998277
 40
0.4296874999998301
 40
0.4296874999998301
 40
0.4374999999998325
 40
0.4374999999998325
 40
0.4687499999998361
 40
0.4687499999998361
 40
0.4765624999998367
 40
0.4765624999998367
 40
0.4843749999998373
 40
0.4843749999998373
 40
0.4999999999998379
 40
0.4999999999998379
 40
0.5312499999998389
 40
0.5312499999998389
 40
0.5390624999998377
 40
0.5390624999998377
 40
0.5468749999998365
 40
0.5468749999998365
 40
0.562499999999834
 40
0.5781249999998316
 40
0.5781249999998316
 40
0.5859374999998305
 40
0.5859374999998305
 40
0.5937499999998293
 40
0.5937499999998293
 40
0.624999999999825
 40
0.624999999999825
 40
0.6406249999998228
 40
0.6406249999998228
 40
0.6484374999998252
 40
0.6484374999998252
 40
0.6562499999998274
 40
0.6562499999998274
 40
0.6874999999998149
 40
0.6874999999998149
 40
0.6953124999998117
 40
0.6953124999998117
 40
0.7031249999998086
 40
0.7031249999998086
 40
0.7187499999998109
 40
0.7187499999998109
 40
0.7499999999998069
 40
0.7499999999998069
 40
0.757812499999806
 40
0.757812499999806
 40
0.765624999999805
 40
0.765624999999805
 40
0.7812499999998118
 40
0.7968749999998189
 40
0.7968749999998189
 40
0.8046874999998223
 40
0.8046874999998223
 40
0.8124999999998259
 40
0.8124999999998259
 40
0.8437499999998486
 40
0.8437499999998486
 40
0.8515624999998561
 40
0.8515624999998561
 40
0.8593749999998635
 40
0.8593749999998635
 40
0.8749999999998788
 40
0.8749999999998788
 40
0.9062499999999088
 40
0.9062499999999088
 40
0.937499999999939
 40
0.937499999999939
 40
0.9531249999999543
 40
0.9531249999999543
 40
0.9687499999999694
 40
0.9687499999999694
 40
1.0
 40
1.0
 40
1.0
 40
1.0
 10
418.9691615337857
 20
285.324186265565
 30
0.0
 10
418.9708111950551
 20
285.418695296388
 30
0.0
 10
418.9815932025921
 20
285.5117608954013
 30
0.0
 10
419.011121535733
 20
285.6492254125988
 30
0.0
 10
419.0232057240118
 20
285.6946885015027
 30
0.0
 10
419.0519895747981
 20
285.7848688514303
 30
0.0
 10
419.0687860654088
 20
285.8297611537134
 30
0.0
 10
419.1251880281527
 20
285.9604784397465
 30
0.0
 10
419.1709283754396
 20
286.0431831625393
 30
0.0
 10
419.2517470959823
 20
286.1605150550292
 30
0.0
 10
419.2807435580618
 20
286.1985073575839
 30
0.0
 10
419.3429770404621
 20
286.272083143956
 30
0.0
 10
419.3756906579334
 20
286.3070494760955
 30
0.0
 10
419.4784734153113
 20
286.4066367370489
 30
0.0
 10
419.5531403595508
 20
286.4659964794047
 30
0.0
 10
419.6543398822675
 20
286.5311403969258
 30
0.0
 10
419.6750190153948
 20
286.5437364172917
 30
0.0
 10
419.7169970606084
 20
286.5678804382439
 30
0.0
 10
419.7382078808508
 20
286.5793808357429
 30
0.0
 10
419.8024926098822
 20
286.6121994047731
 30
0.0
 10
419.8899417830738
 20
286.6514786064374
 30
0.0
 10
419.9808041099037
 20
286.6819379103356
 30
0.0
 10
420.050246797132
 20
286.7014289680654
 30
0.0
 10
420.0736107445549
 20
286.7073660747857
 30
0.0
 10
420.1207790730001
 20
286.7181000147725
 30
0.0
 10
420.1446512765817
 20
286.7229071468807
 30
0.0
 10
420.2639929085358
 20
286.7438323758806
 30
0.0
 10
420.3597221607402
 20
286.7508481931792
 30
0.0
 10
420.5036888928876
 20
286.7471972853736
 30
0.0
 10
420.5517404141962
 20
286.7436003193533
 30
0.0
 10
420.6239145514753
 20
286.7345242638386
 30
0.0
 10
420.6479854450897
 20
286.7308800341706
 30
0.0
 10
420.695609889525
 20
286.7224458563064
 30
0.0
 10
420.7192331998847
 20
286.7176482438345
 30
0.0
 10
420.8364209303635
 20
286.6908071535103
 30
0.0
 10
420.9272263181967
 20
286.6602877595359
 30
0.0
 10
421.0370225689754
 20
286.6107701654416
 30
0.0
 10
421.0587945741263
 20
286.6002930149599
 30
0.0
 10
421.1019562140522
 20
286.5781683218301
 30
0.0
 10
421.1231817731278
 20
286.5666042102334
 30
0.0
 10
421.1857208154806
 20
286.5304914713619
 30
0.0
 10
421.2661632649291
 20
286.4785168841108
 30
0.0
 10
421.3408534097184
 20
286.4190870517506
 30
0.0
 10
421.3947008493438
 20
286.371710031942
 30
0.0
 10
421.4122876582571
 20
286.3554494236457
 30
0.0
 10
421.4467264654457
 20
286.3219799598039
 30
0.0
 10
421.4636222098176
 20
286.3047231524424
 30
0.0
 10
421.5456452660409
 20
286.2166529359679
 30
0.0
 10
421.6031658938827
 20
286.1409575863687
 30
0.0
 10
421.6778224992157
 20
286.0199645128222
 30
0.0
 10
421.7007564623921
 20
285.9783825304571
 30
0.0
 10
421.7321696753926
 20
285.9141024981856
 30
0.0
 10
421.7421574801374
 20
285.8923144995558
 30
0.0
 10
421.7609269268141
 20
285.8485527163102
 30
0.0
 10
421.7697338399776
 20
285.8265323305906
 30
0.0
 10
421.8109393540418
 20
285.7157505677672
 30
0.0
 10
421.8349283617556
 20
285.6249696766044
 30
0.0
 10
421.8538472456702
 20
285.5088722825449
 30
0.0
 10
421.8570728400608
 20
285.4855205024589
 30
0.0
 10
421.8623918535026
 20
285.4385491478062
 30
0.0
 10
421.8644803320151
 20
285.4149382731204
 30
0.0
 10
421.8689891578665
 20
285.3444509541196
 30
0.0
 10
421.8696888548653
 20
285.2976700248946
 30
0.0
 10
421.8650814397976
 20
285.1579415424125
 30
0.0
 10
421.85313037856
 20
285.0656041005046
 30
0.0
 10
421.8268379839289
 20
284.9512075433295
 30
0.0
 10
421.8210067383743
 20
284.9283963242672
 30
0.0
 10
421.8083220927897
 20
284.8833482314932
 30
0.0
 10
421.8014557820051
 20
284.8610518486276
 30
0.0
 10
421.7793095411407
 20
284.7948332340738
 30
0.0
 10
421.7456622717946
 20
284.7083268570291
 30
0.0
 10
421.7038576744348
 20
284.6253332946505
 30
0.0
 10
421.6693858640868
 20
284.5644204963928
 30
0.0
 10
421.6573745985415
 20
284.544338673032
 30
0.0
 10
421.6322888483068
 20
284.5046272791146
 30
0.0
 10
421.6191903620803
 20
284.4849683639035
 30
0.0
 10
421.551700484435
 20
284.3888334608804
 30
0.0
 10
421.4909282521817
 20
284.3180098967252
 30
0.0
 10
421.3896557522949
 20
284.2207321977989
 30
0.0
 10
421.3542005314314
 20
284.1898099133625
 30
0.0
 10
421.2983620854841
 20
284.1457627533229
 30
0.0
 10
421.279248043654
 20
284.1314306704055
 30
0.0
 10
421.2404398646652
 20
284.1038043661815
 30
0.0
 10
421.220753307235
 20
284.0905100675107
 30
0.0
 10
421.1209252638469
 20
284.0265948652458
 30
0.0
 10
421.0366388195634
 20
283.9835670037527
 30
0.0
 10
420.9256113100101
 20
283.9400743175047
 30
0.0
 10
420.9031197541992
 20
283.9318951743074
 30
0.0
 10
420.8575501941443
 20
283.9165997917405
 30
0.0
 10
420.8344016134089
 20
283.9094645418417
 30
0.0
 10
420.7646140449465
 20
283.8898574324016
 30
0.0
 10
420.7177615119128
 20
283.8791970618144
 30
0.0
 10
420.5762451990587
 20
283.8542583397403
 30
0.0
 10
420.4806319696544
 20
283.8469521236851
 30
0.0
 10
420.3594682043671
 20
283.8498976688084
 30
0.0
 10
420.3351189070261
 20
283.8511027073085
 30
0.0
 10
420.2868392157808
 20
283.8547074400667
 30
0.0
 10
420.2628384502526
 20
283.8571068849255
 30
0.0
 10
420.1912451452929
 20
283.8660619429474
 30
0.0
 10
420.0968760722875
 20
283.882677941796
 30
0.0
 10
420.004645610454
 20
283.9084958230878
 30
0.0
 10
419.9362835080173
 20
283.9313571947205
 30
0.0
 10
419.9135848429746
 20
283.9395802309026
 30
0.0
 10
419.8686785034805
 20
283.9571304220179
 30
0.0
 10
419.8465552144525
 20
283.9664215955866
 30
0.0
 10
419.7375436820326
 20
284.015393447594
 30
0.0
 10
419.6554231866344
 20
284.062547159893
 30
0.0
 10
419.5589204171511
 20
284.1312218129133
 30
0.0
 10
419.5399301409451
 20
284.1454479788291
 30
0.0
 10
419.5025763797139
 20
284.1748953738671
 30
0.0
 10
419.4842292802516
 20
284.1901085503717
 30
0.0
 10
419.4306965503693
 20
284.2367530858739
 30
0.0
 10
419.3968172604668
 20
284.2693393211661
 30
0.0
 10
419.3004103101171
 20
284.3714357586611
 30
0.0
 10
419.2430632393441
 20
284.4452419773499
 30
0.0
 10
419.1424360020751
 20
284.6046743229083
 30
0.0
 10
419.1006854144569
 20
284.6878819338807
 30
0.0
 10
419.0503251771164
 20
284.8176884634422
 30
0.0
 10
419.0355958405296
 20
284.8617997924221
 30
0.0
 10
419.010330515043
 20
284.9517496137975
 30
0.0
 10
418.9997757594155
 20
284.9977657988208
 30
0.0
 10
418.9750399436538
 20
285.1362556641681
 30
0.0
 10
418.9675118725165
 20
285.2296772347418
 30
0.0
 10
418.9691615337857
 20
285.324186265565
 30
0.0
  0
SPLINE
  5
198
330
1F
100
AcDbEntity
  8
1
100
AcDbSpline
210
0.0
220
0.0
230
1.0
 70
    12
 71
     2
 72
     6
 73
     3
 74
     0
 42
0.000000001
 43
0.0000000001
 40
0.0
 40
0.0
 40
0.0
 40
1.0
 40
1.0
 40
1.0
 10
416.0945068142514
 20
304.1807419518989
 30
0.0
 41
0.5000073628597312
 10
416.2066907356856
 20
304.1805457015299
 30
0.0
 41
0.499992637140269
 10
416.3188734946661
 20
304.1803489538711
 30
0.0
 41
0.5000073628597312
  0
SPLINE
  5
199
330
1F
100
AcDbEntity
  8
1
100
AcDbSpline
210
0.0
220
0.0
230
1.0
 70
     8
 71
     3
 72
    29
 73
    25
 74
     0
 42
0.000000001
 43
0.0000000001
 40
0.0
 40
0.0
 40
0.0
 40
0.0
 40
0.0624999999999996
 40
0.0624999999999996
 40
0.1249999999999993
 40
0.1249999999999993
 40
0.1874999999999989
 40
0.1874999999999989
 40
0.2499999999999986
 40
0.2499999999999986
 40
0.3749999999999986
 40
0.3749999999999986
 40
0.4999999999999988
 40
0.4999999999999988
 40
0.5624999999999984
 40
0.5624999999999984
 40
0.5937499999999984
 40
0.5937499999999984
 40
0.6249999999999983
 40
0.6249999999999983
 40
0.7499999999999988
 40
0.7499999999999988
 40
0.8749999999999992
 40
1.0
 40
1.0
 40
1.0
 40
1.0
 10
294.8538318185192
 20
273.624425771288
 30
0.0
 10
294.6090244676777
 20
273.6334445362766
 30
0.0
 10
294.3674004955221
 20
273.6373698572186
 30
0.0
 10
293.8897749880596
 20
273.6362245327657
 30
0.0
 10
293.6537748340087
 20
273.6311516773447
 30
0.0
 10
293.1868268083319
 20
273.6129222540766
 30
0.0
 10
292.9558799401134
 20
273.5997640807657
 30
0.0
 10
292.4986034926477
 20
273.5660600164564
 30
0.0
 10
292.2722746555183
 20
273.5455129380608
 30
0.0
 10
291.5997256659193
 20
273.4735715908643
 30
0.0
 10
291.1599067675386
 20
273.4119352388091
 30
0.0
 10
290.2957805744186
 20
273.2638437829824
 30
0.0
 10
289.8714831165457
 20
273.1773729401072
 30
0.0
 10
289.2462905542233
 20
273.0296607417525
 30
0.0
 10
289.0397759303396
 20
272.9774106847116
 30
0.0
 10
288.7328395788403
 20
272.8944986302471
 30
0.0
 10
288.6309524969329
 20
272.8660894146558
 30
0.0
 10
288.4287550951471
 20
272.8079316673593
 30
0.0
 10
288.3283731343114
 20
272.778164656308
 30
0.0
 10
287.8300307647041
 20
272.6259045306426
 30
0.0
 10
287.4427364547005
 20
272.4931709649297
 30
0.0
 10
286.6911046439118
 20
272.2056631523428
 30
0.0
 10
285.9624389351066
 20
271.8961057366719
 30
0.0
 10
285.2817680255186
 20
271.5404688307339
 30
0.0
 10
284.9543368819071
 20
271.3502610336851
 30
0.0
  0
SPLINE
  5
19A
330
1F
100
AcDbEntity
  8
1
100
AcDbSpline
210
0.0
220
0.0
230
1.0
 70
     8
 71
     3
 72
    22
 73
    18
 74
     0
 42
0.000000001
 43
0.0000000001
 40
0.0
 40
0.0
 40
0.0
 40
0.0
 40
0.1462335712291512
 40
0.1462335712291512
 40
0.2924671424583024
 40
0.2924671424583024
 40
0.4387007136874537
 40
0.4387007136874537
 40
0.5118174993020292
 40
0.5118174993020292
 40
0.5849342849166048
 40
0.5849342849166048
 40
0.7311678561457566
 40
0.7311678561457566
 40
0.8774014273749084
 40
0.8774014273749084
 40
1.0
 40
1.0
 40
1.0
 40
1.0
 10
310.3152652080367
 20
273.8249564796196
 30
0.0
 10
311.5437008307784
 20
273.9605773807595
 30
0.0
 10
312.7716311264082
 20
274.1077722593406
 30
0.0
 10
315.2279574275329
 20
274.4217656030425
 30
0.0
 10
316.4563560805219
 20
274.5885580470531
 30
0.0
 10
318.9149426891581
 20
274.9377370685415
 30
0.0
 10
320.1451334590723
 20
275.1201143671484
 30
0.0
 10
321.9925745452687
 20
275.4021935863799
 30
0.0
 10
322.6087452571455
 20
275.4976378913027
 30
0.0
 10
323.8419061553857
 20
275.6908397661841
 30
0.0
 10
324.4589468988713
 20
275.7886048366882
 30
0.0
 10
326.3110483525482
 20
276.0845591499584
 30
0.0
 10
327.5469032500592
 20
276.2853385510069
 30
0.0
 10
330.0213047531715
 20
276.6904626864455
 30
0.0
 10
331.2598540034628
 20
276.8947769527005
 30
0.0
 10
333.5392616392023
 20
277.2719117100801
 30
0.0
 10
334.5797177025945
 20
277.444465510812
 30
0.0
 10
335.6209862849191
 20
277.6177640068247
 30
0.0
  0
SPLINE
  5
19B
330
1F
100
AcDbEntity
  8
1
100
AcDbSpline
210
0.0
220
0.0
230
1.0
 70
    12
 71
     3
 72
     8
 73
     4
 74
     0
 42
0.000000001
 43
0.0000000001
 40
0.0
 40
0.0
 40
0.0
 40
0.0
 40
1.0
 40
1.0
 40
1.0
 40
1.0
 10
297.9048419452957
 20
273.7299484855324
 30
0.0
 41
1.001498006703475
 10
302.1390374774355
 20
273.736632480476
 30
0.0
 41
0.9999710756085924
 10
306.2705032754378
 20
273.762541254421
 30
0.0
 41
0.9996345098058684
 10
310.3152652080012
 20
273.8249564796192
 30
0.0
 41
0.9999333290389509
  0
SPLINE
  5
19C
330
1F
100
AcDbEntity
  8
1
100
AcDbSpline
210
0.0
220
0.0
230
1.0
 70
     8
 71
     3
 72
     8
 73
     4
 74
     0
 42
0.000000001
 43
0.0000000001
 40
0.0
 40
0.0
 40
0.0
 40
0.0
 40
1.0
 40
1.0
 40
1.0
 40
1.0
 10
300.1010252540682
 20
282.6835838867893
 30
0.0
 10
300.1011273204222
 20
282.6943036973428
 30
0.0
 10
300.1012294010404
 20
282.7050235446465
 30
0.0
 10
300.1013314959289
 20
282.7157434287158
 30
0.0
  0
SPLINE
  5
19D
330
1F
100
AcDbEntity
  8
1
100
AcDbSpline
210
0.0
220
0.0
230
1.0
 70
     8
 71
     3
 72
     8
 73
     4
 74
     0
 42
0.000000001
 43
0.0000000001
 40
0.0
 40
0.0
 40
0.0
 40
0.0
 40
1.0
 40
1.0
 40
1.0
 40
1.0
 10
283.74857662829
 20
270.6636490061957
 30
0.0
 10
284.1536037708531
 20
270.889992811167
 30
0.0
 10
284.5557222879195
 20
271.1187021081725
 30
0.0
 10
284.9543368819075
 20
271.3502610336848
 30
0.0
  0
SPLINE
  5
19E
330
1F
100
AcDbEntity
  8
1
100
AcDbSpline
210
0.0
220
0.0
230
1.0
 70
     9
 71
     3
 72
   178
 73
   174
 74
     0
 42
0.000000001
 43
0.0000000001
 40
0.0
 40
0.0
 40
0.0
 40
0.0
 40
0.0156250000000011
 40
0.0156250000000011
 40
0.0234375000000014
 40
0.0234375000000014
 40
0.0312500000000016
 40
0.0312500000000016
 40
0.0468750000000022
 40
0.0468750000000022
 40
0.0546875000000029
 40
0.0546875000000029
 40
0.0625000000000036
 40
0.0625000000000036
 40
0.0781250000000047
 40
0.0781250000000047
 40
0.0937500000000058
 40
0.0937500000000058
 40
0.1015625000000065
 40
0.1015625000000065
 40
0.1093750000000072
 40
0.1093750000000072
 40
0.1250000000000086
 40
0.1250000000000086
 40
0.1328125000000091
 40
0.1328125000000091
 40
0.1406250000000095
 40
0.1406250000000095
 40
0.1562500000000107
 40
0.1562500000000107
 40
0.1718750000000119
 40
0.1718750000000119
 40
0.1796875000000124
 40
0.1796875000000124
 40
0.187500000000013
 40
0.187500000000013
 40
0.2031250000000145
 40
0.2031250000000145
 40
0.2109375000000151
 40
0.2109375000000151
 40
0.2187500000000157
 40
0.2187500000000157
 40
0.2343750000000172
 40
0.2343750000000172
 40
0.2500000000000186
 40
0.2500000000000186
 40
0.2578125000000193
 40
0.2578125000000193
 40
0.2656250000000199
 40
0.2656250000000199
 40
0.2812500000000212
 40
0.2812500000000212
 40
0.2890625000000217
 40
0.2890625000000217
 40
0.2968750000000222
 40
0.2968750000000222
 40
0.3125000000000233
 40
0.3125000000000233
 40
0.3281250000000245
 40
0.3281250000000245
 40
0.3359375000000251
 40
0.3359375000000251
 40
0.3437500000000256
 40
0.3437500000000256
 40
0.3593750000000263
 40
0.3593750000000263
 40
0.3671875000000264
 40
0.3671875000000264
 40
0.3750000000000266
 40
0.3750000000000266
 40
0.3906250000000269
 40
0.3906250000000269
 40
0.4062500000000274
 40
0.4062500000000274
 40
0.4140625000000275
 40
0.4140625000000275
 40
0.4218750000000277
 40
0.4218750000000277
 40
0.4375000000000281
 40
0.4375000000000281
 40
0.4453125000000285
 40
0.4453125000000285
 40
0.453125000000029
 40
0.4609375000000293
 40
0.4609375000000293
 40
0.4687500000000296
 40
0.4687500000000296
 40
0.4843750000000295
 40
0.4843750000000295
 40
0.5000000000000293
 40
0.5000000000000293
 40
0.5156250000000293
 40
0.5156250000000293
 40
0.5234375000000297
 40
0.5234375000000297
 40
0.5312500000000301
 40
0.5390625000000304
 40
0.5390625000000304
 40
0.5468750000000309
 40
0.5468750000000309
 40
0.5625000000000313
 40
0.5625000000000313
 40
0.5781250000000318
 40
0.5781250000000318
 40
0.5937500000000322
 40
0.5937500000000322
 40
0.6015625000000325
 40
0.6015625000000325
 40
0.6093750000000328
 40
0.6171875000000331
 40
0.6171875000000331
 40
0.6250000000000334
 40
0.6250000000000334
 40
0.6406250000000334
 40
0.6406250000000334
 40
0.6562500000000334
 40
0.6562500000000334
 40
0.6718750000000334
 40
0.6718750000000334
 40
0.679687500000033
 40
0.679687500000033
 40
0.6875000000000327
 40
0.6953125000000324
 40
0.6953125000000324
 40
0.7031250000000321
 40
0.7031250000000321
 40
0.7187500000000313
 40
0.7187500000000313
 40
0.7343750000000307
 40
0.7343750000000307
 40
0.7500000000000299
 40
0.7500000000000299
 40
0.7578125000000297
 40
0.7578125000000297
 40
0.7656250000000294
 40
0.7656250000000294
 40
0.7812500000000286
 40
0.7968750000000279
 40
0.7968750000000279
 40
0.8046875000000275
 40
0.8046875000000275
 40
0.8125000000000271
 40
0.8125000000000271
 40
0.8281250000000261
 40
0.8281250000000261
 40
0.8359375000000252
 40
0.8359375000000252
 40
0.8437500000000243
 40
0.8515625000000234
 40
0.8515625000000234
 40
0.8593750000000225
 40
0.8593750000000225
 40
0.8750000000000198
 40
0.8750000000000198
 40
0.8828125000000191
 40
0.8828125000000191
 40
0.8906250000000181
 40
0.8906250000000181
 40
0.9062500000000158
 40
0.9062500000000158
 40
0.9140625000000147
 40
0.9140625000000147
 40
0.9218750000000135
 40
0.9218750000000135
 40
0.9375000000000111
 40
0.9375000000000111
 40
0.9531250000000087
 40
0.9531250000000087
 40
0.9609375000000078
 40
0.9609375000000078
 40
0.9687500000000065
 40
0.9687500000000065
 40
1.0
 40
1.0
 40
1.0
 40
1.0
 10
424.1013963580916
 20
283.3304187844478
 30
0.0
 10
424.1105467914956
 20
283.3295352004645
 30
0.0
 10
424.1196663165903
 20
283.3318640334521
 30
0.0
 10
424.1332995111394
 20
283.3401479115543
 30
0.0
 10
424.1378362133079
 20
283.3437090800305
 30
0.0
 10
424.1468941030878
 20
283.3524439033052
 30
0.0
 10
424.1514165603343
 20
283.3576218920745
 30
0.0
 10
424.1648871046918
 20
283.3754985573262
 30
0.0
 10
424.1737630420005
 20
283.3905542145993
 30
0.0
 10
424.1869198043241
 20
283.4178597032371
 30
0.0
 10
424.1912847909705
 20
283.4277643188487
 30
0.0
 10
424.1999319635548
 20
283.4490952317968
 30
0.0
 10
424.2042112406266
 20
283.4605116442684
 30
0.0
 10
424.2169167935559
 20
283.4970027440096
 30
0.0
 10
424.2252111154251
 20
283.5243137973885
 30
0.0
 10
424.2414433868354
 20
283.5849757291415
 30
0.0
 10
424.2493257036398
 20
283.6181241121522
 30
0.0
 10
424.260774770631
 20
283.6719385832198
 30
0.0
 10
424.2645300642839
 20
283.6905653725956
 30
0.0
 10
424.2719176974196
 20
283.7292055781318
 30
0.0
 10
424.2755521897167
 20
283.749234396327
 30
0.0
 10
424.2862113088905
 20
283.811080370263
 30
0.0
 10
424.2930116242031
 20
283.8547484413791
 30
0.0
 10
424.3027533196481
 20
283.9239077276058
 30
0.0
 10
424.3059279819894
 20
283.9476037762437
 30
0.0
 10
424.3121011899226
 20
283.9960618561703
 30
0.0
 10
424.3150977526653
 20
284.020804442527
 30
0.0
 10
424.3238190758765
 20
284.0965628103593
 30
0.0
 10
424.329276128832
 20
284.1491054505521
 30
0.0
 10
424.3394694796932
 20
284.2583015275288
 30
0.0
 10
424.3441678454143
 20
284.314554358577
 30
0.0
 10
424.3506137377793
 20
284.4012677079518
 30
0.0
 10
424.3526625231116
 20
284.4305684750327
 30
0.0
 10
424.3565593733509
 20
284.4899667302263
 30
0.0
 10
424.3584076788239
 20
284.5200754192627
 30
0.0
 10
424.3636208091176
 20
284.6110994109939
 30
0.0
 10
424.3666658009431
 20
284.6728718978467
 30
0.0
 10
424.3705895150847
 20
284.76716063455
 30
0.0
 10
424.3717913378469
 20
284.7989063394972
 30
0.0
 10
424.3739697244715
 20
284.862695861837
 30
0.0
 10
424.3749464505781
 20
284.894732292417
 30
0.0
 10
424.3775418769593
 20
284.9912632547158
 30
0.0
 10
424.3788266360655
 20
285.0561784357083
 30
0.0
 10
424.3804996186879
 20
285.1871381194975
 30
0.0
 10
424.3808810610383
 20
285.2526550658055
 30
0.0
 10
424.3807796944254
 20
285.3509698645643
 30
0.0
 10
424.3806334545877
 20
285.3837489099465
 30
0.0
 10
424.3801151506102
 20
285.4493219533763
 30
0.0
 10
424.3797427165484
 20
285.4821125807213
 30
0.0
 10
424.3782931369899
 20
285.5799802493568
 30
0.0
 10
424.3768834852773
 20
285.6447308095537
 30
0.0
 10
424.3741066395863
 20
285.7411176441103
 30
0.0
 10
424.3730688075281
 20
285.7731649144309
 30
0.0
 10
424.3707800826395
 20
285.8367430012937
 30
0.0
 10
424.3695293238563
 20
285.86828192234
 30
0.0
 10
424.3654602896973
 20
285.9621540337394
 30
0.0
 10
424.3623246873625
 20
286.0237668693514
 30
0.0
 10
424.3552103650332
 20
286.1449059934059
 30
0.0
 10
424.3512571770342
 20
286.2040037898065
 30
0.0
 10
424.3447403995663
 20
286.2904690166903
 30
0.0
 10
424.3424701304103
 20
286.3189265216739
 30
0.0
 10
424.3377326283782
 20
286.3751095498475
 30
0.0
 10
424.3352664940649
 20
286.4028174039406
 30
0.0
 10
424.3276108867514
 20
286.4844200032342
 30
0.0
 10
424.3221532466793
 20
286.5369379113928
 30
0.0
 10
424.3134365143058
 20
286.6128921267447
 30
0.0
 10
424.3104385946002
 20
286.6377674009902
 30
0.0
 10
424.3042917171571
 20
286.6863520540777
 30
0.0
 10
424.3011412635548
 20
286.7100776815421
 30
0.0
 10
424.2914601856147
 20
286.7795642349173
 30
0.0
 10
424.2846950483221
 20
286.8236703026997
 30
0.0
 10
424.2705695106812
 20
286.9072069802724
 30
0.0
 10
424.263252698355
 20
286.9463861441734
 30
0.0
 10
424.2518992919314
 20
287.00130045297
 30
0.0
 10
424.2480516792176
 20
287.0189616689595
 30
0.0
 10
424.2402292886084
 20
287.0529880516889
 30
0.0
 10
424.2362588728763
 20
287.0693319014222
 30
0.0
 10
424.2242157602659
 20
287.1161783600007
 30
0.0
 10
424.2159943658116
 20
287.1445768414498
 30
0.0
 10
424.2033722855008
 20
287.1829109841153
 30
0.0
 10
424.1991119344389
 20
287.1949877364332
 30
0.0
 10
424.1905343396569
 20
287.2175971160571
 30
0.0
 10
424.181892604855
 20
287.2386879909576
 30
0.0
 10
424.173123041178
 20
287.2567525376655
 30
0.0
 10
424.1642893306256
 20
287.2732984173564
 30
0.0
 10
424.1598360644472
 20
287.2808183953041
 30
0.0
 10
424.1464092747779
 20
287.3010310067721
 30
0.0
 10
424.1373987348276
 20
287.3113439840504
 30
0.0
 10
424.1192593838535
 20
287.3256682614752
 30
0.0
 10
424.1101081239788
 20
287.329672599504
 30
0.0
 10
424.0918526655093
 20
287.3312408697705
 30
0.0
 10
424.0827371697781
 20
287.3288304174293
 30
0.0
 10
424.0690824016011
 20
287.3203901730427
 30
0.0
 10
424.0645300796536
 20
287.3167656331394
 30
0.0
 10
424.0554782177248
 20
287.3079351629237
 30
0.0
 10
424.0464688115454
 20
287.2975196957901
 30
0.0
 10
424.0375441079409
 20
287.2839420345612
 30
0.0
 10
424.0286619587071
 20
287.2687756946051
 30
0.0
 10
424.0242369046491
 20
287.2603868948639
 30
0.0
 10
424.0110656881634
 20
287.2328926589797
 30
0.0
 10
424.0024417013612
 20
287.2115129837509
 30
0.0
 10
423.9855065559918
 20
287.1626692155217
 30
0.0
 10
423.9771765507726
 20
287.1351223254579
 30
0.0
 10
423.9609953048409
 20
287.0744211429311
 30
0.0
 10
423.9531293872813
 20
287.0412416783338
 30
0.0
 10
423.9416698042084
 20
286.9872010324762
 30
0.0
 10
423.9379046888113
 20
286.9684613440668
 30
0.0
 10
423.9305290975036
 20
286.9297551012108
 30
0.0
 10
423.9232979327822
 20
286.8897765453125
 30
0.0
 10
423.9163546953884
 20
286.8472615194875
 30
0.0
 10
423.9095560146751
 20
286.8034730345678
 30
0.0
 10
423.9062246130969
 20
286.7809104460576
 30
0.0
 10
423.8964849839816
 20
286.7115458211273
 30
0.0
 10
423.8903365921826
 20
286.6631282815631
 30
0.0
 10
423.8787257345318
 20
286.5619661332673
 30
0.0
 10
423.8732531498097
 20
286.5090903253494
 30
0.0
 10
423.8631100312066
 20
286.4000631422175
 30
0.0
 10
423.8584266646358
 20
286.3438230883782
 30
0.0
 10
423.8519860257931
 20
286.2568638771192
 30
0.0
 10
423.8499367095882
 20
286.2274365584643
 30
0.0
 10
423.8460560047185
 20
286.1680393852208
 30
0.0
 10
423.8423870516016
 20
286.1080199800398
 30
0.0
 10
423.8391395782575
 20
286.0467620577152
 30
0.0
 10
423.8361033765982
 20
285.9848833141326
 30
0.0
 10
423.8346892044502
 20
285.9535897388631
 30
0.0
 10
423.8307822002117
 20
285.8591577868686
 30
0.0
 10
423.8286227055598
 20
285.7954786790129
 30
0.0
 10
423.8251870245685
 20
285.6666829759703
 30
0.0
 10
423.8239110629461
 20
285.6014330705976
 30
0.0
 10
423.8222708589785
 20
285.4708263258072
 30
0.0
 10
423.8219012108039
 20
285.4053346742471
 30
0.0
 10
423.8220233267892
 20
285.3068143988319
 30
0.0
 10
423.8221775653903
 20
285.2739405081538
 30
0.0
 10
423.8227075815784
 20
285.208631217227
 30
0.0
 10
423.8230833202448
 20
285.1761287423012
 30
0.0
 10
423.8245368957763
 20
285.0790698143068
 30
0.0
 10
423.8273437798853
 20
284.9508518284372
 30
0.0
 10
423.831864460102
 20
284.8249890121432
 30
0.0
 10
423.8359071048773
 20
284.7314880903112
 30
0.0
 10
423.8373635324294
 20
284.7004707428013
 30
0.0
 10
423.8404981339983
 20
284.6387407809544
 30
0.0
 10
423.8421695485471
 20
284.6081650911549
 30
0.0
 10
423.8474816003798
 20
284.5175177775488
 30
0.0
 10
423.8514241416789
 20
284.458428272461
 30
0.0
 10
423.8579396838091
 20
284.3718069706694
 30
0.0
 10
423.8602142009484
 20
284.3432466556834
 30
0.0
 10
423.8649412081669
 20
284.2870899537633
 30
0.0
 10
423.8698507712909
 20
284.2318305248194
 30
0.0
 10
423.8751232862981
 20
284.1783550256563
 30
0.0
 10
423.8805774958166
 20
284.1257725656675
 30
0.0
 10
423.8833980637179
 20
284.0999052155892
 30
0.0
 10
423.8921167389793
 20
284.0238086027517
 30
0.0
 10
423.898248261789
 20
283.975271720651
 30
0.0
 10
423.9079197901747
 20
283.9057276715319
 30
0.0
 10
423.9112228153521
 20
283.883090841848
 30
0.0
 10
423.9179882046368
 20
283.83891292165
 30
0.0
 10
423.9214482102303
 20
283.8173903653486
 30
0.0
 10
423.9320136538023
 20
283.7547972522315
 30
0.0
 10
423.9393205352719
 20
283.7155871051957
 30
0.0
 10
423.9506760687098
 20
283.6605529592816
 30
0.0
 10
423.9545324002551
 20
283.6428179543103
 30
0.0
 10
423.9623458255117
 20
283.6087633783453
 30
0.0
 10
423.9663035083149
 20
283.5924378858534
 30
0.0
 10
423.9783286604628
 20
283.5455556864231
 30
0.0
 10
423.9865478691539
 20
283.5170882403029
 30
0.0
 10
424.003395584355
 20
283.4657888665733
 30
0.0
 10
424.0119617948479
 20
283.4431483395613
 30
0.0
 10
424.0250136370768
 20
283.4136942192793
 30
0.0
 10
424.0293985834344
 20
283.4046270576754
 30
0.0
 10
424.0382376084031
 20
283.3880047202845
 30
0.0
 10
424.0426950540919
 20
283.3804469737907
 30
0.0
 10
424.0650192277334
 20
283.3466753589332
 30
0.0
 10
424.0830954912836
 20
283.3321859524145
 30
0.0
 10
424.1013963580916
 20
283.3304187844478
 30
0.0
  0
SPLINE
  5
19F
330
1F
100
AcDbEntity
  8
1
100
AcDbSpline
210
0.0
220
0.0
230
1.0
 70
    12
 71
     2
 72
     6
 73
     3
 74
     0
 42
0.000000001
 43
0.0000000001
 40
0.0
 40
0.0
 40
0.0
 40
1.0
 40
1.0
 40
1.0
 10
300.1010252540682
 20
282.6835838867893
 30
0.0
 41
0.5000001404015111
 10
300.1054844798568
 20
282.6984548308132
 30
0.0
 41
0.4999998595984891
 10
300.1099407918317
 20
282.7133397245744
 30
0.0
 41
0.5000001404015111
  0
SPLINE
  5
1A0
330
1F
100
AcDbEntity
  8
1
100
AcDbSpline
210
0.0
220
0.0
230
1.0
 70
     8
 71
     3
 72
     8
 73
     4
 74
     0
 42
0.000000001
 43
0.0000000001
 40
0.0
 40
0.0
 40
0.0
 40
0.0
 40
1.0
 40
1.0
 40
1.0
 40
1.0
 10
410.8703293472031
 20
292.8552864202202
 30
0.0
 10
410.6192024930964
 20
292.9821249016262
 30
0.0
 10
410.3664121052635
 20
293.112035621648
 30
0.0
 10
410.1121824142572
 20
293.244604467995
 30
0.0
  0
SPLINE
  5
1A1
330
1F
100
AcDbEntity
  8
1
100
AcDbSpline
210
0.0
220
0.0
230
1.0
 70
     8
 71
     3
 72
     8
 73
     4
 74
     0
 42
0.000000001
 43
0.0000000001
 40
0.0
 40
0.0
 40
0.0
 40
0.0
 40
1.0
 40
1.0
 40
1.0
 40
1.0
 10
410.7127569397435
 20
295.6631611018868
 30
0.0
 10
410.535715228037
 20
295.7718528826835
 30
0.0
 10
410.3575086751834
 20
295.8809986931422
 30
0.0
 10
410.1781730547008
 20
295.9905845895258
 30
0.0
  0
SPLINE
  5
1A2
330
1F
100
AcDbEntity
  8
1
100
AcDbSpline
210
0.0
220
0.0
230
1.0
 70
     8
 71
     3
 72
    42
 73
    38
 74
     0
 42
0.000000001
 43
0.0000000001
 40
0.0
 40
0.0
 40
0.0
 40
0.0
 40
0.124999999999988
 40
0.124999999999988
 40
0.2499999999999761
 40
0.2499999999999761
 40
0.3749999999999641
 40
0.3749999999999641
 40
0.4374999999999785
 40
0.4374999999999785
 40
0.4999999999999928
 40
0.4999999999999928
 40
0.5625000000000071
 40
0.5625000000000071
 40
0.6250000000000214
 40
0.6250000000000214
 40
0.6875000000000357
 40
0.6875000000000357
 40
0.7500000000000501
 40
0.7500000000000501
 40
0.7812500000000466
 40
0.7812500000000466
 40
0.8125000000000428
 40
0.8125000000000428
 40
0.8437500000000374
 40
0.8437500000000374
 40
0.8750000000000321
 40
0.8750000000000321
 40
0.8906250000000291
 40
0.8906250000000291
 40
0.9062500000000264
 40
0.9062500000000264
 40
0.9375000000000175
 40
0.9375000000000175
 40
0.9687500000000087
 40
0.9687500000000087
 40
1.0
 40
1.0
 40
1.0
 40
1.0
 10
410.1781730547007
 20
295.9905845895256
 30
0.0
 10
410.1337365912906
 20
296.017738200514
 30
0.0
 10
410.0902545762226
 20
296.0460537805106
 30
0.0
 10
410.0053016479408
 20
296.105164282871
 30
0.0
 10
409.9638287392706
 20
296.1359567846208
 30
0.0
 10
409.8831255922859
 20
296.2003292119037
 30
0.0
 10
409.8438902539665
 20
296.2339030284568
 30
0.0
 10
409.7870636490007
 20
296.2867886368172
 30
0.0
 10
409.7684613179457
 20
296.3048405346723
 30
0.0
 10
409.732035936408
 20
296.3419136920034
 30
0.0
 10
409.714184061248
 20
296.3609671861964
 30
0.0
 10
409.6795967847917
 20
296.4000014465087
 30
0.0
 10
409.6628512394433
 20
296.4199867363432
 30
0.0
 10
409.630685036341
 20
296.4610831630018
 30
0.0
 10
409.6152311787831
 20
296.4822377941925
 30
0.0
 10
409.5861630045687
 20
296.5257526468675
 30
0.0
 10
409.5725759415627
 20
296.5480541977474
 30
0.0
 10
409.5479158845702
 20
296.594087640819
 30
0.0
 10
409.5368245093871
 20
296.6178094991136
 30
0.0
 10
409.5229597691788
 20
296.6549521240223
 30
0.0
 10
409.5187924594737
 20
296.6676513796874
 30
0.0
 10
409.5117620050862
 20
296.6934009723625
 30
0.0
 10
409.5088925293786
 20
296.7064456662151
 30
0.0
 10
409.5048007626687
 20
296.7329640420523
 30
0.0
 10
409.5035793418911
 20
296.7465380132613
 30
0.0
 10
409.503341721075
 20
296.7735845556926
 30
0.0
 10
409.5043056903405
 20
296.7870751795513
 30
0.0
 10
409.5077946972206
 20
296.8072453869186
 30
0.0
 10
409.5092999897492
 20
296.8139577648192
 30
0.0
 10
409.5130953286274
 20
296.8273564907357
 30
0.0
 10
409.5153776700672
 20
296.8339942055075
 30
0.0
 10
409.5233002803058
 20
296.8533197531652
 30
0.0
 10
409.5300615749728
 20
296.8655840030585
 30
0.0
 10
409.5466993152363
 20
296.8887256461115
 30
0.0
 10
409.5562371098995
 20
296.899144186443
 30
0.0
 10
409.5773978218573
 20
296.9180090356053
 30
0.0
 10
409.5890518048149
 20
296.9264494973042
 30
0.0
 10
409.6012740993347
 20
296.9338502484522
 30
0.0
  0
SPLINE
  5
1A3
330
1F
100
AcDbEntity
  8
1
100
AcDbSpline
210
0.0
220
0.0
230
1.0
 70
     8
 71
     3
 72
    16
 73
    12
 74
     0
 42
0.000000001
 43
0.0000000001
 40
0.0
 40
0.0
 40
0.0
 40
0.0
 40
0.0624999999999999
 40
0.0624999999999999
 40
0.1249999999999997
 40
0.1249999999999997
 40
0.2499999999999999
 40
0.2499999999999999
 40
0.5
 40
0.75
 40
1.0
 40
1.0
 40
1.0
 40
1.0
 10
291.191586243564
 20
284.9745620031994
 30
0.0
 10
291.2672596260612
 20
284.9661015379942
 30
0.0
 10
291.3431435438372
 20
284.9571304042014
 30
0.0
 10
291.4953318608385
 20
284.9381682283667
 30
0.0
 10
291.5717006795679
 20
284.9281678606429
 30
0.0
 10
291.8007025416155
 20
284.896741977921
 30
0.0
 10
291.9533687859123
 20
284.873878482457
 30
0.0
 10
292.4113626880437
 20
284.7997337500697
 30
0.0
 10
293.0220083542963
 20
284.6860766980936
 30
0.0
 10
293.937940362395
 20
284.4736346603181
 30
0.0
 10
294.5485384267918
 20
284.3052465785167
 30
0.0
 10
294.8538318185192
 20
284.214567311647
 30
0.0
  0
SPLINE
  5
1A4
330
1F
100
AcDbEntity
  8
1
100
AcDbSpline
210
0.0
220
0.0
230
1.0
 70
     8
 71
     3
 72
     8
 73
     4
 74
     0
 42
0.000000001
 43
0.0000000001
 40
0.0
 40
0.0
 40
0.0
 40
0.0
 40
1.0
 40
1.0
 40
1.0
 40
1.0
 10
422.309129540261
 20
300.4164221063138
 30
0.0
 10
422.3119106766944
 20
300.4259249619393
 30
0.0
 10
422.3149369246256
 20
300.4353590253176
 30
0.0
 10
422.3182086528213
 20
300.4447252871186
 30
0.0
  0
SPLINE
  5
1A5
330
1F
100
AcDbEntity
  8
1
100
AcDbSpline
210
0.0
220
0.0
230
1.0
 70
     8
 71
     3
 72
     8
 73
     4
 74
     0
 42
0.000000001
 43
0.0000000001
 40
0.0
 40
0.0
 40
0.0
 40
0.0
 40
1.0
 40
1.0
 40
1.0
 40
1.0
 10
425.5894505876547
 20
281.4336331788933
 30
0.0
 10
425.5972522528897
 20
281.4542312366872
 30
0.0
 10
425.6033026456479
 20
281.475331463783
 30
0.0
 10
425.6076017659293
 20
281.4969338601808
 30
0.0
  0
SPLINE
  5
1A6
330
1F
100
AcDbEntity
  8
1
100
AcDbSpline
210
0.0
220
0.0
230
1.0
 70
     8
 71
     3
 72
     8
 73
     4
 74
     0
 42
0.000000001
 43
0.0000000001
 40
0.0
 40
0.0
 40
0.0
 40
0.0
 40
1.0
 40
1.0
 40
1.0
 40
1.0
 10
425.2126469442885
 20
289.5481183071029
 30
0.0
 10
425.1987093355878
 20
289.5651737762852
 30
0.0
 10
425.1834611992762
 20
289.5809636836645
 30
0.0
 10
425.166902535354
 20
289.5954880292411
 30
0.0
  0
SPLINE
  5
1A7
330
1F
100
AcDbEntity
  8
1
100
AcDbSpline
210
0.0
220
0.0
230
1.0
 70
     8
 71
     3
 72
     8
 73
     4
 74
     0
 42
0.000000001
 43
0.0000000001
 40
0.0
 40
0.0
 40
0.0
 40
0.0
 40
1.0
 40
1.0
 40
1.0
 40
1.0
 10
425.7311931720171
 20
288.5774807728481
 30
0.0
 10
425.7276505834055
 20
288.5992200467839
 30
0.0
 10
425.722340263689
 20
288.6205185758535
 30
0.0
 10
425.7152622128678
 20
288.6413763600573
 30
0.0
  0
SPLINE
  5
1A8
330
1F
100
AcDbEntity
  8
1
100
AcDbSpline
210
0.0
220
0.0
230
1.0
 70
    28
 71
     4
 72
    10
 73
     5
 74
     0
 42
0.000000001
 43
0.0000000001
 40
0.0
 40
0.0
 40
0.0
 40
0.0
 40
0.0
 40
1.0
 40
1.0
 40
1.0
 40
1.0
 40
1.0
 10
297.9048419452957
 20
273.571562019284
 30
0.0
 41
1.001498006703475
 10
297.9048419452957
 20
273.6111586358461
 30
0.0
 41
1.001498006703475
 10
297.9048419452957
 20
273.6507552524082
 30
0.0
 41
1.001498006703475
 10
297.9048419452957
 20
273.6903518689703
 30
0.0
 41
1.001498006703475
 10
297.9048419452957
 20
273.7299484855324
 30
0.0
 41
1.001498006703475
  0
SPLINE
  5
1A9
330
1F
100
AcDbEntity
  8
1
100
AcDbSpline
210
0.0
220
0.0
230
1.0
 70
     8
 71
     3
 72
     8
 73
     4
 74
     0
 42
0.000000001
 43
0.0000000001
 40
0.0
 40
0.0
 40
0.0
 40
0.0
 40
1.0
 40
1.0
 40
1.0
 40
1.0
 10
308.1006148779165
 20
273.5891754322446
 30
0.0
 10
308.8385872399749
 20
273.6659584575488
 30
0.0
 10
309.576764575172
 20
273.7446603279341
 30
0.0
 10
310.3152652080012
 20
273.8249564796192
 30
0.0
  0
SPLINE
  5
1AA
330
1F
100
AcDbEntity
  8
1
100
AcDbSpline
210
0.0
220
0.0
230
1.0
 70
     8
 71
     3
 72
    32
 73
    28
 74
     0
 42
0.000000001
 43
0.0000000001
 40
0.0
 40
0.0
 40
0.0
 40
0.0
 40
0.0088819341292159
 40
0.0088819341292159
 40
0.0851217853500455
 40
0.0851217853500455
 40
0.1613616365708752
 40
0.1613616365708752
 40
0.2376014877917045
 40
0.2376014877917045
 40
0.3138413390125341
 40
0.3138413390125341
 40
0.3900811902333637
 40
0.3900811902333637
 40
0.4663210414541933
 40
0.4663210414541933
 40
0.5425608926750227
 40
0.5425608926750227
 40
0.6188007438958523
 40
0.6188007438958523
 40
0.6950405951166819
 40
0.6950405951166819
 40
0.7712804463375115
 40
0.7712804463375115
 40
0.8475202975583407
 40
0.8475202975583407
 40
1.0
 40
1.0
 40
1.0
 40
1.0
 10
344.6349436101312
 20
276.4249552959791
 30
0.0
 10
344.526586986958
 20
276.4103204333216
 30
0.0
 10
344.4182315062537
 20
276.3957432096396
 30
0.0
 10
343.3797937366553
 20
276.2565970134573
 30
0.0
 10
342.4497629156879
 20
276.136289613854
 30
0.0
 10
340.5895557721809
 20
275.9046547731948
 30
0.0
 10
339.6594205340962
 20
275.7932119428937
 30
0.0
 10
337.7993122348577
 20
275.5783376115745
 30
0.0
 10
336.8693398004675
 20
275.4749061491544
 30
0.0
 10
335.0097478130553
 20
275.2755959255158
 30
0.0
 10
334.0801287325015
 20
275.1797178541048
 30
0.0
 10
332.2213812452663
 20
274.9953252198796
 30
0.0
 10
331.2922531350496
 20
274.9068119281271
 30
0.0
 10
329.4345608644556
 20
274.737199360041
 30
0.0
 10
328.505996818217
 20
274.6561018183078
 30
0.0
 10
326.649435266006
 20
274.5015653677269
 30
0.0
 10
325.721437700426
 20
274.4281285015823
 30
0.0
 10
323.865940243467
 20
274.2892948329502
 30
0.0
 10
322.9384401400195
 20
274.2239002048121
 30
0.0
 10
321.0838014538713
 20
274.1016052988458
 30
0.0
 10
320.1566625372066
 20
274.0447071493469
 30
0.0
 10
318.3025511009035
 20
273.9398671158318
 30
0.0
 10
317.3755781612323
 20
273.8919271540817
 30
0.0
 10
315.5215560382353
 20
273.8054116788813
 30
0.0
 10
314.594506385927
 20
273.7668377537089
 30
0.0
 10
311.8128280472126
 20
273.6656146410346
 30
0.0
 10
309.9576711651052
 20
273.6175559307951
 30
0.0
 10
308.1006148779165
 20
273.5891754322447
 30
0.0
  0
SPLINE
  5
1AB
330
1F
100
AcDbEntity
  8
1
100
AcDbSpline
210
0.0
220
0.0
230
1.0
 70
     8
 71
     3
 72
    10
 73
     6
 74
     0
 42
0.000000001
 43
0.0000000001
 40
0.0
 40
0.0
 40
0.0
 40
0.0
 40
0.5
 40
0.5
 40
1.0
 40
1.0
 40
1.0
 40
1.0
 10
308.1006148779165
 20
273.5891754322447
 30
0.0
 10
306.4042901621302
 20
273.5710552510726
 30
0.0
 10
304.7066326399881
 20
273.5612327285365
 30
0.0
 10
301.3081901621823
 20
273.5561197328713
 30
0.0
 10
299.6074048911959
 20
273.5608276116555
 30
0.0
 10
297.9048419452957
 20
273.5715620192841
 30
0.0
  0
SPLINE
  5
1AC
330
1F
100
AcDbEntity
  8
1
100
AcDbSpline
210
0.0
220
0.0
230
1.0
 70
     8
 71
     3
 72
    13
 73
     9
 74
     0
 42
0.000000001
 43
0.0000000001
 40
0.0
 40
0.0
 40
0.0
 40
0.0
 40
0.25
 40
0.5
 40
0.5
 40
0.75
 40
0.75
 40
1.0
 40
1.0
 40
1.0
 40
1.0
 10
295.6997430987598
 20
273.5966556305394
 30
0.0
 10
295.8765346737621
 20
273.591576461543
 30
0.0
 10
296.2333972811545
 20
273.5835634937329
 30
0.0
 10
296.5970872548572
 20
273.5786922826514
 30
0.0
 10
296.9643585050986
 20
273.5749653455108
 30
0.0
 10
297.1497847588513
 20
273.5736731553542
 30
0.0
 10
297.5244187498251
 20
273.5719721122767
 30
0.0
 10
297.7136263754139
 20
273.571562019284
 30
0.0
 10
297.9048419452957
 20
273.571562019284
 30
0.0
  0
SPLINE
  5
1AD
330
1F
100
AcDbEntity
  8
1
100
AcDbSpline
210
0.0
220
0.0
230
1.0
 70
     8
 71
     3
 72
     8
 73
     4
 74
     0
 42
0.000000001
 43
0.0000000001
 40
0.0
 40
0.0
 40
0.0
 40
0.0
 40
1.0
 40
1.0
 40
1.0
 40
1.0
 10
425.0081269389876
 20
280.4992402055162
 30
0.0
 10
425.0251824081699
 20
280.5131778142169
 30
0.0
 10
425.0409723155494
 20
280.5284259505285
 30
0.0
 10
425.0554966611258
 20
280.5449846144509
 30
0.0
  0
SPLINE
  5
1AE
330
1F
100
AcDbEntity
  8
1
100
AcDbSpline
210
0.0
220
0.0
230
1.0
 70
     8
 71
     3
 72
    17
 73
    13
 74
     0
 42
0.000000001
 43
0.0000000001
 40
0.0
 40
0.0
 40
0.0
 40
0.0
 40
0.2499999999999931
 40
0.2499999999999931
 40
0.4999999999999862
 40
0.4999999999999862
 40
0.7499999999999794
 40
0.7499999999999794
 40
0.8124999999999843
 40
0.8124999999999843
 40
0.8749999999999895
 40
1.0
 40
1.0
 40
1.0
 40
1.0
 10
417.497944112166
 20
293.1167678919315
 30
0.0
 10
417.3025296801051
 20
293.1418772692472
 30
0.0
 10
417.1004243228898
 20
293.1682973270907
 30
0.0
 10
416.6851884300893
 20
293.2265186658733
 30
0.0
 10
416.4720409575353
 20
293.2583052231017
 30
0.0
 10
416.0360665173973
 20
293.3293921019637
 30
0.0
 10
415.8132323300673
 20
293.3686836824365
 30
0.0
 10
415.5290993658325
 20
293.4236737944146
 30
0.0
 10
415.4719417925571
 20
293.4349756083797
 30
0.0
 10
415.3573787610667
 20
293.4581325883528
 30
0.0
 10
415.1851544798197
 20
293.4936978037157
 30
0.0
 10
415.0118382962416
 20
293.5318413927117
 30
0.0
 10
414.8958419452957
 20
293.5584916378257
 30
0.0
  0
SPLINE
  5
1AF
330
1F
100
AcDbEntity
  8
1
100
AcDbSpline
210
0.0
220
0.0
230
1.0
 70
     8
 71
     3
 72
    18
 73
    14
 74
     0
 42
0.000000001
 43
0.0000000001
 40
0.0
 40
0.0
 40
0.0
 40
0.0
 40
0.2499999999999279
 40
0.2499999999999279
 40
0.374999999999905
 40
0.374999999999905
 40
0.4999999999998821
 40
0.4999999999998821
 40
0.6249999999998593
 40
0.6249999999998593
 40
0.7499999999998364
 40
0.7499999999998364
 40
1.0
 40
1.0
 40
1.0
 40
1.0
 10
421.1952840584801
 20
298.0989830536602
 30
0.0
 10
421.1859290888563
 20
298.1023337633654
 30
0.0
 10
421.1772174916096
 20
298.1071533416298
 30
0.0
 10
421.1657361392965
 20
298.1159916128003
 30
0.0
 10
421.1621445989013
 20
298.1192186373539
 30
0.0
 10
421.1554364659828
 20
298.1262380064201
 30
0.0
 10
421.152356186955
 20
298.1300006494239
 30
0.0
 10
421.1468588246533
 20
298.1378300480291
 30
0.0
 10
421.1444171697967
 20
298.1419220617432
 30
0.0
 10
421.140138966751
 20
298.1504547435025
 30
0.0
 10
421.1382929622063
 20
298.1549323708603
 30
0.0
 10
421.1338174918676
 20
298.1685357896595
 30
0.0
 10
421.1321814420473
 20
298.1778680698327
 30
0.0
 10
421.1319028679097
 20
298.1874645418267
 30
0.0
  0
SPLINE
  5
1B0
330
1F
100
AcDbEntity
  8
1
100
AcDbSpline
210
0.0
220
0.0
230
1.0
 70
     8
 71
     3
 72
    27
 73
    23
 74
     0
 42
0.000000001
 43
0.0000000001
 40
0.0
 40
0.0
 40
0.0
 40
0.0
 40
0.1249999999998651
 40
0.1249999999998651
 40
0.1874999999997986
 40
0.1874999999997986
 40
0.249999999999732
 40
0.249999999999732
 40
0.3749999999996977
 40
0.3749999999996977
 40
0.4374999999997261
 40
0.4374999999997261
 40
0.4999999999997545
 40
0.4999999999997545
 40
0.6249999999998158
 40
0.6249999999998158
 40
0.6874999999998466
 40
0.6874999999998466
 40
0.7499999999998773
 40
0.7499999999998773
 40
0.8749999999999385
 40
1.0
 40
1.0
 40
1.0
 40
1.0
 10
420.2742581485803
 20
298.3112178867633
 30
0.0
 10
420.2426785193153
 20
298.3146780861351
 30
0.0
 10
420.2116757657734
 20
298.3206154169387
 30
0.0
 10
420.1660285183709
 20
298.3331764386671
 30
0.0
 10
420.1509562201104
 20
298.3379754232566
 30
0.0
 10
420.1211049980318
 20
298.3488216582242
 30
0.0
 10
420.1062860470837
 20
298.3548920193845
 30
0.0
 10
420.0629811679747
 20
298.3747028835723
 30
0.0
 10
420.0354286890826
 20
298.3900946577519
 30
0.0
 10
419.9960456204098
 20
298.4164058829486
 30
0.0
 10
419.9832437095248
 20
298.4257160636539
 30
0.0
 10
419.9583048047906
 20
298.4454378786727
 30
0.0
 10
419.9461150385645
 20
298.4559019294573
 30
0.0
 10
419.9111038994588
 20
298.4885075778352
 30
0.0
 10
419.8897618850891
 20
298.51187347891
 30
0.0
 10
419.8606564065476
 20
298.5492917563685
 30
0.0
 10
419.8514415122046
 20
298.5621613284713
 30
0.0
 10
419.8339982205197
 20
298.5887044076143
 30
0.0
 10
419.825741884937
 20
298.6024299466265
 30
0.0
 10
419.8026997012838
 20
298.6444810503905
 30
0.0
 10
419.7768408827014
 20
298.7022690409451
 30
0.0
 10
419.7602858185299
 20
298.7633408501953
 30
0.0
 10
419.7544045543566
 20
298.7947204952526
 30
0.0
  0
SPLINE
  5
1B1
330
1F
100
AcDbEntity
  8
1
100
AcDbSpline
210
0.0
220
0.0
230
1.0
 70
     8
 71
     3
 72
    10
 73
     6
 74
     0
 42
0.000000001
 43
0.0000000001
 40
0.0
 40
0.0
 40
0.0
 40
0.0
 40
0.5
 40
0.5
 40
1.0
 40
1.0
 40
1.0
 40
1.0
 10
421.1091465375248
 20
298.2475798437405
 30
0.0
 10
421.1162987432198
 20
298.2390624602252
 30
0.0
 10
421.1217920305968
 20
298.2295755864913
 30
0.0
 10
421.1295092463596
 20
298.2090366405184
 30
0.0
 10
421.1315847926995
 20
298.1984217680542
 30
0.0
 10
421.1319028679097
 20
298.1874645418267
 30
0.0
  0
SPLINE
  5
1B2
330
1F
100
AcDbEntity
  8
1
100
AcDbSpline
210
0.0
220
0.0
230
1.0
 70
     8
 71
     3
 72
    24
 73
    20
 74
     0
 42
0.000000001
 43
0.0000000001
 40
0.0
 40
0.0
 40
0.0
 40
0.0
 40
0.1302783204822306
 40
0.1302783204822306
 40
0.2605566409644611
 40
0.2605566409644611
 40
0.3256958012055444
 40
0.3256958012055444
 40
0.3908349614466275
 40
0.3908349614466275
 40
0.5211132819287942
 40
0.5211132819287942
 40
0.6513916024109606
 40
0.6513916024109606
 40
0.7816699228931272
 40
0.7816699228931272
 40
0.9119482433752935
 40
0.9119482433752935
 40
1.0
 40
1.0
 40
1.0
 40
1.0
 10
419.6294746623798
 20
299.6237850278352
 30
0.0
 10
419.6546468296012
 20
299.6056555549981
 30
0.0
 10
419.6781832749859
 20
299.5856804602049
 30
0.0
 10
419.7220307504805
 20
299.5420100320595
 30
0.0
 10
419.7423433028118
 20
299.5183165525752
 30
0.0
 10
419.7702289727335
 20
299.4797310409666
 30
0.0
 10
419.7790285064991
 20
299.4664362988102
 30
0.0
 10
419.7954292881974
 20
299.4393050191204
 30
0.0
 10
419.8030652465578
 20
299.4254212615621
 30
0.0
 10
419.8242820761546
 20
299.3828126359492
 30
0.0
 10
419.8361988678414
 20
299.3530878080133
 30
0.0
 10
419.8552249850076
 20
299.2911386603329
 30
0.0
 10
419.8620636407039
 20
299.2598245104874
 30
0.0
 10
419.8706951939703
 20
299.1965538408298
 30
0.0
 10
419.8724868045176
 20
299.164584957958
 30
0.0
 10
419.8709249119627
 20
299.1000364999964
 30
0.0
 10
419.8675988028059
 20
299.0683975136217
 30
0.0
 10
419.8580801045574
 20
299.0163288009176
 30
0.0
 10
419.8531649128731
 20
298.9955900733165
 30
0.0
 10
419.8471711865263
 20
298.9751066907973
 30
0.0
  0
SPLINE
  5
1B3
330
1F
100
AcDbEntity
  8
1
100
AcDbSpline
210
0.0
220
0.0
230
1.0
 70
     8
 71
     3
 72
    20
 73
    16
 74
     0
 42
0.000000001
 43
0.0000000001
 40
0.0
 40
0.0
 40
0.0
 40
0.0
 40
0.124999999999996
 40
0.124999999999996
 40
0.249999999999992
 40
0.249999999999992
 40
0.3749999999999881
 40
0.3749999999999881
 40
0.4999999999999841
 40
0.4999999999999841
 40
0.6249999999999803
 40
0.6249999999999803
 40
0.7499999999999764
 40
0.7499999999999764
 40
1.0
 40
1.0
 40
1.0
 40
1.0
 10
419.5686969902958
 20
299.6413625774089
 30
0.0
 10
419.563968064787
 20
299.6410962084925
 30
0.0
 10
419.5592574733439
 20
299.6411768994688
 30
0.0
 10
419.5498728783398
 20
299.6420279156641
 30
0.0
 10
419.5451934842531
 20
299.6428045574436
 30
0.0
 10
419.5360927118371
 20
299.645015457452
 30
0.0
 10
419.5316428791656
 20
299.6464506510821
 30
0.0
 10
419.5229482738438
 20
299.6499911298673
 30
0.0
 10
419.5186719481353
 20
299.6521173446928
 30
0.0
 10
419.5105420231483
 20
299.6569682642651
 30
0.0
 10
419.5066810867289
 20
299.6596885036723
 30
0.0
 10
419.4993719910852
 20
299.6657237522388
 30
0.0
 10
419.4959027295378
 20
299.6690628848377
 30
0.0
 10
419.4863130860047
 20
299.6798719134308
 30
0.0
 10
419.4811053986202
 20
299.6879543455558
 30
0.0
 10
419.477160100241
 20
299.6969664565777
 30
0.0
  0
SPLINE
  5
1B4
330
1F
100
AcDbEntity
  8
1
100
AcDbSpline
210
0.0
220
0.0
230
1.0
 70
     8
 71
     3
 72
    18
 73
    14
 74
     0
 42
0.000000001
 43
0.0000000001
 40
0.0
 40
0.0
 40
0.0
 40
0.0
 40
0.27437626716694
 40
0.27437626716694
 40
0.4115644007504172
 40
0.4115644007504172
 40
0.5487525343338944
 40
0.5487525343338944
 40
0.8231288015008125
 40
0.8231288015008125
 40
0.9603169350842717
 40
0.9603169350842717
 40
1.0
 40
1.0
 40
1.0
 40
1.0
 10
419.477160100241
 20
299.6969664565777
 30
0.0
 10
419.4645415392683
 20
299.7257906066141
 30
0.0
 10
419.454335404453
 20
299.7553787562739
 30
0.0
 10
419.4425907511003
 20
299.8008811402668
 30
0.0
 10
419.4392726768612
 20
299.8162361810818
 30
0.0
 10
419.4338545373861
 20
299.8473279056398
 30
0.0
 10
419.4317546097357
 20
299.8631103947348
 30
0.0
 10
419.4273993745349
 20
299.9102810306468
 30
0.0
 10
419.4270249375708
 20
299.9417063929314
 30
0.0
 10
419.430197116891
 20
299.9888100129
 30
0.0
 10
419.4318797114309
 20
300.0045054736116
 30
0.0
 10
419.4348715314233
 20
300.0247333172847
 30
0.0
 10
419.4355977514676
 20
300.029277169546
 30
0.0
 10
419.4363776717814
 20
300.0338191082392
 30
0.0
  0
SPLINE
  5
1B5
330
1F
100
AcDbEntity
  8
1
100
AcDbSpline
210
0.0
220
0.0
230
1.0
 70
     8
 71
     3
 72
    10
 73
     6
 74
     0
 42
0.000000001
 43
0.0000000001
 40
0.0
 40
0.0
 40
0.0
 40
0.0
 40
0.9443990352333527
 40
0.9443990352333527
 40
1.0
 40
1.0
 40
1.0
 40
1.0
 10
420.2904181205656
 20
300.9119952960897
 30
0.0
 10
420.2869219398595
 20
300.8815781023329
 30
0.0
 10
420.2810387758831
 20
300.8516192509927
 30
0.0
 10
420.2722853387741
 20
300.8203482456413
 30
0.0
 10
420.2717903853375
 20
300.8186110248787
 30
0.0
 10
420.2712871378631
 20
300.8168752817828
 30
0.0
  0
SPLINE
  5
1B6
330
1F
100
AcDbEntity
  8
1
100
AcDbSpline
210
0.0
220
0.0
230
1.0
 70
     8
 71
     3
 72
    10
 73
     6
 74
     0
 42
0.000000001
 43
0.0000000001
 40
0.0
 40
0.0
 40
0.0
 40
0.0
 40
0.5
 40
0.5
 40
1.0
 40
1.0
 40
1.0
 40
1.0
 10
420.2761593232148
 20
300.9723395705958
 30
0.0
 10
420.2819330276856
 20
300.9634735733109
 30
0.0
 10
420.2860777595618
 20
300.9538571551635
 30
0.0
 10
420.2909886584477
 20
300.9332479538202
 30
0.0
 10
420.291652588105
 20
300.9227353125509
 30
0.0
 10
420.2904181205656
 20
300.9119952960897
 30
0.0
  0
SPLINE
  5
1B7
330
1F
100
AcDbEntity
  8
1
100
AcDbSpline
210
0.0
220
0.0
230
1.0
 70
     8
 71
     3
 72
    10
 73
     6
 74
     0
 42
0.000000001
 43
0.0000000001
 40
0.0
 40
0.0
 40
0.0
 40
0.0
 40
0.7022936861938751
 40
0.7022936861938751
 40
1.0
 40
1.0
 40
1.0
 40
1.0
 10
420.2761593232148
 20
300.9723395705958
 30
0.0
 10
420.2736333952272
 20
300.9762183404206
 30
0.0
 10
420.2714173131188
 20
300.9802549232713
 30
0.0
 10
420.2687001810413
 20
300.9862257590742
 30
0.0
 10
420.2679471217443
 20
300.9880328235496
 30
0.0
 10
420.2672527165264
 20
300.9898610691278
 30
0.0
  0
SPLINE
  5
1B8
330
1F
100
AcDbEntity
  8
1
100
AcDbSpline
210
0.0
220
0.0
230
1.0
 70
     8
 71
     3
 72
    13
 73
     9
 74
     0
 42
0.000000001
 43
0.0000000001
 40
0.0
 40
0.0
 40
0.0
 40
0.0
 40
0.1171549338578045
 40
0.1171549338578045
 40
0.2937239470861805
 40
0.2937239470861805
 40
0.6468619735430903
 40
1.0
 40
1.0
 40
1.0
 40
1.0
 10
422.6753744504976
 20
299.2086719090446
 30
0.0
 10
422.6711922665743
 20
299.199109472582
 30
0.0
 10
422.6667550466595
 20
299.189650401033
 30
0.0
 10
422.6549854958232
 20
299.1661966313477
 30
0.0
 10
422.6472952522165
 20
299.1522845719078
 30
0.0
 10
422.6226357835353
 20
299.1116388821014
 30
0.0
 10
422.585913474632
 20
299.060873011577
 30
0.0
 10
422.5418525824601
 20
299.0166749405143
 30
0.0
 10
422.5179362914674
 20
298.9962710466959
 30
0.0
  0
SPLINE
  5
1B9
330
1F
100
AcDbEntity
  8
1
100
AcDbSpline
210
0.0
220
0.0
230
1.0
 70
     8
 71
     3
 72
    18
 73
    14
 74
     0
 42
0.000000001
 43
0.0000000001
 40
0.0
 40
0.0
 40
0.0
 40
0.0
 40
0.2500000000000121
 40
0.2500000000000121
 40
0.3750000000000101
 40
0.3750000000000101
 40
0.5000000000000081
 40
0.5000000000000081
 40
0.6250000000000062
 40
0.6250000000000062
 40
0.7500000000000041
 40
0.7500000000000041
 40
1.0
 40
1.0
 40
1.0
 40
1.0
 10
422.5179362914674
 20
298.9962710466959
 30
0.0
 10
422.510447788021
 20
298.9898823207337
 30
0.0
 10
422.5020360973993
 20
298.9847932255674
 30
0.0
 10
422.4888445556348
 20
298.9793436139818
 30
0.0
 10
422.4843265111575
 20
298.9778727171832
 30
0.0
 10
422.4750477786482
 20
298.9756275183227
 30
0.0
 10
422.4703321346768
 20
298.974869886293
 30
0.0
 10
422.4609720718614
 20
298.9740812879136
 30
0.0
 10
422.4562946105232
 20
298.9740420396064
 30
0.0
 10
422.4469456069573
 20
298.9746631539743
 30
0.0
 10
422.4422383200791
 20
298.9753340721275
 30
0.0
 10
422.4285036265648
 20
298.9783510650558
 30
0.0
 10
422.4197947845423
 20
298.9816605142569
 30
0.0
 10
422.4115382633806
 20
298.9862779194783
 30
0.0
  0
SPLINE
  5
1BA
330
1F
100
AcDbEntity
  8
1
100
AcDbSpline
210
0.0
220
0.0
230
1.0
 70
     8
 71
     3
 72
    10
 73
     6
 74
     0
 42
0.000000001
 43
0.0000000001
 40
0.0
 40
0.0
 40
0.0
 40
0.0
 40
0.5
 40
0.5
 40
1.0
 40
1.0
 40
1.0
 40
1.0
 10
422.3493490331629
 20
298.9970360113959
 30
0.0
 10
422.3601185142624
 20
298.9989074465662
 30
0.0
 10
422.3708830416248
 20
298.9988538404557
 30
0.0
 10
422.3920986324828
 20
298.9951286550338
 30
0.0
 10
422.4021110537531
 20
298.9915500245338
 30
0.0
 10
422.4115382633806
 20
298.9862779194783
 30
0.0
  0
SPLINE
  5
1BB
330
1F
100
AcDbEntity
  8
1
100
AcDbSpline
210
0.0
220
0.0
230
1.0
 70
     8
 71
     3
 72
    22
 73
    18
 74
     0
 42
0.000000001
 43
0.0000000001
 40
0.0
 40
0.0
 40
0.0
 40
0.0
 40
0.1355865800397779
 40
0.1355865800397779
 40
0.2076210317031614
 40
0.2076210317031614
 40
0.2796554833665447
 40
0.2796554833665447
 40
0.4237243866932359
 40
0.4237243866932359
 40
0.5677932900199271
 40
0.5677932900199271
 40
0.7118621933466179
 40
0.7118621933466179
 40
0.8559310966733089
 40
0.8559310966733089
 40
1.0
 40
1.0
 40
1.0
 40
1.0
 10
421.8856006355446
 20
298.5766697409903
 30
0.0
 10
421.8938752299865
 20
298.6052061274652
 30
0.0
 10
421.9042419021123
 20
298.6332712146946
 30
0.0
 10
421.9235626524336
 20
298.6754945588725
 30
0.0
 10
421.9308677568092
 20
298.6899105646369
 30
0.0
 10
421.9464974851351
 20
298.7179282726083
 30
0.0
 10
421.9548465004759
 20
298.731584407892
 30
0.0
 10
421.9814951962153
 20
298.7714959551349
 30
0.0
 10
422.001419848406
 20
298.7967389251402
 30
0.0
 10
422.0456275017506
 20
298.8441076237457
 30
0.0
 10
422.0692562241092
 20
298.8655445495185
 30
0.0
 10
422.1193972943268
 20
298.9041841867804
 30
0.0
 10
422.145920393163
 20
298.9213915639756
 30
0.0
 10
422.2018852746178
 20
298.9514819682497
 30
0.0
 10
422.2305087407063
 20
298.9639303560736
 30
0.0
 10
422.2889895572606
 20
298.9840585013249
 30
0.0
 10
422.3188474994016
 20
298.9917356963202
 30
0.0
 10
422.3493490331629
 20
298.9970360113959
 30
0.0
  0
SPLINE
  5
1BC
330
1F
100
AcDbEntity
  8
1
100
AcDbSpline
210
0.0
220
0.0
230
1.0
 70
     8
 71
     3
 72
    10
 73
     6
 74
     0
 42
0.000000001
 43
0.0000000001
 40
0.0
 40
0.0
 40
0.0
 40
0.0
 40
0.5
 40
0.5
 40
1.0
 40
1.0
 40
1.0
 40
1.0
 10
422.3182086528213
 20
300.4447252871186
 30
0.0
 10
422.3217727661876
 20
300.4549285854613
 30
0.0
 10
422.3269829379074
 20
300.4641577789466
 30
0.0
 10
422.3403529273671
 20
300.4805247905951
 30
0.0
 10
422.3482228192386
 20
300.4873324015559
 30
0.0
 10
422.3572635729667
 20
300.4927843177317
 30
0.0
  0
SPLINE
  5
1BD
330
1F
100
AcDbEntity
  8
1
100
AcDbSpline
210
0.0
220
0.0
230
1.0
 70
     8
 71
     3
 72
    27
 73
    23
 74
     0
 42
0.000000001
 43
0.0000000001
 40
0.0
 40
0.0
 40
0.0
 40
0.0
 40
0.095490179690516
 40
0.095490179690516
 40
0.1600980239983295
 40
0.1600980239983295
 40
0.224705868306143
 40
0.224705868306143
 40
0.353921556921678
 40
0.353921556921678
 40
0.4185294012294964
 40
0.4185294012294964
 40
0.4831372455373148
 40
0.4831372455373148
 40
0.6123529341528461
 40
0.6123529341528461
 40
0.6769607784606678
 40
0.6769607784606678
 40
0.7415686227684897
 40
0.7415686227684897
 40
0.8707843113842448
 40
1.0
 40
1.0
 40
1.0
 40
1.0
 10
421.8588728975906
 20
298.2865414734007
 30
0.0
 10
421.8440987665962
 20
298.2682676006707
 30
0.0
 10
421.8283320253617
 20
298.2509448478087
 30
0.0
 10
421.8002535572451
 20
298.2234788774091
 30
0.0
 10
421.7884714733498
 20
298.2128275454034
 30
0.0
 10
421.7639874406309
 20
298.1924078538752
 30
0.0
 10
421.7512454417017
 20
298.1826165240584
 30
0.0
 10
421.7122351624603
 20
298.1550468662097
 30
0.0
 10
421.6850269200091
 20
298.1389091147061
 30
0.0
 10
421.6424411769667
 20
298.1180120194007
 30
0.0
 10
421.6279489884432
 20
298.1116004800276
 30
0.0
 10
421.5983586244381
 20
298.0999083166349
 30
0.0
 10
421.5831887033521
 20
298.0946083466939
 30
0.0
 10
421.5374318804571
 20
298.0806703071818
 30
0.0
 10
421.5065476056893
 20
298.0739309180156
 30
0.0
 10
421.4596692209566
 20
298.0675353340545
 30
0.0
 10
421.4439506609529
 20
298.066025381941
 30
0.0
 10
421.4123264545102
 20
298.0642654999435
 30
0.0
 10
421.3963618739181
 20
298.0640175508061
 30
0.0
 10
421.3485988555473
 20
298.0652111657118
 30
0.0
 10
421.2859166625824
 20
298.0718857518676
 30
0.0
 10
421.2251615194152
 20
298.0882817149756
 30
0.0
 10
421.1952840584801
 20
298.0989830536602
 30
0.0
  0
SPLINE
  5
1BE
330
1F
100
AcDbEntity
  8
1
100
AcDbSpline
210
0.0
220
0.0
230
1.0
 70
     8
 71
     3
 72
    24
 73
    20
 74
     0
 42
0.000000001
 43
0.0000000001
 40
0.0
 40
0.0
 40
0.0
 40
0.0
 40
0.1249999999998533
 40
0.1249999999998533
 40
0.2499999999997068
 40
0.2499999999997068
 40
0.3124999999996863
 40
0.3124999999996863
 40
0.3749999999996657
 40
0.3749999999996657
 40
0.4999999999997325
 40
0.4999999999997325
 40
0.6249999999997994
 40
0.6249999999997994
 40
0.7499999999998664
 40
0.7499999999998664
 40
0.8749999999999332
 40
0.8749999999999332
 40
1.0
 40
1.0
 40
1.0
 40
1.0
 10
420.4170626989974
 20
298.4070588512087
 30
0.0
 10
420.4458836240919
 20
298.4198712334638
 30
0.0
 10
420.4754424844633
 20
298.4303335263136
 30
0.0
 10
420.5360716466664
 20
298.4465800774252
 30
0.0
 10
420.5671411666164
 20
298.4523665975806
 30
0.0
 10
420.6150017587373
 20
298.4572640635158
 30
0.0
 10
420.6310659638243
 20
298.4582469002284
 30
0.0
 10
420.6630271893523
 20
298.4588955791941
 30
0.0
 10
420.6789830204137
 20
298.4585679154605
 30
0.0
 10
420.7267781403208
 20
298.4556289174839
 30
0.0
 10
420.7585959313748
 20
298.4510635255452
 30
0.0
 10
420.8218290462443
 20
298.4364828141923
 30
0.0
 10
420.8523206381594
 20
298.4266893596947
 30
0.0
 10
420.9111868680682
 20
298.4023799584264
 30
0.0
 10
420.9395717500184
 20
298.3878565132023
 30
0.0
 10
420.9941548467201
 20
298.3540197688175
 30
0.0
 10
421.0195609136568
 20
298.3352033302639
 30
0.0
 10
421.0669301636167
 20
298.2940449141598
 30
0.0
 10
421.0888914738437
 20
298.2717010942835
 30
0.0
 10
421.1091465375248
 20
298.2475798437405
 30
0.0
  0
SPLINE
  5
1BF
330
1F
100
AcDbEntity
  8
1
100
AcDbSpline
210
0.0
220
0.0
230
1.0
 70
     8
 71
     3
 72
    10
 73
     6
 74
     0
 42
0.000000001
 43
0.0000000001
 40
0.0
 40
0.0
 40
0.0
 40
0.0
 40
0.5
 40
0.5
 40
1.0
 40
1.0
 40
1.0
 40
1.0
 10
420.3701658445767
 20
298.3629939468933
 30
0.0
 10
420.3752702851353
 20
298.3727031311212
 30
0.0
 10
420.3818360189463
 20
298.3813732015672
 30
0.0
 10
420.3978324292131
 20
298.3964584790241
 30
0.0
 10
420.4068859666538
 20
298.4025347707198
 30
0.0
 10
420.4170626989974
 20
298.4070588512087
 30
0.0
  0
SPLINE
  5
1C0
330
1F
100
AcDbEntity
  8
1
100
AcDbSpline
210
0.0
220
0.0
230
1.0
 70
     8
 71
     3
 72
    20
 73
    16
 74
     0
 42
0.000000001
 43
0.0000000001
 40
0.0
 40
0.0
 40
0.0
 40
0.0
 40
0.1249999999999166
 40
0.1249999999999166
 40
0.2499999999998331
 40
0.2499999999998331
 40
0.3749999999997498
 40
0.3749999999997498
 40
0.4999999999996664
 40
0.4999999999996664
 40
0.6249999999995828
 40
0.6249999999995828
 40
0.7499999999994995
 40
0.7499999999994995
 40
1.0
 40
1.0
 40
1.0
 40
1.0
 10
420.3701658445767
 20
298.3629939468933
 30
0.0
 10
420.3679326812288
 20
298.3587462347086
 30
0.0
 10
420.3654083331969
 20
298.354688567085
 30
0.0
 10
420.3597812098535
 20
298.3469509102448
 30
0.0
 10
420.3566699456721
 20
298.3432691310092
 30
0.0
 10
420.3500118257118
 20
298.3364596242076
 30
0.0
 10
420.3464493884066
 20
298.3333076535905
 30
0.0
 10
420.3388505548478
 20
298.327517932468
 30
0.0
 10
420.3347795647854
 20
298.3248631847201
 30
0.0
 10
420.3263381245421
 20
298.3202209134552
 30
0.0
 10
420.3219681130715
 20
298.3182250080488
 30
0.0
 10
420.3129272931616
 20
298.3148902410843
 30
0.0
 10
420.3082248214897
 20
298.3135451449466
 30
0.0
 10
420.2938544935098
 20
298.3106175443604
 30
0.0
 10
420.284131261966
 20
298.3101360836665
 30
0.0
 10
420.2742581485803
 20
298.3112178867633
 30
0.0
  0
SPLINE
  5
1C1
330
1F
100
AcDbEntity
  8
1
100
AcDbSpline
210
0.0
220
0.0
230
1.0
 70
     8
 71
     3
 72
    10
 73
     6
 74
     0
 42
0.000000001
 43
0.0000000001
 40
0.0
 40
0.0
 40
0.0
 40
0.0
 40
0.5
 40
0.5
 40
1.0
 40
1.0
 40
1.0
 40
1.0
 10
419.5686969902958
 20
299.6413625774089
 30
0.0
 10
419.5795058119126
 20
299.6419714121424
 30
0.0
 10
419.5901501613979
 20
299.6407947130842
 30
0.0
 10
419.6109276173938
 20
299.6348278121948
 30
0.0
 10
419.6205858935753
 20
299.6301868879205
 30
0.0
 10
419.6294746623796
 20
299.6237850278352
 30
0.0
  0
SPLINE
  5
1C2
330
1F
100
AcDbEntity
  8
1
100
AcDbSpline
210
0.0
220
0.0
230
1.0
 70
     8
 71
     3
 72
    18
 73
    14
 74
     0
 42
0.000000001
 43
0.0000000001
 40
0.0
 40
0.0
 40
0.0
 40
0.0
 40
0.2500000000000115
 40
0.2500000000000115
 40
0.500000000000023
 40
0.500000000000023
 40
0.7500000000000345
 40
0.7500000000000345
 40
0.8125000000000312
 40
0.8125000000000312
 40
0.8750000000000282
 40
0.8750000000000282
 40
1.0
 40
1.0
 40
1.0
 40
1.0
 10
414.8958419452957
 20
291.6396091027432
 30
0.0
 10
415.1324702781102
 20
291.6124160202563
 30
0.0
 10
415.3657941755341
 20
291.5948611078326
 30
0.0
 10
415.8253377904633
 20
291.5777926041662
 30
0.0
 10
416.051561782888
 20
291.5782820175922
 30
0.0
 10
416.4959502209422
 20
291.5964274798402
 30
0.0
 10
416.7141248565408
 20
291.6140843030658
 30
0.0
 10
416.9807927382607
 20
291.646520676905
 30
0.0
 10
417.0338398356141
 20
291.6535308852845
 30
0.0
 10
417.1388337835451
 20
291.6685126523662
 30
0.0
 10
417.1908370000505
 20
291.6764905088976
 30
0.0
 10
417.3453156468203
 20
291.701845675065
 30
0.0
 10
417.4462631705662
 20
291.7206441887918
 30
0.0
 10
417.5450065815089
 20
291.7412380652572
 30
0.0
  0
SPLINE
  5
1C3
330
1F
100
AcDbEntity
  8
1
100
AcDbSpline
210
0.0
220
0.0
230
1.0
 70
    24
 71
     3
 72
    22
 73
    18
 74
     0
 42
0.000000001
 43
0.0000000001
 40
0.0
 40
0.0
 40
0.0
 40
0.0
 40
0.1253563883887453
 40
0.1253563883887453
 40
0.2507127767774904
 40
0.2507127767774904
 40
0.3760691651662356
 40
0.3760691651662356
 40
0.5014255535549809
 40
0.5014255535549809
 40
0.6267819419437265
 40
0.6267819419437265
 40
0.7521383303324724
 40
0.7521383303324724
 40
0.8774947187212182
 40
0.8774947187212182
 40
1.0
 40
1.0
 40
1.0
 40
1.0
 10
414.8958419452957
 20
293.5584916378257
 30
0.0
 10
414.8958419452957
 20
293.2833495925201
 30
0.0
 10
414.8958419452957
 20
293.0275624426523
 30
0.0
 10
414.8958419452957
 20
292.5599914179114
 30
0.0
 10
414.8958419452957
 20
292.3482108980438
 30
0.0
 10
414.8958419452957
 20
291.9730426155497
 30
0.0
 10
414.8958419452957
 20
291.8096575449029
 30
0.0
 10
414.8958419452957
 20
291.5346667790789
 30
0.0
 10
414.8958419452958
 20
291.4230630570683
 30
0.0
 10
414.8958419452957
 20
291.2539485603742
 30
0.0
 10
414.8958419452957
 20
291.1964389991535
 30
0.0
 10
414.8958419452957
 20
291.1367054043763
 30
0.0
 10
414.8958419452957
 20
291.1344817994318
 30
0.0
 10
414.8958419452957
 20
291.1853669916661
 30
0.0
 10
414.8958419452957
 20
291.2384754237239
 30
0.0
 10
414.8958419452957
 20
291.3971002549423
 30
0.0
 10
414.8958419452957
 20
291.5013961147319
 30
0.0
 10
414.8958419452957
 20
291.63055111614
 30
0.0
  0
SPLINE
  5
1C4
330
1F
100
AcDbEntity
  8
1
100
AcDbSpline
210
0.0
220
0.0
230
1.0
 70
     8
 71
     3
 72
    18
 73
    14
 74
     0
 42
0.000000001
 43
0.0000000001
 40
0.0
 40
0.0
 40
0.0
 40
0.0
 40
0.2500000000000263
 40
0.2500000000000263
 40
0.3750000000000328
 40
0.3750000000000328
 40
0.4375000000000294
 40
0.4375000000000294
 40
0.5000000000000262
 40
0.5000000000000262
 40
0.7500000000000132
 40
0.7500000000000132
 40
1.0
 40
1.0
 40
1.0
 40
1.0
 10
411.1877868015158
 20
295.3851240762297
 30
0.0
 10
411.482219243489
 20
295.1856786366917
 30
0.0
 10
411.7797873334663
 20
294.9983128973802
 30
0.0
 10
412.2317241399926
 20
294.734507991288
 30
0.0
 10
412.3833034161824
 20
294.6494545884991
 30
0.0
 10
412.6122130324973
 20
294.5261536837485
 30
0.0
 10
412.688773251927
 20
294.4857670319434
 30
0.0
 10
412.8424340946514
 20
294.4064192698956
 30
0.0
 10
412.9195061890723
 20
294.3674735220837
 30
0.0
 10
413.3057121384999
 20
294.1765860122819
 30
0.0
 10
413.6177612925693
 20
294.0359185137332
 30
0.0
 10
414.2500164678566
 20
293.7787641306945
 30
0.0
 10
414.5702065341291
 20
293.6622684582512
 30
0.0
 10
414.8958419452956
 20
293.5584916378257
 30
0.0
  0
SPLINE
  5
1C5
330
1F
100
AcDbEntity
  8
1
100
AcDbSpline
210
0.0
220
0.0
230
1.0
 70
     8
 71
     3
 72
    26
 73
    22
 74
     0
 42
0.000000001
 43
0.0000000001
 40
0.0
 40
0.0
 40
0.0
 40
0.0
 40
0.1249999999999512
 40
0.1249999999999512
 40
0.2499999999999025
 40
0.2499999999999025
 40
0.3124999999998999
 40
0.3124999999998999
 40
0.3749999999998972
 40
0.3749999999998972
 40
0.4999999999999372
 40
0.4999999999999372
 40
0.6249999999999769
 40
0.6249999999999769
 40
0.6874999999999969
 40
0.6874999999999969
 40
0.7500000000000169
 40
0.7500000000000169
 40
0.8750000000000085
 40
0.8750000000000085
 40
1.0
 40
1.0
 40
1.0
 40
1.0
 10
419.0752333373969
 20
294.587906298491
 30
0.0
 10
419.0174689934435
 20
294.5438081354747
 30
0.0
 10
418.9580544661566
 20
294.5031726699006
 30
0.0
 10
418.8358267327593
 20
294.428411506525
 30
0.0
 10
418.7730162662273
 20
294.3942890114082
 30
0.0
 10
418.6760855497657
 20
294.3479688107533
 30
0.0
 10
418.6433076982862
 20
294.3333426667722
 30
0.0
 10
418.5774789677141
 20
294.3060035247007
 30
0.0
 10
418.5443444110105
 20
294.2932484859904
 30
0.0
 10
418.444212755943
 20
294.2576802642885
 30
0.0
 10
418.3764934631076
 20
294.2375493982654
 30
0.0
 10
418.238643244083
 20
294.2045499643042
 30
0.0
 10
418.1685092420886
 20
294.1916800986527
 30
0.0
 10
418.0610219541873
 20
294.1782624131734
 30
0.0
 10
418.0246495218987
 20
294.1747716396879
 30
0.0
 10
417.9524641964443
 20
294.1699447237984
 30
0.0
 10
417.9165351803742
 20
294.1685849119722
 30
0.0
 10
417.8092263497918
 20
294.1675735136807
 30
0.0
 10
417.738330069343
 20
294.1709821058005
 30
0.0
 10
417.5975686094218
 20
294.1856015050993
 30
0.0
 10
417.5276974093125
 20
294.1968077418183
 30
0.0
 10
417.4581663082415
 20
294.2118845975
 30
0.0
  0
SPLINE
  5
1C6
330
1F
100
AcDbEntity
  8
1
100
AcDbSpline
210
0.0
220
0.0
230
1.0
 70
     8
 71
     3
 72
    26
 73
    22
 74
     0
 42
0.000000001
 43
0.0000000001
 40
0.0
 40
0.0
 40
0.0
 40
0.0
 40
0.1249999999999889
 40
0.2499999999999777
 40
0.3749999999999666
 40
0.3749999999999666
 40
0.437499999999961
 40
0.437499999999961
 40
0.4687499999999585
 40
0.4687499999999585
 40
0.4999999999999556
 40
0.4999999999999556
 40
0.6249999999999695
 40
0.7499999999999833
 40
0.7499999999999833
 40
0.7812499999999899
 40
0.7812499999999899
 40
0.8124999999999964
 40
0.8749999999999975
 40
0.8749999999999975
 40
1.0
 40
1.0
 40
1.0
 40
1.0
 10
417.4562642864806
 20
293.9962282784778
 30
0.0
 10
417.1843278945278
 20
293.9866543540352
 30
0.0
 10
416.6419037856583
 20
293.9849126205047
 30
0.0
 10
415.8325411714897
 20
294.0336105815358
 30
0.0
 10
415.2958037259368
 20
294.1001095600878
 30
0.0
 10
414.8943239947926
 20
294.1628380409225
 30
0.0
 10
414.7606764514212
 20
294.1858915444443
 30
0.0
 10
414.5604761550678
 20
294.2237143617641
 30
0.0
 10
414.4938237449787
 20
294.2368563169434
 30
0.0
 10
414.3608934777748
 20
294.2641640334683
 30
0.0
 10
414.2945844314048
 20
294.2783356147156
 30
0.0
 10
413.9638170425185
 20
294.3517718350948
 30
0.0
 10
413.4395624181913
 20
294.4857554262247
 30
0.0
 10
412.9252020459707
 20
294.652435602757
 30
0.0
 10
412.6068423179348
 20
294.7668650017213
 30
0.0
 10
412.5433415946493
 20
294.790259167509
 30
0.0
 10
412.4168814069062
 20
294.8379870770803
 30
0.0
 10
412.2279199529471
 20
294.9110180616139
 30
0.0
 10
412.0411367500321
 20
294.988344160854
 30
0.0
 10
411.6704616331497
 20
295.1486794640248
 30
0.0
 10
411.4271968448806
 20
295.2631420813644
 30
0.0
 10
411.1877868015159
 20
295.3851240762296
 30
0.0
  0
SPLINE
  5
1C7
330
1F
100
AcDbEntity
  8
1
100
AcDbSpline
210
0.0
220
0.0
230
1.0
 70
     8
 71
     3
 72
    26
 73
    22
 74
     0
 42
0.000000001
 43
0.0000000001
 40
0.0
 40
0.0
 40
0.0
 40
0.0
 40
0.1249999999999918
 40
0.1249999999999918
 40
0.2499999999999836
 40
0.2499999999999836
 40
0.2812499999999842
 40
0.2812499999999842
 40
0.3124999999999848
 40
0.3749999999999862
 40
0.3749999999999862
 40
0.4999999999999891
 40
0.4999999999999891
 40
0.5624999999999904
 40
0.5624999999999904
 40
0.6249999999999919
 40
0.6249999999999919
 40
0.7499999999999946
 40
0.8749999999999973
 40
0.8749999999999973
 40
1.0
 40
1.0
 40
1.0
 40
1.0
 10
410.8735592801203
 20
292.7608827663648
 30
0.0
 10
411.1207781919715
 20
292.6044680337271
 30
0.0
 10
411.3735521333762
 20
292.4574689503688
 30
0.0
 10
411.8901022922593
 20
292.1825142613917
 30
0.0
 10
412.1538779587853
 20
292.0545572543407
 30
0.0
 10
412.4905016942521
 20
291.9067808587858
 30
0.0
 10
412.5582054685974
 20
291.8778212572835
 30
0.0
 10
412.6940358534307
 20
291.8212402108194
 30
0.0
 10
412.8984795260768
 20
291.738345884722
 30
0.0
 10
413.1050064325814
 20
291.6613694400132
 30
0.0
 10
413.5208193627335
 20
291.5152970520273
 30
0.0
 10
413.8017027555903
 20
291.4284125048622
 30
0.0
 10
414.2285375204756
 20
291.3139706379588
 30
0.0
 10
414.3719144344968
 20
291.2784379305679
 30
0.0
 10
414.6589880768863
 20
291.2130547257167
 30
0.0
 10
414.8028150841146
 20
291.1831619587649
 30
0.0
 10
415.2351542131906
 20
291.1017811297249
 30
0.0
 10
415.8138919455216
 20
291.015376237264
 30
0.0
 10
416.3971353803048
 20
290.9727063323071
 30
0.0
 10
416.9826429583448
 20
290.95205408951
 30
0.0
 10
417.2765286897343
 20
290.9527355908831
 30
0.0
 10
417.5715750175106
 20
290.9647026076219
 30
0.0
  0
SPLINE
  5
1C8
330
1F
100
AcDbEntity
  8
1
100
AcDbSpline
210
0.0
220
0.0
230
1.0
 70
     8
 71
     3
 72
     8
 73
     4
 74
     0
 42
0.000000001
 43
0.0000000001
 40
0.0
 40
0.0
 40
0.0
 40
0.0
 40
1.0
 40
1.0
 40
1.0
 40
1.0
 10
417.4562642864806
 20
293.9962282784778
 30
0.0
 10
417.4601218249834
 20
293.9963640888483
 30
0.0
 10
417.4639805019834
 20
293.996499280175
 30
0.0
 10
417.4678403194754
 20
293.9966338513737
 30
0.0
  0
SPLINE
  5
1C9
330
1F
100
AcDbEntity
  8
1
100
AcDbSpline
210
0.0
220
0.0
230
1.0
 70
     8
 71
     3
 72
    21
 73
    17
 74
     0
 42
0.000000001
 43
0.0000000001
 40
0.0
 40
0.0
 40
0.0
 40
0.0
 40
0.1249999999999959
 40
0.1249999999999959
 40
0.2499999999999918
 40
0.2499999999999918
 40
0.3749999999999876
 40
0.3749999999999876
 40
0.4999999999999837
 40
0.4999999999999837
 40
0.7499999999999753
 40
0.7499999999999753
 40
0.8124999999999774
 40
0.8124999999999774
 40
0.8749999999999797
 40
1.0
 40
1.0
 40
1.0
 40
1.0
 10
414.8958419452958
 20
291.6396091027432
 30
0.0
 10
414.7155612664624
 20
291.6638789907233
 30
0.0
 10
414.5372308419077
 20
291.6912643386495
 30
0.0
 10
414.184070311591
 20
291.752343176553
 30
0.0
 10
414.0092411445539
 20
291.7860365493236
 30
0.0
 10
413.6627801865582
 20
291.8598293799708
 30
0.0
 10
413.4911450354492
 20
291.899932954361
 30
0.0
 10
413.1507764856043
 20
291.9867521192576
 30
0.0
 10
412.9820464361294
 20
292.0334641052209
 30
0.0
 10
412.4799016332463
 20
292.1838212694631
 30
0.0
 10
412.1505137113607
 20
292.2976644083716
 30
0.0
 10
411.7447738962516
 20
292.4583303779125
 30
0.0
 10
411.6638994348033
 20
292.4913952491697
 30
0.0
 10
411.5028633386469
 20
292.5593544581719
 30
0.0
 10
411.2626245175441
 20
292.6639323325306
 30
0.0
 10
411.0262492731596
 20
292.7765348000497
 30
0.0
 10
410.8703293472032
 20
292.8552864202202
 30
0.0
  0
SPLINE
  5
1CA
330
1F
100
AcDbEntity
  8
1
100
AcDbSpline
210
0.0
220
0.0
230
1.0
 70
     8
 71
     3
 72
    24
 73
    20
 74
     0
 42
0.000000001
 43
0.0000000001
 40
0.0
 40
0.0
 40
0.0
 40
0.0
 40
0.25
 40
0.25
 40
0.3750000000000006
 40
0.3750000000000006
 40
0.5000000000000011
 40
0.5000000000000011
 40
0.6250000000000017
 40
0.6250000000000017
 40
0.6875000000000016
 40
0.6875000000000016
 40
0.7187500000000013
 40
0.7187500000000013
 40
0.7500000000000009
 40
0.7500000000000009
 40
0.8750000000000003
 40
0.8750000000000003
 40
1.0
 40
1.0
 40
1.0
 40
1.0
 10
284.9543368819075
 20
283.3856152981894
 30
0.0
 10
284.440527699892
 20
283.0267688028188
 30
0.0
 10
283.9365698445635
 20
282.6404373333022
 30
0.0
 10
283.1974064803546
 20
282.0099272143354
 30
0.0
 10
282.9538062301482
 20
281.7912499493426
 30
0.0
 10
282.4724517738893
 20
281.3350231165634
 30
0.0
 10
282.2346961441992
 20
281.0974811451392
 30
0.0
 10
281.7653011809404
 20
280.6013130550407
 30
0.0
 10
281.5336597355032
 20
280.3426995911007
 30
0.0
 10
281.1910271920901
 20
279.9368151145607
 30
0.0
 10
281.077621882536
 20
279.7985200058656
 30
0.0
 10
280.9087613635441
 20
279.5862299488607
 30
0.0
 10
280.852631867229
 20
279.5145899647612
 30
0.0
 10
280.74136960229
 20
279.370379078503
 30
0.0
 10
280.6861754303488
 20
279.2977329498921
 30
0.0
 10
280.412407569848
 20
278.9317551719822
 30
0.0
 10
280.2004257543014
 20
278.6302080941492
 30
0.0
 10
279.7912380230342
 20
278.008092027314
 30
0.0
 10
279.594020368046
 20
277.6875405557658
 30
0.0
 10
279.4048419452956
 20
277.3562856152815
 30
0.0
  0
SPLINE
  5
1CB
330
1F
100
AcDbEntity
  8
1
100
AcDbSpline
210
0.0
220
0.0
230
1.0
 70
     8
 71
     3
 72
    18
 73
    14
 74
     0
 42
0.000000001
 43
0.0000000001
 40
0.0
 40
0.0
 40
0.0
 40
0.0
 40
0.2500000000000667
 40
0.2500000000000667
 40
0.5000000000001334
 40
0.5000000000001334
 40
0.7500000000002001
 40
0.7500000000002001
 40
0.8125000000001719
 40
0.8125000000001719
 40
0.8750000000001437
 40
0.8750000000001437
 40
1.0
 40
1.0
 40
1.0
 40
1.0
 10
417.4581663082418
 20
294.2118845975
 30
0.0
 10
417.3932405890337
 20
294.2259628399477
 30
0.0
 10
417.3296023040541
 20
294.2431735302914
 30
0.0
 10
417.2044638346851
 20
294.2836078399517
 30
0.0
 10
417.1429665251287
 20
294.3068326796417
 30
0.0
 10
417.0218224994171
 20
294.359344374274
 30
0.0
 10
416.9621785333786
 20
294.3886294398848
 30
0.0
 10
416.8886384019313
 20
294.4292425825442
 30
0.0
 10
416.8739811468959
 20
294.4375664007146
 30
0.0
 10
416.8447644420867
 20
294.454625631671
 30
0.0
 10
416.8302025655582
 20
294.4633636112565
 30
0.0
 10
416.7869656963501
 20
294.4900151446447
 30
0.0
 10
416.7586376950096
 20
294.5084242831374
 30
0.0
 10
416.7308017740526
 20
294.5274554518789
 30
0.0
  0
SPLINE
  5
1CC
330
1F
100
AcDbEntity
  8
1
100
AcDbSpline
210
0.0
220
0.0
230
1.0
 70
     8
 71
     3
 72
    10
 73
     6
 74
     0
 42
0.000000001
 43
0.0000000001
 40
0.0
 40
0.0
 40
0.0
 40
0.0
 40
0.5
 40
0.5
 40
1.0
 40
1.0
 40
1.0
 40
1.0
 10
411.6325245018701
 20
299.5360148586767
 30
0.0
 10
411.6158206688372
 20
300.3061228902442
 30
0.0
 10
411.6011485552593
 20
301.0762694589172
 30
0.0
 10
411.5746659484561
 20
302.6166106555806
 30
0.0
 10
411.5628632478653
 20
303.3868021691211
 30
0.0
 10
411.5521114454251
 20
304.1570089612042
 30
0.0
  0
SPLINE
  5
1CD
330
1F
100
AcDbEntity
  8
1
100
AcDbSpline
210
0.0
220
0.0
230
1.0
 70
     8
 71
     3
 72
    46
 73
    42
 74
     0
 42
0.000000001
 43
0.0000000001
 40
0.0
 40
0.0
 40
0.0
 40
0.0
 40
0.0585480093610885
 40
0.0585480093610885
 40
0.1170960187221771
 40
0.1170960187221771
 40
0.1756440280832656
 40
0.1756440280832656
 40
0.2049180327638099
 40
0.2049180327638099
 40
0.2341920374443548
 40
0.2341920374443548
 40
0.2927400468054454
 40
0.2927400468054454
 40
0.3512880561665359
 40
0.3512880561665359
 40
0.4098360655276265
 40
0.4098360655276265
 40
0.4391100702081722
 40
0.4391100702081722
 40
0.4683840748887178
 40
0.4683840748887178
 40
0.5269320842498097
 40
0.5269320842498097
 40
0.5854800936109014
 40
0.5854800936109014
 40
0.7025761123330858
 40
0.7025761123330858
 40
0.7611241216941785
 40
0.7611241216941785
 40
0.819672131055271
 40
0.819672131055271
 40
0.8782201404163636
 40
0.8782201404163636
 40
0.9074941450969099
 40
0.9074941450969099
 40
0.9367681497774563
 40
0.9367681497774563
 40
0.995316159138548
 40
0.995316159138548
 40
1.0
 40
1.0
 40
1.0
 40
1.0
 10
411.5521114454248
 20
304.1570089612043
 30
0.0
 10
410.4201559744377
 20
304.1948168755879
 30
0.0
 10
409.2842285530204
 20
304.2201914975708
 30
0.0
 10
407.0043734403926
 20
304.251998099162
 30
0.0
 10
405.8604481844493
 20
304.2584394116389
 30
0.0
 10
403.5649739534421
 20
304.2575002056162
 30
0.0
 10
402.413426764187
 20
304.250124787903
 30
0.0
 10
400.6809436916649
 20
304.2317534431669
 30
0.0
 10
400.1025916387347
 20
304.224403044212
 30
0.0
 10
398.944294648397
 20
304.2076510849499
 30
0.0
 10
398.3643369247734
 20
304.19824897504
 30
0.0
 10
396.6234735305526
 20
304.1674823228549
 30
0.0
 10
395.4611522765341
 20
304.1435897661723
 30
0.0
 10
393.1338235234601
 20
304.0907952592988
 30
0.0
 10
391.9688169417867
 20
304.0618921783184
 30
0.0
 10
389.6370993226121
 20
303.9996335671137
 30
0.0
 10
388.4703893649273
 20
303.96627735762
 30
0.0
 10
386.7198915705612
 20
303.9124480813437
 30
0.0
 10
386.1363245450884
 20
303.8938588021952
 30
0.0
 10
384.9691840341296
 20
303.8552345982013
 30
0.0
 10
384.3856009877108
 20
303.8352109457128
 30
0.0
 10
382.6348380123953
 20
303.7729709732562
 30
0.0
 10
381.4676449543582
 20
303.7285889756449
 30
0.0
 10
379.1335464602544
 20
303.6337751706832
 30
0.0
 10
377.9666169129758
 20
303.5833411311086
 30
0.0
 10
374.4663541026231
 20
303.4223978448852
 30
0.0
 10
372.1335568806226
 20
303.302269444397
 30
0.0
 10
368.6358912569302
 20
303.1000799570109
 30
0.0
 10
367.4702476854141
 20
303.0290123708592
 30
0.0
 10
365.1395585349132
 20
302.8789689258906
 30
0.0
 10
363.9747044217402
 20
302.800009600156
 30
0.0
 10
361.6461060724126
 20
302.6334825560663
 30
0.0
 10
360.4823601120914
 20
302.5459217121675
 30
0.0
 10
358.7377274841633
 20
302.4073309316022
 30
0.0
 10
358.1563484425542
 20
302.359922499702
 30
0.0
 10
356.9939586947791
 20
302.2624976679546
 30
0.0
 10
356.4129535927124
 20
302.2124652877216
 30
0.0
 10
354.6704930183159
 20
302.058309814097
 30
0.0
 10
353.5095849963318
 20
301.9501437959282
 30
0.0
 10
352.25646766752
 20
301.8274939461496
 30
0.0
 10
352.1636481043835
 20
301.8183741576672
 30
0.0
 10
352.0708323996057
 20
301.8092198727925
 30
0.0
  0
SPLINE
  5
1CE
330
1F
100
AcDbEntity
  8
1
100
AcDbSpline
210
0.0
220
0.0
230
1.0
 70
    28
 71
     4
 72
    13
 73
     8
 74
     0
 42
0.000000001
 43
0.0000000001
 40
0.0
 40
0.0
 40
0.0
 40
0.0
 40
0.0
 40
0.2076461810201777
 40
0.2076461810201777
 40
0.2076461810201777
 40
1.0
 40
1.0
 40
1.0
 40
1.0
 40
1.0
 10
297.9048419452957
 20
283.3330604855241
 30
0.0
 41
0.9988089262094085
 10
297.9048419452959
 20
282.8386558521077
 30
0.0
 41
0.999675982275632
 10
297.9048419452959
 20
282.3272430405502
 30
0.0
 41
1.000674981131975
 10
297.9048419452957
 20
281.8085923346129
 30
0.0
 41
1.001498006703475
 10
297.9048419452957
 20
279.3308427234315
 30
0.0
 41
1.001498006703475
 10
297.9048419452957
 20
277.0138131252031
 30
0.0
 41
0.9895139530756711
 10
297.9048419452957
 20
275.0420665435133
 30
0.0
 41
1.001498006703475
 10
297.9048419452957
 20
273.7299484855324
 30
0.0
 41
1.001498006703475
  0
SPLINE
  5
1CF
330
1F
100
AcDbEntity
  8
1
100
AcDbSpline
210
0.0
220
0.0
230
1.0
 70
     8
 71
     3
 72
    54
 73
    50
 74
     0
 42
0.000000001
 43
0.0000000001
 40
0.0
 40
0.0
 40
0.0
 40
0.0
 40
0.0624999999999993
 40
0.0624999999999993
 40
0.1249999999999985
 40
0.1249999999999985
 40
0.1562499999999981
 40
0.1562499999999981
 40
0.1874999999999976
 40
0.1874999999999976
 40
0.2499999999999968
 40
0.2499999999999968
 40
0.3124999999999961
 40
0.3124999999999961
 40
0.3749999999999954
 40
0.3749999999999954
 40
0.4062499999999952
 40
0.4062499999999952
 40
0.4218749999999952
 40
0.4218749999999952
 40
0.4374999999999952
 40
0.4374999999999952
 40
0.4687499999999953
 40
0.4687499999999953
 40
0.4999999999999957
 40
0.4999999999999957
 40
0.5312499999999958
 40
0.5312499999999958
 40
0.562499999999996
 40
0.562499999999996
 40
0.5937499999999961
 40
0.5937499999999961
 40
0.6249999999999964
 40
0.6249999999999964
 40
0.6562499999999965
 40
0.6562499999999965
 40
0.6874999999999967
 40
0.6874999999999967
 40
0.7499999999999975
 40
0.7499999999999975
 40
0.8124999999999984
 40
0.8124999999999984
 40
0.8437499999999987
 40
0.8437499999999987
 40
0.8749999999999991
 40
0.8749999999999991
 40
0.9374999999999996
 40
0.9374999999999996
 40
1.0
 40
1.0
 40
1.0
 40
1.0
 10
300.1010252540682
 20
282.6835838867893
 30
0.0
 10
302.2127101112937
 20
282.36840578327
 30
0.0
 10
304.3239833981681
 20
282.056482738323
 30
0.0
 10
308.545470654533
 20
281.43831558075
 30
0.0
 10
310.6556831086281
 20
281.132058838285
 30
0.0
 10
313.8199516359743
 20
280.6761819502246
 30
0.0
 10
314.8745321178404
 20
280.5248076814967
 30
0.0
 10
316.9832947941267
 20
280.2231289010519
 30
0.0
 10
318.0372606538773
 20
280.0728546375978
 30
0.0
 10
321.1977966550789
 20
279.6236408385399
 30
0.0
 10
323.3030043859651
 20
279.3262654628041
 30
0.0
 10
327.5092345743293
 20
278.736067068065
 30
0.0
 10
329.6102495954948
 20
278.4432182465756
 30
0.0
 10
333.8077313949312
 20
277.8641129833009
 30
0.0
 10
335.9041888700815
 20
277.577836874305
 30
0.0
 10
339.0455322956988
 20
277.1567383827893
 30
0.0
 10
340.0920941090822
 20
277.0177793949244
 30
0.0
 10
341.6611673922318
 20
276.8120726212208
 30
0.0
 10
342.1840629947979
 20
276.7439573185147
 30
0.0
 10
343.2296176586967
 20
276.6087727743255
 30
0.0
 10
343.7522838151938
 20
276.5417273479155
 30
0.0
 10
345.3201592741683
 20
276.3429588196908
 30
0.0
 10
346.3652522639874
 20
276.2136419683752
 30
0.0
 10
348.4560941179365
 20
275.9643330274998
 30
0.0
 10
349.5018452540955
 20
275.8443350841152
 30
0.0
 10
351.5947514810405
 20
275.6154288060686
 30
0.0
 10
352.6415128953586
 20
275.506554443862
 30
0.0
 10
354.7362264461827
 20
275.300773224839
 30
0.0
 10
355.7841762284049
 20
275.2038550750198
 30
0.0
 10
357.8817418623716
 20
275.0221382211496
 30
0.0
 10
358.9313625364139
 20
274.93732439163
 30
0.0
 10
361.0320040188597
 20
274.7780694462143
 30
0.0
 10
362.0830257028501
 20
274.7036353922476
 30
0.0
 10
364.1863046975897
 20
274.5639539462191
 30
0.0
 10
365.2385632915785
 20
274.4987123658233
 30
0.0
 10
367.3442252205329
 20
274.3765413146819
 30
0.0
 10
368.3976296552057
 20
274.3196155449401
 30
0.0
 10
371.5594784089981
 20
274.1602460680302
 30
0.0
 10
373.6695668496536
 20
274.0691924831335
 30
0.0
 10
377.8936910950482
 20
273.9126660827187
 30
0.0
 10
380.0077307039544
 20
273.8471880309746
 30
0.0
 10
383.1812088382243
 20
273.7651245291189
 30
0.0
 10
384.2393368719946
 20
273.7404718151535
 30
0.0
 10
386.3558662617454
 20
273.6961758523212
 30
0.0
 10
387.4143064504191
 20
273.676531340387
 30
0.0
 10
390.5900746299403
 20
273.6246536324836
 30
0.0
 10
392.7078555027122
 20
273.5994538600973
 30
0.0
 10
396.9442316561447
 20
273.5661276539433
 30
0.0
 10
399.0628300475184
 20
273.5579935137005
 30
0.0
 10
401.1815578400032
 20
273.5579935137005
 30
0.0
  0
SPLINE
  5
1D0
330
1F
100
AcDbEntity
  8
1
100
AcDbSpline
210
0.0
220
0.0
230
1.0
 70
     8
 71
     3
 72
    77
 73
    73
 74
     0
 42
0.000000001
 43
0.0000000001
 40
0.0
 40
0.0
 40
0.0
 40
0.0
 40
0.0213349023816412
 40
0.0213349023816412
 40
0.0539570723022528
 40
0.0539570723022528
 40
0.0865792422228645
 40
0.0865792422228645
 40
0.1192014121434761
 40
0.1192014121434761
 40
0.1518235820640877
 40
0.1518235820640877
 40
0.1844457519846994
 40
0.1844457519846994
 40
0.217067921905311
 40
0.217067921905311
 40
0.2496900918259227
 40
0.2496900918259227
 40
0.2823122617465343
 40
0.2823122617465343
 40
0.3149344316671459
 40
0.3149344316671459
 40
0.3475566015877578
 40
0.3475566015877578
 40
0.3638676865480636
 40
0.3638676865480636
 40
0.3801787715083695
 40
0.3801787715083695
 40
0.4128009414289818
 40
0.4128009414289818
 40
0.4454231113495939
 40
0.4454231113495939
 40
0.4780452812702062
 40
0.4780452812702062
 40
0.5106674511908183
 40
0.5106674511908183
 40
0.5432896211114305
 40
0.5432896211114305
 40
0.5759117910320425
 40
0.5759117910320425
 40
0.6085339609526547
 40
0.6085339609526547
 40
0.6411561308732669
 40
0.6411561308732669
 40
0.6737783007938791
 40
0.6737783007938791
 40
0.7064004707144913
 40
0.7064004707144913
 40
0.7390226406351033
 40
0.7390226406351033
 40
0.7716448105557154
 40
0.7716448105557154
 40
0.8042669804763276
 40
0.8042669804763276
 40
0.8368891503969397
 40
0.8368891503969397
 40
0.8532002353572458
 40
0.8532002353572458
 40
0.869511320317552
 40
0.869511320317552
 40
0.8858224052778579
 40
0.8858224052778579
 40
0.902133490238164
 40
0.91844457519847
 40
0.91844457519847
 40
0.9347556601587761
 40
0.9347556601587761
 40
0.9510667451190823
 40
0.9510667451190823
 40
0.9673778300793884
 40
0.9673778300793884
 40
1.0
 40
1.0
 40
1.0
 40
1.0
 10
302.6489784485047
 20
304.2579950325393
 30
0.0
 10
303.4168903612156
 20
304.25800939967
 30
0.0
 10
304.1845840220117
 20
304.2566415392922
 30
0.0
 10
306.1255796369546
 20
304.2494509913391
 30
0.0
 10
307.2985980997499
 20
304.2416512570599
 30
0.0
 10
309.64371030289
 20
304.2184795403577
 30
0.0
 10
310.815822952283
 20
304.2031060750415
 30
0.0
 10
313.1591461524893
 20
304.1641562794188
 30
0.0
 10
314.3301834833891
 20
304.140581578941
 30
0.0
 10
316.6711369778837
 20
304.0846881915643
 30
0.0
 10
317.8410531435873
 20
304.0523681425144
 30
0.0
 10
320.1799323249518
 20
303.9785541965138
 30
0.0
 10
321.3488954400529
 20
303.9370590251826
 30
0.0
 10
323.6860758755109
 20
303.8446222354513
 30
0.0
 10
324.8542933999015
 20
303.7936795900896
 30
0.0
 10
327.1902248123466
 20
303.6822676698627
 30
0.0
 10
328.3579390038052
 20
303.6217977725266
 30
0.0
 10
330.6931330668454
 20
303.4914689221547
 30
0.0
 10
331.8606133224688
 20
303.4216098776533
 30
0.0
 10
334.1956255901646
 20
303.2728692221401
 30
0.0
 10
335.3631580354088
 20
303.1939881185744
 30
0.0
 10
337.698565125466
 20
303.0277927046274
 30
0.0
 10
338.8664837384334
 20
302.9404760665682
 30
0.0
 10
340.618681648986
 20
302.8037788730744
 30
0.0
 10
341.202776143206
 20
302.7572628899132
 30
0.0
 10
342.371057904698
 20
302.6624447558304
 30
0.0
 10
342.9552518955206
 20
302.6141595618936
 30
0.0
 10
344.7079584041516
 20
302.4666424713149
 30
0.0
 10
345.8765659990053
 20
302.3646876607134
 30
0.0
 10
348.2136986698302
 20
302.1527128357275
 30
0.0
 10
349.3822245338671
 20
302.0426879003394
 30
0.0
 10
351.7190532173545
 20
301.8140500881534
 30
0.0
 10
352.8873956290046
 20
301.695432081853
 30
0.0
 10
355.2237145100968
 20
301.4495363878225
 30
0.0
 10
356.3916395622343
 20
301.3222576022327
 30
0.0
 10
358.7271893101193
 20
301.0594092943922
 30
0.0
 10
359.8948425038978
 20
300.923924576924
 30
0.0
 10
362.2302999553841
 20
300.6461227697973
 30
0.0
 10
363.3981026319201
 20
300.5038049172995
 30
0.0
 10
365.7340960163368
 20
300.2132858221687
 30
0.0
 10
366.902328257652
 20
300.0650781656159
 30
0.0
 10
369.2390879665006
 20
299.7634431646194
 30
0.0
 10
370.4075832956363
 20
299.6100195205613
 30
0.0
 10
372.7448541299958
 20
299.2983093006943
 30
0.0
 10
373.9136292876362
 20
299.1400229226742
 30
0.0
 10
376.2514429035946
 20
298.8186528769944
 30
0.0
 10
377.4204813826893
 20
298.6555707529369
 30
0.0
 10
379.7587450158066
 20
298.3243682674038
 30
0.0
 10
380.9280131387696
 20
298.1562450459073
 30
0.0
 10
383.2663602603916
 20
297.8143749587262
 30
0.0
 10
384.4354261803716
 20
297.6406364170394
 30
0.0
 10
386.7731039694054
 20
297.2864089622362
 30
0.0
 10
387.941717877841
 20
297.1059350658102
 30
0.0
 10
390.2779726688499
 20
296.7356449302947
 30
0.0
 10
391.4456070542234
 20
296.5457931629781
 30
0.0
 10
393.1961586535331
 20
296.2528893248361
 30
0.0
 10
393.7795287471019
 20
296.1539123963429
 30
0.0
 10
394.9459896132847
 20
295.9532845351132
 30
0.0
 10
395.5290804415564
 20
295.8516321932908
 30
0.0
 10
396.694912620291
 20
295.6458545871598
 30
0.0
 10
397.2776687467945
 20
295.5417254728697
 30
0.0
 10
398.4429553950101
 20
295.3313796605899
 30
0.0
 10
399.6080161759793
 20
295.1189447101655
 30
0.0
 10
400.7729131029411
 20
294.9036077064126
 30
0.0
 10
401.9379258038751
 20
294.6877358693749
 30
0.0
 10
402.5204901255207
 20
294.5795325256777
 30
0.0
 10
403.6859860831708
 20
294.3637965688146
 30
0.0
 10
404.2689180386167
 20
294.2562651418695
 30
0.0
 10
405.4354489903511
 20
294.0433531461012
 30
0.0
 10
406.0189722095487
 20
293.9379894457126
 30
0.0
 10
407.7707021247429
 20
293.6277271252423
 30
0.0
 10
408.9400901326296
 20
293.4286859683875
 30
0.0
 10
410.1121824142572
 20
293.244604467995
 30
0.0
  0
SPLINE
  5
1D1
330
1F
100
AcDbEntity
  8
1
100
AcDbSpline
210
0.0
220
0.0
230
1.0
 70
     8
 71
     3
 72
     8
 73
     4
 74
     0
 42
0.000000001
 43
0.0000000001
 40
0.0
 40
0.0
 40
0.0
 40
0.0
 40
1.0
 40
1.0
 40
1.0
 40
1.0
 10
411.1877868015159
 20
295.3851240762296
 30
0.0
 10
411.0280011589876
 20
295.4741727325841
 30
0.0
 10
410.869686480463
 20
295.5668168501512
 30
0.0
 10
410.7127569397438
 20
295.663161101887
 30
0.0
  0
SPLINE
  5
1D2
330
1F
100
AcDbEntity
  8
1
100
AcDbSpline
210
0.0
220
0.0
230
1.0
 70
     8
 71
     3
 72
    37
 73
    33
 74
     0
 42
0.000000001
 43
0.0000000001
 40
0.0
 40
0.0
 40
0.0
 40
0.0
 40
0.1249999999999878
 40
0.1249999999999878
 40
0.1562499999999744
 40
0.1562499999999744
 40
0.187499999999961
 40
0.187499999999961
 40
0.2499999999999545
 40
0.2499999999999545
 40
0.3749999999999414
 40
0.3749999999999414
 40
0.4374999999999349
 40
0.4374999999999349
 40
0.4687499999999323
 40
0.4687499999999323
 40
0.4999999999999295
 40
0.4999999999999295
 40
0.6249999999999336
 40
0.6249999999999336
 40
0.687499999999942
 40
0.687499999999942
 40
0.7499999999999503
 40
0.7499999999999503
 40
0.7812499999999592
 40
0.7812499999999592
 40
0.7968749999999587
 40
0.7968749999999587
 40
0.8124999999999584
 40
0.8749999999999721
 40
0.8749999999999721
 40
1.0
 40
1.0
 40
1.0
 40
1.0
 10
409.6012740993349
 20
296.9338502484522
 30
0.0
 10
409.7234855759102
 20
297.0078508155387
 30
0.0
 10
409.8441093191373
 20
297.0849309360103
 30
0.0
 10
409.9924968827294
 20
297.1859208122867
 30
0.0
 10
410.0220542140353
 20
297.2063518903336
 30
0.0
 10
410.0809157522967
 20
297.2477050041506
 30
0.0
 10
410.1102328990364
 20
297.2686367702884
 30
0.0
 10
410.1975765095306
 20
297.3320569915475
 30
0.0
 10
410.2550527364755
 20
297.3752081387034
 30
0.0
 10
410.4250060469818
 20
297.5075254389597
 30
0.0
 10
410.5350276926686
 20
297.5995323901652
 30
0.0
 10
410.6939834260015
 20
297.7445732444211
 30
0.0
 10
410.7459515032107
 20
297.7940969988795
 30
0.0
 10
410.8221796649718
 20
297.870377144643
 30
0.0
 10
410.8473012756845
 20
297.8961368005356
 30
0.0
 10
410.8969295551018
 20
297.9483675642815
 30
0.0
 10
410.9214360850454
 20
297.9748408778767
 30
0.0
 10
411.041731093532
 20
298.1084368950297
 30
0.0
 10
411.1313403715969
 20
298.2197099094734
 30
0.0
 10
411.253370807867
 20
298.3948346862992
 30
0.0
 10
411.2919737849704
 20
298.4545854030777
 30
0.0
 10
411.3644576666612
 20
298.5772194801253
 30
0.0
 10
411.3983406954541
 20
298.640101431187
 30
0.0
 10
411.4450663661246
 20
298.7371435676755
 30
0.0
 10
411.4599569133195
 20
298.769945163788
 30
0.0
 10
411.4811788431963
 20
298.8198865180455
 30
0.0
 10
411.4880774845788
 20
298.8366837782168
 30
0.0
 10
411.5014281617866
 20
298.8703850773522
 30
0.0
 10
411.5336784144775
 20
298.9548708901768
 30
0.0
 10
411.5602229632683
 20
299.0405347032158
 30
0.0
 10
411.6122531633799
 20
299.2485386307006
 30
0.0
 10
411.6314387264704
 20
299.3904083026737
 30
0.0
 10
411.6325245018701
 20
299.5360148586767
 30
0.0
  0
SPLINE
  5
1D3
330
1F
100
AcDbEntity
  8
1
100
AcDbSpline
210
0.0
220
0.0
230
1.0
 70
     8
 71
     3
 72
    22
 73
    18
 74
     0
 42
0.000000001
 43
0.0000000001
 40
0.0
 40
0.0
 40
0.0
 40
0.0
 40
0.1249999999999995
 40
0.1249999999999995
 40
0.2499999999999991
 40
0.2499999999999991
 40
0.3749999999999986
 40
0.3749999999999986
 40
0.4999999999999982
 40
0.4999999999999982
 40
0.5624999999999982
 40
0.5624999999999982
 40
0.6249999999999982
 40
0.6249999999999982
 40
0.7499999999999991
 40
0.7499999999999991
 40
1.0
 40
1.0
 40
1.0
 40
1.0
 10
279.4048419453044
 20
269.1220315752111
 30
0.0
 10
279.5599580274656
 20
269.1126554146035
 30
0.0
 10
279.7198009488008
 20
269.1170510486354
 30
0.0
 10
280.0477840971014
 20
269.1489612707415
 30
0.0
 10
280.2159301489468
 20
269.1764958630555
 30
0.0
 10
280.5595978105883
 20
269.2513523227269
 30
0.0
 10
280.7351230506092
 20
269.2986857133228
 30
0.0
 10
281.0927071947727
 20
269.4103828028431
 30
0.0
 10
281.2747685952297
 20
269.4747536218879
 30
0.0
 10
281.5521229829803
 20
269.5822459153175
 30
0.0
 10
281.6453095221662
 20
269.6199116425443
 30
0.0
 10
281.8328862272707
 20
269.6985559887881
 30
0.0
 10
281.9270451704761
 20
269.7394363559882
 30
0.0
 10
282.2105124110613
 20
269.8662807122128
 30
0.0
 10
282.4008128591509
 20
269.9564411209474
 30
0.0
 10
282.9746589260987
 20
270.2402521326003
 30
0.0
 10
283.3611814183161
 20
270.4471585623744
 30
0.0
 10
283.74857662829
 20
270.6636490061957
 30
0.0
  0
SPLINE
  5
1D4
330
1F
100
AcDbEntity
  8
1
100
AcDbSpline
210
0.0
220
0.0
230
1.0
 70
     8
 71
     3
 72
    33
 73
    29
 74
     0
 42
0.000000001
 43
0.0000000001
 40
0.0
 40
0.0
 40
0.0
 40
0.0
 40
0.1250000000000027
 40
0.1250000000000027
 40
0.2500000000000055
 40
0.2500000000000055
 40
0.3750000000000082
 40
0.3750000000000082
 40
0.5000000000000111
 40
0.5000000000000111
 40
0.5312500000000117
 40
0.5468750000000114
 40
0.5468750000000114
 40
0.5625000000000111
 40
0.5625000000000111
 40
0.6250000000000099
 40
0.6250000000000099
 40
0.7500000000000075
 40
0.7500000000000075
 40
0.8750000000000051
 40
0.8750000000000051
 40
0.9375000000000035
 40
0.9375000000000035
 40
0.9687500000000024
 40
0.9687500000000024
 40
0.9843750000000012
 40
0.9843750000000012
 40
1.0
 40
1.0
 40
1.0
 40
1.0
 10
284.9543368819075
 20
283.3856152981894
 30
0.0
 10
285.1643058813166
 20
283.5322585311478
 30
0.0
 10
285.3807172856526
 20
283.6702531287372
 30
0.0
 10
285.8266780205619
 20
283.9286606448569
 30
0.0
 10
286.0562265309347
 20
284.049075814968
 30
0.0
 10
286.5289580633332
 20
284.2716174895256
 30
0.0
 10
286.7721396099332
 20
284.3737479200651
 30
0.0
 10
287.2729117904122
 20
284.5584977892665
 30
0.0
 10
287.5305001232874
 20
284.6411235760354
 30
0.0
 10
287.8621840035184
 20
284.7310311826115
 30
0.0
 10
287.9624179356319
 20
284.7569974797447
 30
0.0
 10
288.0637689594161
 20
284.7814120772087
 30
0.0
 10
288.1315874115573
 20
284.797338464993
 30
0.0
 10
288.1656302007162
 20
284.8051281515795
 30
0.0
 10
288.3360150648077
 20
284.8430879621208
 30
0.0
 10
288.4732258710408
 20
284.8703793851365
 30
0.0
 10
288.8875413513756
 20
284.9428892866195
 30
0.0
 10
289.1673291921101
 20
284.9787621243756
 30
0.0
 10
289.7339353290306
 20
285.024404805397
 30
0.0
 10
290.0207553943791
 20
285.0341747759038
 30
0.0
 10
290.4561489582541
 20
285.0279246768479
 30
0.0
 10
290.6021403712309
 20
285.0223523991137
 30
0.0
 10
290.8223985571178
 20
285.0085525943132
 30
0.0
 10
290.8960297488161
 20
285.0030454728134
 30
0.0
 10
291.0067913134346
 20
284.9933954672875
 30
0.0
 10
291.0437917705488
 20
284.9899443869453
 30
0.0
 10
291.1177347050862
 20
284.9825907012133
 30
0.0
 10
291.1546758663438
 20
284.9786886716776
 30
0.0
 10
291.1915862435641
 20
284.9745620031994
 30
0.0
  0
SPLINE
  5
1D5
330
1F
100
AcDbEntity
  8
1
100
AcDbSpline
210
0.0
220
0.0
230
1.0
 70
     8
 71
     3
 72
    51
 73
    47
 74
     0
 42
0.000000001
 43
0.0000000001
 40
0.0
 40
0.0
 40
0.0
 40
0.0
 40
0.0624999999999988
 40
0.0624999999999988
 40
0.1249999999999976
 40
0.1249999999999976
 40
0.1874999999999963
 40
0.1874999999999963
 40
0.2187499999999955
 40
0.2187499999999955
 40
0.2343749999999949
 40
0.2343749999999949
 40
0.2499999999999943
 40
0.2499999999999943
 40
0.3124999999999936
 40
0.3124999999999936
 40
0.3749999999999928
 40
0.3749999999999928
 40
0.437499999999992
 40
0.437499999999992
 40
0.4531249999999917
 40
0.4531249999999917
 40
0.4687499999999911
 40
0.4687499999999911
 40
0.4999999999999908
 40
0.4999999999999908
 40
0.5624999999999912
 40
0.6249999999999915
 40
0.6249999999999915
 40
0.6562499999999916
 40
0.6562499999999916
 40
0.6718749999999919
 40
0.6718749999999919
 40
0.687499999999992
 40
0.687499999999992
 40
0.7499999999999935
 40
0.7499999999999935
 40
0.8124999999999948
 40
0.8124999999999948
 40
0.8749999999999966
 40
0.8749999999999966
 40
0.9062499999999971
 40
0.9062499999999971
 40
0.9374999999999982
 40
0.9374999999999982
 40
1.0
 40
1.0
 40
1.0
 40
1.0
 10
279.4048419452956
 20
277.3562856152816
 30
0.0
 10
279.2419600601785
 20
277.190197561832
 30
0.0
 10
279.088740613189
 20
277.0198732019692
 30
0.0
 10
278.8008809485693
 20
276.6715612255045
 30
0.0
 10
278.6662426189573
 20
276.4935719484249
 30
0.0
 10
278.4153187775636
 20
276.1304699921668
 30
0.0
 10
278.2990329270565
 20
275.9453567566396
 30
0.0
 10
278.1385651143231
 20
275.6625758513445
 30
0.0
 10
278.0874065259051
 20
275.5674619464841
 30
0.0
 10
278.0142260926811
 20
275.4235236069056
 30
0.0
 10
277.9903954628207
 20
275.3752683206245
 30
0.0
 10
277.9441130221547
 20
275.2787137747835
 30
0.0
 10
277.9216611705766
 20
275.230419522107
 30
0.0
 10
277.8128126071292
 20
274.9888793394315
 30
0.0
 10
277.7366246993006
 20
274.7954309257275
 30
0.0
 10
277.6054890935039
 20
274.4084384409988
 30
0.0
 10
277.5505423331211
 20
274.2148937744808
 30
0.0
 10
277.4619213831846
 20
273.8279466489101
 30
0.0
 10
277.4282457089412
 20
273.6345440068844
 30
0.0
 10
277.3998263195163
 20
273.3929748503939
 30
0.0
 10
277.394827699798
 20
273.3446700203515
 30
0.0
 10
277.3862167263113
 20
273.2480799188478
 30
0.0
 10
277.3826056358225
 20
273.1997784343396
 30
0.0
 10
277.373913868754
 20
273.0556994191499
 30
0.0
 10
277.3709466590526
 20
272.9604837084162
 30
0.0
 10
277.370374926377
 20
272.6773067911199
 30
0.0
 10
277.3917892372065
 20
272.3063209901794
 30
0.0
 10
277.4568608099456
 20
271.9481690601965
 30
0.0
 10
277.522212107253
 20
271.684287083653
 30
0.0
 10
277.5467582495279
 20
271.5971154838073
 30
0.0
 10
277.5877849331848
 20
271.4675352905936
 30
0.0
 10
277.6021620399919
 20
271.4245381196454
 30
0.0
 10
277.6323337318936
 20
271.3389354762409
 30
0.0
 10
277.6481481002755
 20
271.296279953023
 30
0.0
 10
277.7305612751916
 20
271.0846014867593
 30
0.0
 10
277.8068384416628
 20
270.921105136338
 30
0.0
 10
277.9794495573615
 20
270.6050173370691
 30
0.0
 10
278.0757853484462
 20
270.452427498411
 30
0.0
 10
278.2884305932681
 20
270.1575865990683
 30
0.0
 10
278.4047395429906
 20
270.0153362661173
 30
0.0
 10
278.5945148314311
 20
269.8094269163792
 30
0.0
 10
278.6603293981908
 20
269.7420361864587
 30
0.0
 10
278.7971793347962
 20
269.6097142274918
 30
0.0
 10
278.867846394969
 20
269.5451394408002
 30
0.0
 10
279.0865152561467
 20
269.3560414697894
 30
0.0
 10
279.2411828713746
 20
269.2361235494842
 30
0.0
 10
279.4048419453096
 20
269.1220315752018
 30
0.0
  0
LINE
  5
1F7
330
1F
100
AcDbEntity
  8
SK4
100
AcDbLine
 10
203.504842
 20
288.907994
 30
0.0
 11
277.404842
 21
288.907994
 31
0.0
  0
LINE
  5
1F8
330
1F
100
AcDbEntity
  8
4
100
AcDbLine
 10
271.853832
 20
288.907994
 30
0.0
 11
430.683428
 21
288.907994
 31
0.0
  0
MTEXT
  5
1FE
330
1F
100
AcDbEntity
  8
SK6
100
AcDbMText
 10
285.51351
 20
241.652269
 30
0.0
 40
3.5
 41
0.0
 71
     7
 72
     5
  1
\W0.7291;804D-1250-500-S150
  7
cesky
 73
     2
 44
0.8433729999999998
  0
MTEXT
  5
30F
330
1F
100
AcDbEntity
  8
2
100
AcDbMText
 10
313.827842
 20
343.692507
 30
0.0
 40
3.5
 41
0.0
 71
     7
 72
     5
  1
\W0.7969;219
  7
cesky
 73
     2
 44
0.8433729999999998
  0
LINE
  5
310
330
1F
100
AcDbEntity
  8
2
100
AcDbLine
 10
426.4048419999999
 20
306.782994
 30
0.0
 11
426.4048419999999
 21
344.81834
 31
0.0
  0
LINE
  5
311
330
1F
100
AcDbEntity
  8
2
100
AcDbLine
 10
207.404842
 20
306.357994
 30
0.0
 11
207.404842
 21
344.81834
 31
0.0
  0
LINE
  5
312
330
1F
100
AcDbEntity
  8
2
100
AcDbLine
 10
426.4048419999999
 20
343.81834
 30
0.0
 11
207.404842
 21
343.81834
 31
0.0
  0
SOLID
  5
313
330
1F
100
AcDbEntity
  8
2
100
AcDbTrace
 10
426.4048419999999
 20
343.81834
 30
0.0
 11
422.904844
 21
343.201196
 31
0.0
 12
422.90484
 22
344.435485
 32
0.0
 13
422.90484
 23
344.435485
 33
0.0
  0
SOLID
  5
314
330
1F
100
AcDbEntity
  8
2
100
AcDbTrace
 10
207.404842
 20
343.81834
 30
0.0
 11
210.90484
 21
344.435485
 31
0.0
 12
210.904844
 22
343.201196
 32
0.0
 13
210.904844
 23
343.201196
 33
0.0
  0
MTEXT
  5
315
330
1F
100
AcDbEntity
  8
2
100
AcDbMText
 10
239.090342
 20
329.99506
 30
0.0
 40
3.5
 41
0.0
 71
     7
 72
     5
  1
\W0.7045;67
  7
cesky
 73
     2
 44
0.8433729999999998
  0
LINE
  5
316
330
1F
100
AcDbEntity
  8
2
100
AcDbLine
 10
274.404842
 20
288.907994
 30
0.0
 11
274.404842
 21
331.120893
 31
0.0
  0
LINE
  5
317
330
1F
100
AcDbEntity
  8
2
100
AcDbLine
 10
207.404842
 20
306.357994
 30
0.0
 11
207.404842
 21
331.120893
 31
0.0
  0
LINE
  5
318
330
1F
100
AcDbEntity
  8
2
100
AcDbLine
 10
274.404842
 20
330.120893
 30
0.0
 11
207.404842
 21
330.120893
 31
0.0
  0
SOLID
  5
319
330
1F
100
AcDbEntity
  8
2
100
AcDbTrace
 10
274.404842
 20
330.120893
 30
0.0
 11
270.904844
 21
329.503749
 31
0.0
 12
270.90484
 22
330.738038
 32
0.0
 13
270.90484
 23
330.738038
 33
0.0
  0
SOLID
  5
31A
330
1F
100
AcDbEntity
  8
2
100
AcDbTrace
 10
207.404842
 20
330.120893
 30
0.0
 11
210.90484
 21
330.738038
 31
0.0
 12
210.904844
 22
329.503749
 32
0.0
 13
210.904844
 23
329.503749
 33
0.0
  0
MTEXT
  5
31B
330
1F
100
AcDbEntity
  8
2
100
AcDbMText
 10
355.141604
 20
316.608162
 30
0.0
 40
3.5
 41
0.0
 71
     7
 72
     5
  1
\W0.9110;131,3
  7
cesky
 73
     2
 44
0.8433729999999998
  0
LINE
  5
31C
330
1F
100
AcDbEntity
  8
2
100
AcDbLine
 10
426.4048419999999
 20
306.782994
 30
0.0
 11
426.4048419999999
 21
317.733995
 31
0.0
  0
LINE
  5
31D
330
1F
100
AcDbEntity
  8
2
100
AcDbLine
 10
295.082367
 20
304.563782
 30
0.0
 11
295.082367
 21
317.733995
 31
0.0
  0
LINE
  5
31E
330
1F
100
AcDbEntity
  8
2
100
AcDbLine
 10
426.4048419999999
 20
316.733995
 30
0.0
 11
295.082367
 21
316.733995
 31
0.0
  0
SOLID
  5
31F
330
1F
100
AcDbEntity
  8
2
100
AcDbTrace
 10
426.4048419999999
 20
316.733995
 30
0.0
 11
422.904844
 21
316.116851
 31
0.0
 12
422.90484
 22
317.35114
 32
0.0
 13
422.90484
 23
317.35114
 33
0.0
  0
SOLID
  5
320
330
1F
100
AcDbEntity
  8
2
100
AcDbTrace
 10
295.082367
 20
316.733995
 30
0.0
 11
298.582364
 21
317.35114
 31
0.0
 12
298.582369
 22
316.116851
 32
0.0
 13
298.582369
 23
316.116851
 33
0.0
  0
MTEXT
  5
321
330
1F
100
AcDbEntity
  8
2
100
AcDbMText
 10
442.373334
 20
284.7077720000001
 30
0.0
 40
3.5
 41
0.0
 71
     7
 72
     5
  1
\W0.9023;31,8
  7
cesky
 11
0.0000000000000001
 21
1.0
 31
0.0
 73
     2
 44
0.8433729999999998
  0
MTEXT
  5
322
330
1F
100
AcDbEntity
  8
2
100
AcDbMText
 10
442.373334
 20
277.970272
 30
0.0
 40
3.5
 41
0.0
 71
     7
 72
     5
  1
\W3.0115;\H2.63;%%c\H3.50;
  7
cesky
 11
0.0000000000000001
 21
1.0
 31
0.0
 73
     2
 44
0.8433729999999998
  0
LINE
  5
323
330
1F
100
AcDbEntity
  8
2
100
AcDbLine
 10
428.4048419999999
 20
304.782994
 30
0.0
 11
443.5607499999999
 21
304.782994
 31
0.0
  0
LINE
  5
324
330
1F
100
AcDbEntity
  8
2
100
AcDbLine
 10
442.5607499999999
 20
304.782994
 30
0.0
 11
442.5607499999999
 21
277.812772
 31
0.0
  0
SOLID
  5
325
330
1F
100
AcDbEntity
  8
2
100
AcDbTrace
 10
442.5607499999999
 20
304.782994
 30
0.0
 11
443.177895
 21
301.282996
 31
0.0
 12
441.9436059999999
 22
301.2829910000001
 32
0.0
 13
441.9436059999999
 23
301.2829910000001
 33
0.0
  0
MTEXT
  5
326
330
1F
100
AcDbEntity
  8
2
100
AcDbMText
 10
347.327842
 20
329.99506
 30
0.0
 40
3.5
 41
0.0
 71
     7
 72
     5
  1
\W0.7809;152
  7
cesky
 73
     2
 44
0.8433729999999998
  0
LINE
  5
327
330
1F
100
AcDbEntity
  8
2
100
AcDbLine
 10
426.4048419999999
 20
304.782994
 30
0.0
 11
426.4048419999999
 21
331.120893
 31
0.0
  0
LINE
  5
328
330
1F
100
AcDbEntity
  8
2
100
AcDbLine
 10
274.404842
 20
289.907567
 30
0.0
 11
274.404842
 21
331.120893
 31
0.0
  0
LINE
  5
329
330
1F
100
AcDbEntity
  8
2
100
AcDbLine
 10
426.4048419999999
 20
330.120893
 30
0.0
 11
274.404842
 21
330.120893
 31
0.0
  0
SOLID
  5
32A
330
1F
100
AcDbEntity
  8
2
100
AcDbTrace
 10
426.4048419999999
 20
330.120893
 30
0.0
 11
422.904844
 21
329.503749
 31
0.0
 12
422.90484
 22
330.738038
 32
0.0
 13
422.90484
 23
330.738038
 33
0.0
  0
SOLID
  5
32B
330
1F
100
AcDbEntity
  8
2
100
AcDbTrace
 10
274.404842
 20
330.120893
 30
0.0
 11
277.90484
 21
330.738038
 31
0.0
 12
277.904844
 22
329.503749
 32
0.0
 13
277.904844
 23
329.503749
 33
0.0
  0
MTEXT
  5
32C
330
1F
100
AcDbEntity
  8
SK2
100
AcDbMText
 10
193.646349
 20
287.909244
 30
0.0
 40
3.5
 41
0.0
 71
     7
 72
     5
  1
\W0.9844;38,1
  7
cesky
 11
0.0000000000000001
 21
1.0
 31
0.0
 73
     2
 44
0.8433729999999998
  0
MTEXT
  5
32D
330
1F
100
AcDbEntity
  8
SK2
100
AcDbMText
 10
193.646349
 20
281.171744
 30
0.0
 40
3.5
 41
0.0
 71
     7
 72
     5
  1
\W3.0115;\H2.63;%%c\H3.50;
  7
cesky
 11
0.0000000000000001
 21
1.0
 31
0.0
 73
     2
 44
0.8433729999999998
  0
LINE
  5
32E
330
1F
100
AcDbEntity
  8
SK2
100
AcDbLine
 10
209.004842
 20
307.957994
 30
0.0
 11
192.833766
 21
307.957994
 31
0.0
  0
LINE
  5
32F
330
1F
100
AcDbEntity
  8
SK2
100
AcDbLine
 10
209.004842
 20
269.857994
 30
0.0
 11
192.833766
 21
269.857994
 31
0.0
  0
LINE
  5
330
330
1F
100
AcDbEntity
  8
SK2
100
AcDbLine
 10
193.833766
 20
307.957994
 30
0.0
 11
193.833766
 21
269.857994
 31
0.0
  0
SOLID
  5
331
330
1F
100
AcDbEntity
  8
SK2
100
AcDbTrace
 10
193.833766
 20
307.957994
 30
0.0
 11
194.45091
 21
304.457996
 31
0.0
 12
193.216621
 22
304.457991
 32
0.0
 13
193.216621
 23
304.457991
 33
0.0
  0
SOLID
  5
332
330
1F
100
AcDbEntity
  8
SK2
100
AcDbTrace
 10
193.833766
 20
269.857994
 30
0.0
 11
193.216621
 21
273.357991
 31
0.0
 12
194.45091
 22
273.357996
 32
0.0
 13
194.45091
 23
273.357996
 33
0.0
  0
MTEXT
  5
333
330
1F
100
AcDbEntity
  8
SK2
100
AcDbMText
 10
180.761127
 20
290.434244
 30
0.0
 40
3.5
 41
0.0
 71
     7
 72
     5
  1
\W0.7045;50
  7
cesky
 11
0.0000000000000001
 21
1.0
 31
0.0
 73
     2
 44
0.8433729999999998
  0
MTEXT
  5
334
330
1F
100
AcDbEntity
  8
SK2
100
AcDbMText
 10
180.761127
 20
283.696744
 30
0.0
 40
3.5
 41
0.0
 71
     7
 72
     5
  1
\W3.0115;\H2.63;%%c\H3.50;
  7
cesky
 11
0.0000000000000001
 21
1.0
 31
0.0
 73
     2
 44
0.8433729999999998
  0
LINE
  5
335
330
1F
100
AcDbEntity
  8
SK2
100
AcDbLine
 10
274.904842
 20
313.907994
 30
0.0
 11
179.948543
 21
313.907994
 31
0.0
  0
LINE
  5
336
330
1F
100
AcDbEntity
  8
SK2
100
AcDbLine
 10
274.904842
 20
263.907994
 30
0.0
 11
179.948543
 21
263.907994
 31
0.0
  0
LINE
  5
337
330
1F
100
AcDbEntity
  8
SK2
100
AcDbLine
 10
180.948543
 20
313.907994
 30
0.0
 11
180.948543
 21
263.907994
 31
0.0
  0
SOLID
  5
338
330
1F
100
AcDbEntity
  8
SK2
100
AcDbTrace
 10
180.948543
 20
313.907994
 30
0.0
 11
181.565688
 21
310.407996
 31
0.0
 12
180.331399
 22
310.407991
 32
0.0
 13
180.331399
 23
310.407991
 33
0.0
  0
SOLID
  5
339
330
1F
100
AcDbEntity
  8
SK2
100
AcDbTrace
 10
180.948543
 20
263.907994
 30
0.0
 11
180.331399
 21
267.4079910000001
 31
0.0
 12
181.565688
 22
267.407996
 32
0.0
 13
181.565688
 23
267.407996
 33
0.0
  0
LINE
  5
33C
330
1F
100
AcDbEntity
  8
CUT
100
AcDbLine
 10
417.0557887655625
 20
304.4856775368951
 30
0.0
 11
425.0284650116671
 21
304.7800292918481
 31
0.0
  0
LINE
  5
33D
330
1F
100
AcDbEntity
  8
CUT
100
AcDbLine
 10
425.8286060818003
 20
304.0377229318568
 30
0.0
 11
426.0880158039833
 21
296.8546419255496
 31
0.0
  0
LINE
  5
33E
330
1F
100
AcDbEntity
  8
CUT
100
AcDbLine
 10
426.2754235247553
 20
296.4661715315234
 30
0.0
 11
426.3998607906597
 21
289.3480174300097
 31
0.0
  0
LINE
  5
33F
330
1F
100
AcDbEntity
  8
CUT
100
AcDbLine
 10
426.0880158039832
 20
296.8546419255496
 30
0.0
 11
426.2334058386327
 21
296.6126920349481
 31
0.0
  0
LINE
  5
341
330
1F
100
AcDbEntity
  8
CUT
100
AcDbLine
 10
426.399861
 20
288.907994
 30
0.0
 11
416.31121
 21
288.907994
 31
0.0
  0
LINE
  5
342
330
1F
100
AcDbEntity
  8
CUT
100
AcDbLine
 10
416.31121
 20
288.907994
 30
0.0
 11
416.31121
 21
303.685903
 31
0.0
  0
LINE
  5
343
330
1F
100
AcDbEntity
  8
CUT
100
AcDbLine
 10
426.399861
 20
289.348017
 30
0.0
 11
426.399861
 21
288.907994
 31
0.0
  0
ARC
  5
344
330
1F
100
AcDbEntity
  8
CUT
100
AcDbCircle
 10
417.0934731424216
 20
303.7044605346135
 30
0.0
 40
0.7824835410324431
100
AcDbArc
 50
95.52653678342327
 51
181.3589302183357
  0
ARC
  5
345
330
1F
100
AcDbEntity
  8
CUT
100
AcDbCircle
 10
417.0825375275204
 20
303.7600571328952
 30
0.0
 40
0.7261132604265626
100
AcDbArc
 50
92.11115551638808
 51
95.09013825278726
  0
ARC
  5
346
330
1F
100
AcDbEntity
  8
CUT
100
AcDbCircle
 10
425.0490868568528
 20
303.999247777871
 30
0.0
 40
0.7810537965258339
100
AcDbArc
 50
6.977349321705715
 51
91.51293293552777
  0
ARC
  5
347
330
1F
100
AcDbEntity
  8
CUT
100
AcDbCircle
 10
425.1055856866535
 20
304.0116109052882
 30
0.0
 40
0.7234917620330599
100
AcDbArc
 50
2.068349625256924
 51
6.549046497909967
  0
LINE
  5
348
330
1F
100
AcDbEntity
  8
CUT
100
AcDbLine
 10
426.2334058386331
 20
296.6126920349482
 30
0.0
 11
426.2334058386331
 21
296.6126920349482
 31
0.0
  0
ARC
  5
349
330
1F
100
AcDbEntity
  8
CUT
100
AcDbCircle
 10
425.9810600596455
 20
296.4610418757427
 30
0.0
 40
0.2944081570879014
100
AcDbArc
 50
0.9983503935326419
 51
31.00425685646083
  0
ENDSEC
  0
SECTION
  2
OBJECTS
  0
DICTIONARY
  5
C
330
0
100
AcDbDictionary
281
     1
  3
ACAD_CIP_PREVIOUS_PRODUCT_INFO
350
30C
  3
ACAD_COLOR
350
307
  3
ACAD_DETAILVIEWSTYLE
350
303
  3
ACAD_GROUP
350
D
  3
ACAD_LAYOUT
350
1A
  3
ACAD_MATERIAL
350
43
  3
ACAD_MLEADERSTYLE
350
6B
  3
ACAD_MLINESTYLE
350
17
  3
ACAD_PLOTSETTINGS
350
19
  3
ACAD_PLOTSTYLENAME
350
E
  3
ACAD_SCALELIST
350
47
  3
ACAD_SECTIONVIEWSTYLE
350
304
  3
ACAD_TABLESTYLE
350
69
  3
ACAD_VISUALSTYLE
350
2A
  3
ACDB_RECOMPOSE_DATA
350
37F
  3
AcDbVariableDictionary
350
2C0
  0
DICTIONARY
  5
363
330
10
100
AcDbDictionary
280
     1
281
     1
  3
ADSK_XREC_LAYER_RECONCILED
360
364
  0
DICTIONARY
  5
365
330
34A
100
AcDbDictionary
280
     1
281
     1
  3
ADSK_XREC_LAYER_RECONCILED
360
366
  0
DICTIONARY
  5
367
330
34B
100
AcDbDictionary
280
     1
281
     1
  3
ADSK_XREC_LAYER_RECONCILED
360
368
  0
DICTIONARY
  5
369
330
34C
100
AcDbDictionary
280
     1
281
     1
  3
ADSK_XREC_LAYER_RECONCILED
360
36A
  0
DICTIONARY
  5
36B
330
34E
100
AcDbDictionary
280
     1
281
     1
  3
ADSK_XREC_LAYER_RECONCILED
360
36C
  0
DICTIONARY
  5
36D
330
34F
100
AcDbDictionary
280
     1
281
     1
  3
ADSK_XREC_LAYER_RECONCILED
360
36E
  0
DICTIONARY
  5
36F
330
351
100
AcDbDictionary
280
     1
281
     1
  3
ADSK_XREC_LAYER_RECONCILED
360
370
  0
DICTIONARY
  5
371
330
352
100
AcDbDictionary
280
     1
281
     1
  3
ADSK_XREC_LAYER_RECONCILED
360
372
  0
DICTIONARY
  5
373
330
353
100
AcDbDictionary
280
     1
281
     1
  3
ADSK_XREC_LAYER_RECONCILED
360
374
  0
DICTIONARY
  5
375
330
354
100
AcDbDictionary
280
     1
281
     1
  3
ADSK_XREC_LAYER_RECONCILED
360
376
  0
DICTIONARY
  5
377
330
355
100
AcDbDictionary
280
     1
281
     1
  3
ADSK_XREC_LAYER_RECONCILED
360
378
  0
DICTIONARY
  5
379
330
356
100
AcDbDictionary
280
     1
281
     1
  3
ADSK_XREC_LAYER_RECONCILED
360
37A
  0
DICTIONARY
  5
30D
330
1F
100
AcDbDictionary
280
     1
281
     1
  3
ACAD_SORTENTS
360
30E
  0
XRECORD
  5
30C
102
{ACAD_REACTORS
330
C
102
}
330
C
100
AcDbXrecord
280
     1
300
ACD
300
2019
300
87084ACD_2019_0F
  0
DICTIONARY
  5
307
102
{ACAD_REACTORS
330
C
102
}
330
C
100
AcDbDictionary
281
     1
  0
DICTIONARY
  5
303
102
{ACAD_REACTORS
330
C
102
}
330
C
100
AcDbDictionary
281
     1
  3
Metric50
350
309
  0
DICTIONARY
  5
D
102
{ACAD_REACTORS
330
C
102
}
330
C
100
AcDbDictionary
281
     1
  3
NULOVY_BOD
350
357
  0
DICTIONARY
  5
1A
102
{ACAD_REACTORS
330
C
102
}
330
C
100
AcDbDictionary
281
     1
  3
Layout1
350
1E
  3
Layout2
350
26
  3
Model
350
22
  0
DICTIONARY
  5
43
102
{ACAD_REACTORS
330
C
102
}
330
C
100
AcDbDictionary
281
     1
  3
ByBlock
350
45
  3
ByLayer
350
44
  3
Global
350
46
  0
DICTIONARY
  5
6B
102
{ACAD_REACTORS
330
C
102
}
330
C
100
AcDbDictionary
281
     1
  3
Standard
350
6C
  0
DICTIONARY
  5
17
102
{ACAD_REACTORS
330
C
102
}
330
C
100
AcDbDictionary
281
     1
  3
Standard
350
18
  0
DICTIONARY
  5
19
102
{ACAD_REACTORS
330
C
102
}
330
C
100
AcDbDictionary
281
     1
  0
ACDBDICTIONARYWDFLT
  5
E
102
{ACAD_REACTORS
330
C
102
}
330
C
100
AcDbDictionary
281
     1
  3
Normal
350
F
100
AcDbDictionaryWithDefault
340
F
  0
DICTIONARY
  5
47
102
{ACAD_REACTORS
330
C
102
}
330
C
100
AcDbDictionary
281
     1
  3
A0
350
48
  3
A1
350
49
  3
A2
350
4A
  3
A3
350
4B
  3
A4
350
4C
  3
A5
350
4D
  3
A6
350
4E
  3
A7
350
4F
  3
A8
350
50
  3
A9
350
51
  3
B0
350
52
  3
B1
350
53
  3
B2
350
54
  3
B3
350
55
  3
B4
350
56
  3
B5
350
57
  3
B6
350
58
  3
B7
350
59
  3
B8
350
5A
  3
B9
350
5B
  3
C0
350
5C
  3
C1
350
5D
  3
C2
350
5E
  3
C3
350
5F
  3
C4
350
60
  3
C5
350
61
  3
C6
350
62
  3
C7
350
63
  3
C8
350
64
  3
C9
350
65
  3
D0
350
66
  3
D1
350
67
  3
D2
350
68
  0
DICTIONARY
  5
304
102
{ACAD_REACTORS
330
C
102
}
330
C
100
AcDbDictionary
281
     1
  3
Metric50
350
308
  0
DICTIONARY
  5
69
102
{ACAD_REACTORS
330
C
102
}
330
C
100
AcDbDictionary
281
     1
  3
Standard
350
6A
  0
DICTIONARY
  5
2A
102
{ACAD_REACTORS
330
C
102
}
330
C
100
AcDbDictionary
281
     1
  3
2dWireframe
350
2F
  3
Basic
350
32
  3
Brighten
350
36
  3
ColorChange
350
3A
  3
Conceptual
350
34
  3
Dim
350
35
  3
EdgeColorOff
350
3D
  3
Facepattern
350
39
  3
Flat
350
2B
  3
FlatWithEdges
350
2C
  3
Gouraud
350
2D
  3
GouraudWithEdges
350
2E
  3
Hidden
350
31
  3
JitterOff
350
3B
  3
Linepattern
350
38
  3
OverhangOff
350
3C
  3
Realistic
350
33
  3
Shaded
350
42
  3
Shaded with edges
350
41
  3
Shades of Gray
350
3E
  3
Sketchy
350
3F
  3
Thicken
350
37
  3
Wireframe
350
30
  3
X-Ray
350
40
  0
XRECORD
  5
37F
102
{ACAD_REACTORS
330
C
102
}
330
C
100
AcDbXrecord
280
     1
 90
        1
330
6A
  0
DICTIONARY
  5
2C0
102
{ACAD_REACTORS
330
C
102
}
330
C
100
AcDbDictionary
281
     1
  3
CANNOSCALE
350
2C1
  3
CMLEADERSTYLE
350
302
  3
CTABLESTYLE
350
301
  3
CVIEWDETAILSTYLE
350
37B
  3
CVIEWSECTIONSTYLE
350
37C
  3
MSLTSCALE
350
2C2
  3
XCLIPFRAME
350
37D
  0
XRECORD
  5
364
102
{ACAD_REACTORS
330
363
102
}
330
363
100
AcDbXrecord
280
     1
290
     1
  0
XRECORD
  5
366
102
{ACAD_REACTORS
330
365
102
}
330
365
100
AcDbXrecord
280
     1
290
     1
  0
XRECORD
  5
368
102
{ACAD_REACTORS
330
367
102
}
330
367
100
AcDbXrecord
280
     1
290
     1
  0
XRECORD
  5
36A
102
{ACAD_REACTORS
330
369
102
}
330
369
100
AcDbXrecord
280
     1
290
     1
  0
XRECORD
  5
36C
102
{ACAD_REACTORS
330
36B
102
}
330
36B
100
AcDbXrecord
280
     1
290
     1
  0
XRECORD
  5
36E
102
{ACAD_REACTORS
330
36D
102
}
330
36D
100
AcDbXrecord
280
     1
290
     1
  0
XRECORD
  5
370
102
{ACAD_REACTORS
330
36F
102
}
330
36F
100
AcDbXrecord
280
     1
290
     1
  0
XRECORD
  5
372
102
{ACAD_REACTORS
330
371
102
}
330
371
100
AcDbXrecord
280
     1
290
     1
  0
XRECORD
  5
374
102
{ACAD_REACTORS
330
373
102
}
330
373
100
AcDbXrecord
280
     1
290
     1
  0
XRECORD
  5
376
102
{ACAD_REACTORS
330
375
102
}
330
375
100
AcDbXrecord
280
     1
290
     1
  0
XRECORD
  5
378
102
{ACAD_REACTORS
330
377
102
}
330
377
100
AcDbXrecord
280
     1
290
     1
  0
XRECORD
  5
37A
102
{ACAD_REACTORS
330
379
102
}
330
379
100
AcDbXrecord
280
     1
290
     1
  0
SORTENTSTABLE
  5
30E
102
{ACAD_REACTORS
330
30D
102
}
330
30D
100
AcDbSortentsTable
330
1F
331
30F
  5
262
331
310
  5
27B
331
311
  5
30F
331
312
  5
310
331
313
  5
311
331
314
  5
312
331
315
  5
313
331
316
  5
314
331
317
  5
315
331
318
  5
316
331
319
  5
317
331
31A
  5
318
331
31B
  5
319
331
31C
  5
31A
331
31D
  5
31B
331
31E
  5
31C
331
31F
  5
31D
331
320
  5
31E
331
321
  5
31F
331
322
  5
320
331
323
  5
321
331
324
  5
322
331
325
  5
323
331
326
  5
334
331
327
  5
335
331
328
  5
336
331
329
  5
337
331
32A
  5
338
331
32B
  5
339
331
32C
  5
326
331
32D
  5
327
331
32E
  5
328
331
32F
  5
329
331
330
  5
32A
331
331
  5
32B
331
332
  5
32C
331
333
  5
32D
331
334
  5
32E
331
335
  5
32F
331
336
  5
330
331
337
  5
331
331
338
  5
332
331
339
  5
333
331
33C
  5
341
331
33D
  5
342
331
33E
  5
343
331
33F
  5
344
331
341
  5
347
331
342
  5
348
331
343
  5
349
331
344
  5
33C
331
345
  5
33D
331
346
  5
33E
331
347
  5
33F
331
348
  5
345
331
349
  5
346
  0
ACDBDETAILVIEWSTYLE
  5
309
102
{ACAD_XDICTIONARY
360
3B3
102
}
102
{ACAD_REACTORS
330
303
102
}
330
303
100
AcDbModelDocViewStyle
 70
     0
  3
Metric50
290
     0
100
AcDbDetailViewStyle
 70
     0
 71
     0
 90
        3
 71
     1
340
11
 62
   256
 40
5.0
340
0
 62
   256
 40
5.0
300

 40
0.0
280
     1
 71
     2
340
16
 90
       25
 62
   256
 71
     3
340
11
 62
   256
 40
5.0
 90
        0
 40
15.0
 90
        1
300
%<\AcVar ViewDetailId>% (%<\AcVar ViewScale \f "%sn">%)
 71
     4
340
16
 90
       25
 62
   256
340
16
 90
       25
 62
   256
280
     0
  0
GROUP
  5
357
102
{ACAD_REACTORS
330
D
102
}
330
D
100
AcDbGroup
300

 70
     0
 71
     1
340
73
  0
LAYOUT
  5
1E
102
{ACAD_REACTORS
330
1A
102
}
330
1A
100
AcDbPlotSettings
  1

  2
none_device
  4

  6

 40
0.0
 41
0.0
 42
0.0
 43
0.0
 44
0.0
 45
0.0
 46
0.0
 47
0.0
 48
0.0
 49
0.0
140
0.0
141
0.0
142
1.0
143
1.0
 70
   688
 72
     0
 73
     0
 74
     5
  7

 75
    16
147
1.0
 76
     0
 77
     2
 78
   300
148
0.0
149
0.0
100
AcDbLayout
  1
Layout1
 70
     1
 71
     1
 10
-0.5
 20
-0.5
 11
5.0
 21
5.0
 12
0.0
 22
0.0
 32
0.0
 14
-0.5
 24
-0.5
 34
-0.5
 15
5.0
 25
5.0
 35
5.0
146
0.0
 13
0.0
 23
0.0
 33
0.0
 16
1.0
 26
0.0
 36
0.0
 17
0.0
 27
1.0
 37
0.0
 76
     0
330
1B
  0
LAYOUT
  5
26
102
{ACAD_REACTORS
330
1A
102
}
330
1A
100
AcDbPlotSettings
  1

  2
none_device
  4

  6

 40
0.0
 41
0.0
 42
0.0
 43
0.0
 44
0.0
 45
0.0
 46
0.0
 47
0.0
 48
0.0
 49
0.0
140
0.0
141
0.0
142
1.0
143
1.0
 70
   688
 72
     0
 73
     0
 74
     5
  7

 75
    16
147
1.0
 76
     0
 77
     2
 78
   300
148
0.0
149
0.0
100
AcDbLayout
  1
Layout2
 70
     1
 71
     2
 10
0.0
 20
0.0
 11
0.0
 21
0.0
 12
0.0
 22
0.0
 32
0.0
 14
0.0
 24
0.0
 34
0.0
 15
0.0
 25
0.0
 35
0.0
146
0.0
 13
0.0
 23
0.0
 33
0.0
 16
1.0
 26
0.0
 36
0.0
 17
0.0
 27
1.0
 37
0.0
 76
     0
330
23
  0
LAYOUT
  5
22
102
{ACAD_REACTORS
330
1A
102
}
330
1A
100
AcDbPlotSettings
  1

  2
none_device
  4
Letter_(8.50_x_11.00_Inches)
  6

 40
6.349999999999999
 41
6.349999999999999
 42
6.350005
 43
6.350005
 44
215.9
 45
279.4
 46
0.0
 47
0.0
 48
0.0
 49
0.0
140
0.0
141
0.0
142
1.0
143
1.0
 70
  1712
 72
     0
 73
     0
 74
     0
  7

 75
     0
147
1.0
 76
     0
 77
     2
 78
   300
148
0.0
149
0.0
100
AcDbLayout
  1
Model
 70
     1
 71
     0
 10
-0.5
 20
-0.5
 11
5.0
 21
5.0
 12
0.0
 22
0.0
 32
0.0
 14
-0.5
 24
-0.5
 34
-0.5
 15
5.0
 25
5.0
 35
5.0
146
0.0
 13
0.0
 23
0.0
 33
0.0
 16
1.0
 26
0.0
 36
0.0
 17
0.0
 27
1.0
 37
0.0
 76
     0
330
1F
331
29
  0
MATERIAL
  5
45
102
{ACAD_XDICTIONARY
360
2F6
102
}
102
{ACAD_REACTORS
330
43
102
}
330
43
100
AcDbMaterial
  1
ByBlock
  0
MATERIAL
  5
44
102
{ACAD_XDICTIONARY
360
2F4
102
}
102
{ACAD_REACTORS
330
43
102
}
330
43
100
AcDbMaterial
  1
ByLayer
  0
MATERIAL
  5
46
102
{ACAD_XDICTIONARY
360
2F8
102
}
102
{ACAD_REACTORS
330
43
102
}
330
43
100
AcDbMaterial
  1
Global
  0
MLEADERSTYLE
  5
6C
102
{ACAD_REACTORS
330
6B
102
}
330
6B
100
AcDbMLeaderStyle
170
     2
171
     1
172
     0
 90
        2
 40
0.0
 41
0.0
173
     1
 91
-1056964608
340
14
 92
       -2
290
     1
 42
0.09
291
     1
 43
0.36
  3
Standard
 44
0.18
300

342
11
174
     1
178
     6
175
     1
176
     0
 93
-1056964608
 45
0.18
292
     0
297
     0
 46
0.18
 94
-1056964608
 47
1.0
 49
1.0
140
1.0
293
     1
141
0.0
294
     1
177
     0
142
1.0
295
     0
296
     0
143
0.125
1001
ACAD_MLEADERVER
1070
     2
  0
MLINESTYLE
  5
18
102
{ACAD_REACTORS
330
17
102
}
330
17
100
AcDbMlineStyle
  2
STANDARD
 70
     0
  3

 62
   256
 51
90.0
 52
90.0
 71
     2
 49
0.5
 62
   256
  6
BYLAYER
 49
-0.5
 62
   256
  6
BYLAYER
  0
ACDBPLACEHOLDER
  5
F
102
{ACAD_REACTORS
330
E
102
}
330
E
  0
SCALE
  5
48
102
{ACAD_REACTORS
330
47
102
}
330
47
100
AcDbScale
 70
     0
300
1:1
140
1.0
141
1.0
290
     1
  0
SCALE
  5
49
102
{ACAD_REACTORS
330
47
102
}
330
47
100
AcDbScale
 70
     0
300
1:2
140
1.0
141
2.0
290
     0
  0
SCALE
  5
4A
102
{ACAD_REACTORS
330
47
102
}
330
47
100
AcDbScale
 70
     0
300
1:4
140
1.0
141
4.0
290
     0
  0
SCALE
  5
4B
102
{ACAD_REACTORS
330
47
102
}
330
47
100
AcDbScale
 70
     0
300
1:5
140
1.0
141
5.0
290
     0
  0
SCALE
  5
4C
102
{ACAD_REACTORS
330
47
102
}
330
47
100
AcDbScale
 70
     0
300
1:8
140
1.0
141
8.0
290
     0
  0
SCALE
  5
4D
102
{ACAD_REACTORS
330
47
102
}
330
47
100
AcDbScale
 70
     0
300
1:10
140
1.0
141
10.0
290
     0
  0
SCALE
  5
4E
102
{ACAD_REACTORS
330
47
102
}
330
47
100
AcDbScale
 70
     0
300
1:16
140
1.0
141
16.0
290
     0
  0
SCALE
  5
4F
102
{ACAD_REACTORS
330
47
102
}
330
47
100
AcDbScale
 70
     0
300
1:20
140
1.0
141
20.0
290
     0
  0
SCALE
  5
50
102
{ACAD_REACTORS
330
47
102
}
330
47
100
AcDbScale
 70
     0
300
1:30
140
1.0
141
30.0
290
     0
  0
SCALE
  5
51
102
{ACAD_REACTORS
330
47
102
}
330
47
100
AcDbScale
 70
     0
300
1:40
140
1.0
141
40.0
290
     0
  0
SCALE
  5
52
102
{ACAD_REACTORS
330
47
102
}
330
47
100
AcDbScale
 70
     0
300
1:50
140
1.0
141
50.0
290
     0
  0
SCALE
  5
53
102
{ACAD_REACTORS
330
47
102
}
330
47
100
AcDbScale
 70
     0
300
1:100
140
1.0
141
100.0
290
     0
  0
SCALE
  5
54
102
{ACAD_REACTORS
330
47
102
}
330
47
100
AcDbScale
 70
     0
300
2:1
140
2.0
141
1.0
290
     0
  0
SCALE
  5
55
102
{ACAD_REACTORS
330
47
102
}
330
47
100
AcDbScale
 70
     0
300
4:1
140
4.0
141
1.0
290
     0
  0
SCALE
  5
56
102
{ACAD_REACTORS
330
47
102
}
330
47
100
AcDbScale
 70
     0
300
8:1
140
8.0
141
1.0
290
     0
  0
SCALE
  5
57
102
{ACAD_REACTORS
330
47
102
}
330
47
100
AcDbScale
 70
     0
300
10:1
140
10.0
141
1.0
290
     0
  0
SCALE
  5
58
102
{ACAD_REACTORS
330
47
102
}
330
47
100
AcDbScale
 70
     0
300
100:1
140
100.0
141
1.0
290
     0
  0
SCALE
  5
59
102
{ACAD_REACTORS
330
47
102
}
330
47
100
AcDbScale
 70
     0
300
1/128" = 1'-0"
140
0.007812
141
12.0
290
     0
  0
SCALE
  5
5A
102
{ACAD_REACTORS
330
47
102
}
330
47
100
AcDbScale
 70
     0
300
1/64" = 1'-0"
140
0.015625
141
12.0
290
     0
  0
SCALE
  5
5B
102
{ACAD_REACTORS
330
47
102
}
330
47
100
AcDbScale
 70
     0
300
1/32" = 1'-0"
140
0.03125
141
12.0
290
     0
  0
SCALE
  5
5C
102
{ACAD_REACTORS
330
47
102
}
330
47
100
AcDbScale
 70
     0
300
1/16" = 1'-0"
140
0.0625
141
12.0
290
     0
  0
SCALE
  5
5D
102
{ACAD_REACTORS
330
47
102
}
330
47
100
AcDbScale
 70
     0
300
3/32" = 1'-0"
140
0.09375
141
12.0
290
     0
  0
SCALE
  5
5E
102
{ACAD_REACTORS
330
47
102
}
330
47
100
AcDbScale
 70
     0
300
1/8" = 1'-0"
140
0.125
141
12.0
290
     0
  0
SCALE
  5
5F
102
{ACAD_REACTORS
330
47
102
}
330
47
100
AcDbScale
 70
     0
300
3/16" = 1'-0"
140
0.1875
141
12.0
290
     0
  0
SCALE
  5
60
102
{ACAD_REACTORS
330
47
102
}
330
47
100
AcDbScale
 70
     0
300
1/4" = 1'-0"
140
0.25
141
12.0
290
     0
  0
SCALE
  5
61
102
{ACAD_REACTORS
330
47
102
}
330
47
100
AcDbScale
 70
     0
300
3/8" = 1'-0"
140
0.375
141
12.0
290
     0
  0
SCALE
  5
62
102
{ACAD_REACTORS
330
47
102
}
330
47
100
AcDbScale
 70
     0
300
1/2" = 1'-0"
140
0.5
141
12.0
290
     0
  0
SCALE
  5
63
102
{ACAD_REACTORS
330
47
102
}
330
47
100
AcDbScale
 70
     0
300
3/4" = 1'-0"
140
0.75
141
12.0
290
     0
  0
SCALE
  5
64
102
{ACAD_REACTORS
330
47
102
}
330
47
100
AcDbScale
 70
     0
300
1" = 1'-0"
140
1.0
141
12.0
290
     0
  0
SCALE
  5
65
102
{ACAD_REACTORS
330
47
102
}
330
47
100
AcDbScale
 70
     0
300
1-1/2" = 1'-0"
140
1.5
141
12.0
290
     0
  0
SCALE
  5
66
102
{ACAD_REACTORS
330
47
102
}
330
47
100
AcDbScale
 70
     0
300
3" = 1'-0"
140
3.0
141
12.0
290
     0
  0
SCALE
  5
67
102
{ACAD_REACTORS
330
47
102
}
330
47
100
AcDbScale
 70
     0
300
6" = 1'-0"
140
6.0
141
12.0
290
     0
  0
SCALE
  5
68
102
{ACAD_REACTORS
330
47
102
}
330
47
100
AcDbScale
 70
     0
300
1'-0" = 1'-0"
140
12.0
141
12.0
290
     0
  0
ACDBSECTIONVIEWSTYLE
  5
308
102
{ACAD_XDICTIONARY
360
3B1
102
}
102
{ACAD_REACTORS
330
304
102
}
330
304
100
AcDbModelDocViewStyle
 70
     0
  3
Metric50
290
     0
100
AcDbSectionViewStyle
 70
     0
 71
     0
 90
      102
 71
     1
340
11
 62
   256
 40
5.0
340
0
340
0
 62
   256
 40
5.0
300
I, O, Q, S, X, Z
 40
10.0
 90
        0
 40
2.5
 90
        0
 71
     2
340
16
 90
       25
 62
   256
340
16
 90
       50
 62
   256
 40
5.0
 40
2.5
 40
5.0
 71
     3
340
11
 62
   256
 40
5.0
 90
        0
 40
15.0
 90
        1
300
%<\AcVar ViewSectionStartId>%-%<\AcVar ViewSectionEndId>% (%<\AcVar ViewScale \f "%sn">%)
 71
     4
 62
   256
 62
   257
300
ANSI31
 40
1.0
 90
        0
290
     0
290
     0
 90
        6
 40
0.0
 40
1.570796326794896
 40
0.2617993877991494
 40
1.308996938995747
 40
-0.2617993877991494
 40
1.832595714594046
  0
TABLESTYLE
  5
6A
102
{ACAD_XDICTIONARY
360
2FA
102
}
102
{ACAD_REACTORS
330
69
102
}
330
69
100
AcDbTableStyle
  3
Standard
 70
     0
 71
     0
 40
0.06
 41
0.06
280
     0
281
     0
  7
Standard
140
0.18
170
     2
 62
     0
 63
     7
283
     0
274
    -2
284
     1
 64
     0
275
    -2
285
     1
 65
     0
276
    -2
286
     1
 66
     0
277
    -2
287
     1
 67
     0
278
    -2
288
     1
 68
     0
279
    -2
289
     1
 69
     0
  7
Standard
140
0.25
170
     5
 62
     0
 63
     7
283
     0
274
    -2
284
     1
 64
     0
275
    -2
285
     1
 65
     0
276
    -2
286
     1
 66
     0
277
    -2
287
     1
 67
     0
278
    -2
288
     1
 68
     0
279
    -2
289
     1
 69
     0
  7
Standard
140
0.18
170
     5
 62
     0
 63
     7
283
     0
274
    -2
284
     1
 64
     0
275
    -2
285
     1
 65
     0
276
    -2
286
     1
 66
     0
277
    -2
287
     1
 67
     0
278
    -2
288
     1
 68
     0
279
    -2
289
     1
 69
     0
  0
VISUALSTYLE
  5
2F
102
{ACAD_XDICTIONARY
360
388
102
}
102
{ACAD_REACTORS
330
2A
102
}
330
2A
100
AcDbVisualStyle
  2

 70
     4
 71
     0
 72
     2
 73
     0
 90
        0
 40
-0.6
 41
-30.0
 62
     5
 63
     7
421
 16777215
 74
     1
 91
        4
 64
     7
 65
   257
 75
     1
175
     1
 42
1.0
 92
        0
 66
   257
 43
1.0
 76
     1
 77
     6
 78
     2
 67
     7
 79
     5
170
     0
171
     0
290
     0
174
     0
 93
        1
 44
0.0
173
     0
291
     0
 45
0.0
1001
ACAD
1000
AcDbSavedByObjectVersion
1070
     0
  0
VISUALSTYLE
  5
32
102
{ACAD_XDICTIONARY
360
38E
102
}
102
{ACAD_REACTORS
330
2A
102
}
330
2A
100
AcDbVisualStyle
  2

 70
     7
 71
     1
 72
     0
 73
     1
 90
        0
 40
-0.6
 41
-30.0
 62
     5
 63
     7
421
 16777215
 74
     0
 91
        4
 64
     7
 65
   257
 75
     1
175
     1
 42
1.0
 92
        8
 66
     7
 43
1.0
 76
     1
 77
     6
 78
     2
 67
     7
 79
     5
170
     0
171
     0
290
     0
174
     0
 93
        1
 44
0.0
173
     0
291
     1
 45
0.0
1001
ACAD
1000
AcDbSavedByObjectVersion
1070
     0
  0
VISUALSTYLE
  5
36
102
{ACAD_XDICTIONARY
360
396
102
}
102
{ACAD_REACTORS
330
2A
102
}
330
2A
100
AcDbVisualStyle
  2

 70
    12
 71
     2
 72
     2
 73
     0
 90
        0
 40
-0.6
 41
-30.0
 62
     5
 63
     7
421
 16777215
 74
     1
 91
        4
 64
     7
 65
   257
 75
     1
175
     1
 42
1.0
 92
        8
 66
     7
 43
1.0
 76
     1
 77
     6
 78
     2
 67
     7
 79
     5
170
     0
171
     0
290
     0
174
     0
 93
        1
 44
50.0
173
     0
291
     1
 45
0.0
1001
ACAD
1000
AcDbSavedByObjectVersion
1070
     0
  0
VISUALSTYLE
  5
3A
102
{ACAD_XDICTIONARY
360
39E
102
}
102
{ACAD_REACTORS
330
2A
102
}
330
2A
100
AcDbVisualStyle
  2

 70
    16
 71
     2
 72
     2
 73
     3
 90
        0
 40
-0.6
 41
-30.0
 62
     5
 63
     8
421
  8421504
 74
     1
 91
        4
 64
     7
 65
   257
 75
     1
175
     1
 42
1.0
 92
        8
 66
     8
424
  8421504
 43
1.0
 76
     1
 77
     6
 78
     2
 67
     7
 79
     5
170
     0
171
     0
290
     0
174
     0
 93
        1
 44
0.0
173
     0
291
     1
 45
0.0
1001
ACAD
1000
AcDbSavedByObjectVersion
1070
     0
  0
VISUALSTYLE
  5
34
102
{ACAD_XDICTIONARY
360
392
102
}
102
{ACAD_REACTORS
330
2A
102
}
330
2A
100
AcDbVisualStyle
  2

 70
     9
 71
     3
 72
     2
 73
     0
 90
        0
 40
-0.6
 41
-30.0
 62
     5
 63
     7
421
 16777215
 74
     2
 91
        2
 64
     7
 65
   257
 75
     1
175
     1
 42
179.0
 92
        8
 66
     7
 43
1.0
 76
     1
 77
     6
 78
     2
 67
     7
 79
     3
170
     0
171
     0
290
     0
174
     0
 93
        1
 44
0.0
173
     0
291
     0
 45
0.0
1001
ACAD
1000
AcDbSavedByObjectVersion
1070
     0
  0
VISUALSTYLE
  5
35
102
{ACAD_XDICTIONARY
360
394
102
}
102
{ACAD_REACTORS
330
2A
102
}
330
2A
100
AcDbVisualStyle
  2

 70
    11
 71
     2
 72
     2
 73
     0
 90
        0
 40
-0.6
 41
-30.0
 62
     5
 63
     7
421
 16777215
 74
     1
 91
        4
 64
     7
 65
   257
 75
     1
175
     1
 42
1.0
 92
        8
 66
     7
 43
1.0
 76
     1
 77
     6
 78
     2
 67
     7
 79
     5
170
     0
171
     0
290
     0
174
     0
 93
        1
 44
-50.0
173
     0
291
     1
 45
0.0
1001
ACAD
1000
AcDbSavedByObjectVersion
1070
     0
  0
VISUALSTYLE
  5
3D
102
{ACAD_XDICTIONARY
360
3A4
102
}
102
{ACAD_REACTORS
330
2A
102
}
330
2A
100
AcDbVisualStyle
  2

 70
    22
 71
     2
 72
     2
 73
     0
 90
        0
 40
-0.6
 41
-30.0
 62
     5
 63
     7
421
 16777215
 74
     1
 91
        4
 64
     7
 65
   257
 75
     1
175
     1
 42
1.0
 92
        8
 66
     7
 43
1.0
 76
     1
 77
     6
 78
     2
 67
     7
 79
     5
170
     0
171
     0
290
     0
174
     0
 93
        1
 44
0.0
173
     0
291
     1
 45
0.0
1001
ACAD
1000
AcDbSavedByObjectVersion
1070
     0
  0
VISUALSTYLE
  5
39
102
{ACAD_XDICTIONARY
360
39C
102
}
102
{ACAD_REACTORS
330
2A
102
}
330
2A
100
AcDbVisualStyle
  2

 70
    15
 71
     2
 72
     2
 73
     0
 90
        0
 40
-0.6
 41
-30.0
 62
     5
 63
     7
421
 16777215
 74
     1
 91
        4
 64
     7
 65
   257
 75
     1
175
     1
 42
1.0
 92
        8
 66
     7
 43
1.0
 76
     1
 77
     6
 78
     2
 67
     7
 79
     5
170
     0
171
     0
290
     0
174
     0
 93
        1
 44
0.0
173
     0
291
     1
 45
0.0
1001
ACAD
1000
AcDbSavedByObjectVersion
1070
     0
  0
VISUALSTYLE
  5
2B
102
{ACAD_XDICTIONARY
360
380
102
}
102
{ACAD_REACTORS
330
2A
102
}
330
2A
100
AcDbVisualStyle
  2

 70
     0
 71
     2
 72
     1
 73
     1
 90
        2
 40
-0.6
 41
30.0
 62
     5
 63
     7
421
 16777215
 74
     0
 91
        0
 64
     7
 65
   257
 75
     1
175
     1
 42
1.0
 92
        8
 66
     7
 43
1.0
 76
     1
 77
     6
 78
     2
 67
     7
 79
     5
170
     0
171
     0
290
     0
174
     0
 93
       13
 44
0.0
173
     0
291
     1
 45
0.0
1001
ACAD
1000
AcDbSavedByObjectVersion
1070
     0
  0
VISUALSTYLE
  5
2C
102
{ACAD_XDICTIONARY
360
382
102
}
102
{ACAD_REACTORS
330
2A
102
}
330
2A
100
AcDbVisualStyle
  2

 70
     1
 71
     2
 72
     1
 73
     1
 90
        2
 40
-0.6
 41
30.0
 62
     5
 63
     7
421
 16777215
 74
     1
 91
        0
 64
     7
 65
   257
 75
     1
175
     1
 42
1.0
 92
        0
 66
   257
 43
1.0
 76
     1
 77
     6
 78
     2
 67
     7
 79
     5
170
     0
171
     0
290
     0
174
     0
 93
       13
 44
0.0
173
     0
291
     1
 45
0.0
1001
ACAD
1000
AcDbSavedByObjectVersion
1070
     0
  0
VISUALSTYLE
  5
2D
102
{ACAD_XDICTIONARY
360
384
102
}
102
{ACAD_REACTORS
330
2A
102
}
330
2A
100
AcDbVisualStyle
  2

 70
     2
 71
     2
 72
     2
 73
     1
 90
        2
 40
-0.6
 41
30.0
 62
     5
 63
     7
421
 16777215
 74
     0
 91
        0
 64
     7
 65
   257
 75
     1
175
     1
 42
1.0
 92
        0
 66
     7
 43
1.0
 76
     1
 77
     6
 78
     2
 67
     7
 79
     5
170
     0
171
     0
290
     0
174
     0
 93
       13
 44
0.0
173
     0
291
     1
 45
0.0
1001
ACAD
1000
AcDbSavedByObjectVersion
1070
     0
  0
VISUALSTYLE
  5
2E
102
{ACAD_XDICTIONARY
360
386
102
}
102
{ACAD_REACTORS
330
2A
102
}
330
2A
100
AcDbVisualStyle
  2

 70
     3
 71
     2
 72
     2
 73
     1
 90
        2
 40
-0.6
 41
30.0
 62
     5
 63
     7
421
 16777215
 74
     1
 91
        0
 64
     7
 65
   257
 75
     1
175
     1
 42
1.0
 92
        0
 66
   257
 43
1.0
 76
     1
 77
     6
 78
     2
 67
     7
 79
     5
170
     0
171
     0
290
     0
174
     0
 93
       13
 44
0.0
173
     0
291
     1
 45
0.0
1001
ACAD
1000
AcDbSavedByObjectVersion
1070
     0
  0
VISUALSTYLE
  5
31
102
{ACAD_XDICTIONARY
360
38C
102
}
102
{ACAD_REACTORS
330
2A
102
}
330
2A
100
AcDbVisualStyle
  2

 70
     6
 71
     1
 72
     2
 73
     2
 90
        0
 40
-0.6
 41
-30.0
 62
     5
 63
     7
421
 16777215
 74
     2
 91
        2
 64
     7
 65
   257
 75
     2
175
     1
 42
40.0
 92
        0
 66
   257
 43
1.0
 76
     1
 77
     6
 78
     2
 67
     7
 79
     3
170
     0
171
     0
290
     0
174
     0
 93
        1
 44
0.0
173
     0
291
     0
 45
0.0
1001
ACAD
1000
AcDbSavedByObjectVersion
1070
     0
  0
VISUALSTYLE
  5
3B
102
{ACAD_XDICTIONARY
360
3A0
102
}
102
{ACAD_REACTORS
330
2A
102
}
330
2A
100
AcDbVisualStyle
  2

 70
    20
 71
     2
 72
     2
 73
     0
 90
        0
 40
-0.6
 41
-30.0
 62
     5
 63
     7
421
 16777215
 74
     1
 91
        4
 64
     7
 65
   257
 75
     1
175
     1
 42
1.0
 92
       10
 66
     7
 43
1.0
 76
     1
 77
     6
 78
     2
 67
     7
 79
     5
170
     0
171
     0
290
     0
174
     0
 93
        1
 44
0.0
173
     0
291
     1
 45
0.0
1001
ACAD
1000
AcDbSavedByObjectVersion
1070
     0
  0
VISUALSTYLE
  5
38
102
{ACAD_XDICTIONARY
360
39A
102
}
102
{ACAD_REACTORS
330
2A
102
}
330
2A
100
AcDbVisualStyle
  2

 70
    14
 71
     2
 72
     2
 73
     0
 90
        0
 40
-0.6
 41
-30.0
 62
     5
 63
     7
421
 16777215
 74
     1
 91
        4
 64
     7
 65
   257
 75
     7
175
     7
 42
1.0
 92
        8
 66
     7
 43
1.0
 76
     1
 77
     6
 78
     2
 67
     7
 79
     5
170
     0
171
     0
290
     0
174
     0
 93
        1
 44
0.0
173
     0
291
     1
 45
0.0
1001
ACAD
1000
AcDbSavedByObjectVersion
1070
     0
  0
VISUALSTYLE
  5
3C
102
{ACAD_XDICTIONARY
360
3A2
102
}
102
{ACAD_REACTORS
330
2A
102
}
330
2A
100
AcDbVisualStyle
  2

 70
    21
 71
     2
 72
     2
 73
     0
 90
        0
 40
-0.6
 41
-30.0
 62
     5
 63
     7
421
 16777215
 74
     1
 91
        4
 64
     7
 65
   257
 75
     1
175
     1
 42
1.0
 92
        9
 66
     7
 43
1.0
 76
     1
 77
     6
 78
     2
 67
     7
 79
     5
170
     0
171
     0
290
     0
174
     0
 93
        1
 44
0.0
173
     0
291
     1
 45
0.0
1001
ACAD
1000
AcDbSavedByObjectVersion
1070
     0
  0
VISUALSTYLE
  5
33
102
{ACAD_XDICTIONARY
360
390
102
}
102
{ACAD_REACTORS
330
2A
102
}
330
2A
100
AcDbVisualStyle
  2

 70
     8
 71
     2
 72
     3
 73
     0
 90
        2
 40
-0.6
 41
30.0
 62
     5
 63
     7
421
 16777215
 74
     0
 91
        0
 64
     7
 65
   257
 75
     1
175
     1
 42
1.0
 92
        8
 66
   257
 43
1.0
 76
     1
 77
     6
 78
     2
 67
     7
 79
     3
170
     0
171
     0
290
     0
174
     0
 93
       13
 44
0.0
173
     0
291
     0
 45
0.0
1001
ACAD
1000
AcDbSavedByObjectVersion
1070
     0
  0
VISUALSTYLE
  5
42
102
{ACAD_XDICTIONARY
360
3AE
102
}
102
{ACAD_REACTORS
330
2A
102
}
330
2A
100
AcDbVisualStyle
  2

 70
    27
 71
     2
 72
     2
 73
     1
 90
        2
 40
-0.6
 41
30.0
 62
     5
 63
     7
421
 16777215
 74
     0
 91
        4
 64
     7
 65
   257
 75
     1
175
     1
 42
1.0
 92
        8
 66
   257
 43
1.0
 76
     1
 77
     6
 78
     2
 67
     8
425
  7895160
 79
     3
170
     0
171
     0
290
     0
174
     0
 93
        5
 44
0.0
173
     0
291
     0
 45
0.0
1001
ACAD
1000
AcDbSavedByObjectVersion
1070
     0
  0
VISUALSTYLE
  5
41
102
{ACAD_XDICTIONARY
360
3AC
102
}
102
{ACAD_REACTORS
330
2A
102
}
330
2A
100
AcDbVisualStyle
  2

 70
    26
 71
     2
 72
     2
 73
     1
 90
        2
 40
-0.6
 41
30.0
 62
     5
 63
     7
421
 16777215
 74
     1
 91
       10
 64
     7
 65
   257
 75
     2
175
     1
 42
1.0
 92
        8
 66
   257
 43
1.0
 76
     1
 77
     6
 78
     2
 67
     7
 79
     3
170
     0
171
     0
290
     0
174
     0
 93
        5
 44
0.0
173
     0
291
     0
 45
0.0
1001
ACAD
1000
AcDbSavedByObjectVersion
1070
     0
  0
VISUALSTYLE
  5
3E
102
{ACAD_XDICTIONARY
360
3A6
102
}
102
{ACAD_REACTORS
330
2A
102
}
330
2A
100
AcDbVisualStyle
  2

 70
    23
 71
     2
 72
     2
 73
     3
 90
        0
 40
-0.6
 41
-30.0
 62
     5
 63
     7
421
 16777215
 74
     2
 91
        2
 64
     7
 65
     7
 75
     1
175
     1
 42
40.0
 92
        8
 66
     7
 43
1.0
 76
     1
 77
     6
 78
     2
 67
     7
 79
     3
170
     0
171
     0
290
     0
174
     0
 93
        1
 44
0.0
173
     0
291
     0
 45
0.0
1001
ACAD
1000
AcDbSavedByObjectVersion
1070
     0
  0
VISUALSTYLE
  5
3F
102
{ACAD_XDICTIONARY
360
3A8
102
}
102
{ACAD_REACTORS
330
2A
102
}
330
2A
100
AcDbVisualStyle
  2

 70
    24
 71
     1
 72
     2
 73
     2
 90
        0
 40
-0.6
 41
-30.0
 62
     5
 63
     7
421
 16777215
 74
     2
 91
        2
 64
     7
 65
     7
 75
     1
175
     1
 42
40.0
 92
       11
 66
     7
 43
1.0
 76
     1
 77
     6
 78
     2
 67
     7
 79
     6
170
     0
171
     0
290
     0
174
     0
 93
        1
 44
0.0
173
     0
291
     0
 45
0.0
1001
ACAD
1000
AcDbSavedByObjectVersion
1070
     0
  0
VISUALSTYLE
  5
37
102
{ACAD_XDICTIONARY
360
398
102
}
102
{ACAD_REACTORS
330
2A
102
}
330
2A
100
AcDbVisualStyle
  2

 70
    13
 71
     2
 72
     2
 73
     0
 90
        0
 40
-0.6
 41
-30.0
 62
     5
 63
     7
421
 16777215
 74
     1
 91
        4
 64
     7
 65
   257
 75
     1
175
     1
 42
1.0
 92
       12
 66
     7
 43
1.0
 76
     1
 77
     6
 78
     2
 67
     7
 79
     5
170
     0
171
     0
290
     0
174
     0
 93
        1
 44
0.0
173
     0
291
     1
 45
0.0
1001
ACAD
1000
AcDbSavedByObjectVersion
1070
     0
  0
VISUALSTYLE
  5
30
102
{ACAD_XDICTIONARY
360
38A
102
}
102
{ACAD_REACTORS
330
2A
102
}
330
2A
100
AcDbVisualStyle
  2

 70
     5
 71
     0
 72
     2
 73
     0
 90
        0
 40
-0.6
 41
-30.0
 62
     5
 63
     7
421
 16777215
 74
     1
 91
        4
 64
     7
 65
   257
 75
     1
175
     1
 42
1.0
 92
        0
 66
   257
 43
1.0
 76
     1
 77
     6
 78
     2
 67
     7
 79
     3
170
     0
171
     0
290
     0
174
     0
 93
        1
 44
0.0
173
     0
291
     0
 45
0.0
1001
ACAD
1000
AcDbSavedByObjectVersion
1070
     0
  0
VISUALSTYLE
  5
40
102
{ACAD_XDICTIONARY
360
3AA
102
}
102
{ACAD_REACTORS
330
2A
102
}
330
2A
100
AcDbVisualStyle
  2

 70
    25
 71
     2
 72
     2
 73
     1
 90
        1
 40
0.5
 41
-30.0
 62
     5
 63
     7
421
 16777215
 74
     1
 91
        0
 64
     7
 65
   257
 75
     1
175
     1
 42
1.0
 92
        8
 66
     7
 43
1.0
 76
     1
 77
     6
 78
     2
 67
     7
 79
     3
170
     0
171
     0
290
     0
174
     0
 93
       13
 44
0.0
173
     0
291
     0
 45
0.0
1001
ACAD
1000
AcDbSavedByObjectVersion
1070
     0
  0
DICTIONARYVAR
  5
2C1
102
{ACAD_REACTORS
330
2C0
102
}
330
2C0
100
DictionaryVariables
280
     0
  1
1:1
  0
DICTIONARYVAR
  5
302
102
{ACAD_REACTORS
330
2C0
102
}
330
2C0
100
DictionaryVariables
280
     0
  1
STANDARD
  0
DICTIONARYVAR
  5
301
102
{ACAD_REACTORS
330
2C0
102
}
330
2C0
100
DictionaryVariables
280
     0
  1
STANDARD
  0
DICTIONARYVAR
  5
37B
102
{ACAD_REACTORS
330
2C0
102
}
330
2C0
100
DictionaryVariables
280
     0
  1
Metric50
  0
DICTIONARYVAR
  5
37C
102
{ACAD_REACTORS
330
2C0
102
}
330
2C0
100
DictionaryVariables
280
     0
  1
Metric50
  0
DICTIONARYVAR
  5
2C2
102
{ACAD_REACTORS
330
2C0
102
}
330
2C0
100
DictionaryVariables
280
     0
  1
1
  0
DICTIONARYVAR
  5
37D
102
{ACAD_REACTORS
330
2C0
102
}
330
2C0
100
DictionaryVariables
280
     0
  1
2
  0
DICTIONARY
  5
3B3
330
309
100
AcDbDictionary
280
     1
281
     1
  3
ACAD_XREC_ROUNDTRIP
360
3B4
  0
DICTIONARY
  5
2F6
330
45
100
AcDbDictionary
280
     1
281
     1
  3
ACAD_XREC_ROUNDTRIP
360
2F7
  0
DICTIONARY
  5
2F4
330
44
100
AcDbDictionary
280
     1
281
     1
  3
ACAD_XREC_ROUNDTRIP
360
2F5
  0
DICTIONARY
  5
2F8
330
46
100
AcDbDictionary
280
     1
281
     1
  3
ACAD_XREC_ROUNDTRIP
360
2F9
  0
DICTIONARY
  5
3B1
330
308
100
AcDbDictionary
280
     1
281
     1
  3
ACAD_XREC_ROUNDTRIP
360
3B2
  0
DICTIONARY
  5
2FA
330
6A
100
AcDbDictionary
280
     1
281
     1
  3
ACAD_ROUNDTRIP_2008_TABLESTYLE_CELLSTYLEMAP
360
37E
  3
ACAD_XREC_ROUNDTRIP
360
3B0
  0
DICTIONARY
  5
388
330
2F
100
AcDbDictionary
280
     1
281
     1
  3
ACAD_XREC_ROUNDTRIP
360
389
  0
DICTIONARY
  5
38E
330
32
100
AcDbDictionary
280
     1
281
     1
  3
ACAD_XREC_ROUNDTRIP
360
38F
  0
DICTIONARY
  5
396
330
36
100
AcDbDictionary
280
     1
281
     1
  3
ACAD_XREC_ROUNDTRIP
360
397
  0
DICTIONARY
  5
39E
330
3A
100
AcDbDictionary
280
     1
281
     1
  3
ACAD_XREC_ROUNDTRIP
360
39F
  0
DICTIONARY
  5
392
330
34
100
AcDbDictionary
280
     1
281
     1
  3
ACAD_XREC_ROUNDTRIP
360
393
  0
DICTIONARY
  5
394
330
35
100
AcDbDictionary
280
     1
281
     1
  3
ACAD_XREC_ROUNDTRIP
360
395
  0
DICTIONARY
  5
3A4
330
3D
100
AcDbDictionary
280
     1
281
     1
  3
ACAD_XREC_ROUNDTRIP
360
3A5
  0
DICTIONARY
  5
39C
330
39
100
AcDbDictionary
280
     1
281
     1
  3
ACAD_XREC_ROUNDTRIP
360
39D
  0
DICTIONARY
  5
380
330
2B
100
AcDbDictionary
280
     1
281
     1
  3
ACAD_XREC_ROUNDTRIP
360
381
  0
DICTIONARY
  5
382
330
2C
100
AcDbDictionary
280
     1
281
     1
  3
ACAD_XREC_ROUNDTRIP
360
383
  0
DICTIONARY
  5
384
330
2D
100
AcDbDictionary
280
     1
281
     1
  3
ACAD_XREC_ROUNDTRIP
360
385
  0
DICTIONARY
  5
386
330
2E
100
AcDbDictionary
280
     1
281
     1
  3
ACAD_XREC_ROUNDTRIP
360
387
  0
DICTIONARY
  5
38C
330
31
100
AcDbDictionary
280
     1
281
     1
  3
ACAD_XREC_ROUNDTRIP
360
38D
  0
DICTIONARY
  5
3A0
330
3B
100
AcDbDictionary
280
     1
281
     1
  3
ACAD_XREC_ROUNDTRIP
360
3A1
  0
DICTIONARY
  5
39A
330
38
100
AcDbDictionary
280
     1
281
     1
  3
ACAD_XREC_ROUNDTRIP
360
39B
  0
DICTIONARY
  5
3A2
330
3C
100
AcDbDictionary
280
     1
281
     1
  3
ACAD_XREC_ROUNDTRIP
360
3A3
  0
DICTIONARY
  5
390
330
33
100
AcDbDictionary
280
     1
281
     1
  3
ACAD_XREC_ROUNDTRIP
360
391
  0
DICTIONARY
  5
3AE
330
42
100
AcDbDictionary
280
     1
281
     1
  3
ACAD_XREC_ROUNDTRIP
360
3AF
  0
DICTIONARY
  5
3AC
330
41
100
AcDbDictionary
280
     1
281
     1
  3
ACAD_XREC_ROUNDTRIP
360
3AD
  0
DICTIONARY
  5
3A6
330
3E
100
AcDbDictionary
280
     1
281
     1
  3
ACAD_XREC_ROUNDTRIP
360
3A7
  0
DICTIONARY
  5
3A8
330
3F
100
AcDbDictionary
280
     1
281
     1
  3
ACAD_XREC_ROUNDTRIP
360
3A9
  0
DICTIONARY
  5
398
330
37
100
AcDbDictionary
280
     1
281
     1
  3
ACAD_XREC_ROUNDTRIP
360
399
  0
DICTIONARY
  5
38A
330
30
100
AcDbDictionary
280
     1
281
     1
  3
ACAD_XREC_ROUNDTRIP
360
38B
  0
DICTIONARY
  5
3AA
330
40
100
AcDbDictionary
280
     1
281
     1
  3
ACAD_XREC_ROUNDTRIP
360
3AB
  0
XRECORD
  5
3B4
102
{ACAD_REACTORS
330
3B3
102
}
330
3B3
100
AcDbXrecord
280
     1
102
DISPLAYNAME
  1
Metric50
102
FLAGS
 90
        0
  0
XRECORD
  5
2F7
102
{ACAD_REACTORS
330
2F6
102
}
330
2F6
100
AcDbXrecord
280
     1
102
MATERIAL
148
0.0
149
0.0
149
0.0
 93
        0
 94
      127
282
     0
 72
     1
 77
     1
171
     1
175
     1
179
     1
273
     0
  0
XRECORD
  5
2F5
102
{ACAD_REACTORS
330
2F4
102
}
330
2F4
100
AcDbXrecord
280
     1
102
MATERIAL
148
0.0
149
0.0
149
0.0
 93
        0
 94
      127
282
     0
 72
     1
 77
     1
171
     1
175
     1
179
     1
273
     0
  0
XRECORD
  5
2F9
102
{ACAD_REACTORS
330
2F8
102
}
330
2F8
100
AcDbXrecord
280
     1
102
MATERIAL
148
0.0
149
0.0
149
0.0
 93
        0
 94
      127
282
     0
 72
     1
 77
     1
171
     1
175
     1
179
     1
273
     0
  0
XRECORD
  5
3B2
102
{ACAD_REACTORS
330
3B1
102
}
330
3B1
100
AcDbXrecord
280
     1
102
DISPLAYNAME
  1
Metric50
102
FLAGS
 90
        0
  0
CELLSTYLEMAP
  5
37E
102
{ACAD_REACTORS
330
2FA
102
}
330
2FA
100
AcDbCellStyleMap
 90
        3
300
CELLSTYLE
  1
TABLEFORMAT_BEGIN
 90
        5
170
     1
 91
        0
 92
    32768
 62
   257
 93
        1
300
CONTENTFORMAT
  1
CONTENTFORMAT_BEGIN
 90
        0
 91
        0
 92
        4
 93
        0
300

 40
0.0
140
1.0
 94
        5
 62
     0
340
11
144
0.25
309
CONTENTFORMAT_END
171
     1
301
MARGIN
  1
CELLMARGIN_BEGIN
 40
0.06
 40
0.06
 40
0.06
 40
0.06
 40
0.18
 40
0.18
309
CELLMARGIN_END
 94
        6
 95
        1
302
GRIDFORMAT
  1
GRIDFORMAT_BEGIN
 90
        0
 91
        1
 62
     0
 92
       -2
340
14
 93
        0
 40
0.045
309
GRIDFORMAT_END
 95
        2
302
GRIDFORMAT
  1
GRIDFORMAT_BEGIN
 90
        0
 91
        1
 62
     0
 92
       -2
340
14
 93
        0
 40
0.045
309
GRIDFORMAT_END
 95
        4
302
GRIDFORMAT
  1
GRIDFORMAT_BEGIN
 90
        0
 91
        1
 62
     0
 92
       -2
340
14
 93
        0
 40
0.045
309
GRIDFORMAT_END
 95
        8
302
GRIDFORMAT
  1
GRIDFORMAT_BEGIN
 90
        0
 91
        1
 62
     0
 92
       -2
340
14
 93
        0
 40
0.045
309
GRIDFORMAT_END
 95
       16
302
GRIDFORMAT
  1
GRIDFORMAT_BEGIN
 90
        0
 91
        1
 62
     0
 92
       -2
340
14
 93
        0
 40
0.045
309
GRIDFORMAT_END
 95
       32
302
GRIDFORMAT
  1
GRIDFORMAT_BEGIN
 90
        0
 91
        1
 62
     0
 92
       -2
340
14
 93
        0
 40
0.045
309
GRIDFORMAT_END
309
TABLEFORMAT_END
  1
CELLSTYLE_BEGIN
 90
        1
 91
        1
300
_TITLE
309
CELLSTYLE_END
300
CELLSTYLE
  1
TABLEFORMAT_BEGIN
 90
        5
170
     1
 91
        0
 92
        0
 62
   257
 93
        1
300
CONTENTFORMAT
  1
CONTENTFORMAT_BEGIN
 90
        0
 91
        0
 92
        4
 93
        0
300

 40
0.0
140
1.0
 94
        5
 62
     0
340
11
144
0.18
309
CONTENTFORMAT_END
171
     1
301
MARGIN
  1
CELLMARGIN_BEGIN
 40
0.06
 40
0.06
 40
0.06
 40
0.06
 40
0.18
 40
0.18
309
CELLMARGIN_END
 94
        6
 95
        1
302
GRIDFORMAT
  1
GRIDFORMAT_BEGIN
 90
        0
 91
        1
 62
     0
 92
       -2
340
14
 93
        0
 40
0.045
309
GRIDFORMAT_END
 95
        2
302
GRIDFORMAT
  1
GRIDFORMAT_BEGIN
 90
        0
 91
        1
 62
     0
 92
       -2
340
14
 93
        0
 40
0.045
309
GRIDFORMAT_END
 95
        4
302
GRIDFORMAT
  1
GRIDFORMAT_BEGIN
 90
        0
 91
        1
 62
     0
 92
       -2
340
14
 93
        0
 40
0.045
309
GRIDFORMAT_END
 95
        8
302
GRIDFORMAT
  1
GRIDFORMAT_BEGIN
 90
        0
 91
        1
 62
     0
 92
       -2
340
14
 93
        0
 40
0.045
309
GRIDFORMAT_END
 95
       16
302
GRIDFORMAT
  1
GRIDFORMAT_BEGIN
 90
        0
 91
        1
 62
     0
 92
       -2
340
14
 93
        0
 40
0.045
309
GRIDFORMAT_END
 95
       32
302
GRIDFORMAT
  1
GRIDFORMAT_BEGIN
 90
        0
 91
        1
 62
     0
 92
       -2
340
14
 93
        0
 40
0.045
309
GRIDFORMAT_END
309
TABLEFORMAT_END
  1
CELLSTYLE_BEGIN
 90
        2
 91
        1
300
_HEADER
309
CELLSTYLE_END
300
CELLSTYLE
  1
TABLEFORMAT_BEGIN
 90
        5
170
     1
 91
        0
 92
        0
 62
   257
 93
        1
300
CONTENTFORMAT
  1
CONTENTFORMAT_BEGIN
 90
        0
 91
        0
 92
        4
 93
        0
300

 40
0.0
140
1.0
 94
        2
 62
     0
340
11
144
0.18
309
CONTENTFORMAT_END
171
     1
301
MARGIN
  1
CELLMARGIN_BEGIN
 40
0.06
 40
0.06
 40
0.06
 40
0.06
 40
0.18
 40
0.18
309
CELLMARGIN_END
 94
        6
 95
        1
302
GRIDFORMAT
  1
GRIDFORMAT_BEGIN
 90
        0
 91
        1
 62
     0
 92
       -2
340
14
 93
        0
 40
0.045
309
GRIDFORMAT_END
 95
        2
302
GRIDFORMAT
  1
GRIDFORMAT_BEGIN
 90
        0
 91
        1
 62
     0
 92
       -2
340
14
 93
        0
 40
0.045
309
GRIDFORMAT_END
 95
        4
302
GRIDFORMAT
  1
GRIDFORMAT_BEGIN
 90
        0
 91
        1
 62
     0
 92
       -2
340
14
 93
        0
 40
0.045
309
GRIDFORMAT_END
 95
        8
302
GRIDFORMAT
  1
GRIDFORMAT_BEGIN
 90
        0
 91
        1
 62
     0
 92
       -2
340
14
 93
        0
 40
0.045
309
GRIDFORMAT_END
 95
       16
302
GRIDFORMAT
  1
GRIDFORMAT_BEGIN
 90
        0
 91
        1
 62
     0
 92
       -2
340
14
 93
        0
 40
0.045
309
GRIDFORMAT_END
 95
       32
302
GRIDFORMAT
  1
GRIDFORMAT_BEGIN
 90
        0
 91
        1
 62
     0
 92
       -2
340
14
 93
        0
 40
0.045
309
GRIDFORMAT_END
309
TABLEFORMAT_END
  1
CELLSTYLE_BEGIN
 90
        3
 91
        2
300
_DATA
309
CELLSTYLE_END
  0
XRECORD
  5
3B0
102
{ACAD_REACTORS
330
2FA
102
}
330
2FA
100
AcDbXrecord
280
     1
102
ACAD_ROUNDTRIP_PRE2007_TABLESTYLE
 90
        4
 91
        0
  1

 92
        4
 93
        0
  2

 94
        4
 95
        0
  3

  0
XRECORD
  5
389
102
{ACAD_REACTORS
330
388
102
}
330
388
100
AcDbXrecord
280
     1
102
RTVSPost2010Prop28
280
     1
102
RTVSPost2010PropOp28
 70
     1
102
RTVSPost2010Prop29
280
     1
102
RTVSPost2010PropOp29
 70
     1
102
RTVSPost2010Prop30
280
     0
102
RTVSPost2010PropOp30
 70
     1
102
RTVSPost2010Prop31
280
     0
102
RTVSPost2010PropOp31
 70
     1
102
RTVSPost2010Prop32
280
     0
102
RTVSPost2010PropOp32
 70
     1
102
RTVSPost2010Prop33
280
     0
102
RTVSPost2010PropOp33
 70
     1
102
RTVSPost2010Prop34
280
     0
102
RTVSPost2010PropOp34
 70
     1
102
RTVSPost2010Prop35
280
     0
102
RTVSPost2010PropOp35
 70
     1
102
RTVSPost2010Prop36
280
     0
102
RTVSPost2010PropOp36
 70
     1
102
RTVSPost2010Prop37
 90
       50
102
RTVSPost2010PropOp37
 70
     1
102
RTVSPost2010Prop38
140
0.0
102
RTVSPost2010PropOp38
 70
     1
102
RTVSPost2010Prop39
140
1.0
102
RTVSPost2010PropOp39
 70
     1
102
RTVSPost2010Prop40
 90
        0
102
RTVSPost2010PropOp40
 70
     1
102
RTVSPost2010Prop41ColorIndex
 90
       18
102
RTVSPost2010Prop41ColorRGB
 90
        0
102
RTVSPost2010PropOp41
 70
     1
102
RTVSPost2010Prop42
 90
       50
102
RTVSPost2010PropOp42
 70
     1
102
RTVSPost2010Prop43
 90
        3
102
RTVSPost2010PropOp43
 70
     1
102
RTVSPost2010Prop44ColorIndex
 90
        5
102
RTVSPost2010Prop44ColorRGB
 90
      255
102
RTVSPost2010PropOp44
 70
     1
102
RTVSPost2010Prop45
280
     0
102
RTVSPost2010PropOp45
 70
     1
102
RTVSPost2010Prop46
 90
       50
102
RTVSPost2010PropOp46
 70
     1
102
RTVSPost2010Prop47
 90
       50
102
RTVSPost2010PropOp47
 70
     1
102
RTVSPost2010Prop48
 90
       50
102
RTVSPost2010PropOp48
 70
     1
102
RTVSPost2010Prop49
280
     0
102
RTVSPost2010PropOp49
 70
     1
102
RTVSPost2010Prop50
 90
       50
102
RTVSPost2010PropOp50
 70
     1
102
RTVSPost2010Prop51ColorIndex
 90
      256
102
RTVSPost2010Prop51ColorRGB
 90
-16777216
102
RTVSPost2010PropOp51
 70
     0
102
RTVSPost2010Prop52
140
1.0
102
RTVSPost2010PropOp52
 70
     0
102
RTVSPost2010Prop53
 90
        2
102
RTVSPost2010PropOp53
 70
     1
102
RTVSPost2010Prop54
  1
strokes_ogs.tif
102
RTVSPost2010PropOp54
 70
     1
102
RTVSPost2010Prop55
280
     0
102
RTVSPost2010PropOp55
 70
     1
102
RTVSPost2010Prop56
140
1.0
102
RTVSPost2010PropOp56
 70
     1
102
RTVSPost2010Prop57
140
1.0
102
RTVSPost2010PropOp57
 70
     1
102
RTVSPropertyOp0
 70
     1
102
RTVSPropertyOp1
 70
     1
102
RTVSPropertyOp2
 70
     1
102
RTVSPropertyOp3
 70
     1
102
RTVSPropertyOp4
 70
     1
102
RTVSPropertyOp5
 70
     1
102
RTVSPropertyOp6
 70
     1
102
RTVSPropertyOp7
 70
     1
102
RTVSPropertyOp8
 70
     1
102
RTVSPropertyOp9
 70
     1
102
RTVSPropertyOp10
 70
     1
102
RTVSPropertyOp11
 70
     1
102
RTVSPropertyOp12
 70
     1
102
RTVSPropertyOp13
 70
     1
102
RTVSPropertyOp14
 70
     1
102
RTVSPropertyOp15
 70
     1
102
RTVSPropertyOp16
 70
     1
102
RTVSPropertyOp17
 70
     1
102
RTVSPropertyOp18
 70
     1
102
RTVSPropertyOp19
 70
     1
102
RTVSPropertyOp20
 70
     1
102
RTVSPropertyOp21
 70
     1
102
RTVSPropertyOp22
 70
     1
102
RTVSPropertyOp23
 70
     1
102
RTVSPropertyOp24
 70
     1
102
RTVSPropertyOp25
 70
     1
102
RTVSPropertyOp26
 70
     1
102
RTVSPropertyOp27
 70
     1
102
RTVSPropertyOp28
 70
     1
102
RTVSPropertyOp29
 70
     1
102
RTVSPropertyOp30
 70
     1
102
RTVSPropertyOp31
 70
     1
102
RTVSPropertyOp32
 70
     1
102
RTVSPropertyOp33
 70
     1
102
RTVSPropertyOp34
 70
     1
102
RTVSPropertyOp35
 70
     1
102
RTVSPropertyOp36
 70
     1
102
RTVSPropertyOp37
 70
     1
102
RTVSPropertyOp38
 70
     1
102
RTVSPropertyOp39
 70
     1
102
RTVSPropertyOp40
 70
     1
102
RTVSPropertyOp41
 70
     1
102
RTVSPropertyOp42
 70
     1
102
RTVSPropertyOp43
 70
     1
102
RTVSPropertyOp44
 70
     1
102
RTVSPropertyOp45
 70
     1
102
RTVSPropertyOp46
 70
     1
102
RTVSPropertyOp47
 70
     1
102
RTVSPropertyOp48
 70
     1
102
RTVSPropertyOp49
 70
     1
102
RTVSPropertyOp50
 70
     1
102
RTVSPropertyOp51
 70
     0
102
RTVSPropertyOp52
 70
     0
102
RTVSPropertyOp53
 70
     1
102
RTVSPropertyOp54
 70
     1
102
RTVSPropertyOp55
 70
     1
102
RTVSPropertyOp56
 70
     1
102
RTVSPropertyOp57
 70
     1
102
RTVSPropertyOp58
 70
     1
102
RTVSPropertyOp59
 70
     1
102
RTVSPropertyOp60
 70
     1
102
RTVSPropertyOp61
 70
     1
102
RTVSPropertyOp62
 70
     1
  0
XRECORD
  5
38F
102
{ACAD_REACTORS
330
38E
102
}
330
38E
100
AcDbXrecord
280
     1
102
RTVSPost2010Prop28
280
     0
102
RTVSPost2010PropOp28
 70
     1
102
RTVSPost2010Prop29
280
     1
102
RTVSPost2010PropOp29
 70
     1
102
RTVSPost2010Prop30
280
     1
102
RTVSPost2010PropOp30
 70
     1
102
RTVSPost2010Prop31
280
     0
102
RTVSPost2010PropOp31
 70
     1
102
RTVSPost2010Prop32
280
     0
102
RTVSPost2010PropOp32
 70
     1
102
RTVSPost2010Prop33
280
     0
102
RTVSPost2010PropOp33
 70
     1
102
RTVSPost2010Prop34
280
     0
102
RTVSPost2010PropOp34
 70
     1
102
RTVSPost2010Prop35
280
     0
102
RTVSPost2010PropOp35
 70
     1
102
RTVSPost2010Prop36
280
     0
102
RTVSPost2010PropOp36
 70
     1
102
RTVSPost2010Prop37
 90
       50
102
RTVSPost2010PropOp37
 70
     1
102
RTVSPost2010Prop38
140
0.0
102
RTVSPost2010PropOp38
 70
     1
102
RTVSPost2010Prop39
140
1.0
102
RTVSPost2010PropOp39
 70
     1
102
RTVSPost2010Prop40
 90
        0
102
RTVSPost2010PropOp40
 70
     1
102
RTVSPost2010Prop41ColorIndex
 90
       18
102
RTVSPost2010Prop41ColorRGB
 90
        0
102
RTVSPost2010PropOp41
 70
     1
102
RTVSPost2010Prop42
 90
       50
102
RTVSPost2010PropOp42
 70
     1
102
RTVSPost2010Prop43
 90
        3
102
RTVSPost2010PropOp43
 70
     1
102
RTVSPost2010Prop44ColorIndex
 90
        5
102
RTVSPost2010Prop44ColorRGB
 90
      255
102
RTVSPost2010PropOp44
 70
     1
102
RTVSPost2010Prop45
280
     0
102
RTVSPost2010PropOp45
 70
     1
102
RTVSPost2010Prop46
 90
       50
102
RTVSPost2010PropOp46
 70
     1
102
RTVSPost2010Prop47
 90
       50
102
RTVSPost2010PropOp47
 70
     1
102
RTVSPost2010Prop48
 90
       50
102
RTVSPost2010PropOp48
 70
     1
102
RTVSPost2010Prop49
280
     0
102
RTVSPost2010PropOp49
 70
     1
102
RTVSPost2010Prop50
 90
       50
102
RTVSPost2010PropOp50
 70
     1
102
RTVSPost2010Prop51ColorIndex
 90
      256
102
RTVSPost2010Prop51ColorRGB
 90
-16777216
102
RTVSPost2010PropOp51
 70
     0
102
RTVSPost2010Prop52
140
1.0
102
RTVSPost2010PropOp52
 70
     0
102
RTVSPost2010Prop53
 90
        2
102
RTVSPost2010PropOp53
 70
     1
102
RTVSPost2010Prop54
  1
strokes_ogs.tif
102
RTVSPost2010PropOp54
 70
     1
102
RTVSPost2010Prop55
280
     0
102
RTVSPost2010PropOp55
 70
     1
102
RTVSPost2010Prop56
140
1.0
102
RTVSPost2010PropOp56
 70
     1
102
RTVSPost2010Prop57
140
1.0
102
RTVSPost2010PropOp57
 70
     1
102
RTVSPropertyOp0
 70
     1
102
RTVSPropertyOp1
 70
     1
102
RTVSPropertyOp2
 70
     1
102
RTVSPropertyOp3
 70
     1
102
RTVSPropertyOp4
 70
     1
102
RTVSPropertyOp5
 70
     1
102
RTVSPropertyOp6
 70
     1
102
RTVSPropertyOp7
 70
     1
102
RTVSPropertyOp8
 70
     1
102
RTVSPropertyOp9
 70
     1
102
RTVSPropertyOp10
 70
     1
102
RTVSPropertyOp11
 70
     1
102
RTVSPropertyOp12
 70
     1
102
RTVSPropertyOp13
 70
     1
102
RTVSPropertyOp14
 70
     1
102
RTVSPropertyOp15
 70
     1
102
RTVSPropertyOp16
 70
     1
102
RTVSPropertyOp17
 70
     1
102
RTVSPropertyOp18
 70
     1
102
RTVSPropertyOp19
 70
     1
102
RTVSPropertyOp20
 70
     1
102
RTVSPropertyOp21
 70
     1
102
RTVSPropertyOp22
 70
     1
102
RTVSPropertyOp23
 70
     1
102
RTVSPropertyOp24
 70
     1
102
RTVSPropertyOp25
 70
     1
102
RTVSPropertyOp26
 70
     1
102
RTVSPropertyOp27
 70
     1
102
RTVSPropertyOp28
 70
     1
102
RTVSPropertyOp29
 70
     1
102
RTVSPropertyOp30
 70
     1
102
RTVSPropertyOp31
 70
     1
102
RTVSPropertyOp32
 70
     1
102
RTVSPropertyOp33
 70
     1
102
RTVSPropertyOp34
 70
     1
102
RTVSPropertyOp35
 70
     1
102
RTVSPropertyOp36
 70
     1
102
RTVSPropertyOp37
 70
     1
102
RTVSPropertyOp38
 70
     1
102
RTVSPropertyOp39
 70
     1
102
RTVSPropertyOp40
 70
     1
102
RTVSPropertyOp41
 70
     1
102
RTVSPropertyOp42
 70
     1
102
RTVSPropertyOp43
 70
     1
102
RTVSPropertyOp44
 70
     1
102
RTVSPropertyOp45
 70
     1
102
RTVSPropertyOp46
 70
     1
102
RTVSPropertyOp47
 70
     1
102
RTVSPropertyOp48
 70
     1
102
RTVSPropertyOp49
 70
     1
102
RTVSPropertyOp50
 70
     1
102
RTVSPropertyOp51
 70
     0
102
RTVSPropertyOp52
 70
     0
102
RTVSPropertyOp53
 70
     1
102
RTVSPropertyOp54
 70
     1
102
RTVSPropertyOp55
 70
     1
102
RTVSPropertyOp56
 70
     1
102
RTVSPropertyOp57
 70
     1
102
RTVSPropertyOp58
 70
     1
102
RTVSPropertyOp59
 70
     1
102
RTVSPropertyOp60
 70
     1
102
RTVSPropertyOp61
 70
     1
102
RTVSPropertyOp62
 70
     1
  0
XRECORD
  5
397
102
{ACAD_REACTORS
330
396
102
}
330
396
100
AcDbXrecord
280
     1
102
RTVSPost2010Prop28
280
     0
102
RTVSPost2010PropOp28
 70
     1
102
RTVSPost2010Prop29
280
     1
102
RTVSPost2010PropOp29
 70
     1
102
RTVSPost2010Prop30
280
     1
102
RTVSPost2010PropOp30
 70
     1
102
RTVSPost2010Prop31
280
     0
102
RTVSPost2010PropOp31
 70
     1
102
RTVSPost2010Prop32
280
     0
102
RTVSPost2010PropOp32
 70
     1
102
RTVSPost2010Prop33
280
     0
102
RTVSPost2010PropOp33
 70
     1
102
RTVSPost2010Prop34
280
     0
102
RTVSPost2010PropOp34
 70
     1
102
RTVSPost2010Prop35
280
     0
102
RTVSPost2010PropOp35
 70
     1
102
RTVSPost2010Prop36
280
     0
102
RTVSPost2010PropOp36
 70
     1
102
RTVSPost2010Prop37
 90
       50
102
RTVSPost2010PropOp37
 70
     1
102
RTVSPost2010Prop38
140
0.0
102
RTVSPost2010PropOp38
 70
     1
102
RTVSPost2010Prop39
140
1.0
102
RTVSPost2010PropOp39
 70
     1
102
RTVSPost2010Prop40
 90
        0
102
RTVSPost2010PropOp40
 70
     1
102
RTVSPost2010Prop41ColorIndex
 90
       18
102
RTVSPost2010Prop41ColorRGB
 90
        0
102
RTVSPost2010PropOp41
 70
     1
102
RTVSPost2010Prop42
 90
       50
102
RTVSPost2010PropOp42
 70
     1
102
RTVSPost2010Prop43
 90
        3
102
RTVSPost2010PropOp43
 70
     1
102
RTVSPost2010Prop44ColorIndex
 90
        5
102
RTVSPost2010Prop44ColorRGB
 90
      255
102
RTVSPost2010PropOp44
 70
     1
102
RTVSPost2010Prop45
280
     0
102
RTVSPost2010PropOp45
 70
     1
102
RTVSPost2010Prop46
 90
       50
102
RTVSPost2010PropOp46
 70
     1
102
RTVSPost2010Prop47
 90
       50
102
RTVSPost2010PropOp47
 70
     1
102
RTVSPost2010Prop48
 90
       50
102
RTVSPost2010PropOp48
 70
     1
102
RTVSPost2010Prop49
280
     0
102
RTVSPost2010PropOp49
 70
     1
102
RTVSPost2010Prop50
 90
       50
102
RTVSPost2010PropOp50
 70
     1
102
RTVSPost2010Prop51ColorIndex
 90
      256
102
RTVSPost2010Prop51ColorRGB
 90
-16777216
102
RTVSPost2010PropOp51
 70
     0
102
RTVSPost2010Prop52
140
1.0
102
RTVSPost2010PropOp52
 70
     0
102
RTVSPost2010Prop53
 90
        2
102
RTVSPost2010PropOp53
 70
     1
102
RTVSPost2010Prop54
  1
strokes_ogs.tif
102
RTVSPost2010PropOp54
 70
     1
102
RTVSPost2010Prop55
280
     0
102
RTVSPost2010PropOp55
 70
     1
102
RTVSPost2010Prop56
140
1.0
102
RTVSPost2010PropOp56
 70
     1
102
RTVSPost2010Prop57
140
1.0
102
RTVSPost2010PropOp57
 70
     1
102
RTVSPropertyOp0
 70
     1
102
RTVSPropertyOp1
 70
     1
102
RTVSPropertyOp2
 70
     1
102
RTVSPropertyOp3
 70
     1
102
RTVSPropertyOp4
 70
     1
102
RTVSPropertyOp5
 70
     1
102
RTVSPropertyOp6
 70
     1
102
RTVSPropertyOp7
 70
     1
102
RTVSPropertyOp8
 70
     1
102
RTVSPropertyOp9
 70
     1
102
RTVSPropertyOp10
 70
     1
102
RTVSPropertyOp11
 70
     1
102
RTVSPropertyOp12
 70
     1
102
RTVSPropertyOp13
 70
     1
102
RTVSPropertyOp14
 70
     1
102
RTVSPropertyOp15
 70
     1
102
RTVSPropertyOp16
 70
     1
102
RTVSPropertyOp17
 70
     1
102
RTVSPropertyOp18
 70
     1
102
RTVSPropertyOp19
 70
     1
102
RTVSPropertyOp20
 70
     1
102
RTVSPropertyOp21
 70
     1
102
RTVSPropertyOp22
 70
     1
102
RTVSPropertyOp23
 70
     1
102
RTVSPropertyOp24
 70
     1
102
RTVSPropertyOp25
 70
     1
102
RTVSPropertyOp26
 70
     1
102
RTVSPropertyOp27
 70
     1
102
RTVSPropertyOp28
 70
     1
102
RTVSPropertyOp29
 70
     1
102
RTVSPropertyOp30
 70
     1
102
RTVSPropertyOp31
 70
     1
102
RTVSPropertyOp32
 70
     1
102
RTVSPropertyOp33
 70
     1
102
RTVSPropertyOp34
 70
     1
102
RTVSPropertyOp35
 70
     1
102
RTVSPropertyOp36
 70
     1
102
RTVSPropertyOp37
 70
     1
102
RTVSPropertyOp38
 70
     1
102
RTVSPropertyOp39
 70
     1
102
RTVSPropertyOp40
 70
     1
102
RTVSPropertyOp41
 70
     1
102
RTVSPropertyOp42
 70
     1
102
RTVSPropertyOp43
 70
     1
102
RTVSPropertyOp44
 70
     1
102
RTVSPropertyOp45
 70
     1
102
RTVSPropertyOp46
 70
     1
102
RTVSPropertyOp47
 70
     1
102
RTVSPropertyOp48
 70
     1
102
RTVSPropertyOp49
 70
     1
102
RTVSPropertyOp50
 70
     1
102
RTVSPropertyOp51
 70
     0
102
RTVSPropertyOp52
 70
     0
102
RTVSPropertyOp53
 70
     1
102
RTVSPropertyOp54
 70
     1
102
RTVSPropertyOp55
 70
     1
102
RTVSPropertyOp56
 70
     1
102
RTVSPropertyOp57
 70
     1
102
RTVSPropertyOp58
 70
     1
102
RTVSPropertyOp59
 70
     1
102
RTVSPropertyOp60
 70
     1
102
RTVSPropertyOp61
 70
     1
102
RTVSPropertyOp62
 70
     1
  0
XRECORD
  5
39F
102
{ACAD_REACTORS
330
39E
102
}
330
39E
100
AcDbXrecord
280
     1
102
RTVSPost2010Prop28
280
     0
102
RTVSPost2010PropOp28
 70
     1
102
RTVSPost2010Prop29
280
     1
102
RTVSPost2010PropOp29
 70
     1
102
RTVSPost2010Prop30
280
     1
102
RTVSPost2010PropOp30
 70
     1
102
RTVSPost2010Prop31
280
     0
102
RTVSPost2010PropOp31
 70
     1
102
RTVSPost2010Prop32
280
     0
102
RTVSPost2010PropOp32
 70
     1
102
RTVSPost2010Prop33
280
     0
102
RTVSPost2010PropOp33
 70
     1
102
RTVSPost2010Prop34
280
     0
102
RTVSPost2010PropOp34
 70
     1
102
RTVSPost2010Prop35
280
     0
102
RTVSPost2010PropOp35
 70
     1
102
RTVSPost2010Prop36
280
     0
102
RTVSPost2010PropOp36
 70
     1
102
RTVSPost2010Prop37
 90
       50
102
RTVSPost2010PropOp37
 70
     1
102
RTVSPost2010Prop38
140
0.0
102
RTVSPost2010PropOp38
 70
     1
102
RTVSPost2010Prop39
140
1.0
102
RTVSPost2010PropOp39
 70
     1
102
RTVSPost2010Prop40
 90
        0
102
RTVSPost2010PropOp40
 70
     1
102
RTVSPost2010Prop41ColorIndex
 90
       18
102
RTVSPost2010Prop41ColorRGB
 90
        0
102
RTVSPost2010PropOp41
 70
     1
102
RTVSPost2010Prop42
 90
       50
102
RTVSPost2010PropOp42
 70
     1
102
RTVSPost2010Prop43
 90
        3
102
RTVSPost2010PropOp43
 70
     1
102
RTVSPost2010Prop44ColorIndex
 90
        5
102
RTVSPost2010Prop44ColorRGB
 90
      255
102
RTVSPost2010PropOp44
 70
     1
102
RTVSPost2010Prop45
280
     0
102
RTVSPost2010PropOp45
 70
     1
102
RTVSPost2010Prop46
 90
       50
102
RTVSPost2010PropOp46
 70
     1
102
RTVSPost2010Prop47
 90
       50
102
RTVSPost2010PropOp47
 70
     1
102
RTVSPost2010Prop48
 90
       50
102
RTVSPost2010PropOp48
 70
     1
102
RTVSPost2010Prop49
280
     0
102
RTVSPost2010PropOp49
 70
     1
102
RTVSPost2010Prop50
 90
       50
102
RTVSPost2010PropOp50
 70
     1
102
RTVSPost2010Prop51ColorIndex
 90
      256
102
RTVSPost2010Prop51ColorRGB
 90
-16777216
102
RTVSPost2010PropOp51
 70
     0
102
RTVSPost2010Prop52
140
1.0
102
RTVSPost2010PropOp52
 70
     0
102
RTVSPost2010Prop53
 90
        2
102
RTVSPost2010PropOp53
 70
     1
102
RTVSPost2010Prop54
  1
strokes_ogs.tif
102
RTVSPost2010PropOp54
 70
     1
102
RTVSPost2010Prop55
280
     0
102
RTVSPost2010PropOp55
 70
     1
102
RTVSPost2010Prop56
140
1.0
102
RTVSPost2010PropOp56
 70
     1
102
RTVSPost2010Prop57
140
1.0
102
RTVSPost2010PropOp57
 70
     1
102
RTVSPropertyOp0
 70
     1
102
RTVSPropertyOp1
 70
     1
102
RTVSPropertyOp2
 70
     1
102
RTVSPropertyOp3
 70
     1
102
RTVSPropertyOp4
 70
     1
102
RTVSPropertyOp5
 70
     1
102
RTVSPropertyOp6
 70
     1
102
RTVSPropertyOp7
 70
     1
102
RTVSPropertyOp8
 70
     1
102
RTVSPropertyOp9
 70
     1
102
RTVSPropertyOp10
 70
     1
102
RTVSPropertyOp11
 70
     1
102
RTVSPropertyOp12
 70
     1
102
RTVSPropertyOp13
 70
     1
102
RTVSPropertyOp14
 70
     1
102
RTVSPropertyOp15
 70
     1
102
RTVSPropertyOp16
 70
     1
102
RTVSPropertyOp17
 70
     1
102
RTVSPropertyOp18
 70
     1
102
RTVSPropertyOp19
 70
     1
102
RTVSPropertyOp20
 70
     1
102
RTVSPropertyOp21
 70
     1
102
RTVSPropertyOp22
 70
     1
102
RTVSPropertyOp23
 70
     1
102
RTVSPropertyOp24
 70
     1
102
RTVSPropertyOp25
 70
     1
102
RTVSPropertyOp26
 70
     1
102
RTVSPropertyOp27
 70
     1
102
RTVSPropertyOp28
 70
     1
102
RTVSPropertyOp29
 70
     1
102
RTVSPropertyOp30
 70
     1
102
RTVSPropertyOp31
 70
     1
102
RTVSPropertyOp32
 70
     1
102
RTVSPropertyOp33
 70
     1
102
RTVSPropertyOp34
 70
     1
102
RTVSPropertyOp35
 70
     1
102
RTVSPropertyOp36
 70
     1
102
RTVSPropertyOp37
 70
     1
102
RTVSPropertyOp38
 70
     1
102
RTVSPropertyOp39
 70
     1
102
RTVSPropertyOp40
 70
     1
102
RTVSPropertyOp41
 70
     1
102
RTVSPropertyOp42
 70
     1
102
RTVSPropertyOp43
 70
     1
102
RTVSPropertyOp44
 70
     1
102
RTVSPropertyOp45
 70
     1
102
RTVSPropertyOp46
 70
     1
102
RTVSPropertyOp47
 70
     1
102
RTVSPropertyOp48
 70
     1
102
RTVSPropertyOp49
 70
     1
102
RTVSPropertyOp50
 70
     1
102
RTVSPropertyOp51
 70
     0
102
RTVSPropertyOp52
 70
     0
102
RTVSPropertyOp53
 70
     1
102
RTVSPropertyOp54
 70
     1
102
RTVSPropertyOp55
 70
     1
102
RTVSPropertyOp56
 70
     1
102
RTVSPropertyOp57
 70
     1
102
RTVSPropertyOp58
 70
     1
102
RTVSPropertyOp59
 70
     1
102
RTVSPropertyOp60
 70
     1
102
RTVSPropertyOp61
 70
     1
102
RTVSPropertyOp62
 70
     1
  0
XRECORD
  5
393
102
{ACAD_REACTORS
330
392
102
}
330
392
100
AcDbXrecord
280
     1
102
RTVSPost2010Prop28
280
     0
102
RTVSPost2010PropOp28
 70
     1
102
RTVSPost2010Prop29
280
     1
102
RTVSPost2010PropOp29
 70
     1
102
RTVSPost2010Prop30
280
     1
102
RTVSPost2010PropOp30
 70
     1
102
RTVSPost2010Prop31
280
     0
102
RTVSPost2010PropOp31
 70
     1
102
RTVSPost2010Prop32
280
     0
102
RTVSPost2010PropOp32
 70
     1
102
RTVSPost2010Prop33
280
     0
102
RTVSPost2010PropOp33
 70
     1
102
RTVSPost2010Prop34
280
     0
102
RTVSPost2010PropOp34
 70
     1
102
RTVSPost2010Prop35
280
     0
102
RTVSPost2010PropOp35
 70
     1
102
RTVSPost2010Prop36
280
     0
102
RTVSPost2010PropOp36
 70
     1
102
RTVSPost2010Prop37
 90
       50
102
RTVSPost2010PropOp37
 70
     1
102
RTVSPost2010Prop38
140
0.0
102
RTVSPost2010PropOp38
 70
     1
102
RTVSPost2010Prop39
140
1.0
102
RTVSPost2010PropOp39
 70
     1
102
RTVSPost2010Prop40
 90
        0
102
RTVSPost2010PropOp40
 70
     1
102
RTVSPost2010Prop41ColorIndex
 90
       18
102
RTVSPost2010Prop41ColorRGB
 90
        0
102
RTVSPost2010PropOp41
 70
     1
102
RTVSPost2010Prop42
 90
       50
102
RTVSPost2010PropOp42
 70
     1
102
RTVSPost2010Prop43
 90
        3
102
RTVSPost2010PropOp43
 70
     1
102
RTVSPost2010Prop44ColorIndex
 90
        5
102
RTVSPost2010Prop44ColorRGB
 90
      255
102
RTVSPost2010PropOp44
 70
     1
102
RTVSPost2010Prop45
280
     0
102
RTVSPost2010PropOp45
 70
     1
102
RTVSPost2010Prop46
 90
       50
102
RTVSPost2010PropOp46
 70
     1
102
RTVSPost2010Prop47
 90
       50
102
RTVSPost2010PropOp47
 70
     1
102
RTVSPost2010Prop48
 90
       50
102
RTVSPost2010PropOp48
 70
     1
102
RTVSPost2010Prop49
280
     0
102
RTVSPost2010PropOp49
 70
     1
102
RTVSPost2010Prop50
 90
       50
102
RTVSPost2010PropOp50
 70
     1
102
RTVSPost2010Prop51ColorIndex
 90
      256
102
RTVSPost2010Prop51ColorRGB
 90
-16777216
102
RTVSPost2010PropOp51
 70
     0
102
RTVSPost2010Prop52
140
1.0
102
RTVSPost2010PropOp52
 70
     0
102
RTVSPost2010Prop53
 90
        2
102
RTVSPost2010PropOp53
 70
     1
102
RTVSPost2010Prop54
  1
strokes_ogs.tif
102
RTVSPost2010PropOp54
 70
     1
102
RTVSPost2010Prop55
280
     0
102
RTVSPost2010PropOp55
 70
     1
102
RTVSPost2010Prop56
140
1.0
102
RTVSPost2010PropOp56
 70
     1
102
RTVSPost2010Prop57
140
1.0
102
RTVSPost2010PropOp57
 70
     1
102
RTVSPropertyOp0
 70
     1
102
RTVSPropertyOp1
 70
     1
102
RTVSPropertyOp2
 70
     1
102
RTVSPropertyOp3
 70
     1
102
RTVSPropertyOp4
 70
     1
102
RTVSPropertyOp5
 70
     1
102
RTVSPropertyOp6
 70
     1
102
RTVSPropertyOp7
 70
     1
102
RTVSPropertyOp8
 70
     1
102
RTVSPropertyOp9
 70
     1
102
RTVSPropertyOp10
 70
     1
102
RTVSPropertyOp11
 70
     1
102
RTVSPropertyOp12
 70
     1
102
RTVSPropertyOp13
 70
     1
102
RTVSPropertyOp14
 70
     1
102
RTVSPropertyOp15
 70
     1
102
RTVSPropertyOp16
 70
     1
102
RTVSPropertyOp17
 70
     1
102
RTVSPropertyOp18
 70
     1
102
RTVSPropertyOp19
 70
     1
102
RTVSPropertyOp20
 70
     1
102
RTVSPropertyOp21
 70
     1
102
RTVSPropertyOp22
 70
     1
102
RTVSPropertyOp23
 70
     1
102
RTVSPropertyOp24
 70
     1
102
RTVSPropertyOp25
 70
     1
102
RTVSPropertyOp26
 70
     1
102
RTVSPropertyOp27
 70
     1
102
RTVSPropertyOp28
 70
     1
102
RTVSPropertyOp29
 70
     1
102
RTVSPropertyOp30
 70
     1
102
RTVSPropertyOp31
 70
     1
102
RTVSPropertyOp32
 70
     1
102
RTVSPropertyOp33
 70
     1
102
RTVSPropertyOp34
 70
     1
102
RTVSPropertyOp35
 70
     1
102
RTVSPropertyOp36
 70
     1
102
RTVSPropertyOp37
 70
     1
102
RTVSPropertyOp38
 70
     1
102
RTVSPropertyOp39
 70
     1
102
RTVSPropertyOp40
 70
     1
102
RTVSPropertyOp41
 70
     1
102
RTVSPropertyOp42
 70
     1
102
RTVSPropertyOp43
 70
     1
102
RTVSPropertyOp44
 70
     1
102
RTVSPropertyOp45
 70
     1
102
RTVSPropertyOp46
 70
     1
102
RTVSPropertyOp47
 70
     1
102
RTVSPropertyOp48
 70
     1
102
RTVSPropertyOp49
 70
     1
102
RTVSPropertyOp50
 70
     1
102
RTVSPropertyOp51
 70
     0
102
RTVSPropertyOp52
 70
     0
102
RTVSPropertyOp53
 70
     1
102
RTVSPropertyOp54
 70
     1
102
RTVSPropertyOp55
 70
     1
102
RTVSPropertyOp56
 70
     1
102
RTVSPropertyOp57
 70
     1
102
RTVSPropertyOp58
 70
     1
102
RTVSPropertyOp59
 70
     1
102
RTVSPropertyOp60
 70
     1
102
RTVSPropertyOp61
 70
     1
102
RTVSPropertyOp62
 70
     1
  0
XRECORD
  5
395
102
{ACAD_REACTORS
330
394
102
}
330
394
100
AcDbXrecord
280
     1
102
RTVSPost2010Prop28
280
     0
102
RTVSPost2010PropOp28
 70
     1
102
RTVSPost2010Prop29
280
     1
102
RTVSPost2010PropOp29
 70
     1
102
RTVSPost2010Prop30
280
     1
102
RTVSPost2010PropOp30
 70
     1
102
RTVSPost2010Prop31
280
     0
102
RTVSPost2010PropOp31
 70
     1
102
RTVSPost2010Prop32
280
     0
102
RTVSPost2010PropOp32
 70
     1
102
RTVSPost2010Prop33
280
     0
102
RTVSPost2010PropOp33
 70
     1
102
RTVSPost2010Prop34
280
     0
102
RTVSPost2010PropOp34
 70
     1
102
RTVSPost2010Prop35
280
     0
102
RTVSPost2010PropOp35
 70
     1
102
RTVSPost2010Prop36
280
     0
102
RTVSPost2010PropOp36
 70
     1
102
RTVSPost2010Prop37
 90
       50
102
RTVSPost2010PropOp37
 70
     1
102
RTVSPost2010Prop38
140
0.0
102
RTVSPost2010PropOp38
 70
     1
102
RTVSPost2010Prop39
140
1.0
102
RTVSPost2010PropOp39
 70
     1
102
RTVSPost2010Prop40
 90
        0
102
RTVSPost2010PropOp40
 70
     1
102
RTVSPost2010Prop41ColorIndex
 90
       18
102
RTVSPost2010Prop41ColorRGB
 90
        0
102
RTVSPost2010PropOp41
 70
     1
102
RTVSPost2010Prop42
 90
       50
102
RTVSPost2010PropOp42
 70
     1
102
RTVSPost2010Prop43
 90
        3
102
RTVSPost2010PropOp43
 70
     1
102
RTVSPost2010Prop44ColorIndex
 90
        5
102
RTVSPost2010Prop44ColorRGB
 90
      255
102
RTVSPost2010PropOp44
 70
     1
102
RTVSPost2010Prop45
280
     0
102
RTVSPost2010PropOp45
 70
     1
102
RTVSPost2010Prop46
 90
       50
102
RTVSPost2010PropOp46
 70
     1
102
RTVSPost2010Prop47
 90
       50
102
RTVSPost2010PropOp47
 70
     1
102
RTVSPost2010Prop48
 90
       50
102
RTVSPost2010PropOp48
 70
     1
102
RTVSPost2010Prop49
280
     0
102
RTVSPost2010PropOp49
 70
     1
102
RTVSPost2010Prop50
 90
       50
102
RTVSPost2010PropOp50
 70
     1
102
RTVSPost2010Prop51ColorIndex
 90
      256
102
RTVSPost2010Prop51ColorRGB
 90
-16777216
102
RTVSPost2010PropOp51
 70
     0
102
RTVSPost2010Prop52
140
1.0
102
RTVSPost2010PropOp52
 70
     0
102
RTVSPost2010Prop53
 90
        2
102
RTVSPost2010PropOp53
 70
     1
102
RTVSPost2010Prop54
  1
strokes_ogs.tif
102
RTVSPost2010PropOp54
 70
     1
102
RTVSPost2010Prop55
280
     0
102
RTVSPost2010PropOp55
 70
     1
102
RTVSPost2010Prop56
140
1.0
102
RTVSPost2010PropOp56
 70
     1
102
RTVSPost2010Prop57
140
1.0
102
RTVSPost2010PropOp57
 70
     1
102
RTVSPropertyOp0
 70
     1
102
RTVSPropertyOp1
 70
     1
102
RTVSPropertyOp2
 70
     1
102
RTVSPropertyOp3
 70
     1
102
RTVSPropertyOp4
 70
     1
102
RTVSPropertyOp5
 70
     1
102
RTVSPropertyOp6
 70
     1
102
RTVSPropertyOp7
 70
     1
102
RTVSPropertyOp8
 70
     1
102
RTVSPropertyOp9
 70
     1
102
RTVSPropertyOp10
 70
     1
102
RTVSPropertyOp11
 70
     1
102
RTVSPropertyOp12
 70
     1
102
RTVSPropertyOp13
 70
     1
102
RTVSPropertyOp14
 70
     1
102
RTVSPropertyOp15
 70
     1
102
RTVSPropertyOp16
 70
     1
102
RTVSPropertyOp17
 70
     1
102
RTVSPropertyOp18
 70
     1
102
RTVSPropertyOp19
 70
     1
102
RTVSPropertyOp20
 70
     1
102
RTVSPropertyOp21
 70
     1
102
RTVSPropertyOp22
 70
     1
102
RTVSPropertyOp23
 70
     1
102
RTVSPropertyOp24
 70
     1
102
RTVSPropertyOp25
 70
     1
102
RTVSPropertyOp26
 70
     1
102
RTVSPropertyOp27
 70
     1
102
RTVSPropertyOp28
 70
     1
102
RTVSPropertyOp29
 70
     1
102
RTVSPropertyOp30
 70
     1
102
RTVSPropertyOp31
 70
     1
102
RTVSPropertyOp32
 70
     1
102
RTVSPropertyOp33
 70
     1
102
RTVSPropertyOp34
 70
     1
102
RTVSPropertyOp35
 70
     1
102
RTVSPropertyOp36
 70
     1
102
RTVSPropertyOp37
 70
     1
102
RTVSPropertyOp38
 70
     1
102
RTVSPropertyOp39
 70
     1
102
RTVSPropertyOp40
 70
     1
102
RTVSPropertyOp41
 70
     1
102
RTVSPropertyOp42
 70
     1
102
RTVSPropertyOp43
 70
     1
102
RTVSPropertyOp44
 70
     1
102
RTVSPropertyOp45
 70
     1
102
RTVSPropertyOp46
 70
     1
102
RTVSPropertyOp47
 70
     1
102
RTVSPropertyOp48
 70
     1
102
RTVSPropertyOp49
 70
     1
102
RTVSPropertyOp50
 70
     1
102
RTVSPropertyOp51
 70
     0
102
RTVSPropertyOp52
 70
     0
102
RTVSPropertyOp53
 70
     1
102
RTVSPropertyOp54
 70
     1
102
RTVSPropertyOp55
 70
     1
102
RTVSPropertyOp56
 70
     1
102
RTVSPropertyOp57
 70
     1
102
RTVSPropertyOp58
 70
     1
102
RTVSPropertyOp59
 70
     1
102
RTVSPropertyOp60
 70
     1
102
RTVSPropertyOp61
 70
     1
102
RTVSPropertyOp62
 70
     1
  0
XRECORD
  5
3A5
102
{ACAD_REACTORS
330
3A4
102
}
330
3A4
100
AcDbXrecord
280
     1
102
RTVSPost2010Prop28
280
     0
102
RTVSPost2010PropOp28
 70
     0
102
RTVSPost2010Prop29
280
     1
102
RTVSPost2010PropOp29
 70
     0
102
RTVSPost2010Prop30
280
     1
102
RTVSPost2010PropOp30
 70
     0
102
RTVSPost2010Prop31
280
     0
102
RTVSPost2010PropOp31
 70
     0
102
RTVSPost2010Prop32
280
     0
102
RTVSPost2010PropOp32
 70
     0
102
RTVSPost2010Prop33
280
     0
102
RTVSPost2010PropOp33
 70
     0
102
RTVSPost2010Prop34
280
     0
102
RTVSPost2010PropOp34
 70
     0
102
RTVSPost2010Prop35
280
     0
102
RTVSPost2010PropOp35
 70
     0
102
RTVSPost2010Prop36
280
     0
102
RTVSPost2010PropOp36
 70
     0
102
RTVSPost2010Prop37
 90
       50
102
RTVSPost2010PropOp37
 70
     0
102
RTVSPost2010Prop38
140
0.0
102
RTVSPost2010PropOp38
 70
     0
102
RTVSPost2010Prop39
140
1.0
102
RTVSPost2010PropOp39
 70
     0
102
RTVSPost2010Prop40
 90
        0
102
RTVSPost2010PropOp40
 70
     0
102
RTVSPost2010Prop41ColorIndex
 90
       18
102
RTVSPost2010Prop41ColorRGB
 90
        0
102
RTVSPost2010PropOp41
 70
     0
102
RTVSPost2010Prop42
 90
       50
102
RTVSPost2010PropOp42
 70
     0
102
RTVSPost2010Prop43
 90
        3
102
RTVSPost2010PropOp43
 70
     0
102
RTVSPost2010Prop44ColorIndex
 90
        5
102
RTVSPost2010Prop44ColorRGB
 90
      255
102
RTVSPost2010PropOp44
 70
     0
102
RTVSPost2010Prop45
280
     0
102
RTVSPost2010PropOp45
 70
     0
102
RTVSPost2010Prop46
 90
       50
102
RTVSPost2010PropOp46
 70
     0
102
RTVSPost2010Prop47
 90
       50
102
RTVSPost2010PropOp47
 70
     0
102
RTVSPost2010Prop48
 90
       50
102
RTVSPost2010PropOp48
 70
     0
102
RTVSPost2010Prop49
280
     0
102
RTVSPost2010PropOp49
 70
     0
102
RTVSPost2010Prop50
 90
       50
102
RTVSPost2010PropOp50
 70
     0
102
RTVSPost2010Prop51ColorIndex
 90
      256
102
RTVSPost2010Prop51ColorRGB
 90
-16777216
102
RTVSPost2010PropOp51
 70
     0
102
RTVSPost2010Prop52
140
1.0
102
RTVSPost2010PropOp52
 70
     0
102
RTVSPost2010Prop53
 90
        2
102
RTVSPost2010PropOp53
 70
     0
102
RTVSPost2010Prop54
  1
strokes_ogs.tif
102
RTVSPost2010PropOp54
 70
     0
102
RTVSPost2010Prop55
280
     0
102
RTVSPost2010PropOp55
 70
     0
102
RTVSPost2010Prop56
140
1.0
102
RTVSPost2010PropOp56
 70
     0
102
RTVSPost2010Prop57
140
1.0
102
RTVSPost2010PropOp57
 70
     0
102
RTVSPropertyOp0
 70
     0
102
RTVSPropertyOp1
 70
     0
102
RTVSPropertyOp2
 70
     0
102
RTVSPropertyOp3
 70
     0
102
RTVSPropertyOp4
 70
     0
102
RTVSPropertyOp5
 70
     0
102
RTVSPropertyOp6
 70
     0
102
RTVSPropertyOp7
 70
     0
102
RTVSPropertyOp8
 70
     0
102
RTVSPropertyOp9
 70
     0
102
RTVSPropertyOp10
 70
     0
102
RTVSPropertyOp11
 70
     0
102
RTVSPropertyOp12
 70
     0
102
RTVSPropertyOp13
 70
     0
102
RTVSPropertyOp14
 70
     2
102
RTVSPropertyOp15
 70
     0
102
RTVSPropertyOp16
 70
     0
102
RTVSPropertyOp17
 70
     0
102
RTVSPropertyOp18
 70
     0
102
RTVSPropertyOp19
 70
     0
102
RTVSPropertyOp20
 70
     0
102
RTVSPropertyOp21
 70
     0
102
RTVSPropertyOp22
 70
     0
102
RTVSPropertyOp23
 70
     0
102
RTVSPropertyOp24
 70
     0
102
RTVSPropertyOp25
 70
     0
102
RTVSPropertyOp26
 70
     0
102
RTVSPropertyOp27
 70
     0
102
RTVSPropertyOp28
 70
     0
102
RTVSPropertyOp29
 70
     0
102
RTVSPropertyOp30
 70
     0
102
RTVSPropertyOp31
 70
     0
102
RTVSPropertyOp32
 70
     0
102
RTVSPropertyOp33
 70
     0
102
RTVSPropertyOp34
 70
     0
102
RTVSPropertyOp35
 70
     0
102
RTVSPropertyOp36
 70
     0
102
RTVSPropertyOp37
 70
     0
102
RTVSPropertyOp38
 70
     0
102
RTVSPropertyOp39
 70
     0
102
RTVSPropertyOp40
 70
     0
102
RTVSPropertyOp41
 70
     0
102
RTVSPropertyOp42
 70
     0
102
RTVSPropertyOp43
 70
     0
102
RTVSPropertyOp44
 70
     0
102
RTVSPropertyOp45
 70
     0
102
RTVSPropertyOp46
 70
     0
102
RTVSPropertyOp47
 70
     0
102
RTVSPropertyOp48
 70
     0
102
RTVSPropertyOp49
 70
     0
102
RTVSPropertyOp50
 70
     0
102
RTVSPropertyOp51
 70
     0
102
RTVSPropertyOp52
 70
     0
102
RTVSPropertyOp53
 70
     0
102
RTVSPropertyOp54
 70
     0
102
RTVSPropertyOp55
 70
     0
102
RTVSPropertyOp56
 70
     0
102
RTVSPropertyOp57
 70
     0
102
RTVSPropertyOp58
 70
     1
102
RTVSPropertyOp59
 70
     1
102
RTVSPropertyOp60
 70
     1
102
RTVSPropertyOp61
 70
     1
102
RTVSPropertyOp62
 70
     1
  0
XRECORD
  5
39D
102
{ACAD_REACTORS
330
39C
102
}
330
39C
100
AcDbXrecord
280
     1
102
RTVSPost2010Prop28
280
     0
102
RTVSPost2010PropOp28
 70
     1
102
RTVSPost2010Prop29
280
     1
102
RTVSPost2010PropOp29
 70
     1
102
RTVSPost2010Prop30
280
     1
102
RTVSPost2010PropOp30
 70
     1
102
RTVSPost2010Prop31
280
     0
102
RTVSPost2010PropOp31
 70
     1
102
RTVSPost2010Prop32
280
     0
102
RTVSPost2010PropOp32
 70
     1
102
RTVSPost2010Prop33
280
     0
102
RTVSPost2010PropOp33
 70
     1
102
RTVSPost2010Prop34
280
     0
102
RTVSPost2010PropOp34
 70
     1
102
RTVSPost2010Prop35
280
     0
102
RTVSPost2010PropOp35
 70
     1
102
RTVSPost2010Prop36
280
     0
102
RTVSPost2010PropOp36
 70
     1
102
RTVSPost2010Prop37
 90
       50
102
RTVSPost2010PropOp37
 70
     1
102
RTVSPost2010Prop38
140
0.0
102
RTVSPost2010PropOp38
 70
     1
102
RTVSPost2010Prop39
140
1.0
102
RTVSPost2010PropOp39
 70
     1
102
RTVSPost2010Prop40
 90
        0
102
RTVSPost2010PropOp40
 70
     1
102
RTVSPost2010Prop41ColorIndex
 90
       18
102
RTVSPost2010Prop41ColorRGB
 90
        0
102
RTVSPost2010PropOp41
 70
     1
102
RTVSPost2010Prop42
 90
       50
102
RTVSPost2010PropOp42
 70
     1
102
RTVSPost2010Prop43
 90
        3
102
RTVSPost2010PropOp43
 70
     1
102
RTVSPost2010Prop44ColorIndex
 90
        5
102
RTVSPost2010Prop44ColorRGB
 90
      255
102
RTVSPost2010PropOp44
 70
     1
102
RTVSPost2010Prop45
280
     0
102
RTVSPost2010PropOp45
 70
     1
102
RTVSPost2010Prop46
 90
       50
102
RTVSPost2010PropOp46
 70
     1
102
RTVSPost2010Prop47
 90
       50
102
RTVSPost2010PropOp47
 70
     1
102
RTVSPost2010Prop48
 90
       50
102
RTVSPost2010PropOp48
 70
     1
102
RTVSPost2010Prop49
280
     0
102
RTVSPost2010PropOp49
 70
     1
102
RTVSPost2010Prop50
 90
       50
102
RTVSPost2010PropOp50
 70
     1
102
RTVSPost2010Prop51ColorIndex
 90
      256
102
RTVSPost2010Prop51ColorRGB
 90
-16777216
102
RTVSPost2010PropOp51
 70
     0
102
RTVSPost2010Prop52
140
1.0
102
RTVSPost2010PropOp52
 70
     0
102
RTVSPost2010Prop53
 90
        2
102
RTVSPost2010PropOp53
 70
     1
102
RTVSPost2010Prop54
  1
strokes_ogs.tif
102
RTVSPost2010PropOp54
 70
     1
102
RTVSPost2010Prop55
280
     0
102
RTVSPost2010PropOp55
 70
     1
102
RTVSPost2010Prop56
140
1.0
102
RTVSPost2010PropOp56
 70
     1
102
RTVSPost2010Prop57
140
1.0
102
RTVSPost2010PropOp57
 70
     1
102
RTVSPropertyOp0
 70
     1
102
RTVSPropertyOp1
 70
     1
102
RTVSPropertyOp2
 70
     1
102
RTVSPropertyOp3
 70
     1
102
RTVSPropertyOp4
 70
     1
102
RTVSPropertyOp5
 70
     1
102
RTVSPropertyOp6
 70
     1
102
RTVSPropertyOp7
 70
     1
102
RTVSPropertyOp8
 70
     1
102
RTVSPropertyOp9
 70
     1
102
RTVSPropertyOp10
 70
     1
102
RTVSPropertyOp11
 70
     1
102
RTVSPropertyOp12
 70
     1
102
RTVSPropertyOp13
 70
     1
102
RTVSPropertyOp14
 70
     1
102
RTVSPropertyOp15
 70
     1
102
RTVSPropertyOp16
 70
     1
102
RTVSPropertyOp17
 70
     1
102
RTVSPropertyOp18
 70
     1
102
RTVSPropertyOp19
 70
     1
102
RTVSPropertyOp20
 70
     1
102
RTVSPropertyOp21
 70
     1
102
RTVSPropertyOp22
 70
     1
102
RTVSPropertyOp23
 70
     1
102
RTVSPropertyOp24
 70
     1
102
RTVSPropertyOp25
 70
     1
102
RTVSPropertyOp26
 70
     1
102
RTVSPropertyOp27
 70
     1
102
RTVSPropertyOp28
 70
     1
102
RTVSPropertyOp29
 70
     1
102
RTVSPropertyOp30
 70
     1
102
RTVSPropertyOp31
 70
     1
102
RTVSPropertyOp32
 70
     1
102
RTVSPropertyOp33
 70
     1
102
RTVSPropertyOp34
 70
     1
102
RTVSPropertyOp35
 70
     1
102
RTVSPropertyOp36
 70
     1
102
RTVSPropertyOp37
 70
     1
102
RTVSPropertyOp38
 70
     1
102
RTVSPropertyOp39
 70
     1
102
RTVSPropertyOp40
 70
     1
102
RTVSPropertyOp41
 70
     1
102
RTVSPropertyOp42
 70
     1
102
RTVSPropertyOp43
 70
     1
102
RTVSPropertyOp44
 70
     1
102
RTVSPropertyOp45
 70
     1
102
RTVSPropertyOp46
 70
     1
102
RTVSPropertyOp47
 70
     1
102
RTVSPropertyOp48
 70
     1
102
RTVSPropertyOp49
 70
     1
102
RTVSPropertyOp50
 70
     1
102
RTVSPropertyOp51
 70
     0
102
RTVSPropertyOp52
 70
     0
102
RTVSPropertyOp53
 70
     1
102
RTVSPropertyOp54
 70
     1
102
RTVSPropertyOp55
 70
     1
102
RTVSPropertyOp56
 70
     1
102
RTVSPropertyOp57
 70
     1
102
RTVSPropertyOp58
 70
     1
102
RTVSPropertyOp59
 70
     1
102
RTVSPropertyOp60
 70
     1
102
RTVSPropertyOp61
 70
     1
102
RTVSPropertyOp62
 70
     1
  0
XRECORD
  5
381
102
{ACAD_REACTORS
330
380
102
}
330
380
100
AcDbXrecord
280
     1
102
RTVSPost2010Prop28
280
     0
102
RTVSPost2010PropOp28
 70
     1
102
RTVSPost2010Prop29
280
     1
102
RTVSPost2010PropOp29
 70
     1
102
RTVSPost2010Prop30
280
     1
102
RTVSPost2010PropOp30
 70
     1
102
RTVSPost2010Prop31
280
     0
102
RTVSPost2010PropOp31
 70
     1
102
RTVSPost2010Prop32
280
     0
102
RTVSPost2010PropOp32
 70
     1
102
RTVSPost2010Prop33
280
     0
102
RTVSPost2010PropOp33
 70
     1
102
RTVSPost2010Prop34
280
     0
102
RTVSPost2010PropOp34
 70
     1
102
RTVSPost2010Prop35
280
     0
102
RTVSPost2010PropOp35
 70
     1
102
RTVSPost2010Prop36
280
     0
102
RTVSPost2010PropOp36
 70
     1
102
RTVSPost2010Prop37
 90
       50
102
RTVSPost2010PropOp37
 70
     1
102
RTVSPost2010Prop38
140
0.0
102
RTVSPost2010PropOp38
 70
     1
102
RTVSPost2010Prop39
140
1.0
102
RTVSPost2010PropOp39
 70
     1
102
RTVSPost2010Prop40
 90
        0
102
RTVSPost2010PropOp40
 70
     1
102
RTVSPost2010Prop41ColorIndex
 90
       18
102
RTVSPost2010Prop41ColorRGB
 90
        0
102
RTVSPost2010PropOp41
 70
     1
102
RTVSPost2010Prop42
 90
       50
102
RTVSPost2010PropOp42
 70
     1
102
RTVSPost2010Prop43
 90
        3
102
RTVSPost2010PropOp43
 70
     1
102
RTVSPost2010Prop44ColorIndex
 90
        5
102
RTVSPost2010Prop44ColorRGB
 90
      255
102
RTVSPost2010PropOp44
 70
     1
102
RTVSPost2010Prop45
280
     0
102
RTVSPost2010PropOp45
 70
     1
102
RTVSPost2010Prop46
 90
       50
102
RTVSPost2010PropOp46
 70
     1
102
RTVSPost2010Prop47
 90
       50
102
RTVSPost2010PropOp47
 70
     1
102
RTVSPost2010Prop48
 90
       50
102
RTVSPost2010PropOp48
 70
     1
102
RTVSPost2010Prop49
280
     0
102
RTVSPost2010PropOp49
 70
     1
102
RTVSPost2010Prop50
 90
       50
102
RTVSPost2010PropOp50
 70
     1
102
RTVSPost2010Prop51ColorIndex
 90
      256
102
RTVSPost2010Prop51ColorRGB
 90
-16777216
102
RTVSPost2010PropOp51
 70
     0
102
RTVSPost2010Prop52
140
1.0
102
RTVSPost2010PropOp52
 70
     0
102
RTVSPost2010Prop53
 90
        2
102
RTVSPost2010PropOp53
 70
     1
102
RTVSPost2010Prop54
  1
strokes_ogs.tif
102
RTVSPost2010PropOp54
 70
     1
102
RTVSPost2010Prop55
280
     0
102
RTVSPost2010PropOp55
 70
     1
102
RTVSPost2010Prop56
140
1.0
102
RTVSPost2010PropOp56
 70
     1
102
RTVSPost2010Prop57
140
1.0
102
RTVSPost2010PropOp57
 70
     1
102
RTVSPropertyOp0
 70
     1
102
RTVSPropertyOp1
 70
     1
102
RTVSPropertyOp2
 70
     1
102
RTVSPropertyOp3
 70
     1
102
RTVSPropertyOp4
 70
     1
102
RTVSPropertyOp5
 70
     1
102
RTVSPropertyOp6
 70
     1
102
RTVSPropertyOp7
 70
     1
102
RTVSPropertyOp8
 70
     1
102
RTVSPropertyOp9
 70
     1
102
RTVSPropertyOp10
 70
     1
102
RTVSPropertyOp11
 70
     1
102
RTVSPropertyOp12
 70
     1
102
RTVSPropertyOp13
 70
     1
102
RTVSPropertyOp14
 70
     1
102
RTVSPropertyOp15
 70
     1
102
RTVSPropertyOp16
 70
     1
102
RTVSPropertyOp17
 70
     1
102
RTVSPropertyOp18
 70
     1
102
RTVSPropertyOp19
 70
     1
102
RTVSPropertyOp20
 70
     1
102
RTVSPropertyOp21
 70
     1
102
RTVSPropertyOp22
 70
     1
102
RTVSPropertyOp23
 70
     1
102
RTVSPropertyOp24
 70
     1
102
RTVSPropertyOp25
 70
     1
102
RTVSPropertyOp26
 70
     1
102
RTVSPropertyOp27
 70
     1
102
RTVSPropertyOp28
 70
     1
102
RTVSPropertyOp29
 70
     1
102
RTVSPropertyOp30
 70
     1
102
RTVSPropertyOp31
 70
     1
102
RTVSPropertyOp32
 70
     1
102
RTVSPropertyOp33
 70
     1
102
RTVSPropertyOp34
 70
     1
102
RTVSPropertyOp35
 70
     1
102
RTVSPropertyOp36
 70
     1
102
RTVSPropertyOp37
 70
     1
102
RTVSPropertyOp38
 70
     1
102
RTVSPropertyOp39
 70
     1
102
RTVSPropertyOp40
 70
     1
102
RTVSPropertyOp41
 70
     1
102
RTVSPropertyOp42
 70
     1
102
RTVSPropertyOp43
 70
     1
102
RTVSPropertyOp44
 70
     1
102
RTVSPropertyOp45
 70
     1
102
RTVSPropertyOp46
 70
     1
102
RTVSPropertyOp47
 70
     1
102
RTVSPropertyOp48
 70
     1
102
RTVSPropertyOp49
 70
     1
102
RTVSPropertyOp50
 70
     1
102
RTVSPropertyOp51
 70
     0
102
RTVSPropertyOp52
 70
     0
102
RTVSPropertyOp53
 70
     1
102
RTVSPropertyOp54
 70
     1
102
RTVSPropertyOp55
 70
     1
102
RTVSPropertyOp56
 70
     1
102
RTVSPropertyOp57
 70
     1
102
RTVSPropertyOp58
 70
     1
102
RTVSPropertyOp59
 70
     1
102
RTVSPropertyOp60
 70
     1
102
RTVSPropertyOp61
 70
     1
102
RTVSPropertyOp62
 70
     1
  0
XRECORD
  5
383
102
{ACAD_REACTORS
330
382
102
}
330
382
100
AcDbXrecord
280
     1
102
RTVSPost2010Prop28
280
     0
102
RTVSPost2010PropOp28
 70
     1
102
RTVSPost2010Prop29
280
     1
102
RTVSPost2010PropOp29
 70
     1
102
RTVSPost2010Prop30
280
     1
102
RTVSPost2010PropOp30
 70
     1
102
RTVSPost2010Prop31
280
     0
102
RTVSPost2010PropOp31
 70
     1
102
RTVSPost2010Prop32
280
     0
102
RTVSPost2010PropOp32
 70
     1
102
RTVSPost2010Prop33
280
     0
102
RTVSPost2010PropOp33
 70
     1
102
RTVSPost2010Prop34
280
     0
102
RTVSPost2010PropOp34
 70
     1
102
RTVSPost2010Prop35
280
     0
102
RTVSPost2010PropOp35
 70
     1
102
RTVSPost2010Prop36
280
     0
102
RTVSPost2010PropOp36
 70
     1
102
RTVSPost2010Prop37
 90
       50
102
RTVSPost2010PropOp37
 70
     1
102
RTVSPost2010Prop38
140
0.0
102
RTVSPost2010PropOp38
 70
     1
102
RTVSPost2010Prop39
140
1.0
102
RTVSPost2010PropOp39
 70
     1
102
RTVSPost2010Prop40
 90
        0
102
RTVSPost2010PropOp40
 70
     1
102
RTVSPost2010Prop41ColorIndex
 90
       18
102
RTVSPost2010Prop41ColorRGB
 90
        0
102
RTVSPost2010PropOp41
 70
     1
102
RTVSPost2010Prop42
 90
       50
102
RTVSPost2010PropOp42
 70
     1
102
RTVSPost2010Prop43
 90
        3
102
RTVSPost2010PropOp43
 70
     1
102
RTVSPost2010Prop44ColorIndex
 90
        5
102
RTVSPost2010Prop44ColorRGB
 90
      255
102
RTVSPost2010PropOp44
 70
     1
102
RTVSPost2010Prop45
280
     0
102
RTVSPost2010PropOp45
 70
     1
102
RTVSPost2010Prop46
 90
       50
102
RTVSPost2010PropOp46
 70
     1
102
RTVSPost2010Prop47
 90
       50
102
RTVSPost2010PropOp47
 70
     1
102
RTVSPost2010Prop48
 90
       50
102
RTVSPost2010PropOp48
 70
     1
102
RTVSPost2010Prop49
280
     0
102
RTVSPost2010PropOp49
 70
     1
102
RTVSPost2010Prop50
 90
       50
102
RTVSPost2010PropOp50
 70
     1
102
RTVSPost2010Prop51ColorIndex
 90
      256
102
RTVSPost2010Prop51ColorRGB
 90
-16777216
102
RTVSPost2010PropOp51
 70
     0
102
RTVSPost2010Prop52
140
1.0
102
RTVSPost2010PropOp52
 70
     0
102
RTVSPost2010Prop53
 90
        2
102
RTVSPost2010PropOp53
 70
     1
102
RTVSPost2010Prop54
  1
strokes_ogs.tif
102
RTVSPost2010PropOp54
 70
     1
102
RTVSPost2010Prop55
280
     0
102
RTVSPost2010PropOp55
 70
     1
102
RTVSPost2010Prop56
140
1.0
102
RTVSPost2010PropOp56
 70
     1
102
RTVSPost2010Prop57
140
1.0
102
RTVSPost2010PropOp57
 70
     1
102
RTVSPropertyOp0
 70
     1
102
RTVSPropertyOp1
 70
     1
102
RTVSPropertyOp2
 70
     1
102
RTVSPropertyOp3
 70
     1
102
RTVSPropertyOp4
 70
     1
102
RTVSPropertyOp5
 70
     1
102
RTVSPropertyOp6
 70
     1
102
RTVSPropertyOp7
 70
     1
102
RTVSPropertyOp8
 70
     1
102
RTVSPropertyOp9
 70
     1
102
RTVSPropertyOp10
 70
     1
102
RTVSPropertyOp11
 70
     1
102
RTVSPropertyOp12
 70
     1
102
RTVSPropertyOp13
 70
     1
102
RTVSPropertyOp14
 70
     1
102
RTVSPropertyOp15
 70
     1
102
RTVSPropertyOp16
 70
     1
102
RTVSPropertyOp17
 70
     1
102
RTVSPropertyOp18
 70
     1
102
RTVSPropertyOp19
 70
     1
102
RTVSPropertyOp20
 70
     1
102
RTVSPropertyOp21
 70
     1
102
RTVSPropertyOp22
 70
     1
102
RTVSPropertyOp23
 70
     1
102
RTVSPropertyOp24
 70
     1
102
RTVSPropertyOp25
 70
     1
102
RTVSPropertyOp26
 70
     1
102
RTVSPropertyOp27
 70
     1
102
RTVSPropertyOp28
 70
     1
102
RTVSPropertyOp29
 70
     1
102
RTVSPropertyOp30
 70
     1
102
RTVSPropertyOp31
 70
     1
102
RTVSPropertyOp32
 70
     1
102
RTVSPropertyOp33
 70
     1
102
RTVSPropertyOp34
 70
     1
102
RTVSPropertyOp35
 70
     1
102
RTVSPropertyOp36
 70
     1
102
RTVSPropertyOp37
 70
     1
102
RTVSPropertyOp38
 70
     1
102
RTVSPropertyOp39
 70
     1
102
RTVSPropertyOp40
 70
     1
102
RTVSPropertyOp41
 70
     1
102
RTVSPropertyOp42
 70
     1
102
RTVSPropertyOp43
 70
     1
102
RTVSPropertyOp44
 70
     1
102
RTVSPropertyOp45
 70
     1
102
RTVSPropertyOp46
 70
     1
102
RTVSPropertyOp47
 70
     1
102
RTVSPropertyOp48
 70
     1
102
RTVSPropertyOp49
 70
     1
102
RTVSPropertyOp50
 70
     1
102
RTVSPropertyOp51
 70
     0
102
RTVSPropertyOp52
 70
     0
102
RTVSPropertyOp53
 70
     1
102
RTVSPropertyOp54
 70
     1
102
RTVSPropertyOp55
 70
     1
102
RTVSPropertyOp56
 70
     1
102
RTVSPropertyOp57
 70
     1
102
RTVSPropertyOp58
 70
     1
102
RTVSPropertyOp59
 70
     1
102
RTVSPropertyOp60
 70
     1
102
RTVSPropertyOp61
 70
     1
102
RTVSPropertyOp62
 70
     1
  0
XRECORD
  5
385
102
{ACAD_REACTORS
330
384
102
}
330
384
100
AcDbXrecord
280
     1
102
RTVSPost2010Prop28
280
     0
102
RTVSPost2010PropOp28
 70
     1
102
RTVSPost2010Prop29
280
     1
102
RTVSPost2010PropOp29
 70
     1
102
RTVSPost2010Prop30
280
     1
102
RTVSPost2010PropOp30
 70
     1
102
RTVSPost2010Prop31
280
     0
102
RTVSPost2010PropOp31
 70
     1
102
RTVSPost2010Prop32
280
     0
102
RTVSPost2010PropOp32
 70
     1
102
RTVSPost2010Prop33
280
     0
102
RTVSPost2010PropOp33
 70
     1
102
RTVSPost2010Prop34
280
     0
102
RTVSPost2010PropOp34
 70
     1
102
RTVSPost2010Prop35
280
     0
102
RTVSPost2010PropOp35
 70
     1
102
RTVSPost2010Prop36
280
     0
102
RTVSPost2010PropOp36
 70
     1
102
RTVSPost2010Prop37
 90
       50
102
RTVSPost2010PropOp37
 70
     1
102
RTVSPost2010Prop38
140
0.0
102
RTVSPost2010PropOp38
 70
     1
102
RTVSPost2010Prop39
140
1.0
102
RTVSPost2010PropOp39
 70
     1
102
RTVSPost2010Prop40
 90
        0
102
RTVSPost2010PropOp40
 70
     1
102
RTVSPost2010Prop41ColorIndex
 90
       18
102
RTVSPost2010Prop41ColorRGB
 90
        0
102
RTVSPost2010PropOp41
 70
     1
102
RTVSPost2010Prop42
 90
       50
102
RTVSPost2010PropOp42
 70
     1
102
RTVSPost2010Prop43
 90
        3
102
RTVSPost2010PropOp43
 70
     1
102
RTVSPost2010Prop44ColorIndex
 90
        5
102
RTVSPost2010Prop44ColorRGB
 90
      255
102
RTVSPost2010PropOp44
 70
     1
102
RTVSPost2010Prop45
280
     0
102
RTVSPost2010PropOp45
 70
     1
102
RTVSPost2010Prop46
 90
       50
102
RTVSPost2010PropOp46
 70
     1
102
RTVSPost2010Prop47
 90
       50
102
RTVSPost2010PropOp47
 70
     1
102
RTVSPost2010Prop48
 90
       50
102
RTVSPost2010PropOp48
 70
     1
102
RTVSPost2010Prop49
280
     0
102
RTVSPost2010PropOp49
 70
     1
102
RTVSPost2010Prop50
 90
       50
102
RTVSPost2010PropOp50
 70
     1
102
RTVSPost2010Prop51ColorIndex
 90
      256
102
RTVSPost2010Prop51ColorRGB
 90
-16777216
102
RTVSPost2010PropOp51
 70
     0
102
RTVSPost2010Prop52
140
1.0
102
RTVSPost2010PropOp52
 70
     0
102
RTVSPost2010Prop53
 90
        2
102
RTVSPost2010PropOp53
 70
     1
102
RTVSPost2010Prop54
  1
strokes_ogs.tif
102
RTVSPost2010PropOp54
 70
     1
102
RTVSPost2010Prop55
280
     0
102
RTVSPost2010PropOp55
 70
     1
102
RTVSPost2010Prop56
140
1.0
102
RTVSPost2010PropOp56
 70
     1
102
RTVSPost2010Prop57
140
1.0
102
RTVSPost2010PropOp57
 70
     1
102
RTVSPropertyOp0
 70
     1
102
RTVSPropertyOp1
 70
     1
102
RTVSPropertyOp2
 70
     1
102
RTVSPropertyOp3
 70
     1
102
RTVSPropertyOp4
 70
     1
102
RTVSPropertyOp5
 70
     1
102
RTVSPropertyOp6
 70
     1
102
RTVSPropertyOp7
 70
     1
102
RTVSPropertyOp8
 70
     1
102
RTVSPropertyOp9
 70
     1
102
RTVSPropertyOp10
 70
     1
102
RTVSPropertyOp11
 70
     1
102
RTVSPropertyOp12
 70
     1
102
RTVSPropertyOp13
 70
     1
102
RTVSPropertyOp14
 70
     1
102
RTVSPropertyOp15
 70
     1
102
RTVSPropertyOp16
 70
     1
102
RTVSPropertyOp17
 70
     1
102
RTVSPropertyOp18
 70
     1
102
RTVSPropertyOp19
 70
     1
102
RTVSPropertyOp20
 70
     1
102
RTVSPropertyOp21
 70
     1
102
RTVSPropertyOp22
 70
     1
102
RTVSPropertyOp23
 70
     1
102
RTVSPropertyOp24
 70
     1
102
RTVSPropertyOp25
 70
     1
102
RTVSPropertyOp26
 70
     1
102
RTVSPropertyOp27
 70
     1
102
RTVSPropertyOp28
 70
     1
102
RTVSPropertyOp29
 70
     1
102
RTVSPropertyOp30
 70
     1
102
RTVSPropertyOp31
 70
     1
102
RTVSPropertyOp32
 70
     1
102
RTVSPropertyOp33
 70
     1
102
RTVSPropertyOp34
 70
     1
102
RTVSPropertyOp35
 70
     1
102
RTVSPropertyOp36
 70
     1
102
RTVSPropertyOp37
 70
     1
102
RTVSPropertyOp38
 70
     1
102
RTVSPropertyOp39
 70
     1
102
RTVSPropertyOp40
 70
     1
102
RTVSPropertyOp41
 70
     1
102
RTVSPropertyOp42
 70
     1
102
RTVSPropertyOp43
 70
     1
102
RTVSPropertyOp44
 70
     1
102
RTVSPropertyOp45
 70
     1
102
RTVSPropertyOp46
 70
     1
102
RTVSPropertyOp47
 70
     1
102
RTVSPropertyOp48
 70
     1
102
RTVSPropertyOp49
 70
     1
102
RTVSPropertyOp50
 70
     1
102
RTVSPropertyOp51
 70
     0
102
RTVSPropertyOp52
 70
     0
102
RTVSPropertyOp53
 70
     1
102
RTVSPropertyOp54
 70
     1
102
RTVSPropertyOp55
 70
     1
102
RTVSPropertyOp56
 70
     1
102
RTVSPropertyOp57
 70
     1
102
RTVSPropertyOp58
 70
     1
102
RTVSPropertyOp59
 70
     1
102
RTVSPropertyOp60
 70
     1
102
RTVSPropertyOp61
 70
     1
102
RTVSPropertyOp62
 70
     1
  0
XRECORD
  5
387
102
{ACAD_REACTORS
330
386
102
}
330
386
100
AcDbXrecord
280
     1
102
RTVSPost2010Prop28
280
     0
102
RTVSPost2010PropOp28
 70
     1
102
RTVSPost2010Prop29
280
     1
102
RTVSPost2010PropOp29
 70
     1
102
RTVSPost2010Prop30
280
     1
102
RTVSPost2010PropOp30
 70
     1
102
RTVSPost2010Prop31
280
     0
102
RTVSPost2010PropOp31
 70
     1
102
RTVSPost2010Prop32
280
     0
102
RTVSPost2010PropOp32
 70
     1
102
RTVSPost2010Prop33
280
     0
102
RTVSPost2010PropOp33
 70
     1
102
RTVSPost2010Prop34
280
     0
102
RTVSPost2010PropOp34
 70
     1
102
RTVSPost2010Prop35
280
     0
102
RTVSPost2010PropOp35
 70
     1
102
RTVSPost2010Prop36
280
     0
102
RTVSPost2010PropOp36
 70
     1
102
RTVSPost2010Prop37
 90
       50
102
RTVSPost2010PropOp37
 70
     1
102
RTVSPost2010Prop38
140
0.0
102
RTVSPost2010PropOp38
 70
     1
102
RTVSPost2010Prop39
140
1.0
102
RTVSPost2010PropOp39
 70
     1
102
RTVSPost2010Prop40
 90
        0
102
RTVSPost2010PropOp40
 70
     1
102
RTVSPost2010Prop41ColorIndex
 90
       18
102
RTVSPost2010Prop41ColorRGB
 90
        0
102
RTVSPost2010PropOp41
 70
     1
102
RTVSPost2010Prop42
 90
       50
102
RTVSPost2010PropOp42
 70
     1
102
RTVSPost2010Prop43
 90
        3
102
RTVSPost2010PropOp43
 70
     1
102
RTVSPost2010Prop44ColorIndex
 90
        5
102
RTVSPost2010Prop44ColorRGB
 90
      255
102
RTVSPost2010PropOp44
 70
     1
102
RTVSPost2010Prop45
280
     0
102
RTVSPost2010PropOp45
 70
     1
102
RTVSPost2010Prop46
 90
       50
102
RTVSPost2010PropOp46
 70
     1
102
RTVSPost2010Prop47
 90
       50
102
RTVSPost2010PropOp47
 70
     1
102
RTVSPost2010Prop48
 90
       50
102
RTVSPost2010PropOp48
 70
     1
102
RTVSPost2010Prop49
280
     0
102
RTVSPost2010PropOp49
 70
     1
102
RTVSPost2010Prop50
 90
       50
102
RTVSPost2010PropOp50
 70
     1
102
RTVSPost2010Prop51ColorIndex
 90
      256
102
RTVSPost2010Prop51ColorRGB
 90
-16777216
102
RTVSPost2010PropOp51
 70
     0
102
RTVSPost2010Prop52
140
1.0
102
RTVSPost2010PropOp52
 70
     0
102
RTVSPost2010Prop53
 90
        2
102
RTVSPost2010PropOp53
 70
     1
102
RTVSPost2010Prop54
  1
strokes_ogs.tif
102
RTVSPost2010PropOp54
 70
     1
102
RTVSPost2010Prop55
280
     0
102
RTVSPost2010PropOp55
 70
     1
102
RTVSPost2010Prop56
140
1.0
102
RTVSPost2010PropOp56
 70
     1
102
RTVSPost2010Prop57
140
1.0
102
RTVSPost2010PropOp57
 70
     1
102
RTVSPropertyOp0
 70
     1
102
RTVSPropertyOp1
 70
     1
102
RTVSPropertyOp2
 70
     1
102
RTVSPropertyOp3
 70
     1
102
RTVSPropertyOp4
 70
     1
102
RTVSPropertyOp5
 70
     1
102
RTVSPropertyOp6
 70
     1
102
RTVSPropertyOp7
 70
     1
102
RTVSPropertyOp8
 70
     1
102
RTVSPropertyOp9
 70
     1
102
RTVSPropertyOp10
 70
     1
102
RTVSPropertyOp11
 70
     1
102
RTVSPropertyOp12
 70
     1
102
RTVSPropertyOp13
 70
     1
102
RTVSPropertyOp14
 70
     1
102
RTVSPropertyOp15
 70
     1
102
RTVSPropertyOp16
 70
     1
102
RTVSPropertyOp17
 70
     1
102
RTVSPropertyOp18
 70
     1
102
RTVSPropertyOp19
 70
     1
102
RTVSPropertyOp20
 70
     1
102
RTVSPropertyOp21
 70
     1
102
RTVSPropertyOp22
 70
     1
102
RTVSPropertyOp23
 70
     1
102
RTVSPropertyOp24
 70
     1
102
RTVSPropertyOp25
 70
     1
102
RTVSPropertyOp26
 70
     1
102
RTVSPropertyOp27
 70
     1
102
RTVSPropertyOp28
 70
     1
102
RTVSPropertyOp29
 70
     1
102
RTVSPropertyOp30
 70
     1
102
RTVSPropertyOp31
 70
     1
102
RTVSPropertyOp32
 70
     1
102
RTVSPropertyOp33
 70
     1
102
RTVSPropertyOp34
 70
     1
102
RTVSPropertyOp35
 70
     1
102
RTVSPropertyOp36
 70
     1
102
RTVSPropertyOp37
 70
     1
102
RTVSPropertyOp38
 70
     1
102
RTVSPropertyOp39
 70
     1
102
RTVSPropertyOp40
 70
     1
102
RTVSPropertyOp41
 70
     1
102
RTVSPropertyOp42
 70
     1
102
RTVSPropertyOp43
 70
     1
102
RTVSPropertyOp44
 70
     1
102
RTVSPropertyOp45
 70
     1
102
RTVSPropertyOp46
 70
     1
102
RTVSPropertyOp47
 70
     1
102
RTVSPropertyOp48
 70
     1
102
RTVSPropertyOp49
 70
     1
102
RTVSPropertyOp50
 70
     1
102
RTVSPropertyOp51
 70
     0
102
RTVSPropertyOp52
 70
     0
102
RTVSPropertyOp53
 70
     1
102
RTVSPropertyOp54
 70
     1
102
RTVSPropertyOp55
 70
     1
102
RTVSPropertyOp56
 70
     1
102
RTVSPropertyOp57
 70
     1
102
RTVSPropertyOp58
 70
     1
102
RTVSPropertyOp59
 70
     1
102
RTVSPropertyOp60
 70
     1
102
RTVSPropertyOp61
 70
     1
102
RTVSPropertyOp62
 70
     1
  0
XRECORD
  5
38D
102
{ACAD_REACTORS
330
38C
102
}
330
38C
100
AcDbXrecord
280
     1
102
RTVSPost2010Prop28
280
     0
102
RTVSPost2010PropOp28
 70
     1
102
RTVSPost2010Prop29
280
     1
102
RTVSPost2010PropOp29
 70
     1
102
RTVSPost2010Prop30
280
     1
102
RTVSPost2010PropOp30
 70
     1
102
RTVSPost2010Prop31
280
     0
102
RTVSPost2010PropOp31
 70
     1
102
RTVSPost2010Prop32
280
     0
102
RTVSPost2010PropOp32
 70
     1
102
RTVSPost2010Prop33
280
     0
102
RTVSPost2010PropOp33
 70
     1
102
RTVSPost2010Prop34
280
     0
102
RTVSPost2010PropOp34
 70
     1
102
RTVSPost2010Prop35
280
     0
102
RTVSPost2010PropOp35
 70
     1
102
RTVSPost2010Prop36
280
     0
102
RTVSPost2010PropOp36
 70
     1
102
RTVSPost2010Prop37
 90
       50
102
RTVSPost2010PropOp37
 70
     1
102
RTVSPost2010Prop38
140
0.0
102
RTVSPost2010PropOp38
 70
     1
102
RTVSPost2010Prop39
140
1.0
102
RTVSPost2010PropOp39
 70
     1
102
RTVSPost2010Prop40
 90
        0
102
RTVSPost2010PropOp40
 70
     1
102
RTVSPost2010Prop41ColorIndex
 90
       18
102
RTVSPost2010Prop41ColorRGB
 90
        0
102
RTVSPost2010PropOp41
 70
     1
102
RTVSPost2010Prop42
 90
       50
102
RTVSPost2010PropOp42
 70
     1
102
RTVSPost2010Prop43
 90
        3
102
RTVSPost2010PropOp43
 70
     1
102
RTVSPost2010Prop44ColorIndex
 90
        5
102
RTVSPost2010Prop44ColorRGB
 90
      255
102
RTVSPost2010PropOp44
 70
     1
102
RTVSPost2010Prop45
280
     0
102
RTVSPost2010PropOp45
 70
     1
102
RTVSPost2010Prop46
 90
       50
102
RTVSPost2010PropOp46
 70
     1
102
RTVSPost2010Prop47
 90
       50
102
RTVSPost2010PropOp47
 70
     1
102
RTVSPost2010Prop48
 90
       50
102
RTVSPost2010PropOp48
 70
     1
102
RTVSPost2010Prop49
280
     0
102
RTVSPost2010PropOp49
 70
     1
102
RTVSPost2010Prop50
 90
       50
102
RTVSPost2010PropOp50
 70
     1
102
RTVSPost2010Prop51ColorIndex
 90
      256
102
RTVSPost2010Prop51ColorRGB
 90
-16777216
102
RTVSPost2010PropOp51
 70
     0
102
RTVSPost2010Prop52
140
1.0
102
RTVSPost2010PropOp52
 70
     0
102
RTVSPost2010Prop53
 90
        2
102
RTVSPost2010PropOp53
 70
     1
102
RTVSPost2010Prop54
  1
strokes_ogs.tif
102
RTVSPost2010PropOp54
 70
     1
102
RTVSPost2010Prop55
280
     0
102
RTVSPost2010PropOp55
 70
     1
102
RTVSPost2010Prop56
140
1.0
102
RTVSPost2010PropOp56
 70
     1
102
RTVSPost2010Prop57
140
1.0
102
RTVSPost2010PropOp57
 70
     1
102
RTVSPropertyOp0
 70
     1
102
RTVSPropertyOp1
 70
     1
102
RTVSPropertyOp2
 70
     1
102
RTVSPropertyOp3
 70
     1
102
RTVSPropertyOp4
 70
     1
102
RTVSPropertyOp5
 70
     1
102
RTVSPropertyOp6
 70
     1
102
RTVSPropertyOp7
 70
     1
102
RTVSPropertyOp8
 70
     1
102
RTVSPropertyOp9
 70
     1
102
RTVSPropertyOp10
 70
     1
102
RTVSPropertyOp11
 70
     1
102
RTVSPropertyOp12
 70
     1
102
RTVSPropertyOp13
 70
     1
102
RTVSPropertyOp14
 70
     1
102
RTVSPropertyOp15
 70
     1
102
RTVSPropertyOp16
 70
     1
102
RTVSPropertyOp17
 70
     1
102
RTVSPropertyOp18
 70
     1
102
RTVSPropertyOp19
 70
     1
102
RTVSPropertyOp20
 70
     1
102
RTVSPropertyOp21
 70
     1
102
RTVSPropertyOp22
 70
     1
102
RTVSPropertyOp23
 70
     1
102
RTVSPropertyOp24
 70
     1
102
RTVSPropertyOp25
 70
     1
102
RTVSPropertyOp26
 70
     1
102
RTVSPropertyOp27
 70
     1
102
RTVSPropertyOp28
 70
     1
102
RTVSPropertyOp29
 70
     1
102
RTVSPropertyOp30
 70
     1
102
RTVSPropertyOp31
 70
     1
102
RTVSPropertyOp32
 70
     1
102
RTVSPropertyOp33
 70
     1
102
RTVSPropertyOp34
 70
     1
102
RTVSPropertyOp35
 70
     1
102
RTVSPropertyOp36
 70
     1
102
RTVSPropertyOp37
 70
     1
102
RTVSPropertyOp38
 70
     1
102
RTVSPropertyOp39
 70
     1
102
RTVSPropertyOp40
 70
     1
102
RTVSPropertyOp41
 70
     1
102
RTVSPropertyOp42
 70
     1
102
RTVSPropertyOp43
 70
     1
102
RTVSPropertyOp44
 70
     1
102
RTVSPropertyOp45
 70
     1
102
RTVSPropertyOp46
 70
     1
102
RTVSPropertyOp47
 70
     1
102
RTVSPropertyOp48
 70
     1
102
RTVSPropertyOp49
 70
     1
102
RTVSPropertyOp50
 70
     1
102
RTVSPropertyOp51
 70
     0
102
RTVSPropertyOp52
 70
     0
102
RTVSPropertyOp53
 70
     1
102
RTVSPropertyOp54
 70
     1
102
RTVSPropertyOp55
 70
     1
102
RTVSPropertyOp56
 70
     1
102
RTVSPropertyOp57
 70
     1
102
RTVSPropertyOp58
 70
     1
102
RTVSPropertyOp59
 70
     1
102
RTVSPropertyOp60
 70
     1
102
RTVSPropertyOp61
 70
     1
102
RTVSPropertyOp62
 70
     1
  0
XRECORD
  5
3A1
102
{ACAD_REACTORS
330
3A0
102
}
330
3A0
100
AcDbXrecord
280
     1
102
RTVSPost2010Prop28
280
     0
102
RTVSPost2010PropOp28
 70
     0
102
RTVSPost2010Prop29
280
     1
102
RTVSPost2010PropOp29
 70
     0
102
RTVSPost2010Prop30
280
     1
102
RTVSPost2010PropOp30
 70
     0
102
RTVSPost2010Prop31
280
     0
102
RTVSPost2010PropOp31
 70
     0
102
RTVSPost2010Prop32
280
     0
102
RTVSPost2010PropOp32
 70
     0
102
RTVSPost2010Prop33
280
     0
102
RTVSPost2010PropOp33
 70
     0
102
RTVSPost2010Prop34
280
     0
102
RTVSPost2010PropOp34
 70
     0
102
RTVSPost2010Prop35
280
     0
102
RTVSPost2010PropOp35
 70
     0
102
RTVSPost2010Prop36
280
     0
102
RTVSPost2010PropOp36
 70
     0
102
RTVSPost2010Prop37
 90
       50
102
RTVSPost2010PropOp37
 70
     0
102
RTVSPost2010Prop38
140
0.0
102
RTVSPost2010PropOp38
 70
     0
102
RTVSPost2010Prop39
140
1.0
102
RTVSPost2010PropOp39
 70
     0
102
RTVSPost2010Prop40
 90
        0
102
RTVSPost2010PropOp40
 70
     0
102
RTVSPost2010Prop41ColorIndex
 90
       18
102
RTVSPost2010Prop41ColorRGB
 90
        0
102
RTVSPost2010PropOp41
 70
     0
102
RTVSPost2010Prop42
 90
       50
102
RTVSPost2010PropOp42
 70
     0
102
RTVSPost2010Prop43
 90
        3
102
RTVSPost2010PropOp43
 70
     0
102
RTVSPost2010Prop44ColorIndex
 90
        5
102
RTVSPost2010Prop44ColorRGB
 90
      255
102
RTVSPost2010PropOp44
 70
     0
102
RTVSPost2010Prop45
280
     0
102
RTVSPost2010PropOp45
 70
     0
102
RTVSPost2010Prop46
 90
       50
102
RTVSPost2010PropOp46
 70
     0
102
RTVSPost2010Prop47
 90
       50
102
RTVSPost2010PropOp47
 70
     0
102
RTVSPost2010Prop48
 90
       50
102
RTVSPost2010PropOp48
 70
     0
102
RTVSPost2010Prop49
280
     0
102
RTVSPost2010PropOp49
 70
     0
102
RTVSPost2010Prop50
 90
       50
102
RTVSPost2010PropOp50
 70
     0
102
RTVSPost2010Prop51ColorIndex
 90
      256
102
RTVSPost2010Prop51ColorRGB
 90
-16777216
102
RTVSPost2010PropOp51
 70
     0
102
RTVSPost2010Prop52
140
1.0
102
RTVSPost2010PropOp52
 70
     0
102
RTVSPost2010Prop53
 90
        2
102
RTVSPost2010PropOp53
 70
     0
102
RTVSPost2010Prop54
  1
strokes_ogs.tif
102
RTVSPost2010PropOp54
 70
     0
102
RTVSPost2010Prop55
280
     0
102
RTVSPost2010PropOp55
 70
     0
102
RTVSPost2010Prop56
140
1.0
102
RTVSPost2010PropOp56
 70
     0
102
RTVSPost2010Prop57
140
1.0
102
RTVSPost2010PropOp57
 70
     0
102
RTVSPropertyOp0
 70
     0
102
RTVSPropertyOp1
 70
     0
102
RTVSPropertyOp2
 70
     0
102
RTVSPropertyOp3
 70
     0
102
RTVSPropertyOp4
 70
     0
102
RTVSPropertyOp5
 70
     0
102
RTVSPropertyOp6
 70
     0
102
RTVSPropertyOp7
 70
     0
102
RTVSPropertyOp8
 70
     0
102
RTVSPropertyOp9
 70
     0
102
RTVSPropertyOp10
 70
     0
102
RTVSPropertyOp11
 70
     0
102
RTVSPropertyOp12
 70
     0
102
RTVSPropertyOp13
 70
     0
102
RTVSPropertyOp14
 70
     2
102
RTVSPropertyOp15
 70
     0
102
RTVSPropertyOp16
 70
     0
102
RTVSPropertyOp17
 70
     0
102
RTVSPropertyOp18
 70
     0
102
RTVSPropertyOp19
 70
     0
102
RTVSPropertyOp20
 70
     0
102
RTVSPropertyOp21
 70
     0
102
RTVSPropertyOp22
 70
     0
102
RTVSPropertyOp23
 70
     0
102
RTVSPropertyOp24
 70
     0
102
RTVSPropertyOp25
 70
     0
102
RTVSPropertyOp26
 70
     0
102
RTVSPropertyOp27
 70
     0
102
RTVSPropertyOp28
 70
     0
102
RTVSPropertyOp29
 70
     0
102
RTVSPropertyOp30
 70
     0
102
RTVSPropertyOp31
 70
     0
102
RTVSPropertyOp32
 70
     0
102
RTVSPropertyOp33
 70
     0
102
RTVSPropertyOp34
 70
     0
102
RTVSPropertyOp35
 70
     0
102
RTVSPropertyOp36
 70
     0
102
RTVSPropertyOp37
 70
     0
102
RTVSPropertyOp38
 70
     0
102
RTVSPropertyOp39
 70
     0
102
RTVSPropertyOp40
 70
     0
102
RTVSPropertyOp41
 70
     0
102
RTVSPropertyOp42
 70
     0
102
RTVSPropertyOp43
 70
     0
102
RTVSPropertyOp44
 70
     0
102
RTVSPropertyOp45
 70
     0
102
RTVSPropertyOp46
 70
     0
102
RTVSPropertyOp47
 70
     0
102
RTVSPropertyOp48
 70
     0
102
RTVSPropertyOp49
 70
     0
102
RTVSPropertyOp50
 70
     0
102
RTVSPropertyOp51
 70
     0
102
RTVSPropertyOp52
 70
     0
102
RTVSPropertyOp53
 70
     0
102
RTVSPropertyOp54
 70
     0
102
RTVSPropertyOp55
 70
     0
102
RTVSPropertyOp56
 70
     0
102
RTVSPropertyOp57
 70
     0
102
RTVSPropertyOp58
 70
     1
102
RTVSPropertyOp59
 70
     1
102
RTVSPropertyOp60
 70
     1
102
RTVSPropertyOp61
 70
     1
102
RTVSPropertyOp62
 70
     1
  0
XRECORD
  5
39B
102
{ACAD_REACTORS
330
39A
102
}
330
39A
100
AcDbXrecord
280
     1
102
RTVSPost2010Prop28
280
     0
102
RTVSPost2010PropOp28
 70
     1
102
RTVSPost2010Prop29
280
     1
102
RTVSPost2010PropOp29
 70
     1
102
RTVSPost2010Prop30
280
     1
102
RTVSPost2010PropOp30
 70
     1
102
RTVSPost2010Prop31
280
     0
102
RTVSPost2010PropOp31
 70
     1
102
RTVSPost2010Prop32
280
     0
102
RTVSPost2010PropOp32
 70
     1
102
RTVSPost2010Prop33
280
     0
102
RTVSPost2010PropOp33
 70
     1
102
RTVSPost2010Prop34
280
     0
102
RTVSPost2010PropOp34
 70
     1
102
RTVSPost2010Prop35
280
     0
102
RTVSPost2010PropOp35
 70
     1
102
RTVSPost2010Prop36
280
     0
102
RTVSPost2010PropOp36
 70
     1
102
RTVSPost2010Prop37
 90
       50
102
RTVSPost2010PropOp37
 70
     1
102
RTVSPost2010Prop38
140
0.0
102
RTVSPost2010PropOp38
 70
     1
102
RTVSPost2010Prop39
140
1.0
102
RTVSPost2010PropOp39
 70
     1
102
RTVSPost2010Prop40
 90
        0
102
RTVSPost2010PropOp40
 70
     1
102
RTVSPost2010Prop41ColorIndex
 90
       18
102
RTVSPost2010Prop41ColorRGB
 90
        0
102
RTVSPost2010PropOp41
 70
     1
102
RTVSPost2010Prop42
 90
       50
102
RTVSPost2010PropOp42
 70
     1
102
RTVSPost2010Prop43
 90
        3
102
RTVSPost2010PropOp43
 70
     1
102
RTVSPost2010Prop44ColorIndex
 90
        5
102
RTVSPost2010Prop44ColorRGB
 90
      255
102
RTVSPost2010PropOp44
 70
     1
102
RTVSPost2010Prop45
280
     0
102
RTVSPost2010PropOp45
 70
     1
102
RTVSPost2010Prop46
 90
       50
102
RTVSPost2010PropOp46
 70
     1
102
RTVSPost2010Prop47
 90
       50
102
RTVSPost2010PropOp47
 70
     1
102
RTVSPost2010Prop48
 90
       50
102
RTVSPost2010PropOp48
 70
     1
102
RTVSPost2010Prop49
280
     0
102
RTVSPost2010PropOp49
 70
     1
102
RTVSPost2010Prop50
 90
       50
102
RTVSPost2010PropOp50
 70
     1
102
RTVSPost2010Prop51ColorIndex
 90
      256
102
RTVSPost2010Prop51ColorRGB
 90
-16777216
102
RTVSPost2010PropOp51
 70
     0
102
RTVSPost2010Prop52
140
1.0
102
RTVSPost2010PropOp52
 70
     0
102
RTVSPost2010Prop53
 90
        2
102
RTVSPost2010PropOp53
 70
     1
102
RTVSPost2010Prop54
  1
strokes_ogs.tif
102
RTVSPost2010PropOp54
 70
     1
102
RTVSPost2010Prop55
280
     0
102
RTVSPost2010PropOp55
 70
     1
102
RTVSPost2010Prop56
140
1.0
102
RTVSPost2010PropOp56
 70
     1
102
RTVSPost2010Prop57
140
1.0
102
RTVSPost2010PropOp57
 70
     1
102
RTVSPropertyOp0
 70
     1
102
RTVSPropertyOp1
 70
     1
102
RTVSPropertyOp2
 70
     1
102
RTVSPropertyOp3
 70
     1
102
RTVSPropertyOp4
 70
     1
102
RTVSPropertyOp5
 70
     1
102
RTVSPropertyOp6
 70
     1
102
RTVSPropertyOp7
 70
     1
102
RTVSPropertyOp8
 70
     1
102
RTVSPropertyOp9
 70
     1
102
RTVSPropertyOp10
 70
     1
102
RTVSPropertyOp11
 70
     1
102
RTVSPropertyOp12
 70
     1
102
RTVSPropertyOp13
 70
     1
102
RTVSPropertyOp14
 70
     1
102
RTVSPropertyOp15
 70
     1
102
RTVSPropertyOp16
 70
     1
102
RTVSPropertyOp17
 70
     1
102
RTVSPropertyOp18
 70
     1
102
RTVSPropertyOp19
 70
     1
102
RTVSPropertyOp20
 70
     1
102
RTVSPropertyOp21
 70
     1
102
RTVSPropertyOp22
 70
     1
102
RTVSPropertyOp23
 70
     1
102
RTVSPropertyOp24
 70
     1
102
RTVSPropertyOp25
 70
     1
102
RTVSPropertyOp26
 70
     1
102
RTVSPropertyOp27
 70
     1
102
RTVSPropertyOp28
 70
     1
102
RTVSPropertyOp29
 70
     1
102
RTVSPropertyOp30
 70
     1
102
RTVSPropertyOp31
 70
     1
102
RTVSPropertyOp32
 70
     1
102
RTVSPropertyOp33
 70
     1
102
RTVSPropertyOp34
 70
     1
102
RTVSPropertyOp35
 70
     1
102
RTVSPropertyOp36
 70
     1
102
RTVSPropertyOp37
 70
     1
102
RTVSPropertyOp38
 70
     1
102
RTVSPropertyOp39
 70
     1
102
RTVSPropertyOp40
 70
     1
102
RTVSPropertyOp41
 70
     1
102
RTVSPropertyOp42
 70
     1
102
RTVSPropertyOp43
 70
     1
102
RTVSPropertyOp44
 70
     1
102
RTVSPropertyOp45
 70
     1
102
RTVSPropertyOp46
 70
     1
102
RTVSPropertyOp47
 70
     1
102
RTVSPropertyOp48
 70
     1
102
RTVSPropertyOp49
 70
     1
102
RTVSPropertyOp50
 70
     1
102
RTVSPropertyOp51
 70
     0
102
RTVSPropertyOp52
 70
     0
102
RTVSPropertyOp53
 70
     1
102
RTVSPropertyOp54
 70
     1
102
RTVSPropertyOp55
 70
     1
102
RTVSPropertyOp56
 70
     1
102
RTVSPropertyOp57
 70
     1
102
RTVSPropertyOp58
 70
     1
102
RTVSPropertyOp59
 70
     1
102
RTVSPropertyOp60
 70
     1
102
RTVSPropertyOp61
 70
     1
102
RTVSPropertyOp62
 70
     1
  0
XRECORD
  5
3A3
102
{ACAD_REACTORS
330
3A2
102
}
330
3A2
100
AcDbXrecord
280
     1
102
RTVSPost2010Prop28
280
     0
102
RTVSPost2010PropOp28
 70
     0
102
RTVSPost2010Prop29
280
     1
102
RTVSPost2010PropOp29
 70
     0
102
RTVSPost2010Prop30
280
     1
102
RTVSPost2010PropOp30
 70
     0
102
RTVSPost2010Prop31
280
     0
102
RTVSPost2010PropOp31
 70
     0
102
RTVSPost2010Prop32
280
     0
102
RTVSPost2010PropOp32
 70
     0
102
RTVSPost2010Prop33
280
     0
102
RTVSPost2010PropOp33
 70
     0
102
RTVSPost2010Prop34
280
     0
102
RTVSPost2010PropOp34
 70
     0
102
RTVSPost2010Prop35
280
     0
102
RTVSPost2010PropOp35
 70
     0
102
RTVSPost2010Prop36
280
     0
102
RTVSPost2010PropOp36
 70
     0
102
RTVSPost2010Prop37
 90
       50
102
RTVSPost2010PropOp37
 70
     0
102
RTVSPost2010Prop38
140
0.0
102
RTVSPost2010PropOp38
 70
     0
102
RTVSPost2010Prop39
140
1.0
102
RTVSPost2010PropOp39
 70
     0
102
RTVSPost2010Prop40
 90
        0
102
RTVSPost2010PropOp40
 70
     0
102
RTVSPost2010Prop41ColorIndex
 90
       18
102
RTVSPost2010Prop41ColorRGB
 90
        0
102
RTVSPost2010PropOp41
 70
     0
102
RTVSPost2010Prop42
 90
       50
102
RTVSPost2010PropOp42
 70
     0
102
RTVSPost2010Prop43
 90
        3
102
RTVSPost2010PropOp43
 70
     0
102
RTVSPost2010Prop44ColorIndex
 90
        5
102
RTVSPost2010Prop44ColorRGB
 90
      255
102
RTVSPost2010PropOp44
 70
     0
102
RTVSPost2010Prop45
280
     0
102
RTVSPost2010PropOp45
 70
     0
102
RTVSPost2010Prop46
 90
       50
102
RTVSPost2010PropOp46
 70
     0
102
RTVSPost2010Prop47
 90
       50
102
RTVSPost2010PropOp47
 70
     0
102
RTVSPost2010Prop48
 90
       50
102
RTVSPost2010PropOp48
 70
     0
102
RTVSPost2010Prop49
280
     0
102
RTVSPost2010PropOp49
 70
     0
102
RTVSPost2010Prop50
 90
       50
102
RTVSPost2010PropOp50
 70
     0
102
RTVSPost2010Prop51ColorIndex
 90
      256
102
RTVSPost2010Prop51ColorRGB
 90
-16777216
102
RTVSPost2010PropOp51
 70
     0
102
RTVSPost2010Prop52
140
1.0
102
RTVSPost2010PropOp52
 70
     0
102
RTVSPost2010Prop53
 90
        2
102
RTVSPost2010PropOp53
 70
     0
102
RTVSPost2010Prop54
  1
strokes_ogs.tif
102
RTVSPost2010PropOp54
 70
     0
102
RTVSPost2010Prop55
280
     0
102
RTVSPost2010PropOp55
 70
     0
102
RTVSPost2010Prop56
140
1.0
102
RTVSPost2010PropOp56
 70
     0
102
RTVSPost2010Prop57
140
1.0
102
RTVSPost2010PropOp57
 70
     0
102
RTVSPropertyOp0
 70
     0
102
RTVSPropertyOp1
 70
     0
102
RTVSPropertyOp2
 70
     0
102
RTVSPropertyOp3
 70
     0
102
RTVSPropertyOp4
 70
     0
102
RTVSPropertyOp5
 70
     0
102
RTVSPropertyOp6
 70
     0
102
RTVSPropertyOp7
 70
     0
102
RTVSPropertyOp8
 70
     0
102
RTVSPropertyOp9
 70
     0
102
RTVSPropertyOp10
 70
     0
102
RTVSPropertyOp11
 70
     0
102
RTVSPropertyOp12
 70
     0
102
RTVSPropertyOp13
 70
     0
102
RTVSPropertyOp14
 70
     2
102
RTVSPropertyOp15
 70
     0
102
RTVSPropertyOp16
 70
     0
102
RTVSPropertyOp17
 70
     0
102
RTVSPropertyOp18
 70
     0
102
RTVSPropertyOp19
 70
     0
102
RTVSPropertyOp20
 70
     0
102
RTVSPropertyOp21
 70
     0
102
RTVSPropertyOp22
 70
     0
102
RTVSPropertyOp23
 70
     0
102
RTVSPropertyOp24
 70
     0
102
RTVSPropertyOp25
 70
     0
102
RTVSPropertyOp26
 70
     0
102
RTVSPropertyOp27
 70
     0
102
RTVSPropertyOp28
 70
     0
102
RTVSPropertyOp29
 70
     0
102
RTVSPropertyOp30
 70
     0
102
RTVSPropertyOp31
 70
     0
102
RTVSPropertyOp32
 70
     0
102
RTVSPropertyOp33
 70
     0
102
RTVSPropertyOp34
 70
     0
102
RTVSPropertyOp35
 70
     0
102
RTVSPropertyOp36
 70
     0
102
RTVSPropertyOp37
 70
     0
102
RTVSPropertyOp38
 70
     0
102
RTVSPropertyOp39
 70
     0
102
RTVSPropertyOp40
 70
     0
102
RTVSPropertyOp41
 70
     0
102
RTVSPropertyOp42
 70
     0
102
RTVSPropertyOp43
 70
     0
102
RTVSPropertyOp44
 70
     0
102
RTVSPropertyOp45
 70
     0
102
RTVSPropertyOp46
 70
     0
102
RTVSPropertyOp47
 70
     0
102
RTVSPropertyOp48
 70
     0
102
RTVSPropertyOp49
 70
     0
102
RTVSPropertyOp50
 70
     0
102
RTVSPropertyOp51
 70
     0
102
RTVSPropertyOp52
 70
     0
102
RTVSPropertyOp53
 70
     0
102
RTVSPropertyOp54
 70
     0
102
RTVSPropertyOp55
 70
     0
102
RTVSPropertyOp56
 70
     0
102
RTVSPropertyOp57
 70
     0
102
RTVSPropertyOp58
 70
     1
102
RTVSPropertyOp59
 70
     1
102
RTVSPropertyOp60
 70
     1
102
RTVSPropertyOp61
 70
     1
102
RTVSPropertyOp62
 70
     1
  0
XRECORD
  5
391
102
{ACAD_REACTORS
330
390
102
}
330
390
100
AcDbXrecord
280
     1
102
RTVSPost2010Prop28
280
     0
102
RTVSPost2010PropOp28
 70
     1
102
RTVSPost2010Prop29
280
     1
102
RTVSPost2010PropOp29
 70
     1
102
RTVSPost2010Prop30
280
     1
102
RTVSPost2010PropOp30
 70
     1
102
RTVSPost2010Prop31
280
     0
102
RTVSPost2010PropOp31
 70
     1
102
RTVSPost2010Prop32
280
     0
102
RTVSPost2010PropOp32
 70
     1
102
RTVSPost2010Prop33
280
     0
102
RTVSPost2010PropOp33
 70
     1
102
RTVSPost2010Prop34
280
     0
102
RTVSPost2010PropOp34
 70
     1
102
RTVSPost2010Prop35
280
     0
102
RTVSPost2010PropOp35
 70
     1
102
RTVSPost2010Prop36
280
     0
102
RTVSPost2010PropOp36
 70
     1
102
RTVSPost2010Prop37
 90
       50
102
RTVSPost2010PropOp37
 70
     1
102
RTVSPost2010Prop38
140
0.0
102
RTVSPost2010PropOp38
 70
     1
102
RTVSPost2010Prop39
140
1.0
102
RTVSPost2010PropOp39
 70
     1
102
RTVSPost2010Prop40
 90
        0
102
RTVSPost2010PropOp40
 70
     1
102
RTVSPost2010Prop41ColorIndex
 90
       18
102
RTVSPost2010Prop41ColorRGB
 90
        0
102
RTVSPost2010PropOp41
 70
     1
102
RTVSPost2010Prop42
 90
       50
102
RTVSPost2010PropOp42
 70
     1
102
RTVSPost2010Prop43
 90
        3
102
RTVSPost2010PropOp43
 70
     1
102
RTVSPost2010Prop44ColorIndex
 90
        5
102
RTVSPost2010Prop44ColorRGB
 90
      255
102
RTVSPost2010PropOp44
 70
     1
102
RTVSPost2010Prop45
280
     0
102
RTVSPost2010PropOp45
 70
     1
102
RTVSPost2010Prop46
 90
       50
102
RTVSPost2010PropOp46
 70
     1
102
RTVSPost2010Prop47
 90
       50
102
RTVSPost2010PropOp47
 70
     1
102
RTVSPost2010Prop48
 90
       50
102
RTVSPost2010PropOp48
 70
     1
102
RTVSPost2010Prop49
280
     0
102
RTVSPost2010PropOp49
 70
     1
102
RTVSPost2010Prop50
 90
       50
102
RTVSPost2010PropOp50
 70
     1
102
RTVSPost2010Prop51ColorIndex
 90
      256
102
RTVSPost2010Prop51ColorRGB
 90
-16777216
102
RTVSPost2010PropOp51
 70
     0
102
RTVSPost2010Prop52
140
1.0
102
RTVSPost2010PropOp52
 70
     0
102
RTVSPost2010Prop53
 90
        2
102
RTVSPost2010PropOp53
 70
     1
102
RTVSPost2010Prop54
  1
strokes_ogs.tif
102
RTVSPost2010PropOp54
 70
     1
102
RTVSPost2010Prop55
280
     0
102
RTVSPost2010PropOp55
 70
     1
102
RTVSPost2010Prop56
140
1.0
102
RTVSPost2010PropOp56
 70
     1
102
RTVSPost2010Prop57
140
1.0
102
RTVSPost2010PropOp57
 70
     1
102
RTVSPropertyOp0
 70
     1
102
RTVSPropertyOp1
 70
     1
102
RTVSPropertyOp2
 70
     1
102
RTVSPropertyOp3
 70
     1
102
RTVSPropertyOp4
 70
     1
102
RTVSPropertyOp5
 70
     1
102
RTVSPropertyOp6
 70
     1
102
RTVSPropertyOp7
 70
     1
102
RTVSPropertyOp8
 70
     1
102
RTVSPropertyOp9
 70
     1
102
RTVSPropertyOp10
 70
     1
102
RTVSPropertyOp11
 70
     1
102
RTVSPropertyOp12
 70
     1
102
RTVSPropertyOp13
 70
     1
102
RTVSPropertyOp14
 70
     1
102
RTVSPropertyOp15
 70
     1
102
RTVSPropertyOp16
 70
     1
102
RTVSPropertyOp17
 70
     1
102
RTVSPropertyOp18
 70
     1
102
RTVSPropertyOp19
 70
     1
102
RTVSPropertyOp20
 70
     1
102
RTVSPropertyOp21
 70
     1
102
RTVSPropertyOp22
 70
     1
102
RTVSPropertyOp23
 70
     1
102
RTVSPropertyOp24
 70
     1
102
RTVSPropertyOp25
 70
     1
102
RTVSPropertyOp26
 70
     1
102
RTVSPropertyOp27
 70
     1
102
RTVSPropertyOp28
 70
     1
102
RTVSPropertyOp29
 70
     1
102
RTVSPropertyOp30
 70
     1
102
RTVSPropertyOp31
 70
     1
102
RTVSPropertyOp32
 70
     1
102
RTVSPropertyOp33
 70
     1
102
RTVSPropertyOp34
 70
     1
102
RTVSPropertyOp35
 70
     1
102
RTVSPropertyOp36
 70
     1
102
RTVSPropertyOp37
 70
     1
102
RTVSPropertyOp38
 70
     1
102
RTVSPropertyOp39
 70
     1
102
RTVSPropertyOp40
 70
     1
102
RTVSPropertyOp41
 70
     1
102
RTVSPropertyOp42
 70
     1
102
RTVSPropertyOp43
 70
     1
102
RTVSPropertyOp44
 70
     1
102
RTVSPropertyOp45
 70
     1
102
RTVSPropertyOp46
 70
     1
102
RTVSPropertyOp47
 70
     1
102
RTVSPropertyOp48
 70
     1
102
RTVSPropertyOp49
 70
     1
102
RTVSPropertyOp50
 70
     1
102
RTVSPropertyOp51
 70
     0
102
RTVSPropertyOp52
 70
     0
102
RTVSPropertyOp53
 70
     1
102
RTVSPropertyOp54
 70
     1
102
RTVSPropertyOp55
 70
     1
102
RTVSPropertyOp56
 70
     1
102
RTVSPropertyOp57
 70
     1
102
RTVSPropertyOp58
 70
     1
102
RTVSPropertyOp59
 70
     1
102
RTVSPropertyOp60
 70
     1
102
RTVSPropertyOp61
 70
     1
102
RTVSPropertyOp62
 70
     1
  0
XRECORD
  5
3AF
102
{ACAD_REACTORS
330
3AE
102
}
330
3AE
100
AcDbXrecord
280
     1
102
RTVSPost2010Prop28
280
     0
102
RTVSPost2010PropOp28
 70
     1
102
RTVSPost2010Prop29
280
     1
102
RTVSPost2010PropOp29
 70
     1
102
RTVSPost2010Prop30
280
     1
102
RTVSPost2010PropOp30
 70
     1
102
RTVSPost2010Prop31
280
     0
102
RTVSPost2010PropOp31
 70
     1
102
RTVSPost2010Prop32
280
     0
102
RTVSPost2010PropOp32
 70
     1
102
RTVSPost2010Prop33
280
     0
102
RTVSPost2010PropOp33
 70
     1
102
RTVSPost2010Prop34
280
     0
102
RTVSPost2010PropOp34
 70
     1
102
RTVSPost2010Prop35
280
     0
102
RTVSPost2010PropOp35
 70
     1
102
RTVSPost2010Prop36
280
     0
102
RTVSPost2010PropOp36
 70
     1
102
RTVSPost2010Prop37
 90
       50
102
RTVSPost2010PropOp37
 70
     1
102
RTVSPost2010Prop38
140
0.0
102
RTVSPost2010PropOp38
 70
     1
102
RTVSPost2010Prop39
140
1.0
102
RTVSPost2010PropOp39
 70
     1
102
RTVSPost2010Prop40
 90
        0
102
RTVSPost2010PropOp40
 70
     1
102
RTVSPost2010Prop41ColorIndex
 90
       18
102
RTVSPost2010Prop41ColorRGB
 90
        0
102
RTVSPost2010PropOp41
 70
     1
102
RTVSPost2010Prop42
 90
       50
102
RTVSPost2010PropOp42
 70
     1
102
RTVSPost2010Prop43
 90
        3
102
RTVSPost2010PropOp43
 70
     1
102
RTVSPost2010Prop44ColorIndex
 90
        5
102
RTVSPost2010Prop44ColorRGB
 90
      255
102
RTVSPost2010PropOp44
 70
     1
102
RTVSPost2010Prop45
280
     0
102
RTVSPost2010PropOp45
 70
     1
102
RTVSPost2010Prop46
 90
       50
102
RTVSPost2010PropOp46
 70
     1
102
RTVSPost2010Prop47
 90
       50
102
RTVSPost2010PropOp47
 70
     1
102
RTVSPost2010Prop48
 90
       50
102
RTVSPost2010PropOp48
 70
     1
102
RTVSPost2010Prop49
280
     0
102
RTVSPost2010PropOp49
 70
     1
102
RTVSPost2010Prop50
 90
       50
102
RTVSPost2010PropOp50
 70
     1
102
RTVSPost2010Prop51ColorIndex
 90
      256
102
RTVSPost2010Prop51ColorRGB
 90
-16777216
102
RTVSPost2010PropOp51
 70
     0
102
RTVSPost2010Prop52
140
1.0
102
RTVSPost2010PropOp52
 70
     0
102
RTVSPost2010Prop53
 90
        2
102
RTVSPost2010PropOp53
 70
     1
102
RTVSPost2010Prop54
  1
strokes_ogs.tif
102
RTVSPost2010PropOp54
 70
     1
102
RTVSPost2010Prop55
280
     0
102
RTVSPost2010PropOp55
 70
     1
102
RTVSPost2010Prop56
140
1.0
102
RTVSPost2010PropOp56
 70
     1
102
RTVSPost2010Prop57
140
1.0
102
RTVSPost2010PropOp57
 70
     1
102
RTVSPropertyOp0
 70
     1
102
RTVSPropertyOp1
 70
     1
102
RTVSPropertyOp2
 70
     1
102
RTVSPropertyOp3
 70
     1
102
RTVSPropertyOp4
 70
     1
102
RTVSPropertyOp5
 70
     1
102
RTVSPropertyOp6
 70
     1
102
RTVSPropertyOp7
 70
     1
102
RTVSPropertyOp8
 70
     1
102
RTVSPropertyOp9
 70
     1
102
RTVSPropertyOp10
 70
     1
102
RTVSPropertyOp11
 70
     1
102
RTVSPropertyOp12
 70
     1
102
RTVSPropertyOp13
 70
     1
102
RTVSPropertyOp14
 70
     1
102
RTVSPropertyOp15
 70
     1
102
RTVSPropertyOp16
 70
     1
102
RTVSPropertyOp17
 70
     1
102
RTVSPropertyOp18
 70
     1
102
RTVSPropertyOp19
 70
     1
102
RTVSPropertyOp20
 70
     1
102
RTVSPropertyOp21
 70
     1
102
RTVSPropertyOp22
 70
     1
102
RTVSPropertyOp23
 70
     1
102
RTVSPropertyOp24
 70
     1
102
RTVSPropertyOp25
 70
     1
102
RTVSPropertyOp26
 70
     1
102
RTVSPropertyOp27
 70
     1
102
RTVSPropertyOp28
 70
     1
102
RTVSPropertyOp29
 70
     1
102
RTVSPropertyOp30
 70
     1
102
RTVSPropertyOp31
 70
     1
102
RTVSPropertyOp32
 70
     1
102
RTVSPropertyOp33
 70
     1
102
RTVSPropertyOp34
 70
     1
102
RTVSPropertyOp35
 70
     1
102
RTVSPropertyOp36
 70
     1
102
RTVSPropertyOp37
 70
     1
102
RTVSPropertyOp38
 70
     1
102
RTVSPropertyOp39
 70
     1
102
RTVSPropertyOp40
 70
     1
102
RTVSPropertyOp41
 70
     1
102
RTVSPropertyOp42
 70
     1
102
RTVSPropertyOp43
 70
     1
102
RTVSPropertyOp44
 70
     1
102
RTVSPropertyOp45
 70
     1
102
RTVSPropertyOp46
 70
     1
102
RTVSPropertyOp47
 70
     1
102
RTVSPropertyOp48
 70
     1
102
RTVSPropertyOp49
 70
     1
102
RTVSPropertyOp50
 70
     1
102
RTVSPropertyOp51
 70
     0
102
RTVSPropertyOp52
 70
     0
102
RTVSPropertyOp53
 70
     1
102
RTVSPropertyOp54
 70
     1
102
RTVSPropertyOp55
 70
     1
102
RTVSPropertyOp56
 70
     1
102
RTVSPropertyOp57
 70
     1
102
RTVSPropertyOp58
 70
     1
102
RTVSPropertyOp59
 70
     1
102
RTVSPropertyOp60
 70
     1
102
RTVSPropertyOp61
 70
     1
102
RTVSPropertyOp62
 70
     1
  0
XRECORD
  5
3AD
102
{ACAD_REACTORS
330
3AC
102
}
330
3AC
100
AcDbXrecord
280
     1
102
RTVSPost2010Prop28
280
     0
102
RTVSPost2010PropOp28
 70
     1
102
RTVSPost2010Prop29
280
     1
102
RTVSPost2010PropOp29
 70
     1
102
RTVSPost2010Prop30
280
     1
102
RTVSPost2010PropOp30
 70
     1
102
RTVSPost2010Prop31
280
     0
102
RTVSPost2010PropOp31
 70
     1
102
RTVSPost2010Prop32
280
     0
102
RTVSPost2010PropOp32
 70
     1
102
RTVSPost2010Prop33
280
     0
102
RTVSPost2010PropOp33
 70
     1
102
RTVSPost2010Prop34
280
     0
102
RTVSPost2010PropOp34
 70
     1
102
RTVSPost2010Prop35
280
     0
102
RTVSPost2010PropOp35
 70
     1
102
RTVSPost2010Prop36
280
     0
102
RTVSPost2010PropOp36
 70
     1
102
RTVSPost2010Prop37
 90
       50
102
RTVSPost2010PropOp37
 70
     1
102
RTVSPost2010Prop38
140
0.0
102
RTVSPost2010PropOp38
 70
     1
102
RTVSPost2010Prop39
140
1.0
102
RTVSPost2010PropOp39
 70
     1
102
RTVSPost2010Prop40
 90
        0
102
RTVSPost2010PropOp40
 70
     1
102
RTVSPost2010Prop41ColorIndex
 90
       18
102
RTVSPost2010Prop41ColorRGB
 90
        0
102
RTVSPost2010PropOp41
 70
     1
102
RTVSPost2010Prop42
 90
       50
102
RTVSPost2010PropOp42
 70
     1
102
RTVSPost2010Prop43
 90
        3
102
RTVSPost2010PropOp43
 70
     1
102
RTVSPost2010Prop44ColorIndex
 90
        5
102
RTVSPost2010Prop44ColorRGB
 90
      255
102
RTVSPost2010PropOp44
 70
     1
102
RTVSPost2010Prop45
280
     0
102
RTVSPost2010PropOp45
 70
     1
102
RTVSPost2010Prop46
 90
       50
102
RTVSPost2010PropOp46
 70
     1
102
RTVSPost2010Prop47
 90
       50
102
RTVSPost2010PropOp47
 70
     1
102
RTVSPost2010Prop48
 90
       50
102
RTVSPost2010PropOp48
 70
     1
102
RTVSPost2010Prop49
280
     0
102
RTVSPost2010PropOp49
 70
     1
102
RTVSPost2010Prop50
 90
       50
102
RTVSPost2010PropOp50
 70
     1
102
RTVSPost2010Prop51ColorIndex
 90
      256
102
RTVSPost2010Prop51ColorRGB
 90
-16777216
102
RTVSPost2010PropOp51
 70
     0
102
RTVSPost2010Prop52
140
1.0
102
RTVSPost2010PropOp52
 70
     0
102
RTVSPost2010Prop53
 90
        2
102
RTVSPost2010PropOp53
 70
     1
102
RTVSPost2010Prop54
  1
strokes_ogs.tif
102
RTVSPost2010PropOp54
 70
     1
102
RTVSPost2010Prop55
280
     0
102
RTVSPost2010PropOp55
 70
     1
102
RTVSPost2010Prop56
140
1.0
102
RTVSPost2010PropOp56
 70
     1
102
RTVSPost2010Prop57
140
1.0
102
RTVSPost2010PropOp57
 70
     1
102
RTVSPropertyOp0
 70
     1
102
RTVSPropertyOp1
 70
     1
102
RTVSPropertyOp2
 70
     1
102
RTVSPropertyOp3
 70
     1
102
RTVSPropertyOp4
 70
     1
102
RTVSPropertyOp5
 70
     1
102
RTVSPropertyOp6
 70
     1
102
RTVSPropertyOp7
 70
     1
102
RTVSPropertyOp8
 70
     1
102
RTVSPropertyOp9
 70
     1
102
RTVSPropertyOp10
 70
     1
102
RTVSPropertyOp11
 70
     1
102
RTVSPropertyOp12
 70
     1
102
RTVSPropertyOp13
 70
     1
102
RTVSPropertyOp14
 70
     1
102
RTVSPropertyOp15
 70
     1
102
RTVSPropertyOp16
 70
     1
102
RTVSPropertyOp17
 70
     1
102
RTVSPropertyOp18
 70
     1
102
RTVSPropertyOp19
 70
     1
102
RTVSPropertyOp20
 70
     1
102
RTVSPropertyOp21
 70
     1
102
RTVSPropertyOp22
 70
     1
102
RTVSPropertyOp23
 70
     1
102
RTVSPropertyOp24
 70
     1
102
RTVSPropertyOp25
 70
     1
102
RTVSPropertyOp26
 70
     1
102
RTVSPropertyOp27
 70
     1
102
RTVSPropertyOp28
 70
     1
102
RTVSPropertyOp29
 70
     1
102
RTVSPropertyOp30
 70
     1
102
RTVSPropertyOp31
 70
     1
102
RTVSPropertyOp32
 70
     1
102
RTVSPropertyOp33
 70
     1
102
RTVSPropertyOp34
 70
     1
102
RTVSPropertyOp35
 70
     1
102
RTVSPropertyOp36
 70
     1
102
RTVSPropertyOp37
 70
     1
102
RTVSPropertyOp38
 70
     1
102
RTVSPropertyOp39
 70
     1
102
RTVSPropertyOp40
 70
     1
102
RTVSPropertyOp41
 70
     1
102
RTVSPropertyOp42
 70
     1
102
RTVSPropertyOp43
 70
     1
102
RTVSPropertyOp44
 70
     1
102
RTVSPropertyOp45
 70
     1
102
RTVSPropertyOp46
 70
     1
102
RTVSPropertyOp47
 70
     1
102
RTVSPropertyOp48
 70
     1
102
RTVSPropertyOp49
 70
     1
102
RTVSPropertyOp50
 70
     1
102
RTVSPropertyOp51
 70
     0
102
RTVSPropertyOp52
 70
     0
102
RTVSPropertyOp53
 70
     1
102
RTVSPropertyOp54
 70
     1
102
RTVSPropertyOp55
 70
     1
102
RTVSPropertyOp56
 70
     1
102
RTVSPropertyOp57
 70
     1
102
RTVSPropertyOp58
 70
     1
102
RTVSPropertyOp59
 70
     1
102
RTVSPropertyOp60
 70
     1
102
RTVSPropertyOp61
 70
     1
102
RTVSPropertyOp62
 70
     1
  0
XRECORD
  5
3A7
102
{ACAD_REACTORS
330
3A6
102
}
330
3A6
100
AcDbXrecord
280
     1
102
RTVSPost2010Prop28
280
     0
102
RTVSPost2010PropOp28
 70
     1
102
RTVSPost2010Prop29
280
     1
102
RTVSPost2010PropOp29
 70
     1
102
RTVSPost2010Prop30
280
     1
102
RTVSPost2010PropOp30
 70
     1
102
RTVSPost2010Prop31
280
     0
102
RTVSPost2010PropOp31
 70
     1
102
RTVSPost2010Prop32
280
     0
102
RTVSPost2010PropOp32
 70
     1
102
RTVSPost2010Prop33
280
     0
102
RTVSPost2010PropOp33
 70
     1
102
RTVSPost2010Prop34
280
     0
102
RTVSPost2010PropOp34
 70
     1
102
RTVSPost2010Prop35
280
     0
102
RTVSPost2010PropOp35
 70
     1
102
RTVSPost2010Prop36
280
     0
102
RTVSPost2010PropOp36
 70
     1
102
RTVSPost2010Prop37
 90
       50
102
RTVSPost2010PropOp37
 70
     1
102
RTVSPost2010Prop38
140
0.0
102
RTVSPost2010PropOp38
 70
     1
102
RTVSPost2010Prop39
140
1.0
102
RTVSPost2010PropOp39
 70
     1
102
RTVSPost2010Prop40
 90
        0
102
RTVSPost2010PropOp40
 70
     1
102
RTVSPost2010Prop41ColorIndex
 90
       18
102
RTVSPost2010Prop41ColorRGB
 90
        0
102
RTVSPost2010PropOp41
 70
     1
102
RTVSPost2010Prop42
 90
       50
102
RTVSPost2010PropOp42
 70
     1
102
RTVSPost2010Prop43
 90
        3
102
RTVSPost2010PropOp43
 70
     1
102
RTVSPost2010Prop44ColorIndex
 90
        5
102
RTVSPost2010Prop44ColorRGB
 90
      255
102
RTVSPost2010PropOp44
 70
     1
102
RTVSPost2010Prop45
280
     0
102
RTVSPost2010PropOp45
 70
     1
102
RTVSPost2010Prop46
 90
       50
102
RTVSPost2010PropOp46
 70
     1
102
RTVSPost2010Prop47
 90
       50
102
RTVSPost2010PropOp47
 70
     1
102
RTVSPost2010Prop48
 90
       50
102
RTVSPost2010PropOp48
 70
     1
102
RTVSPost2010Prop49
280
     0
102
RTVSPost2010PropOp49
 70
     1
102
RTVSPost2010Prop50
 90
       50
102
RTVSPost2010PropOp50
 70
     1
102
RTVSPost2010Prop51ColorIndex
 90
      256
102
RTVSPost2010Prop51ColorRGB
 90
-16777216
102
RTVSPost2010PropOp51
 70
     0
102
RTVSPost2010Prop52
140
1.0
102
RTVSPost2010PropOp52
 70
     0
102
RTVSPost2010Prop53
 90
        2
102
RTVSPost2010PropOp53
 70
     1
102
RTVSPost2010Prop54
  1
strokes_ogs.tif
102
RTVSPost2010PropOp54
 70
     1
102
RTVSPost2010Prop55
280
     0
102
RTVSPost2010PropOp55
 70
     1
102
RTVSPost2010Prop56
140
1.0
102
RTVSPost2010PropOp56
 70
     1
102
RTVSPost2010Prop57
140
1.0
102
RTVSPost2010PropOp57
 70
     1
102
RTVSPropertyOp0
 70
     1
102
RTVSPropertyOp1
 70
     1
102
RTVSPropertyOp2
 70
     1
102
RTVSPropertyOp3
 70
     1
102
RTVSPropertyOp4
 70
     1
102
RTVSPropertyOp5
 70
     1
102
RTVSPropertyOp6
 70
     1
102
RTVSPropertyOp7
 70
     1
102
RTVSPropertyOp8
 70
     1
102
RTVSPropertyOp9
 70
     1
102
RTVSPropertyOp10
 70
     1
102
RTVSPropertyOp11
 70
     1
102
RTVSPropertyOp12
 70
     1
102
RTVSPropertyOp13
 70
     1
102
RTVSPropertyOp14
 70
     1
102
RTVSPropertyOp15
 70
     1
102
RTVSPropertyOp16
 70
     1
102
RTVSPropertyOp17
 70
     1
102
RTVSPropertyOp18
 70
     1
102
RTVSPropertyOp19
 70
     1
102
RTVSPropertyOp20
 70
     1
102
RTVSPropertyOp21
 70
     1
102
RTVSPropertyOp22
 70
     1
102
RTVSPropertyOp23
 70
     1
102
RTVSPropertyOp24
 70
     1
102
RTVSPropertyOp25
 70
     1
102
RTVSPropertyOp26
 70
     1
102
RTVSPropertyOp27
 70
     1
102
RTVSPropertyOp28
 70
     1
102
RTVSPropertyOp29
 70
     1
102
RTVSPropertyOp30
 70
     1
102
RTVSPropertyOp31
 70
     1
102
RTVSPropertyOp32
 70
     1
102
RTVSPropertyOp33
 70
     1
102
RTVSPropertyOp34
 70
     1
102
RTVSPropertyOp35
 70
     1
102
RTVSPropertyOp36
 70
     1
102
RTVSPropertyOp37
 70
     1
102
RTVSPropertyOp38
 70
     1
102
RTVSPropertyOp39
 70
     1
102
RTVSPropertyOp40
 70
     1
102
RTVSPropertyOp41
 70
     1
102
RTVSPropertyOp42
 70
     1
102
RTVSPropertyOp43
 70
     1
102
RTVSPropertyOp44
 70
     1
102
RTVSPropertyOp45
 70
     1
102
RTVSPropertyOp46
 70
     1
102
RTVSPropertyOp47
 70
     1
102
RTVSPropertyOp48
 70
     1
102
RTVSPropertyOp49
 70
     1
102
RTVSPropertyOp50
 70
     1
102
RTVSPropertyOp51
 70
     0
102
RTVSPropertyOp52
 70
     0
102
RTVSPropertyOp53
 70
     1
102
RTVSPropertyOp54
 70
     1
102
RTVSPropertyOp55
 70
     1
102
RTVSPropertyOp56
 70
     1
102
RTVSPropertyOp57
 70
     1
102
RTVSPropertyOp58
 70
     1
102
RTVSPropertyOp59
 70
     1
102
RTVSPropertyOp60
 70
     1
102
RTVSPropertyOp61
 70
     1
102
RTVSPropertyOp62
 70
     1
  0
XRECORD
  5
3A9
102
{ACAD_REACTORS
330
3A8
102
}
330
3A8
100
AcDbXrecord
280
     1
102
RTVSPost2010Prop28
280
     0
102
RTVSPost2010PropOp28
 70
     1
102
RTVSPost2010Prop29
280
     1
102
RTVSPost2010PropOp29
 70
     1
102
RTVSPost2010Prop30
280
     1
102
RTVSPost2010PropOp30
 70
     1
102
RTVSPost2010Prop31
280
     0
102
RTVSPost2010PropOp31
 70
     1
102
RTVSPost2010Prop32
280
     0
102
RTVSPost2010PropOp32
 70
     1
102
RTVSPost2010Prop33
280
     0
102
RTVSPost2010PropOp33
 70
     1
102
RTVSPost2010Prop34
280
     0
102
RTVSPost2010PropOp34
 70
     1
102
RTVSPost2010Prop35
280
     0
102
RTVSPost2010PropOp35
 70
     1
102
RTVSPost2010Prop36
280
     0
102
RTVSPost2010PropOp36
 70
     1
102
RTVSPost2010Prop37
 90
       50
102
RTVSPost2010PropOp37
 70
     1
102
RTVSPost2010Prop38
140
0.0
102
RTVSPost2010PropOp38
 70
     1
102
RTVSPost2010Prop39
140
1.0
102
RTVSPost2010PropOp39
 70
     1
102
RTVSPost2010Prop40
 90
        0
102
RTVSPost2010PropOp40
 70
     1
102
RTVSPost2010Prop41ColorIndex
 90
       18
102
RTVSPost2010Prop41ColorRGB
 90
        0
102
RTVSPost2010PropOp41
 70
     1
102
RTVSPost2010Prop42
 90
       50
102
RTVSPost2010PropOp42
 70
     1
102
RTVSPost2010Prop43
 90
        3
102
RTVSPost2010PropOp43
 70
     1
102
RTVSPost2010Prop44ColorIndex
 90
        5
102
RTVSPost2010Prop44ColorRGB
 90
      255
102
RTVSPost2010PropOp44
 70
     1
102
RTVSPost2010Prop45
280
     0
102
RTVSPost2010PropOp45
 70
     1
102
RTVSPost2010Prop46
 90
       50
102
RTVSPost2010PropOp46
 70
     1
102
RTVSPost2010Prop47
 90
       50
102
RTVSPost2010PropOp47
 70
     1
102
RTVSPost2010Prop48
 90
       50
102
RTVSPost2010PropOp48
 70
     1
102
RTVSPost2010Prop49
280
     0
102
RTVSPost2010PropOp49
 70
     1
102
RTVSPost2010Prop50
 90
       50
102
RTVSPost2010PropOp50
 70
     1
102
RTVSPost2010Prop51ColorIndex
 90
      256
102
RTVSPost2010Prop51ColorRGB
 90
-16777216
102
RTVSPost2010PropOp51
 70
     0
102
RTVSPost2010Prop52
140
1.0
102
RTVSPost2010PropOp52
 70
     0
102
RTVSPost2010Prop53
 90
        2
102
RTVSPost2010PropOp53
 70
     1
102
RTVSPost2010Prop54
  1
strokes_ogs.tif
102
RTVSPost2010PropOp54
 70
     1
102
RTVSPost2010Prop55
280
     0
102
RTVSPost2010PropOp55
 70
     1
102
RTVSPost2010Prop56
140
1.0
102
RTVSPost2010PropOp56
 70
     1
102
RTVSPost2010Prop57
140
1.0
102
RTVSPost2010PropOp57
 70
     1
102
RTVSPropertyOp0
 70
     1
102
RTVSPropertyOp1
 70
     1
102
RTVSPropertyOp2
 70
     1
102
RTVSPropertyOp3
 70
     1
102
RTVSPropertyOp4
 70
     1
102
RTVSPropertyOp5
 70
     1
102
RTVSPropertyOp6
 70
     1
102
RTVSPropertyOp7
 70
     1
102
RTVSPropertyOp8
 70
     1
102
RTVSPropertyOp9
 70
     1
102
RTVSPropertyOp10
 70
     1
102
RTVSPropertyOp11
 70
     1
102
RTVSPropertyOp12
 70
     1
102
RTVSPropertyOp13
 70
     1
102
RTVSPropertyOp14
 70
     1
102
RTVSPropertyOp15
 70
     1
102
RTVSPropertyOp16
 70
     1
102
RTVSPropertyOp17
 70
     1
102
RTVSPropertyOp18
 70
     1
102
RTVSPropertyOp19
 70
     1
102
RTVSPropertyOp20
 70
     1
102
RTVSPropertyOp21
 70
     1
102
RTVSPropertyOp22
 70
     1
102
RTVSPropertyOp23
 70
     1
102
RTVSPropertyOp24
 70
     1
102
RTVSPropertyOp25
 70
     1
102
RTVSPropertyOp26
 70
     1
102
RTVSPropertyOp27
 70
     1
102
RTVSPropertyOp28
 70
     1
102
RTVSPropertyOp29
 70
     1
102
RTVSPropertyOp30
 70
     1
102
RTVSPropertyOp31
 70
     1
102
RTVSPropertyOp32
 70
     1
102
RTVSPropertyOp33
 70
     1
102
RTVSPropertyOp34
 70
     1
102
RTVSPropertyOp35
 70
     1
102
RTVSPropertyOp36
 70
     1
102
RTVSPropertyOp37
 70
     1
102
RTVSPropertyOp38
 70
     1
102
RTVSPropertyOp39
 70
     1
102
RTVSPropertyOp40
 70
     1
102
RTVSPropertyOp41
 70
     1
102
RTVSPropertyOp42
 70
     1
102
RTVSPropertyOp43
 70
     1
102
RTVSPropertyOp44
 70
     1
102
RTVSPropertyOp45
 70
     1
102
RTVSPropertyOp46
 70
     1
102
RTVSPropertyOp47
 70
     1
102
RTVSPropertyOp48
 70
     1
102
RTVSPropertyOp49
 70
     1
102
RTVSPropertyOp50
 70
     1
102
RTVSPropertyOp51
 70
     0
102
RTVSPropertyOp52
 70
     0
102
RTVSPropertyOp53
 70
     1
102
RTVSPropertyOp54
 70
     1
102
RTVSPropertyOp55
 70
     1
102
RTVSPropertyOp56
 70
     1
102
RTVSPropertyOp57
 70
     1
102
RTVSPropertyOp58
 70
     1
102
RTVSPropertyOp59
 70
     1
102
RTVSPropertyOp60
 70
     1
102
RTVSPropertyOp61
 70
     1
102
RTVSPropertyOp62
 70
     1
  0
XRECORD
  5
399
102
{ACAD_REACTORS
330
398
102
}
330
398
100
AcDbXrecord
280
     1
102
RTVSPost2010Prop28
280
     0
102
RTVSPost2010PropOp28
 70
     1
102
RTVSPost2010Prop29
280
     1
102
RTVSPost2010PropOp29
 70
     1
102
RTVSPost2010Prop30
280
     1
102
RTVSPost2010PropOp30
 70
     1
102
RTVSPost2010Prop31
280
     0
102
RTVSPost2010PropOp31
 70
     1
102
RTVSPost2010Prop32
280
     0
102
RTVSPost2010PropOp32
 70
     1
102
RTVSPost2010Prop33
280
     0
102
RTVSPost2010PropOp33
 70
     1
102
RTVSPost2010Prop34
280
     0
102
RTVSPost2010PropOp34
 70
     1
102
RTVSPost2010Prop35
280
     0
102
RTVSPost2010PropOp35
 70
     1
102
RTVSPost2010Prop36
280
     0
102
RTVSPost2010PropOp36
 70
     1
102
RTVSPost2010Prop37
 90
       50
102
RTVSPost2010PropOp37
 70
     1
102
RTVSPost2010Prop38
140
0.0
102
RTVSPost2010PropOp38
 70
     1
102
RTVSPost2010Prop39
140
1.0
102
RTVSPost2010PropOp39
 70
     1
102
RTVSPost2010Prop40
 90
        0
102
RTVSPost2010PropOp40
 70
     1
102
RTVSPost2010Prop41ColorIndex
 90
       18
102
RTVSPost2010Prop41ColorRGB
 90
        0
102
RTVSPost2010PropOp41
 70
     1
102
RTVSPost2010Prop42
 90
       50
102
RTVSPost2010PropOp42
 70
     1
102
RTVSPost2010Prop43
 90
        3
102
RTVSPost2010PropOp43
 70
     1
102
RTVSPost2010Prop44ColorIndex
 90
        5
102
RTVSPost2010Prop44ColorRGB
 90
      255
102
RTVSPost2010PropOp44
 70
     1
102
RTVSPost2010Prop45
280
     0
102
RTVSPost2010PropOp45
 70
     1
102
RTVSPost2010Prop46
 90
       50
102
RTVSPost2010PropOp46
 70
     1
102
RTVSPost2010Prop47
 90
       50
102
RTVSPost2010PropOp47
 70
     1
102
RTVSPost2010Prop48
 90
       50
102
RTVSPost2010PropOp48
 70
     1
102
RTVSPost2010Prop49
280
     0
102
RTVSPost2010PropOp49
 70
     1
102
RTVSPost2010Prop50
 90
       50
102
RTVSPost2010PropOp50
 70
     1
102
RTVSPost2010Prop51ColorIndex
 90
      256
102
RTVSPost2010Prop51ColorRGB
 90
-16777216
102
RTVSPost2010PropOp51
 70
     0
102
RTVSPost2010Prop52
140
1.0
102
RTVSPost2010PropOp52
 70
     0
102
RTVSPost2010Prop53
 90
        2
102
RTVSPost2010PropOp53
 70
     1
102
RTVSPost2010Prop54
  1
strokes_ogs.tif
102
RTVSPost2010PropOp54
 70
     1
102
RTVSPost2010Prop55
280
     0
102
RTVSPost2010PropOp55
 70
     1
102
RTVSPost2010Prop56
140
1.0
102
RTVSPost2010PropOp56
 70
     1
102
RTVSPost2010Prop57
140
1.0
102
RTVSPost2010PropOp57
 70
     1
102
RTVSPropertyOp0
 70
     1
102
RTVSPropertyOp1
 70
     1
102
RTVSPropertyOp2
 70
     1
102
RTVSPropertyOp3
 70
     1
102
RTVSPropertyOp4
 70
     1
102
RTVSPropertyOp5
 70
     1
102
RTVSPropertyOp6
 70
     1
102
RTVSPropertyOp7
 70
     1
102
RTVSPropertyOp8
 70
     1
102
RTVSPropertyOp9
 70
     1
102
RTVSPropertyOp10
 70
     1
102
RTVSPropertyOp11
 70
     1
102
RTVSPropertyOp12
 70
     1
102
RTVSPropertyOp13
 70
     1
102
RTVSPropertyOp14
 70
     1
102
RTVSPropertyOp15
 70
     1
102
RTVSPropertyOp16
 70
     1
102
RTVSPropertyOp17
 70
     1
102
RTVSPropertyOp18
 70
     1
102
RTVSPropertyOp19
 70
     1
102
RTVSPropertyOp20
 70
     1
102
RTVSPropertyOp21
 70
     1
102
RTVSPropertyOp22
 70
     1
102
RTVSPropertyOp23
 70
     1
102
RTVSPropertyOp24
 70
     1
102
RTVSPropertyOp25
 70
     1
102
RTVSPropertyOp26
 70
     1
102
RTVSPropertyOp27
 70
     1
102
RTVSPropertyOp28
 70
     1
102
RTVSPropertyOp29
 70
     1
102
RTVSPropertyOp30
 70
     1
102
RTVSPropertyOp31
 70
     1
102
RTVSPropertyOp32
 70
     1
102
RTVSPropertyOp33
 70
     1
102
RTVSPropertyOp34
 70
     1
102
RTVSPropertyOp35
 70
     1
102
RTVSPropertyOp36
 70
     1
102
RTVSPropertyOp37
 70
     1
102
RTVSPropertyOp38
 70
     1
102
RTVSPropertyOp39
 70
     1
102
RTVSPropertyOp40
 70
     1
102
RTVSPropertyOp41
 70
     1
102
RTVSPropertyOp42
 70
     1
102
RTVSPropertyOp43
 70
     1
102
RTVSPropertyOp44
 70
     1
102
RTVSPropertyOp45
 70
     1
102
RTVSPropertyOp46
 70
     1
102
RTVSPropertyOp47
 70
     1
102
RTVSPropertyOp48
 70
     1
102
RTVSPropertyOp49
 70
     1
102
RTVSPropertyOp50
 70
     1
102
RTVSPropertyOp51
 70
     0
102
RTVSPropertyOp52
 70
     0
102
RTVSPropertyOp53
 70
     1
102
RTVSPropertyOp54
 70
     1
102
RTVSPropertyOp55
 70
     1
102
RTVSPropertyOp56
 70
     1
102
RTVSPropertyOp57
 70
     1
102
RTVSPropertyOp58
 70
     1
102
RTVSPropertyOp59
 70
     1
102
RTVSPropertyOp60
 70
     1
102
RTVSPropertyOp61
 70
     1
102
RTVSPropertyOp62
 70
     1
  0
XRECORD
  5
38B
102
{ACAD_REACTORS
330
38A
102
}
330
38A
100
AcDbXrecord
280
     1
102
RTVSPost2010Prop28
280
     0
102
RTVSPost2010PropOp28
 70
     1
102
RTVSPost2010Prop29
280
     1
102
RTVSPost2010PropOp29
 70
     1
102
RTVSPost2010Prop30
280
     1
102
RTVSPost2010PropOp30
 70
     1
102
RTVSPost2010Prop31
280
     0
102
RTVSPost2010PropOp31
 70
     1
102
RTVSPost2010Prop32
280
     0
102
RTVSPost2010PropOp32
 70
     1
102
RTVSPost2010Prop33
280
     0
102
RTVSPost2010PropOp33
 70
     1
102
RTVSPost2010Prop34
280
     0
102
RTVSPost2010PropOp34
 70
     1
102
RTVSPost2010Prop35
280
     0
102
RTVSPost2010PropOp35
 70
     1
102
RTVSPost2010Prop36
280
     0
102
RTVSPost2010PropOp36
 70
     1
102
RTVSPost2010Prop37
 90
       50
102
RTVSPost2010PropOp37
 70
     1
102
RTVSPost2010Prop38
140
0.0
102
RTVSPost2010PropOp38
 70
     1
102
RTVSPost2010Prop39
140
1.0
102
RTVSPost2010PropOp39
 70
     1
102
RTVSPost2010Prop40
 90
        0
102
RTVSPost2010PropOp40
 70
     1
102
RTVSPost2010Prop41ColorIndex
 90
       18
102
RTVSPost2010Prop41ColorRGB
 90
        0
102
RTVSPost2010PropOp41
 70
     1
102
RTVSPost2010Prop42
 90
       50
102
RTVSPost2010PropOp42
 70
     1
102
RTVSPost2010Prop43
 90
        3
102
RTVSPost2010PropOp43
 70
     1
102
RTVSPost2010Prop44ColorIndex
 90
        5
102
RTVSPost2010Prop44ColorRGB
 90
      255
102
RTVSPost2010PropOp44
 70
     1
102
RTVSPost2010Prop45
280
     0
102
RTVSPost2010PropOp45
 70
     1
102
RTVSPost2010Prop46
 90
       50
102
RTVSPost2010PropOp46
 70
     1
102
RTVSPost2010Prop47
 90
       50
102
RTVSPost2010PropOp47
 70
     1
102
RTVSPost2010Prop48
 90
       50
102
RTVSPost2010PropOp48
 70
     1
102
RTVSPost2010Prop49
280
     0
102
RTVSPost2010PropOp49
 70
     1
102
RTVSPost2010Prop50
 90
       50
102
RTVSPost2010PropOp50
 70
     1
102
RTVSPost2010Prop51ColorIndex
 90
      256
102
RTVSPost2010Prop51ColorRGB
 90
-16777216
102
RTVSPost2010PropOp51
 70
     0
102
RTVSPost2010Prop52
140
1.0
102
RTVSPost2010PropOp52
 70
     0
102
RTVSPost2010Prop53
 90
        2
102
RTVSPost2010PropOp53
 70
     1
102
RTVSPost2010Prop54
  1
strokes_ogs.tif
102
RTVSPost2010PropOp54
 70
     1
102
RTVSPost2010Prop55
280
     0
102
RTVSPost2010PropOp55
 70
     1
102
RTVSPost2010Prop56
140
1.0
102
RTVSPost2010PropOp56
 70
     1
102
RTVSPost2010Prop57
140
1.0
102
RTVSPost2010PropOp57
 70
     1
102
RTVSPropertyOp0
 70
     1
102
RTVSPropertyOp1
 70
     1
102
RTVSPropertyOp2
 70
     1
102
RTVSPropertyOp3
 70
     1
102
RTVSPropertyOp4
 70
     1
102
RTVSPropertyOp5
 70
     1
102
RTVSPropertyOp6
 70
     1
102
RTVSPropertyOp7
 70
     1
102
RTVSPropertyOp8
 70
     1
102
RTVSPropertyOp9
 70
     1
102
RTVSPropertyOp10
 70
     1
102
RTVSPropertyOp11
 70
     1
102
RTVSPropertyOp12
 70
     1
102
RTVSPropertyOp13
 70
     1
102
RTVSPropertyOp14
 70
     1
102
RTVSPropertyOp15
 70
     1
102
RTVSPropertyOp16
 70
     1
102
RTVSPropertyOp17
 70
     1
102
RTVSPropertyOp18
 70
     1
102
RTVSPropertyOp19
 70
     1
102
RTVSPropertyOp20
 70
     1
102
RTVSPropertyOp21
 70
     1
102
RTVSPropertyOp22
 70
     1
102
RTVSPropertyOp23
 70
     1
102
RTVSPropertyOp24
 70
     1
102
RTVSPropertyOp25
 70
     1
102
RTVSPropertyOp26
 70
     1
102
RTVSPropertyOp27
 70
     1
102
RTVSPropertyOp28
 70
     1
102
RTVSPropertyOp29
 70
     1
102
RTVSPropertyOp30
 70
     1
102
RTVSPropertyOp31
 70
     1
102
RTVSPropertyOp32
 70
     1
102
RTVSPropertyOp33
 70
     1
102
RTVSPropertyOp34
 70
     1
102
RTVSPropertyOp35
 70
     1
102
RTVSPropertyOp36
 70
     1
102
RTVSPropertyOp37
 70
     1
102
RTVSPropertyOp38
 70
     1
102
RTVSPropertyOp39
 70
     1
102
RTVSPropertyOp40
 70
     1
102
RTVSPropertyOp41
 70
     1
102
RTVSPropertyOp42
 70
     1
102
RTVSPropertyOp43
 70
     1
102
RTVSPropertyOp44
 70
     1
102
RTVSPropertyOp45
 70
     1
102
RTVSPropertyOp46
 70
     1
102
RTVSPropertyOp47
 70
     1
102
RTVSPropertyOp48
 70
     1
102
RTVSPropertyOp49
 70
     1
102
RTVSPropertyOp50
 70
     1
102
RTVSPropertyOp51
 70
     0
102
RTVSPropertyOp52
 70
     0
102
RTVSPropertyOp53
 70
     1
102
RTVSPropertyOp54
 70
     1
102
RTVSPropertyOp55
 70
     1
102
RTVSPropertyOp56
 70
     1
102
RTVSPropertyOp57
 70
     1
102
RTVSPropertyOp58
 70
     1
102
RTVSPropertyOp59
 70
     1
102
RTVSPropertyOp60
 70
     1
102
RTVSPropertyOp61
 70
     1
102
RTVSPropertyOp62
 70
     1
  0
XRECORD
  5
3AB
102
{ACAD_REACTORS
330
3AA
102
}
330
3AA
100
AcDbXrecord
280
     1
102
RTVSPost2010Prop28
280
     0
102
RTVSPost2010PropOp28
 70
     1
102
RTVSPost2010Prop29
280
     1
102
RTVSPost2010PropOp29
 70
     1
102
RTVSPost2010Prop30
280
     1
102
RTVSPost2010PropOp30
 70
     1
102
RTVSPost2010Prop31
280
     0
102
RTVSPost2010PropOp31
 70
     1
102
RTVSPost2010Prop32
280
     0
102
RTVSPost2010PropOp32
 70
     1
102
RTVSPost2010Prop33
280
     0
102
RTVSPost2010PropOp33
 70
     1
102
RTVSPost2010Prop34
280
     0
102
RTVSPost2010PropOp34
 70
     1
102
RTVSPost2010Prop35
280
     0
102
RTVSPost2010PropOp35
 70
     1
102
RTVSPost2010Prop36
280
     0
102
RTVSPost2010PropOp36
 70
     1
102
RTVSPost2010Prop37
 90
       50
102
RTVSPost2010PropOp37
 70
     1
102
RTVSPost2010Prop38
140
0.0
102
RTVSPost2010PropOp38
 70
     1
102
RTVSPost2010Prop39
140
1.0
102
RTVSPost2010PropOp39
 70
     1
102
RTVSPost2010Prop40
 90
        0
102
RTVSPost2010PropOp40
 70
     1
102
RTVSPost2010Prop41ColorIndex
 90
       18
102
RTVSPost2010Prop41ColorRGB
 90
        0
102
RTVSPost2010PropOp41
 70
     1
102
RTVSPost2010Prop42
 90
       50
102
RTVSPost2010PropOp42
 70
     1
102
RTVSPost2010Prop43
 90
        3
102
RTVSPost2010PropOp43
 70
     1
102
RTVSPost2010Prop44ColorIndex
 90
        5
102
RTVSPost2010Prop44ColorRGB
 90
      255
102
RTVSPost2010PropOp44
 70
     1
102
RTVSPost2010Prop45
280
     0
102
RTVSPost2010PropOp45
 70
     1
102
RTVSPost2010Prop46
 90
       50
102
RTVSPost2010PropOp46
 70
     1
102
RTVSPost2010Prop47
 90
       50
102
RTVSPost2010PropOp47
 70
     1
102
RTVSPost2010Prop48
 90
       50
102
RTVSPost2010PropOp48
 70
     1
102
RTVSPost2010Prop49
280
     0
102
RTVSPost2010PropOp49
 70
     1
102
RTVSPost2010Prop50
 90
       50
102
RTVSPost2010PropOp50
 70
     1
102
RTVSPost2010Prop51ColorIndex
 90
      256
102
RTVSPost2010Prop51ColorRGB
 90
-16777216
102
RTVSPost2010PropOp51
 70
     0
102
RTVSPost2010Prop52
140
1.0
102
RTVSPost2010PropOp52
 70
     0
102
RTVSPost2010Prop53
 90
        2
102
RTVSPost2010PropOp53
 70
     1
102
RTVSPost2010Prop54
  1
strokes_ogs.tif
102
RTVSPost2010PropOp54
 70
     1
102
RTVSPost2010Prop55
280
     0
102
RTVSPost2010PropOp55
 70
     1
102
RTVSPost2010Prop56
140
1.0
102
RTVSPost2010PropOp56
 70
     1
102
RTVSPost2010Prop57
140
1.0
102
RTVSPost2010PropOp57
 70
     1
102
RTVSPropertyOp0
 70
     1
102
RTVSPropertyOp1
 70
     1
102
RTVSPropertyOp2
 70
     1
102
RTVSPropertyOp3
 70
     1
102
RTVSPropertyOp4
 70
     1
102
RTVSPropertyOp5
 70
     1
102
RTVSPropertyOp6
 70
     1
102
RTVSPropertyOp7
 70
     1
102
RTVSPropertyOp8
 70
     1
102
RTVSPropertyOp9
 70
     1
102
RTVSPropertyOp10
 70
     1
102
RTVSPropertyOp11
 70
     1
102
RTVSPropertyOp12
 70
     1
102
RTVSPropertyOp13
 70
     1
102
RTVSPropertyOp14
 70
     1
102
RTVSPropertyOp15
 70
     1
102
RTVSPropertyOp16
 70
     1
102
RTVSPropertyOp17
 70
     1
102
RTVSPropertyOp18
 70
     1
102
RTVSPropertyOp19
 70
     1
102
RTVSPropertyOp20
 70
     1
102
RTVSPropertyOp21
 70
     1
102
RTVSPropertyOp22
 70
     1
102
RTVSPropertyOp23
 70
     1
102
RTVSPropertyOp24
 70
     1
102
RTVSPropertyOp25
 70
     1
102
RTVSPropertyOp26
 70
     1
102
RTVSPropertyOp27
 70
     1
102
RTVSPropertyOp28
 70
     1
102
RTVSPropertyOp29
 70
     1
102
RTVSPropertyOp30
 70
     1
102
RTVSPropertyOp31
 70
     1
102
RTVSPropertyOp32
 70
     1
102
RTVSPropertyOp33
 70
     1
102
RTVSPropertyOp34
 70
     1
102
RTVSPropertyOp35
 70
     1
102
RTVSPropertyOp36
 70
     1
102
RTVSPropertyOp37
 70
     1
102
RTVSPropertyOp38
 70
     1
102
RTVSPropertyOp39
 70
     1
102
RTVSPropertyOp40
 70
     1
102
RTVSPropertyOp41
 70
     1
102
RTVSPropertyOp42
 70
     1
102
RTVSPropertyOp43
 70
     1
102
RTVSPropertyOp44
 70
     1
102
RTVSPropertyOp45
 70
     1
102
RTVSPropertyOp46
 70
     1
102
RTVSPropertyOp47
 70
     1
102
RTVSPropertyOp48
 70
     1
102
RTVSPropertyOp49
 70
     1
102
RTVSPropertyOp50
 70
     1
102
RTVSPropertyOp51
 70
     0
102
RTVSPropertyOp52
 70
     0
102
RTVSPropertyOp53
 70
     1
102
RTVSPropertyOp54
 70
     1
102
RTVSPropertyOp55
 70
     1
102
RTVSPropertyOp56
 70
     1
102
RTVSPropertyOp57
 70
     1
102
RTVSPropertyOp58
 70
     1
102
RTVSPropertyOp59
 70
     1
102
RTVSPropertyOp60
 70
     1
102
RTVSPropertyOp61
 70
     1
102
RTVSPropertyOp62
 70
     1
  0
ENDSEC
  0
EOF
