  0
SECTION
  2
HEADER
  9
$ACADVER
  1
AC1018
  9
$ACADMAINTVER
 70
   104
  9
$DWGCODEPAGE
  3
ANSI_1250
  9
$LASTSAVEDBY
  1
wq7085
  9
$INSBASE
 10
0.0
 20
0.0
 30
0.0
  9
$EXTMIN
 10
188.6658343333333
 20
118.534924
 30
0.0
  9
$EXTMAX
 10
415.2489089999999
 20
345.2288016666667
 30
0.0
  9
$LIMMIN
 10
-0.5
 20
-0.5
  9
$LIMMAX
 10
5.0
 20
5.0
  9
$ORTHOMODE
 70
     0
  9
$REGENMODE
 70
     1
  9
$FILLMODE
 70
     1
  9
$QTEXTMODE
 70
     0
  9
$MIRRTEXT
 70
     1
  9
$LTSCALE
 40
1.0
  9
$ATTMODE
 70
     1
  9
$TEXTSIZE
 40
0.2
  9
$TRACEWID
 40
0.05
  9
$TEXTSTYLE
  7
Standard
  9
$CLAYER
  8
0
  9
$CELTYPE
  6
ByLayer
  9
$CECOLOR
 62
   256
  9
$CELTSCALE
 40
1.0
  9
$DISPSILH
 70
     0
  9
$DIMSCALE
 40
1.0
  9
$DIMASZ
 40
0.18
  9
$DIMEXO
 40
0.0625
  9
$DIMDLI
 40
0.38
  9
$DIMRND
 40
0.0
  9
$DIMDLE
 40
0.0
  9
$DIMEXE
 40
0.18
  9
$DIMTP
 40
0.0
  9
$DIMTM
 40
0.0
  9
$DIMTXT
 40
0.18
  9
$DIMCEN
 40
0.09
  9
$DIMTSZ
 40
0.0
  9
$DIMTOL
 70
     0
  9
$DIMLIM
 70
     0
  9
$DIMTIH
 70
     1
  9
$DIMTOH
 70
     1
  9
$DIMSE1
 70
     0
  9
$DIMSE2
 70
     0
  9
$DIMTAD
 70
     0
  9
$DIMZIN
 70
     0
  9
$DIMBLK
  1

  9
$DIMASO
 70
     1
  9
$DIMSHO
 70
     1
  9
$DIMPOST
  1

  9
$DIMAPOST
  1

  9
$DIMALT
 70
     0
  9
$DIMALTD
 70
     2
  9
$DIMALTF
 40
25.4
  9
$DIMLFAC
 40
1.0
  9
$DIMTOFL
 70
     0
  9
$DIMTVP
 40
0.0
  9
$DIMTIX
 70
     0
  9
$DIMSOXD
 70
     0
  9
$DIMSAH
 70
     0
  9
$DIMBLK1
  1

  9
$DIMBLK2
  1

  9
$DIMSTYLE
  2
Standard
  9
$DIMCLRD
 70
     0
  9
$DIMCLRE
 70
     0
  9
$DIMCLRT
 70
     0
  9
$DIMTFAC
 40
1.0
  9
$DIMGAP
 40
0.09
  9
$DIMJUST
 70
     0
  9
$DIMSD1
 70
     0
  9
$DIMSD2
 70
     0
  9
$DIMTOLJ
 70
     1
  9
$DIMTZIN
 70
     0
  9
$DIMALTZ
 70
     0
  9
$DIMALTTZ
 70
     0
  9
$DIMUPT
 70
     0
  9
$DIMDEC
 70
     4
  9
$DIMTDEC
 70
     4
  9
$DIMALTU
 70
     2
  9
$DIMALTTD
 70
     2
  9
$DIMTXSTY
  7
Standard
  9
$DIMAUNIT
 70
     0
  9
$DIMADEC
 70
     0
  9
$DIMALTRND
 40
0.0
  9
$DIMAZIN
 70
     0
  9
$DIMDSEP
 70
    46
  9
$DIMATFIT
 70
     3
  9
$DIMFRAC
 70
     0
  9
$DIMLDRBLK
  1

  9
$DIMLUNIT
 70
     2
  9
$DIMLWD
 70
    -2
  9
$DIMLWE
 70
    -2
  9
$DIMTMOVE
 70
     0
  9
$LUNITS
 70
     2
  9
$LUPREC
 70
     4
  9
$SKETCHINC
 40
0.1
  9
$FILLETRAD
 40
0.5
  9
$AUNITS
 70
     0
  9
$AUPREC
 70
     0
  9
$MENU
  1
.
  9
$ELEVATION
 40
0.0
  9
$PELEVATION
 40
0.0
  9
$THICKNESS
 40
0.0
  9
$LIMCHECK
 70
     0
  9
$CHAMFERA
 40
0.0
  9
$CHAMFERB
 40
0.0
  9
$CHAMFERC
 40
0.0
  9
$CHAMFERD
 40
0.0
  9
$SKPOLY
 70
     0
  9
$TDCREATE
 40
2459065.368645834
  9
$TDUCREATE
 40
2459065.285321031
  9
$TDUPDATE
 40
2459065.373043981
  9
$TDUUPDATE
 40
2459065.289710649
  9
$TDINDWG
 40
0.0035301042
  9
$TDUSRTIMER
 40
0.0035301042
  9
$USRTIMER
 70
     1
  9
$ANGBASE
 50
0.0
  9
$ANGDIR
 70
     0
  9
$PDMODE
 70
     0
  9
$PDSIZE
 40
0.0
  9
$PLINEWID
 40
0.0
  9
$SPLFRAME
 70
     0
  9
$SPLINETYPE
 70
     6
  9
$SPLINESEGS
 70
     8
  9
$HANDSEED
  5
3B5
  9
$SURFTAB1
 70
     6
  9
$SURFTAB2
 70
     6
  9
$SURFTYPE
 70
     6
  9
$SURFU
 70
     6
  9
$SURFV
 70
     6
  9
$UCSBASE
  2

  9
$UCSNAME
  2

  9
$UCSORG
 10
274.404842
 20
288.907994
 30
0.0
  9
$UCSXDIR
 10
1.0
 20
0.0
 30
0.0
  9
$UCSYDIR
 10
0.0
 20
1.0
 30
0.0
  9
$UCSORTHOREF
  2

  9
$UCSORTHOVIEW
 70
     0
  9
$UCSORGTOP
 10
0.0
 20
0.0
 30
0.0
  9
$UCSORGBOTTOM
 10
0.0
 20
0.0
 30
0.0
  9
$UCSORGLEFT
 10
0.0
 20
0.0
 30
0.0
  9
$UCSORGRIGHT
 10
0.0
 20
0.0
 30
0.0
  9
$UCSORGFRONT
 10
0.0
 20
0.0
 30
0.0
  9
$UCSORGBACK
 10
0.0
 20
0.0
 30
0.0
  9
$PUCSBASE
  2

  9
$PUCSNAME
  2

  9
$PUCSORG
 10
0.0
 20
0.0
 30
0.0
  9
$PUCSXDIR
 10
1.0
 20
0.0
 30
0.0
  9
$PUCSYDIR
 10
0.0
 20
1.0
 30
0.0
  9
$PUCSORTHOREF
  2

  9
$PUCSORTHOVIEW
 70
     0
  9
$PUCSORGTOP
 10
0.0
 20
0.0
 30
0.0
  9
$PUCSORGBOTTOM
 10
0.0
 20
0.0
 30
0.0
  9
$PUCSORGLEFT
 10
0.0
 20
0.0
 30
0.0
  9
$PUCSORGRIGHT
 10
0.0
 20
0.0
 30
0.0
  9
$PUCSORGFRONT
 10
0.0
 20
0.0
 30
0.0
  9
$PUCSORGBACK
 10
0.0
 20
0.0
 30
0.0
  9
$USERI1
 70
     0
  9
$USERI2
 70
     0
  9
$USERI3
 70
     0
  9
$USERI4
 70
     0
  9
$USERI5
 70
     0
  9
$USERR1
 40
0.0
  9
$USERR2
 40
0.0
  9
$USERR3
 40
0.0
  9
$USERR4
 40
0.0
  9
$USERR5
 40
0.0
  9
$WORLDVIEW
 70
     1
  9
$SHADEDGE
 70
     3
  9
$SHADEDIF
 70
    70
  9
$TILEMODE
 70
     1
  9
$MAXACTVP
 70
    64
  9
$PINSBASE
 10
0.0
 20
0.0
 30
0.0
  9
$PLIMCHECK
 70
     0
  9
$PEXTMIN
 10
-0.5
 20
-0.5
 30
-0.5
  9
$PEXTMAX
 10
5.0
 20
5.0
 30
5.0
  9
$PLIMMIN
 10
-0.5
 20
-0.5
  9
$PLIMMAX
 10
5.0
 20
5.0
  9
$UNITMODE
 70
     0
  9
$VISRETAIN
 70
     1
  9
$PLINEGEN
 70
     0
  9
$PSLTSCALE
 70
     1
  9
$TREEDEPTH
 70
  3020
  9
$CMLSTYLE
  2
Standard
  9
$CMLJUST
 70
     0
  9
$CMLSCALE
 40
1.0
  9
$PROXYGRAPHICS
 70
     1
  9
$MEASUREMENT
 70
     1
  9
$CELWEIGHT
370
    13
  9
$ENDCAPS
280
     0
  9
$JOINSTYLE
280
     0
  9
$LWDISPLAY
290
     0
  9
$INSUNITS
 70
     4
  9
$HYPERLINKBASE
  1

  9
$STYLESHEET
  1

  9
$XEDIT
290
     1
  9
$CEPSNTYPE
380
     0
  9
$PSTYLEMODE
290
     1
  9
$FINGERPRINTGUID
  2
{F6933AF6-1EAA-43B7-A011-EF0CDAF5C0CF}
  9
$VERSIONGUID
  2
{7B75DEB9-CD71-2849-8746-A02AE9CBAFFF}
  9
$EXTNAMES
290
     1
  9
$PSVPSCALE
 40
0.0
  9
$OLESTARTUP
290
     0
  9
$SORTENTS
280
   127
  9
$INDEXCTL
280
     0
  9
$HIDETEXT
280
     1
  9
$XCLIPFRAME
290
     0
  9
$HALOGAP
280
     0
  9
$OBSCOLOR
 70
   257
  9
$OBSLTYPE
280
     0
  9
$INTERSECTIONDISPLAY
280
     0
  9
$INTERSECTIONCOLOR
 70
   257
  9
$DIMASSOC
280
     2
  9
$PROJECTNAME
  1

  0
ENDSEC
  0
SECTION
  2
CLASSES
  0
CLASS
  1
ACDBDICTIONARYWDFLT
  2
AcDbDictionaryWithDefault
  3
ObjectDBX Classes
 90
        0
 91
        1
280
     0
281
     0
  0
CLASS
  1
VISUALSTYLE
  2
AcDbVisualStyle
  3
ObjectDBX Classes
 90
     4095
 91
       24
280
     0
281
     0
  0
CLASS
  1
MATERIAL
  2
AcDbMaterial
  3
ObjectDBX Classes
 90
     1153
 91
        3
280
     0
281
     0
  0
CLASS
  1
SCALE
  2
AcDbScale
  3
ObjectDBX Classes
 90
     1153
 91
       33
280
     0
281
     0
  0
CLASS
  1
TABLESTYLE
  2
AcDbTableStyle
  3
ObjectDBX Classes
 90
     4095
 91
        1
280
     0
281
     0
  0
CLASS
  1
MLEADERSTYLE
  2
AcDbMLeaderStyle
  3
ACDB_MLEADERSTYLE_CLASS
 90
     4095
 91
        1
280
     0
281
     0
  0
CLASS
  1
SUN
  2
AcDbSun
  3
SCENEOE
 90
     1153
 91
        0
280
     0
281
     0
  0
CLASS
  1
DIMASSOC
  2
AcDbDimAssoc
  3
"AcDbDimAssoc|Product Desc:     AcDim ARX App For Dimension|Company:          Autodesk, Inc.|WEB Address:      www.autodesk.com"
 90
        0
 91
        7
280
     0
281
     0
  0
CLASS
  1
DICTIONARYVAR
  2
AcDbDictionaryVar
  3
ObjectDBX Classes
 90
        0
 91
        8
280
     0
281
     0
  0
CLASS
  1
CELLSTYLEMAP
  2
AcDbCellStyleMap
  3
ObjectDBX Classes
 90
     1152
 91
        2
280
     0
281
     0
  0
CLASS
  1
ACDBSECTIONVIEWSTYLE
  2
AcDbSectionViewStyle
  3
ObjectDBX Classes
 90
     1025
 91
        1
280
     0
281
     0
  0
CLASS
  1
ACDBDETAILVIEWSTYLE
  2
AcDbDetailViewStyle
  3
ObjectDBX Classes
 90
     1025
 91
        1
280
     0
281
     0
  0
CLASS
  1
SORTENTSTABLE
  2
AcDbSortentsTable
  3
ObjectDBX Classes
 90
        0
 91
        1
280
     0
281
     0
  0
ENDSEC
  0
SECTION
  2
TABLES
  0
TABLE
  2
VPORT
  5
8
330
0
100
AcDbSymbolTable
 70
    16
  0
VPORT
  5
29
330
8
100
AcDbSymbolTableRecord
100
AcDbViewportTableRecord
  2
*Active
 70
     0
 10
0.0
 20
0.0
 11
1.0
 21
1.0
 12
324.5800401467344
 22
282.7965879145267
 13
0.0
 23
0.0
 14
0.5
 24
0.5
 15
0.5
 25
0.5
 16
0.0
 26
0.0
 36
1.0
 17
0.0
 27
0.0
 37
0.0
 40
203.2634645559946
 41
2.292712066905615
 42
50.0
 43
430.296954
 44
-430.296954
 50
0.0
 51
0.0
 71
     0
 72
   100
 73
     1
 74
     3
 75
     0
 76
     0
 77
     0
 78
     0
281
     0
 65
     1
110
274.404842
120
288.907994
130
0.0
111
1.0
121
0.0
131
0.0
112
0.0
122
1.0
132
0.0
 79
     0
146
0.0
1001
ACAD_NAV_VCDISPLAY
1070
     3
  0
VPORT
  5
2B6
330
8
100
AcDbSymbolTableRecord
100
AcDbViewportTableRecord
  2
L1
 70
     0
 10
0.0
 20
0.0
 11
1.0
 21
1.0
 12
301.453163
 22
231.866446
 13
0.0
 23
0.0
 14
0.5
 24
0.5
 15
0.5
 25
0.5
 16
0.0
 26
0.0
 36
1.0
 17
0.0
 27
0.0
 37
0.0
 40
207.433333
 41
0.085602
 42
50.0
 43
430.296954
 44
-430.296954
 50
0.0
 51
0.0
 71
     0
 72
   100
 73
     1
 74
     3
 75
     0
 76
     0
 77
     0
 78
     0
281
     0
 65
     1
110
0.0
120
0.0
130
0.0
111
1.0
121
0.0
131
0.0
112
0.0
122
1.0
132
0.0
 79
     0
146
0.0
  0
VPORT
  5
2B7
330
8
100
AcDbSymbolTableRecord
100
AcDbViewportTableRecord
  2
L2
 70
     0
 10
0.0
 20
0.0
 11
0.5
 21
1.0
 12
0.0
 22
0.0
 13
0.0
 23
0.0
 14
0.5
 24
0.5
 15
0.5
 25
0.5
 16
0.0
 26
-1.0
 36
0.0
 17
0.0
 27
0.0
 37
0.0
 40
1339.368397
 41
0.013258
 42
50.0
 43
690.502282
 44
-690.502282
 50
0.0
 51
0.0
 71
     0
 72
   100
 73
     1
 74
     3
 75
     0
 76
     0
 77
     0
 78
     0
281
     0
 65
     1
110
0.0
120
0.0
130
0.0
111
1.0
121
0.0
131
0.0
112
0.0
122
1.0
132
0.0
 79
     0
146
0.0
  0
VPORT
  5
2B8
330
8
100
AcDbSymbolTableRecord
100
AcDbViewportTableRecord
  2
L2
 70
     0
 10
0.5
 20
0.0
 11
1.0
 21
1.0
 12
0.0
 22
0.0
 13
0.0
 23
0.0
 14
0.5
 24
0.5
 15
0.5
 25
0.5
 16
1.0
 26
0.0
 36
0.0
 17
0.0
 27
0.0
 37
0.0
 40
1339.368397
 41
0.013258
 42
50.0
 43
677.6681139999999
 44
-677.6681139999999
 50
0.0
 51
0.0
 71
     0
 72
   100
 73
     1
 74
     3
 75
     0
 76
     0
 77
     0
 78
     0
281
     0
 65
     1
110
0.0
120
0.0
130
0.0
111
1.0
121
0.0
131
0.0
112
0.0
122
1.0
132
0.0
 79
     0
146
0.0
  0
VPORT
  5
2B9
330
8
100
AcDbSymbolTableRecord
100
AcDbViewportTableRecord
  2
L3
 70
     0
 10
0.0
 20
0.5
 11
1.0
 21
1.0
 12
301.453163
 22
231.866446
 13
0.0
 23
0.0
 14
0.5
 24
0.5
 15
0.5
 25
0.5
 16
0.0
 26
0.0
 36
1.0
 17
0.0
 27
0.0
 37
0.0
 40
207.433333
 41
0.085602
 42
50.0
 43
430.296954
 44
-430.296954
 50
0.0
 51
0.0
 71
     0
 72
   100
 73
     1
 74
     3
 75
     0
 76
     0
 77
     0
 78
     0
281
     0
 65
     1
110
0.0
120
0.0
130
0.0
111
1.0
121
0.0
131
0.0
112
0.0
122
1.0
132
0.0
 79
     0
146
0.0
  0
VPORT
  5
2BA
330
8
100
AcDbSymbolTableRecord
100
AcDbViewportTableRecord
  2
L3
 70
     0
 10
0.0
 20
0.0
 11
1.0
 21
0.5
 12
0.0
 22
0.0
 13
0.0
 23
0.0
 14
0.5
 24
0.5
 15
0.5
 25
0.5
 16
0.0
 26
-1.0
 36
0.0
 17
0.0
 27
0.0
 37
0.0
 40
1339.368397
 41
0.013258
 42
50.0
 43
690.502282
 44
-690.502282
 50
0.0
 51
0.0
 71
     0
 72
   100
 73
     1
 74
     3
 75
     0
 76
     0
 77
     0
 78
     0
281
     0
 65
     1
110
0.0
120
0.0
130
0.0
111
1.0
121
0.0
131
0.0
112
0.0
122
1.0
132
0.0
 79
     0
146
0.0
  0
VPORT
  5
2BB
330
8
100
AcDbSymbolTableRecord
100
AcDbViewportTableRecord
  2
L4
 70
     0
 10
0.0
 20
0.5
 11
0.5
 21
1.0
 12
301.453163
 22
231.866446
 13
0.0
 23
0.0
 14
0.5
 24
0.5
 15
0.5
 25
0.5
 16
0.0
 26
0.0
 36
1.0
 17
0.0
 27
0.0
 37
0.0
 40
207.433333
 41
0.085602
 42
50.0
 43
430.296954
 44
-430.296954
 50
0.0
 51
0.0
 71
     0
 72
   100
 73
     1
 74
     3
 75
     0
 76
     0
 77
     0
 78
     0
281
     0
 65
     1
110
0.0
120
0.0
130
0.0
111
1.0
121
0.0
131
0.0
112
0.0
122
1.0
132
0.0
 79
     0
146
0.0
  0
VPORT
  5
2BC
330
8
100
AcDbSymbolTableRecord
100
AcDbViewportTableRecord
  2
L4
 70
     0
 10
0.0
 20
0.0
 11
0.5
 21
0.5
 12
0.0
 22
0.0
 13
0.0
 23
0.0
 14
0.5
 24
0.5
 15
0.5
 25
0.5
 16
0.0
 26
-1.0
 36
0.0
 17
0.0
 27
0.0
 37
0.0
 40
1339.368397
 41
0.013258
 42
50.0
 43
690.502282
 44
-690.502282
 50
0.0
 51
0.0
 71
     0
 72
   100
 73
     1
 74
     3
 75
     0
 76
     0
 77
     0
 78
     0
281
     0
 65
     1
110
0.0
120
0.0
130
0.0
111
1.0
121
0.0
131
0.0
112
0.0
122
1.0
132
0.0
 79
     0
146
0.0
  0
VPORT
  5
2BD
330
8
100
AcDbSymbolTableRecord
100
AcDbViewportTableRecord
  2
L4
 70
     0
 10
0.5
 20
0.0
 11
1.0
 21
0.5
 12
0.0
 22
0.0
 13
0.0
 23
0.0
 14
0.5
 24
0.5
 15
0.5
 25
0.5
 16
1.0
 26
0.0
 36
0.0
 17
0.0
 27
0.0
 37
0.0
 40
1339.368397
 41
0.013258
 42
50.0
 43
677.6681139999999
 44
-677.6681139999999
 50
0.0
 51
0.0
 71
     0
 72
   100
 73
     1
 74
     3
 75
     0
 76
     0
 77
     0
 78
     0
281
     0
 65
     1
110
0.0
120
0.0
130
0.0
111
1.0
121
0.0
131
0.0
112
0.0
122
1.0
132
0.0
 79
     0
146
0.0
  0
VPORT
  5
2BE
330
8
100
AcDbSymbolTableRecord
100
AcDbViewportTableRecord
  2
L4
 70
     0
 10
0.5
 20
0.5
 11
1.0
 21
1.0
 12
0.0
 22
0.0
 13
0.0
 23
0.0
 14
0.5
 24
0.5
 15
0.5
 25
0.5
 16
0.5773502691896259
 26
-0.5773502691896259
 36
0.5773502691896259
 17
0.0
 27
0.0
 37
0.0
 40
1315.669983
 41
0.013496
 42
50.0
 43
685.3733359999999
 44
-685.3733359999999
 50
0.0
 51
0.0
 71
     0
 72
   100
 73
     1
 74
     3
 75
     0
 76
     0
 77
     0
 78
     0
281
     0
 65
     1
110
0.0
120
0.0
130
0.0
111
1.0
121
0.0
131
0.0
112
0.0
122
1.0
132
0.0
 79
     0
146
0.0
  0
VPORT
  5
2BF
330
8
100
AcDbSymbolTableRecord
100
AcDbViewportTableRecord
  2
L6
 70
     0
 10
0.0
 20
0.5
 11
0.333333
 21
1.0
 12
0.0
 22
0.0
 13
0.0
 23
0.0
 14
0.5
 24
0.5
 15
0.5
 25
0.5
 16
0.7188730927569434
 26
-0.5850486126764433
 36
0.3754192287502549
 17
0.0
 27
0.0
 37
0.0
 40
1388.551873
 41
0.012788
 42
50.0
 43
718.93087
 44
-718.93087
 50
0.0
 51
0.0
 71
     0
 72
   100
 73
     1
 74
     3
 75
     0
 76
     0
 77
     0
 78
     0
281
     0
 65
     1
110
0.0
120
0.0
130
0.0
111
1.0
121
0.0
131
0.0
112
0.0
122
1.0
132
0.0
 79
     0
146
0.0
  0
VPORT
  5
2C0
330
8
100
AcDbSymbolTableRecord
100
AcDbViewportTableRecord
  2
L6
 70
     0
 10
0.0
 20
0.0
 11
0.333333
 21
0.5
 12
0.0
 22
0.0
 13
0.0
 23
0.0
 14
0.5
 24
0.5
 15
0.5
 25
0.5
 16
-1.0
 26
0.0
 36
0.0
 17
0.0
 27
0.0
 37
0.0
 40
1339.368397
 41
0.013258
 42
50.0
 43
677.6681139999999
 44
-677.6681139999999
 50
0.0
 51
0.0
 71
     0
 72
   100
 73
     1
 74
     3
 75
     0
 76
     0
 77
     0
 78
     0
281
     0
 65
     1
110
0.0
120
0.0
130
0.0
111
1.0
121
0.0
131
0.0
112
0.0
122
1.0
132
0.0
 79
     0
146
0.0
  0
VPORT
  5
2C1
330
8
100
AcDbSymbolTableRecord
100
AcDbViewportTableRecord
  2
L6
 70
     0
 10
0.333333
 20
0.5
 11
0.666667
 21
1.0
 12
301.453163
 22
231.866446
 13
0.0
 23
0.0
 14
0.5
 24
0.5
 15
0.5
 25
0.5
 16
0.0
 26
0.0
 36
1.0
 17
0.0
 27
0.0
 37
0.0
 40
207.433333
 41
0.085602
 42
50.0
 43
430.296954
 44
-430.296954
 50
0.0
 51
0.0
 71
     0
 72
   100
 73
     1
 74
     3
 75
     0
 76
     0
 77
     0
 78
     0
281
     0
 65
     1
110
0.0
120
0.0
130
0.0
111
1.0
121
0.0
131
0.0
112
0.0
122
1.0
132
0.0
 79
     0
146
0.0
  0
VPORT
  5
2C2
330
8
100
AcDbSymbolTableRecord
100
AcDbViewportTableRecord
  2
L6
 70
     0
 10
0.333333
 20
0.0
 11
0.666667
 21
0.5
 12
0.0
 22
0.0
 13
0.0
 23
0.0
 14
0.5
 24
0.5
 15
0.5
 25
0.5
 16
0.0
 26
-1.0
 36
0.0
 17
0.0
 27
0.0
 37
0.0
 40
1339.368397
 41
0.013258
 42
50.0
 43
690.502282
 44
-690.502282
 50
0.0
 51
0.0
 71
     0
 72
   100
 73
     1
 74
     3
 75
     0
 76
     0
 77
     0
 78
     0
281
     0
 65
     1
110
0.0
120
0.0
130
0.0
111
1.0
121
0.0
131
0.0
112
0.0
122
1.0
132
0.0
 79
     0
146
0.0
  0
VPORT
  5
2C3
330
8
100
AcDbSymbolTableRecord
100
AcDbViewportTableRecord
  2
L6
 70
     0
 10
0.666667
 20
0.5
 11
1.0
 21
1.0
 12
0.0
 22
0.0
 13
0.0
 23
0.0
 14
0.5
 24
0.5
 15
0.5
 25
0.5
 16
0.5773502691896259
 26
-0.5773502691896259
 36
0.5773502691896259
 17
0.0
 27
0.0
 37
0.0
 40
1315.669983
 41
0.013496
 42
50.0
 43
685.3733359999999
 44
-685.3733359999999
 50
0.0
 51
0.0
 71
     0
 72
   100
 73
     1
 74
     3
 75
     0
 76
     0
 77
     0
 78
     0
281
     0
 65
     1
110
0.0
120
0.0
130
0.0
111
1.0
121
0.0
131
0.0
112
0.0
122
1.0
132
0.0
 79
     0
146
0.0
  0
VPORT
  5
2C4
330
8
100
AcDbSymbolTableRecord
100
AcDbViewportTableRecord
  2
L6
 70
     0
 10
0.666667
 20
0.0
 11
1.0
 21
0.5
 12
0.0
 22
0.0
 13
0.0
 23
0.0
 14
0.5
 24
0.5
 15
0.5
 25
0.5
 16
1.0
 26
0.0
 36
0.0
 17
0.0
 27
0.0
 37
0.0
 40
1339.368397
 41
0.013258
 42
50.0
 43
677.6681139999999
 44
-677.6681139999999
 50
0.0
 51
0.0
 71
     0
 72
   100
 73
     1
 74
     3
 75
     0
 76
     0
 77
     0
 78
     0
281
     0
 65
     1
110
0.0
120
0.0
130
0.0
111
1.0
121
0.0
131
0.0
112
0.0
122
1.0
132
0.0
 79
     0
146
0.0
  0
ENDTAB
  0
TABLE
  2
LTYPE
  5
5
330
0
100
AcDbSymbolTable
 70
     7
  0
LTYPE
  5
14
330
5
100
AcDbSymbolTableRecord
100
AcDbLinetypeTableRecord
  2
ByBlock
 70
     0
  3

 72
    65
 73
     0
 40
0.0
  0
LTYPE
  5
15
330
5
100
AcDbSymbolTableRecord
100
AcDbLinetypeTableRecord
  2
ByLayer
 70
     0
  3

 72
    65
 73
     0
 40
0.0
  0
LTYPE
  5
16
330
5
100
AcDbSymbolTableRecord
100
AcDbLinetypeTableRecord
  2
Continuous
 70
     0
  3
Solid line
 72
    65
 73
     0
 40
0.0
  0
LTYPE
  5
6E
330
5
100
AcDbSymbolTableRecord
100
AcDbLinetypeTableRecord
  2
CENTER
 70
     0
  3
____ _ ____ _ ____ _ ____
 72
    65
 73
     4
 40
47.4
 49
22.0
 74
     4
 75
     0
340
0
 46
0.0
 50
0.0
 44
0.0
 45
0.0
 49
-8.5
 74
     4
 75
     0
340
0
 46
0.0
 50
0.0
 44
0.0
 45
0.0
 49
8.5
 74
     4
 75
     0
340
0
 46
0.0
 50
0.0
 44
0.0
 45
0.0
 49
-8.5
 74
     4
 75
     0
340
0
 46
0.0
 50
0.0
 44
0.0
 45
0.0
  0
LTYPE
  5
6F
330
5
100
AcDbSymbolTableRecord
100
AcDbLinetypeTableRecord
  2
DASHDOT
 70
     0
  3
_._._._._._._._._._._._._._._._.
 72
    65
 73
     4
 40
70.0
 49
31.0
 74
     4
 75
     0
340
0
 46
0.0
 50
0.0
 44
0.0
 45
0.0
 49
-13.0
 74
     4
 75
     0
340
0
 46
0.0
 50
0.0
 44
0.0
 45
0.0
 49
13.0
 74
     4
 75
     0
340
0
 46
0.0
 50
0.0
 44
0.0
 45
0.0
 49
-13.0
 74
     4
 75
     0
340
0
 46
0.0
 50
0.0
 44
0.0
 45
0.0
  0
LTYPE
  5
70
330
5
100
AcDbSymbolTableRecord
100
AcDbLinetypeTableRecord
  2
DASHED
 70
     0
  3
__ __ __ __ __ __ __ __ __
 72
    65
 73
     2
 40
25.72
 49
12.86
 74
     4
 75
     0
340
0
 46
0.0
 50
0.0
 44
0.0
 45
0.0
 49
-12.86
 74
     4
 75
     0
340
0
 46
0.0
 50
0.0
 44
0.0
 45
0.0
  0
LTYPE
  5
71
330
5
100
AcDbSymbolTableRecord
100
AcDbLinetypeTableRecord
  2
DOT
 70
     0
  3
.........................
 72
    65
 73
     2
 40
10.0
 49
0.0
 74
     4
 75
     0
340
0
 46
0.0
 50
0.0
 44
0.0
 45
0.0
 49
-10.0
 74
     4
 75
     0
340
0
 46
0.0
 50
0.0
 44
0.0
 45
0.0
  0
LTYPE
  5
72
330
5
100
AcDbSymbolTableRecord
100
AcDbLinetypeTableRecord
  2
PHANTOM
 70
     0
  3
____ _ _ ____ _ _ _____ _ _ ____
 72
    65
 73
     6
 40
50.5
 49
18.0
 74
     4
 75
     0
340
0
 46
0.0
 50
0.0
 44
0.0
 45
0.0
 49
-6.5
 74
     4
 75
     0
340
0
 46
0.0
 50
0.0
 44
0.0
 45
0.0
 49
6.5
 74
     4
 75
     0
340
0
 46
0.0
 50
0.0
 44
0.0
 45
0.0
 49
-6.5
 74
     4
 75
     0
340
0
 46
0.0
 50
0.0
 44
0.0
 45
0.0
 49
6.5
 74
     4
 75
     0
340
0
 46
0.0
 50
0.0
 44
0.0
 45
0.0
 49
-6.5
 74
     4
 75
     0
340
0
 46
0.0
 50
0.0
 44
0.0
 45
0.0
  0
LTYPE
  5
357
330
5
100
AcDbSymbolTableRecord
100
AcDbLinetypeTableRecord
  2
CENTER2
 70
     0
  3
Center (.5x) ___ _ ___ _ ___ _ ___ _ ___ _ ___
 72
    65
 73
     4
 40
1.125
 49
0.75
 74
     0
 49
-0.125
 74
     0
 49
0.125
 74
     0
 49
-0.125
 74
     0
  0
ENDTAB
  0
TABLE
  2
LAYER
  5
2
330
0
100
AcDbSymbolTable
 70
    22
  0
LAYER
  5
10
102
{ACAD_XDICTIONARY
360
362
102
}
330
2
100
AcDbSymbolTableRecord
100
AcDbLayerTableRecord
  2
0
 70
     0
 62
     7
  6
Continuous
370
    -3
390
F
  0
LAYER
  5
210
330
2
100
AcDbSymbolTableRecord
100
AcDbLayerTableRecord
  2
Defpoints
 70
     0
 62
     7
  6
Continuous
290
     0
370
    -3
390
F
  0
LAYER
  5
354
102
{ACAD_XDICTIONARY
360
364
102
}
330
2
100
AcDbSymbolTableRecord
100
AcDbLayerTableRecord
  2
1
 70
     0
 62
     4
  6
Continuous
370
    -3
390
F
  0
LAYER
  5
355
102
{ACAD_XDICTIONARY
360
366
102
}
330
2
100
AcDbSymbolTableRecord
100
AcDbLayerTableRecord
  2
2
 70
     0
 62
     7
  6
Continuous
370
    -3
390
F
  0
LAYER
  5
356
102
{ACAD_XDICTIONARY
360
368
102
}
330
2
100
AcDbSymbolTableRecord
100
AcDbLayerTableRecord
  2
4
 70
     0
 62
     2
  6
CENTER2
370
    -3
390
F
  0
LAYER
  5
358
102
{ACAD_XDICTIONARY
360
36A
102
}
330
2
100
AcDbSymbolTableRecord
100
AcDbLayerTableRecord
  2
SK1
 70
     0
 62
     4
  6
Continuous
370
    -3
390
F
  0
LAYER
  5
359
102
{ACAD_XDICTIONARY
360
36C
102
}
330
2
100
AcDbSymbolTableRecord
100
AcDbLayerTableRecord
  2
SK2
 70
     0
 62
     7
  6
Continuous
370
    -3
390
F
  0
LAYER
  5
35B
102
{ACAD_XDICTIONARY
360
36E
102
}
330
2
100
AcDbSymbolTableRecord
100
AcDbLayerTableRecord
  2
SK4
 70
     0
 62
     2
  6
CENTER2
370
    -3
390
F
  0
LAYER
  5
35C
102
{ACAD_XDICTIONARY
360
370
102
}
330
2
100
AcDbSymbolTableRecord
100
AcDbLayerTableRecord
  2
SK6
 70
     0
 62
     5
  6
Continuous
370
    -3
390
F
  0
LAYER
  5
35D
102
{ACAD_XDICTIONARY
360
372
102
}
330
2
100
AcDbSymbolTableRecord
100
AcDbLayerTableRecord
  2
CUT
 70
     0
 62
     1
  6
Continuous
370
    -3
390
F
  0
LAYER
  5
35E
102
{ACAD_XDICTIONARY
360
374
102
}
330
2
100
AcDbSymbolTableRecord
100
AcDbLayerTableRecord
  2
NOCUT
 70
     0
 62
     7
  6
Continuous
370
    -3
390
F
  0
LAYER
  5
35F
102
{ACAD_XDICTIONARY
360
376
102
}
330
2
100
AcDbSymbolTableRecord
100
AcDbLayerTableRecord
  2
80
 70
     0
 62
     6
  6
Continuous
370
    -3
390
F
  0
LAYER
  5
360
102
{ACAD_XDICTIONARY
360
378
102
}
330
2
100
AcDbSymbolTableRecord
100
AcDbLayerTableRecord
  2
81
 70
     0
 62
     3
  6
Continuous
370
    -3
390
F
  0
ENDTAB
  0
TABLE
  2
STYLE
  5
3
330
0
100
AcDbSymbolTable
 70
     3
  0
STYLE
  5
11
330
3
100
AcDbSymbolTableRecord
100
AcDbTextStyleTableRecord
  2
Standard
 70
     0
 40
0.0
 41
1.0
 50
0.0
 71
     0
 42
0.2
  3
txt
  4

  0
STYLE
  5
204
330
3
100
AcDbSymbolTableRecord
100
AcDbTextStyleTableRecord
  2
cesky
 70
     0
 40
0.0
 41
1.0
 50
0.0
 71
     0
 42
0.2
  3
simplex.shx
  4

  0
STYLE
  5
205
330
3
100
AcDbSymbolTableRecord
100
AcDbTextStyleTableRecord
  2
DWGDirectTextStyle
 70
     0
 40
0.0
 41
1.0
 50
0.0
 71
     0
 42
0.2
  3
simplex
  4

  0
ENDTAB
  0
TABLE
  2
VIEW
  5
6
330
0
100
AcDbSymbolTable
 70
     0
  0
ENDTAB
  0
TABLE
  2
UCS
  5
7
330
0
100
AcDbSymbolTable
 70
     0
  0
ENDTAB
  0
TABLE
  2
APPID
  5
9
330
0
100
AcDbSymbolTable
 70
     7
  0
APPID
  5
12
330
9
100
AcDbSymbolTableRecord
100
AcDbRegAppTableRecord
  2
ACAD
 70
     0
  0
APPID
  5
20C
330
9
100
AcDbSymbolTableRecord
100
AcDbRegAppTableRecord
  2
ACAD_DSTYLE_DIMBREAK
 70
     0
  0
APPID
  5
2C5
330
9
100
AcDbSymbolTableRecord
100
AcDbRegAppTableRecord
  2
ACAD_DSTYLE_DIM_LINETYPE
 70
     0
  0
APPID
  5
2C6
330
9
100
AcDbSymbolTableRecord
100
AcDbRegAppTableRecord
  2
ACAD_DSTYLE_DIM_EXT1_LINETYPE
 70
     0
  0
APPID
  5
2C7
330
9
100
AcDbSymbolTableRecord
100
AcDbRegAppTableRecord
  2
ACAD_DSTYLE_DIM_EXT2_LINETYPE
 70
     0
  0
APPID
  5
307
330
9
100
AcDbSymbolTableRecord
100
AcDbRegAppTableRecord
  2
ACAD_MLEADERVER
 70
     0
  0
APPID
  5
37D
330
9
100
AcDbSymbolTableRecord
100
AcDbRegAppTableRecord
  2
ACAD_NAV_VCDISPLAY
 70
     0
  0
ENDTAB
  0
TABLE
  2
DIMSTYLE
  5
A
330
0
100
AcDbSymbolTable
 70
     1
100
AcDbDimStyleTable
 71
     0
  0
DIMSTYLE
105
27
330
A
100
AcDbSymbolTableRecord
100
AcDbDimStyleTableRecord
  2
Standard
 70
     0
340
11
1001
ACAD_DSTYLE_DIMBREAK
1070
   391
1040
6.349999999999999
  0
ENDTAB
  0
TABLE
  2
BLOCK_RECORD
  5
1
330
0
100
AcDbSymbolTable
 70
    16
  0
BLOCK_RECORD
  5
1F
102
{ACAD_XDICTIONARY
360
317
102
}
330
1
100
AcDbSymbolTableRecord
100
AcDbBlockTableRecord
  2
*Model_Space
340
22
  0
BLOCK_RECORD
  5
1B
330
1
100
AcDbSymbolTableRecord
100
AcDbBlockTableRecord
  2
*Paper_Space
340
1E
  0
BLOCK_RECORD
  5
23
330
1
100
AcDbSymbolTableRecord
100
AcDbBlockTableRecord
  2
*Paper_Space0
340
26
  0
BLOCK_RECORD
  5
207
330
1
100
AcDbSymbolTableRecord
100
AcDbBlockTableRecord
  2
ASSORTED_DRAFT1
340
0
  0
BLOCK_RECORD
  5
211
330
1
100
AcDbSymbolTableRecord
100
AcDbBlockTableRecord
  2
*D2
340
0
  0
BLOCK_RECORD
  5
21C
330
1
100
AcDbSymbolTableRecord
100
AcDbBlockTableRecord
  2
_U0
340
0
  0
BLOCK_RECORD
  5
227
330
1
100
AcDbSymbolTableRecord
100
AcDbBlockTableRecord
  2
*D4
340
0
  0
BLOCK_RECORD
  5
233
330
1
100
AcDbSymbolTableRecord
100
AcDbBlockTableRecord
  2
_U1
340
0
  0
BLOCK_RECORD
  5
240
330
1
100
AcDbSymbolTableRecord
100
AcDbBlockTableRecord
  2
*D6
340
0
  0
BLOCK_RECORD
  5
24C
330
1
100
AcDbSymbolTableRecord
100
AcDbBlockTableRecord
  2
_U2
340
0
  0
BLOCK_RECORD
  5
259
330
1
100
AcDbSymbolTableRecord
100
AcDbBlockTableRecord
  2
*D8
340
0
  0
BLOCK_RECORD
  5
265
330
1
100
AcDbSymbolTableRecord
100
AcDbBlockTableRecord
  2
_U3
340
0
  0
BLOCK_RECORD
  5
271
330
1
100
AcDbSymbolTableRecord
100
AcDbBlockTableRecord
  2
*D10
340
0
  0
BLOCK_RECORD
  5
27D
330
1
100
AcDbSymbolTableRecord
100
AcDbBlockTableRecord
  2
_U4
340
0
  0
BLOCK_RECORD
  5
289
330
1
100
AcDbSymbolTableRecord
100
AcDbBlockTableRecord
  2
*D12
340
0
  0
BLOCK_RECORD
  5
295
330
1
100
AcDbSymbolTableRecord
100
AcDbBlockTableRecord
  2
_U5
340
0
  0
BLOCK_RECORD
  5
2A1
330
1
100
AcDbSymbolTableRecord
100
AcDbBlockTableRecord
  2
*D14
340
0
  0
BLOCK_RECORD
  5
2AD
330
1
100
AcDbSymbolTableRecord
100
AcDbBlockTableRecord
  2
_U6
340
0
  0
ENDTAB
  0
ENDSEC
  0
SECTION
  2
BLOCKS
  0
BLOCK
  5
20
330
1F
100
AcDbEntity
  8
0
100
AcDbBlockBegin
  2
*Model_Space
 70
     0
 10
0.0
 20
0.0
 30
0.0
  3
*Model_Space
  1

  0
ENDBLK
  5
21
330
1F
100
AcDbEntity
  8
0
100
AcDbBlockEnd
  0
BLOCK
  5
1C
330
1B
100
AcDbEntity
 67
     1
  8
0
100
AcDbBlockBegin
  2
*Paper_Space
 70
     0
 10
0.0
 20
0.0
 30
0.0
  3
*Paper_Space
  1

  0
ENDBLK
  5
1D
330
1B
100
AcDbEntity
 67
     1
  8
0
100
AcDbBlockEnd
  0
BLOCK
  5
24
330
23
100
AcDbEntity
 67
     1
  8
0
100
AcDbBlockBegin
  2
*Paper_Space0
 70
     0
 10
0.0
 20
0.0
 30
0.0
  3
*Paper_Space0
  1

  0
ENDBLK
  5
25
330
23
100
AcDbEntity
 67
     1
  8
0
100
AcDbBlockEnd
  0
BLOCK
  5
20A
330
207
100
AcDbEntity
  8
0
100
AcDbBlockBegin
  2
ASSORTED_DRAFT1
 70
     0
 10
0.0
 20
0.0
 30
0.0
  3
ASSORTED_DRAFT1
  1

  0
SOLID
  5
208
330
207
100
AcDbEntity
  8
0
 62
   254
370
    13
100
AcDbTrace
 10
270.185042
 20
164.534924
 30
0.0
 11
265.185046
 21
163.42645
 31
0.0
 12
265.1850379999999
 22
165.643397
 32
0.0
 13
270.185042
 23
164.534924
 33
0.0
  0
ENDBLK
  5
20B
330
207
100
AcDbEntity
  8
0
100
AcDbBlockEnd
  0
BLOCK
  5
212
330
211
100
AcDbEntity
  8
0
100
AcDbBlockBegin
  2
*D2
 70
     1
 10
0.0
 20
0.0
 30
0.0
  3
*D2
  1

  0
LINE
  5
214
330
211
100
AcDbEntity
  8
0
 62
   254
370
    -2
100
AcDbLine
 10
289.703832
 20
288.907994
 30
0.0
 11
415.2489089999999
 21
288.907994
 31
0.0
  0
LINE
  5
215
330
211
100
AcDbEntity
  8
0
 62
   254
370
    -2
100
AcDbLine
 10
330.83929
 20
305.907994
 30
0.0
 11
415.2489089999999
 21
305.907994
 31
0.0
  0
LINE
  5
216
330
211
100
AcDbEntity
  8
0
 62
   254
370
    -2
100
AcDbLine
 10
414.2489089999999
 20
302.407994
 30
0.0
 11
414.2489089999999
 21
282.734536
 31
0.0
  0
SOLID
  5
217
330
211
100
AcDbEntity
  8
0
 62
   254
100
AcDbTrace
 10
414.832243
 20
302.407994
 30
0.0
 11
413.665576
 21
302.407994
 31
0.0
 12
414.2489089999999
 22
305.907994
 32
0.0
 13
414.2489089999999
 23
305.907994
 33
0.0
  0
MTEXT
  5
218
330
211
100
AcDbEntity
  8
0
 62
   254
370
    13
100
AcDbMText
 10
408.9989089999999
 20
289.1512029999999
 30
0.0
 40
3.5
 41
0.0
 71
     5
 72
     1
  1
\A1;34
  7
cesky
 11
0.0
 21
1.0
 31
0.0
 73
     1
 44
1.0
  0
POINT
  5
219
330
211
100
AcDbEntity
  8
Defpoints
 62
     0
100
AcDbPoint
 10
289.703832
 20
288.907994
 30
0.0
  0
POINT
  5
21A
330
211
100
AcDbEntity
  8
Defpoints
 62
     0
100
AcDbPoint
 10
330.83929
 20
305.907994
 30
0.0
  0
POINT
  5
21B
330
211
100
AcDbEntity
  8
Defpoints
 62
     0
100
AcDbPoint
 10
414.2489089999999
 20
305.907994
 30
0.0
  0
ENDBLK
  5
213
330
211
100
AcDbEntity
  8
0
100
AcDbBlockEnd
  0
BLOCK
  5
222
330
21C
100
AcDbEntity
  8
0
100
AcDbBlockBegin
  2
_U0
 70
     0
 10
0.0
 20
0.0
 30
0.0
  3
_U0
  1

  0
ENDBLK
  5
223
330
21C
100
AcDbEntity
  8
0
100
AcDbBlockEnd
  0
BLOCK
  5
228
330
227
100
AcDbEntity
  8
0
100
AcDbBlockBegin
  2
*D4
 70
     1
 10
0.0
 20
0.0
 30
0.0
  3
*D4
  1

  0
LINE
  5
22A
330
227
100
AcDbEntity
  8
0
 62
    95
370
    -2
100
AcDbLine
 10
216.404842
 20
304.907994
 30
0.0
 11
204.878544
 21
304.907994
 31
0.0
  0
LINE
  5
22B
330
227
100
AcDbEntity
  8
0
 62
    95
370
    -2
100
AcDbLine
 10
216.404842
 20
272.907994
 30
0.0
 11
204.878544
 21
272.907994
 31
0.0
  0
LINE
  5
22C
330
227
100
AcDbEntity
  8
0
 62
    95
370
    -2
100
AcDbLine
 10
205.878544
 20
301.407994
 30
0.0
 11
205.878544
 21
276.407994
 31
0.0
  0
SOLID
  5
22D
330
227
100
AcDbEntity
  8
0
 62
    95
100
AcDbTrace
 10
206.461878
 20
301.407994
 30
0.0
 11
205.295211
 21
301.407994
 31
0.0
 12
205.878544
 22
304.907994
 32
0.0
 13
205.878544
 23
304.907994
 33
0.0
  0
SOLID
  5
22E
330
227
100
AcDbEntity
  8
0
 62
    95
100
AcDbTrace
 10
205.295211
 20
276.407994
 30
0.0
 11
206.461878
 21
276.407994
 31
0.0
 12
205.878544
 22
272.907994
 32
0.0
 13
205.878544
 23
272.907994
 33
0.0
  0
MTEXT
  5
22F
330
227
100
AcDbEntity
  8
0
 62
    95
370
    13
100
AcDbMText
 10
200.628544
 20
288.907994
 30
0.0
 40
3.5
 41
0.0
 71
     5
 72
     1
  1
\A1;32
  7
cesky
 11
0.0
 21
1.0
 31
0.0
 73
     1
 44
1.0
  0
POINT
  5
230
330
227
100
AcDbEntity
  8
Defpoints
 62
     0
100
AcDbPoint
 10
216.404842
 20
304.907994
 30
0.0
  0
POINT
  5
231
330
227
100
AcDbEntity
  8
Defpoints
 62
     0
100
AcDbPoint
 10
216.404842
 20
272.907994
 30
0.0
  0
POINT
  5
232
330
227
100
AcDbEntity
  8
Defpoints
 62
     0
100
AcDbPoint
 10
205.878544
 20
272.907994
 30
0.0
  0
ENDBLK
  5
229
330
227
100
AcDbEntity
  8
0
100
AcDbBlockEnd
  0
BLOCK
  5
23B
330
233
100
AcDbEntity
  8
0
100
AcDbBlockBegin
  2
_U1
 70
     0
 10
0.0
 20
0.0
 30
0.0
  3
_U1
  1

  0
ENDBLK
  5
23C
330
233
100
AcDbEntity
  8
0
100
AcDbBlockEnd
  0
BLOCK
  5
241
330
240
100
AcDbEntity
  8
0
100
AcDbBlockBegin
  2
*D6
 70
     1
 10
0.0
 20
0.0
 30
0.0
  3
*D6
  1

  0
LINE
  5
243
330
240
100
AcDbEntity
  8
0
 62
    95
370
    -2
100
AcDbLine
 10
277.154842
 20
309.907994
 30
0.0
 11
192.519918
 21
309.907994
 31
0.0
  0
LINE
  5
244
330
240
100
AcDbEntity
  8
0
 62
    95
370
    -2
100
AcDbLine
 10
277.154842
 20
267.907994
 30
0.0
 11
192.519918
 21
267.907994
 31
0.0
  0
LINE
  5
245
330
240
100
AcDbEntity
  8
0
 62
    95
370
    -2
100
AcDbLine
 10
193.519918
 20
306.407994
 30
0.0
 11
193.519918
 21
271.407994
 31
0.0
  0
SOLID
  5
246
330
240
100
AcDbEntity
  8
0
 62
    95
100
AcDbTrace
 10
194.103251
 20
306.407994
 30
0.0
 11
192.936584
 21
306.407994
 31
0.0
 12
193.519918
 22
309.907994
 32
0.0
 13
193.519918
 23
309.907994
 33
0.0
  0
SOLID
  5
247
330
240
100
AcDbEntity
  8
0
 62
    95
100
AcDbTrace
 10
192.936584
 20
271.407994
 30
0.0
 11
194.103251
 21
271.407994
 31
0.0
 12
193.519918
 22
267.907994
 32
0.0
 13
193.519918
 23
267.907994
 33
0.0
  0
MTEXT
  5
248
330
240
100
AcDbEntity
  8
0
 62
    95
370
    13
100
AcDbMText
 10
188.269918
 20
288.907994
 30
0.0
 40
3.5
 41
0.0
 71
     5
 72
     1
  1
\A1;42
  7
cesky
 11
0.0
 21
1.0
 31
0.0
 73
     1
 44
1.0
  0
POINT
  5
249
330
240
100
AcDbEntity
  8
Defpoints
 62
     0
100
AcDbPoint
 10
277.154842
 20
309.907994
 30
0.0
  0
POINT
  5
24A
330
240
100
AcDbEntity
  8
Defpoints
 62
     0
100
AcDbPoint
 10
277.154842
 20
267.907994
 30
0.0
  0
POINT
  5
24B
330
240
100
AcDbEntity
  8
Defpoints
 62
     0
100
AcDbPoint
 10
193.519918
 20
267.907994
 30
0.0
  0
ENDBLK
  5
242
330
240
100
AcDbEntity
  8
0
100
AcDbBlockEnd
  0
BLOCK
  5
254
330
24C
100
AcDbEntity
  8
0
100
AcDbBlockBegin
  2
_U2
 70
     0
 10
0.0
 20
0.0
 30
0.0
  3
_U2
  1

  0
ENDBLK
  5
255
330
24C
100
AcDbEntity
  8
0
100
AcDbBlockEnd
  0
BLOCK
  5
25A
330
259
100
AcDbEntity
  8
0
100
AcDbBlockBegin
  2
*D8
 70
     1
 10
0.0
 20
0.0
 30
0.0
  3
*D8
  1

  0
LINE
  5
25C
330
259
100
AcDbEntity
  8
0
 62
   254
370
    -2
100
AcDbLine
 10
401.4048419999999
 20
305.907994
 30
0.0
 11
401.4048419999999
 21
328.5109970000001
 31
0.0
  0
LINE
  5
25D
330
259
100
AcDbEntity
  8
0
 62
   254
370
    -2
100
AcDbLine
 10
274.404842
 20
288.907994
 30
0.0
 11
274.404842
 21
328.5109970000001
 31
0.0
  0
LINE
  5
25E
330
259
100
AcDbEntity
  8
0
 62
   254
370
    -2
100
AcDbLine
 10
397.904842
 20
327.510997
 30
0.0
 11
277.904842
 21
327.510997
 31
0.0
  0
SOLID
  5
25F
330
259
100
AcDbEntity
  8
0
 62
   254
100
AcDbTrace
 10
397.904842
 20
326.927663
 30
0.0
 11
397.904842
 21
328.09433
 31
0.0
 12
401.4048419999999
 22
327.510997
 32
0.0
 13
401.4048419999999
 23
327.510997
 33
0.0
  0
SOLID
  5
260
330
259
100
AcDbEntity
  8
0
 62
   254
100
AcDbTrace
 10
277.904842
 20
328.09433
 30
0.0
 11
277.904842
 21
326.927663
 31
0.0
 12
274.404842
 22
327.510997
 32
0.0
 13
274.404842
 23
327.510997
 33
0.0
  0
MTEXT
  5
261
330
259
100
AcDbEntity
  8
0
 62
   254
370
    13
100
AcDbMText
 10
337.904842
 20
332.7609970000001
 30
0.0
 40
3.5
 41
0.0
 71
     5
 72
     1
  1
\A1;127
  7
cesky
 73
     1
 44
1.0
  0
POINT
  5
262
330
259
100
AcDbEntity
  8
Defpoints
 62
     0
100
AcDbPoint
 10
401.4048419999999
 20
305.907994
 30
0.0
  0
POINT
  5
263
330
259
100
AcDbEntity
  8
Defpoints
 62
     0
100
AcDbPoint
 10
274.404842
 20
288.907994
 30
0.0
  0
POINT
  5
264
330
259
100
AcDbEntity
  8
Defpoints
 62
     0
100
AcDbPoint
 10
274.404842
 20
327.510997
 30
0.0
  0
ENDBLK
  5
25B
330
259
100
AcDbEntity
  8
0
100
AcDbBlockEnd
  0
BLOCK
  5
26C
330
265
100
AcDbEntity
  8
0
100
AcDbBlockBegin
  2
_U3
 70
     0
 10
0.0
 20
0.0
 30
0.0
  3
_U3
  1

  0
ENDBLK
  5
26D
330
265
100
AcDbEntity
  8
0
100
AcDbBlockEnd
  0
BLOCK
  5
272
330
271
100
AcDbEntity
  8
0
100
AcDbBlockBegin
  2
*D10
 70
     1
 10
0.0
 20
0.0
 30
0.0
  3
*D10
  1

  0
LINE
  5
274
330
271
100
AcDbEntity
  8
0
 62
   254
370
    -2
100
AcDbLine
 10
401.4048419999999
 20
307.907994
 30
0.0
 11
401.4048419999999
 21
341.687968
 31
0.0
  0
LINE
  5
275
330
271
100
AcDbEntity
  8
0
 62
   254
370
    -2
100
AcDbLine
 10
214.404842
 20
302.907994
 30
0.0
 11
214.404842
 21
341.687968
 31
0.0
  0
LINE
  5
276
330
271
100
AcDbEntity
  8
0
 62
   254
370
    -2
100
AcDbLine
 10
397.904842
 20
340.687968
 30
0.0
 11
217.904842
 21
340.687968
 31
0.0
  0
SOLID
  5
277
330
271
100
AcDbEntity
  8
0
 62
   254
100
AcDbTrace
 10
397.904842
 20
340.104634
 30
0.0
 11
397.904842
 21
341.271301
 31
0.0
 12
401.4048419999999
 22
340.687968
 32
0.0
 13
401.4048419999999
 23
340.687968
 33
0.0
  0
SOLID
  5
278
330
271
100
AcDbEntity
  8
0
 62
   254
100
AcDbTrace
 10
217.904842
 20
341.271301
 30
0.0
 11
217.904842
 21
340.104634
 31
0.0
 12
214.404842
 22
340.687968
 32
0.0
 13
214.404842
 23
340.687968
 33
0.0
  0
MTEXT
  5
279
330
271
100
AcDbEntity
  8
0
 62
   254
370
    13
100
AcDbMText
 10
307.904842
 20
345.937968
 30
0.0
 40
3.5
 41
0.0
 71
     5
 72
     1
  1
\A1;187
  7
cesky
 73
     1
 44
1.0
  0
POINT
  5
27A
330
271
100
AcDbEntity
  8
Defpoints
 62
     0
100
AcDbPoint
 10
401.4048419999999
 20
307.907994
 30
0.0
  0
POINT
  5
27B
330
271
100
AcDbEntity
  8
Defpoints
 62
     0
100
AcDbPoint
 10
214.404842
 20
302.907994
 30
0.0
  0
POINT
  5
27C
330
271
100
AcDbEntity
  8
Defpoints
 62
     0
100
AcDbPoint
 10
214.404842
 20
340.687968
 30
0.0
  0
ENDBLK
  5
273
330
271
100
AcDbEntity
  8
0
100
AcDbBlockEnd
  0
BLOCK
  5
284
330
27D
100
AcDbEntity
  8
0
100
AcDbBlockBegin
  2
_U4
 70
     0
 10
0.0
 20
0.0
 30
0.0
  3
_U4
  1

  0
ENDBLK
  5
285
330
27D
100
AcDbEntity
  8
0
100
AcDbBlockEnd
  0
BLOCK
  5
28A
330
289
100
AcDbEntity
  8
0
100
AcDbBlockBegin
  2
*D12
 70
     1
 10
0.0
 20
0.0
 30
0.0
  3
*D12
  1

  0
LINE
  5
28C
330
289
100
AcDbEntity
  8
0
 62
   254
370
    -2
100
AcDbLine
 10
274.404842
 20
288.907994
 30
0.0
 11
274.404842
 21
328.5109970000001
 31
0.0
  0
LINE
  5
28D
330
289
100
AcDbEntity
  8
0
 62
   254
370
    -2
100
AcDbLine
 10
214.404842
 20
295.907994
 30
0.0
 11
214.404842
 21
328.5109970000001
 31
0.0
  0
LINE
  5
28E
330
289
100
AcDbEntity
  8
0
 62
   254
370
    -2
100
AcDbLine
 10
270.904842
 20
327.510997
 30
0.0
 11
217.904842
 21
327.510997
 31
0.0
  0
SOLID
  5
28F
330
289
100
AcDbEntity
  8
0
 62
   254
100
AcDbTrace
 10
270.904842
 20
326.927663
 30
0.0
 11
270.904842
 21
328.09433
 31
0.0
 12
274.404842
 22
327.510997
 32
0.0
 13
274.404842
 23
327.510997
 33
0.0
  0
SOLID
  5
290
330
289
100
AcDbEntity
  8
0
 62
   254
100
AcDbTrace
 10
217.904842
 20
328.09433
 30
0.0
 11
217.904842
 21
326.927663
 31
0.0
 12
214.404842
 22
327.510997
 32
0.0
 13
214.404842
 23
327.510997
 33
0.0
  0
MTEXT
  5
291
330
289
100
AcDbEntity
  8
0
 62
   254
370
    13
100
AcDbMText
 10
244.404842
 20
332.7609970000001
 30
0.0
 40
3.5
 41
0.0
 71
     5
 72
     1
  1
\A1;60
  7
cesky
 73
     1
 44
1.0
  0
POINT
  5
292
330
289
100
AcDbEntity
  8
Defpoints
 62
     0
100
AcDbPoint
 10
274.404842
 20
288.907994
 30
0.0
  0
POINT
  5
293
330
289
100
AcDbEntity
  8
Defpoints
 62
     0
100
AcDbPoint
 10
214.404842
 20
295.907994
 30
0.0
  0
POINT
  5
294
330
289
100
AcDbEntity
  8
Defpoints
 62
     0
100
AcDbPoint
 10
214.404842
 20
327.510997
 30
0.0
  0
ENDBLK
  5
28B
330
289
100
AcDbEntity
  8
0
100
AcDbBlockEnd
  0
BLOCK
  5
29C
330
295
100
AcDbEntity
  8
0
100
AcDbBlockBegin
  2
_U5
 70
     0
 10
0.0
 20
0.0
 30
0.0
  3
_U5
  1

  0
ENDBLK
  5
29D
330
295
100
AcDbEntity
  8
0
100
AcDbBlockEnd
  0
BLOCK
  5
2A2
330
2A1
100
AcDbEntity
  8
0
100
AcDbBlockBegin
  2
*D14
 70
     1
 10
0.0
 20
0.0
 30
0.0
  3
*D14
  1

  0
LINE
  5
2A4
330
2A1
100
AcDbEntity
  8
0
 62
   254
370
    -2
100
AcDbLine
 10
401.4048419999999
 20
305.907994
 30
0.0
 11
401.4048419999999
 21
317.275348
 31
0.0
  0
LINE
  5
2A5
330
2A1
100
AcDbEntity
  8
0
 62
   254
370
    -2
100
AcDbLine
 10
292.408528
 20
306.125533
 30
0.0
 11
292.408528
 21
317.275348
 31
0.0
  0
LINE
  5
2A6
330
2A1
100
AcDbEntity
  8
0
 62
   254
370
    -2
100
AcDbLine
 10
397.904842
 20
316.275348
 30
0.0
 11
295.908528
 21
316.275348
 31
0.0
  0
SOLID
  5
2A7
330
2A1
100
AcDbEntity
  8
0
 62
   254
100
AcDbTrace
 10
397.904842
 20
315.692015
 30
0.0
 11
397.904842
 21
316.858681
 31
0.0
 12
401.4048419999999
 22
316.275348
 32
0.0
 13
401.4048419999999
 23
316.275348
 33
0.0
  0
SOLID
  5
2A8
330
2A1
100
AcDbEntity
  8
0
 62
   254
100
AcDbTrace
 10
295.908528
 20
316.858681
 30
0.0
 11
295.908528
 21
315.692015
 31
0.0
 12
292.408528
 22
316.275348
 32
0.0
 13
292.408528
 23
316.275348
 33
0.0
  0
MTEXT
  5
2A9
330
2A1
100
AcDbEntity
  8
0
 62
   254
370
    13
100
AcDbMText
 10
346.906685
 20
321.525348
 30
0.0
 40
3.5
 41
0.0
 71
     5
 72
     1
  1
\A1;109
  7
cesky
 73
     1
 44
1.0
  0
POINT
  5
2AA
330
2A1
100
AcDbEntity
  8
Defpoints
 62
     0
100
AcDbPoint
 10
401.4048419999999
 20
305.907994
 30
0.0
  0
POINT
  5
2AB
330
2A1
100
AcDbEntity
  8
Defpoints
 62
     0
100
AcDbPoint
 10
292.408528
 20
306.125533
 30
0.0
  0
POINT
  5
2AC
330
2A1
100
AcDbEntity
  8
Defpoints
 62
     0
100
AcDbPoint
 10
292.408528
 20
316.275348
 30
0.0
  0
ENDBLK
  5
2A3
330
2A1
100
AcDbEntity
  8
0
100
AcDbBlockEnd
  0
BLOCK
  5
2B4
330
2AD
100
AcDbEntity
  8
0
100
AcDbBlockBegin
  2
_U6
 70
     0
 10
0.0
 20
0.0
 30
0.0
  3
_U6
  1

  0
ENDBLK
  5
2B5
330
2AD
100
AcDbEntity
  8
0
100
AcDbBlockEnd
  0
ENDSEC
  0
SECTION
  2
ENTITIES
  0
POINT
  5
73
102
{ACAD_REACTORS
330
361
102
}
330
1F
100
AcDbEntity
  8
80
100
AcDbPoint
 10
274.404842
 20
288.907994
 30
0.0
  0
POINT
  5
76
330
1F
100
AcDbEntity
  8
4
 60
     1
100
AcDbPoint
 10
289.703832
 20
288.907994
 30
0.0
  0
POINT
  5
78
330
1F
100
AcDbEntity
  8
4
 60
     1
100
AcDbPoint
 10
400.8172309999999
 20
288.907994
 30
0.0
  0
POINT
  5
79
330
1F
100
AcDbEntity
  8
SK4
 60
     1
100
AcDbPoint
 10
216.404842
 20
288.907994
 30
0.0
  0
POINT
  5
7A
330
1F
100
AcDbEntity
  8
SK4
 60
     1
100
AcDbPoint
 10
274.404842
 20
288.907994
 30
0.0
  0
POINT
  5
7B
330
1F
100
AcDbEntity
  8
SK6
 60
     1
100
AcDbPoint
 10
274.404842
 20
288.907994
 30
0.0
  0
POINT
  5
7C
330
1F
100
AcDbEntity
  8
SK6
 60
     1
100
AcDbPoint
 10
292.408528
 20
306.125533
 30
0.0
  0
LINE
  5
7D
330
1F
100
AcDbEntity
  8
1
100
AcDbLine
 10
297.904842
 20
272.534894
 30
0.0
 11
297.904842
 21
272.532629
 31
0.0
  0
LINE
  5
7F
330
1F
100
AcDbEntity
  8
1
100
AcDbLine
 10
289.703832
 20
272.407994
 30
0.0
 11
305.723079
 21
272.407994
 31
0.0
  0
LINE
  5
80
330
1F
100
AcDbEntity
  8
1
100
AcDbLine
 10
391.57769
 20
305.407994
 30
0.0
 11
381.441252
 21
305.407994
 31
0.0
  0
LINE
  5
81
330
1F
100
AcDbEntity
  8
1
100
AcDbLine
 10
398.541517
 20
283.153494
 30
0.0
 11
398.951156
 21
283.153494
 31
0.0
  0
LINE
  5
82
330
1F
100
AcDbEntity
  8
1
100
AcDbLine
 10
307.890497
 20
305.407994
 30
0.0
 11
289.703832
 21
305.407994
 31
0.0
  0
LINE
  5
83
330
1F
100
AcDbEntity
  8
1
100
AcDbLine
 10
394.841759
 20
299.997282
 30
0.0
 11
394.87306
 21
300.123536
 31
0.0
  0
LINE
  5
85
330
1F
100
AcDbEntity
  8
1
100
AcDbLine
 10
396.898771
 20
299.678004
 30
0.0
 11
396.867394
 21
299.551443
 31
0.0
  0
LINE
  5
86
330
1F
100
AcDbEntity
  8
1
100
AcDbLine
 10
395.264854
 20
301.835439
 30
0.0
 11
395.296231
 21
301.962
 31
0.0
  0
LINE
  5
87
330
1F
100
AcDbEntity
  8
1
100
AcDbLine
 10
397.321789
 20
301.515854
 30
0.0
 11
397.290488
 21
301.389601
 31
0.0
  0
LINE
  5
88
330
1F
100
AcDbEntity
  8
1
100
AcDbLine
 10
391.58095
 20
305.276354
 30
0.0
 11
391.576376
 21
305.40786
 31
0.0
  0
LINE
  5
89
330
1F
100
AcDbEntity
  8
1
100
AcDbLine
 10
394.274148
 20
295.850749
 30
0.0
 11
400.491111
 21
296.067355
 31
0.0
  0
LINE
  5
8A
330
1F
100
AcDbEntity
  8
1
100
AcDbLine
 10
400.492566
 20
295.920302
 30
0.0
 11
400.491111
 21
296.067355
 31
0.0
  0
LINE
  5
8B
330
1F
100
AcDbEntity
  8
1
100
AcDbLine
 10
400.407212
 20
295.373207
 30
0.0
 11
392.46813
 21
295.096601
 31
0.0
  0
LINE
  5
8C
330
1F
100
AcDbEntity
  8
1
100
AcDbLine
 10
400.407212
 20
295.373207
 30
0.0
 11
398.440111
 21
292.113906
 31
0.0
  0
LINE
  5
8D
330
1F
100
AcDbEntity
  8
1
100
AcDbLine
 10
400.53306
 20
296.08974
 30
0.0
 11
394.279381
 21
295.871855
 31
0.0
  0
LINE
  5
8E
330
1F
100
AcDbEntity
  8
1
100
AcDbLine
 10
394.274148
 20
295.850749
 30
0.0
 11
394.279381
 21
295.871855
 31
0.0
  0
LINE
  5
8F
330
1F
100
AcDbEntity
  8
1
100
AcDbLine
 10
400.2131109999999
 20
289.802847
 30
0.0
 11
400.3891799999999
 21
289.799773
 31
0.0
  0
LINE
  5
90
330
1F
100
AcDbEntity
  8
1
100
AcDbLine
 10
400.3891799999999
 20
289.799773
 30
0.0
 11
400.67268
 21
290.183946
 31
0.0
  0
LINE
  5
91
330
1F
100
AcDbEntity
  8
1
100
AcDbLine
 10
400.67268
 20
290.422557
 30
0.0
 11
400.67268
 21
290.183946
 31
0.0
  0
LINE
  5
92
330
1F
100
AcDbEntity
  8
1
100
AcDbLine
 10
400.67268
 20
290.422557
 30
0.0
 11
400.714842
 21
290.421821
 31
0.0
  0
LINE
  5
93
330
1F
100
AcDbEntity
  8
1
100
AcDbLine
 10
400.714842
 20
296.366651
 30
0.0
 11
400.714842
 21
290.421821
 31
0.0
  0
LINE
  5
94
330
1F
100
AcDbEntity
  8
1
100
AcDbLine
 10
400.53306
 20
296.08974
 30
0.0
 11
400.530987
 21
296.299386
 31
0.0
  0
LINE
  5
95
330
1F
100
AcDbEntity
  8
1
100
AcDbLine
 10
400.53306
 20
296.08974
 30
0.0
 11
400.491111
 21
296.067355
 31
0.0
  0
LINE
  5
96
330
1F
100
AcDbEntity
  8
1
100
AcDbLine
 10
400.407212
 20
295.373207
 30
0.0
 11
400.4275849999999
 21
295.384079
 31
0.0
  0
LINE
  5
97
330
1F
100
AcDbEntity
  8
1
100
AcDbLine
 10
399.574345
 20
272.407994
 30
0.0
 11
400.2078469999999
 21
278.376704
 31
0.0
  0
LINE
  5
98
330
1F
100
AcDbEntity
  8
1
100
AcDbLine
 10
400.2078469999999
 20
278.376704
 30
0.0
 11
400.1657559999999
 21
278.377377
 31
0.0
  0
LINE
  5
99
330
1F
100
AcDbEntity
  8
1
100
AcDbLine
 10
400.1910379999999
 20
278.615578
 30
0.0
 11
400.1657559999999
 21
278.377377
 31
0.0
  0
LINE
  5
9A
330
1F
100
AcDbEntity
  8
1
100
AcDbLine
 10
400.1910379999999
 20
278.615578
 30
0.0
 11
399.949248
 21
279.008559
 31
0.0
  0
LINE
  5
9B
330
1F
100
AcDbEntity
  8
1
100
AcDbLine
 10
399.949248
 20
279.008559
 30
0.0
 11
399.773478
 21
279.011371
 31
0.0
  0
LINE
  5
9C
330
1F
100
AcDbEntity
  8
1
100
AcDbLine
 10
399.756312
 20
279.51171
 30
0.0
 11
400.142841
 21
283.153494
 31
0.0
  0
LINE
  5
9D
330
1F
100
AcDbEntity
  8
1
100
AcDbLine
 10
399.338221
 20
283.153494
 30
0.0
 11
400.142841
 21
283.153494
 31
0.0
  0
LINE
  5
9E
330
1F
100
AcDbEntity
  8
1
100
AcDbLine
 10
400.142841
 20
283.153494
 30
0.0
 11
400.142841
 21
289.303997
 31
0.0
  0
LINE
  5
9F
330
1F
100
AcDbEntity
  8
1
100
AcDbLine
 10
391.351236
 20
304.883259
 30
0.0
 11
391.336348
 21
305.311365
 31
0.0
  0
LINE
  5
A0
330
1F
100
AcDbEntity
  8
SK1
100
AcDbLine
 10
216.404842
 20
304.907994
 30
0.0
 11
216.404842
 21
272.907994
 31
0.0
  0
LINE
  5
A1
330
1F
100
AcDbEntity
  8
1
100
AcDbLine
 10
295.168681
 20
273.156875
 30
0.0
 11
295.168681
 21
272.64625
 31
0.0
  0
LINE
  5
A2
330
1F
100
AcDbEntity
  8
1
100
AcDbLine
 10
400.237296
 20
288.941736
 30
0.0
 11
400.6974699999999
 21
288.111559
 31
0.0
  0
LINE
  5
A4
330
1F
100
AcDbEntity
  8
1
100
AcDbLine
 10
400.5702669999999
 20
280.824096
 30
0.0
 11
400.0814
 21
280.0104839999999
 31
0.0
  0
LINE
  5
A5
330
1F
100
AcDbEntity
  8
1
100
AcDbLine
 10
399.971745
 20
279.904592
 30
0.0
 11
399.787147
 21
279.802267
 31
0.0
  0
LINE
  5
A6
330
1F
100
AcDbEntity
  8
1
100
AcDbLine
 10
400.734349
 20
287.963649
 30
0.0
 11
400.6122849999999
 21
280.970629
 31
0.0
  0
LINE
  5
A7
330
1F
100
AcDbEntity
  8
1
100
AcDbLine
 10
400.847013
 20
305.022398
 30
0.0
 11
401.135245
 21
297.067971
 31
0.0
  0
LINE
  5
A8
330
1F
100
AcDbEntity
  8
1
100
AcDbLine
 10
392.074112
 20
305.488306
 30
0.0
 11
400.046736
 21
305.766081
 31
0.0
  0
LINE
  5
A9
330
1F
100
AcDbEntity
  8
1
100
AcDbLine
 10
391.617911
 20
296.736377
 30
0.0
 11
391.32968
 21
304.690804
 31
0.0
  0
LINE
  5
AA
330
1F
100
AcDbEntity
  8
1
100
AcDbLine
 10
400.390812
 20
296.2704700000001
 30
0.0
 11
392.418189
 21
295.992695
 31
0.0
  0
LINE
  5
AB
330
1F
100
AcDbEntity
  8
1
100
AcDbLine
 10
392.859095
 20
297.257788
 30
0.0
 11
392.606231
 21
304.2361899999999
 31
0.0
  0
LINE
  5
AC
330
1F
100
AcDbEntity
  8
1
100
AcDbLine
 10
399.853461
 20
297.50148
 30
0.0
 11
392.859095
 21
297.257788
 31
0.0
  0
LINE
  5
AD
330
1F
100
AcDbEntity
  8
1
100
AcDbLine
 10
399.600596
 20
304.479882
 30
0.0
 11
399.853461
 21
297.50148
 31
0.0
  0
LINE
  5
AE
330
1F
100
AcDbEntity
  8
1
100
AcDbLine
 10
392.606231
 20
304.2361899999999
 30
0.0
 11
399.600596
 21
304.479882
 31
0.0
  0
LINE
  5
AF
330
1F
100
AcDbEntity
  8
1
100
AcDbLine
 10
399.95972
 20
281.112711
 30
0.0
 11
399.966312
 21
281.490318
 31
0.0
  0
LINE
  5
B0
330
1F
100
AcDbEntity
  8
1
100
AcDbLine
 10
399.914783
 20
281.004831
 30
0.0
 11
399.941569
 21
281.04941
 31
0.0
  0
LINE
  5
B1
330
1F
100
AcDbEntity
  8
1
100
AcDbLine
 10
401.3593819999999
 20
288.276592
 30
0.0
 11
400.7280109999999
 21
289.415615
 31
0.0
  0
LINE
  5
B2
330
1F
100
AcDbEntity
  8
1
100
AcDbLine
 10
400.623573
 20
289.526675
 30
0.0
 11
400.438136
 21
289.644481
 31
0.0
  0
LINE
  5
B3
330
1F
100
AcDbEntity
  8
1
100
AcDbLine
 10
400.196794
 20
289.789494
 30
0.0
 11
400.438136
 21
289.644481
 31
0.0
  0
LINE
  5
B4
330
1F
100
AcDbEntity
  8
1
100
AcDbLine
 10
400.556683
 20
279.518314
 30
0.0
 11
400.67449
 21
279.703751
 31
0.0
  0
LINE
  5
B5
330
1F
100
AcDbEntity
  8
1
100
AcDbLine
 10
401.2334059999999
 20
280.633944
 30
0.0
 11
400.67449
 21
279.703751
 31
0.0
  0
LINE
  5
B6
330
1F
100
AcDbEntity
  8
1
100
AcDbLine
 10
401.3998609999999
 20
287.909483
 30
0.0
 11
401.275424
 21
280.780477
 31
0.0
  0
LINE
  5
B7
330
1F
100
AcDbEntity
  8
1
100
AcDbLine
 10
401.3998609999999
 20
287.909483
 30
0.0
 11
401.398222
 21
288.129171
 31
0.0
  0
LINE
  5
B8
330
1F
100
AcDbEntity
  8
1
100
AcDbLine
 10
399.755981
 20
279.031601
 30
0.0
 11
400.445624
 21
279.413876
 31
0.0
  0
LINE
  5
B9
330
1F
100
AcDbEntity
  8
1
100
AcDbLine
 10
397.316886
 20
301.46387
 30
0.0
 11
397.347851
 21
301.588769
 31
0.0
  0
LINE
  5
BA
330
1F
100
AcDbEntity
  8
1
100
AcDbLine
 10
395.394571
 20
299.495673
 30
0.0
 11
395.363801
 21
299.371562
 31
0.0
  0
LINE
  5
BB
330
1F
100
AcDbEntity
  8
1
100
AcDbLine
 10
395.27786
 20
301.934875
 30
0.0
 11
395.308815
 21
302.059734
 31
0.0
  0
LINE
  5
BC
330
1F
100
AcDbEntity
  8
1
100
AcDbLine
 10
394.542351
 20
300.773218
 30
0.0
 11
394.511929
 21
300.650511
 31
0.0
  0
LINE
  5
BD
330
1F
100
AcDbEntity
  8
1
100
AcDbLine
 10
394.61273
 20
300.763013
 30
0.0
 11
394.581864
 21
300.638514
 31
0.0
  0
LINE
  5
BE
330
1F
100
AcDbEntity
  8
1
100
AcDbLine
 10
397.446069
 20
299.975109
 30
0.0
 11
397.476485
 21
300.097794
 31
0.0
  0
LINE
  5
BF
330
1F
100
AcDbEntity
  8
1
100
AcDbLine
 10
397.376718
 20
299.994955
 30
0.0
 11
397.407585
 21
300.119459
 31
0.0
  0
LINE
  5
C0
330
1F
100
AcDbEntity
  8
1
100
AcDbLine
 10
396.119628
 20
299.199005
 30
0.0
 11
396.150408
 21
299.323156
 31
0.0
  0
LINE
  5
C1
330
1F
100
AcDbEntity
  8
1
100
AcDbLine
 10
400.682658
 20
289.477775
 30
0.0
 11
400.190758
 21
289.002752
 31
0.0
  0
LINE
  5
C2
330
1F
100
AcDbEntity
  8
1
100
AcDbLine
 10
399.756017
 20
288.582928
 30
0.0
 11
399.708098
 21
288.536653
 31
0.0
  0
LINE
  5
C3
330
1F
100
AcDbEntity
  8
1
100
AcDbLine
 10
401.388062
 20
288.20519
 30
0.0
 11
400.7245529999999
 21
288.039759
 31
0.0
  0
LINE
  5
C4
330
1F
100
AcDbEntity
  8
1
100
AcDbLine
 10
400.1396399999999
 20
287.893924
 30
0.0
 11
400.7245529999999
 21
288.039759
 31
0.0
  0
LINE
  5
C5
330
1F
100
AcDbEntity
  8
1
100
AcDbLine
 10
400.59984
 20
280.894907
 30
0.0
 11
399.954856
 21
281.0798529999999
 31
0.0
  0
LINE
  5
C6
330
1F
100
AcDbEntity
  8
1
100
AcDbLine
 10
400.59984
 20
280.894907
 30
0.0
 11
401.264067
 21
280.704443
 31
0.0
  0
LINE
  5
C7
330
1F
100
AcDbEntity
  8
1
100
AcDbLine
 10
399.825704
 20
280.165544
 30
0.0
 11
400.032761
 21
279.95113
 31
0.0
  0
LINE
  5
C8
330
1F
100
AcDbEntity
  8
1
100
AcDbLine
 10
400.507783
 20
279.45923
 30
0.0
 11
400.032761
 21
279.95113
 31
0.0
  0
LINE
  5
C9
330
1F
100
AcDbEntity
  8
1
100
AcDbLine
 10
385.699557
 20
297.408575
 30
0.0
 11
385.696858
 21
297.406175
 31
0.0
  0
LINE
  5
CA
330
1F
100
AcDbEntity
  8
1
100
AcDbLine
 10
388.966994
 20
292.624922
 30
0.0
 11
388.978256
 21
292.295767
 31
0.0
  0
LINE
  5
CB
330
1F
100
AcDbEntity
  8
1
100
AcDbLine
 10
398.949656
 20
295.367459
 30
0.0
 11
392.459877
 21
295.141348
 31
0.0
  0
LINE
  5
CC
330
1F
100
AcDbEntity
  8
1
100
AcDbLine
 10
283.904842
 20
305.165204
 30
0.0
 11
283.904842
 21
285.6739490000001
 31
0.0
  0
LINE
  5
CD
330
1F
100
AcDbEntity
  8
SK1
100
AcDbLine
 10
214.404842
 20
302.907994
 30
0.0
 11
214.404842
 21
274.907994
 31
0.0
  0
LINE
  5
CE
330
1F
100
AcDbEntity
  8
1
100
AcDbLine
 10
391.3461040000001
 20
298.579539
 30
0.0
 11
391.340871
 21
298.558434
 31
0.0
  0
LINE
  5
CF
330
1F
100
AcDbEntity
  8
1
100
AcDbLine
 10
391.3461040000001
 20
298.579539
 30
0.0
 11
391.111981
 21
305.311788
 31
0.0
  0
LINE
  5
D0
330
1F
100
AcDbEntity
  8
1
100
AcDbLine
 10
391.107235
 20
305.276692
 30
0.0
 11
391.340871
 21
298.558434
 31
0.0
  0
LINE
  5
D1
330
1F
100
AcDbEntity
  8
1
100
AcDbLine
 10
399.574345
 20
272.407994
 30
0.0
 11
379.650716
 21
272.407994
 31
0.0
  0
LINE
  5
D2
330
1F
100
AcDbEntity
  8
1
100
AcDbLine
 10
274.904842
 20
267.907994
 30
0.0
 11
274.904842
 21
288.907994
 31
0.0
  0
LINE
  5
D3
330
1F
100
AcDbEntity
  8
1
100
AcDbLine
 10
274.904842
 20
288.907994
 30
0.0
 11
274.904842
 21
309.907994
 31
0.0
  0
LINE
  5
D4
330
1F
100
AcDbEntity
  8
1
100
AcDbLine
 10
279.404842
 20
267.907994
 30
0.0
 11
279.404842
 21
272.126882
 31
0.0
  0
LINE
  5
D5
330
1F
100
AcDbEntity
  8
1
100
AcDbLine
 10
279.404842
 20
309.907994
 30
0.0
 11
279.404842
 21
280.286173
 31
0.0
  0
LINE
  5
D6
330
1F
100
AcDbEntity
  8
1
100
AcDbLine
 10
393.423095
 20
301.460722
 30
0.0
 11
393.402643
 21
301.378228
 31
0.0
  0
LINE
  5
D7
330
1F
100
AcDbEntity
  8
1
100
AcDbLine
 10
398.741026
 20
300.054723
 30
0.0
 11
398.7614779999999
 21
300.137217
 31
0.0
  0
LINE
  5
D8
330
1F
100
AcDbEntity
  8
SK1
100
AcDbLine
 10
214.404842
 20
274.907994
 30
0.0
 11
216.404842
 21
272.907994
 31
0.0
  0
LINE
  5
D9
330
1F
100
AcDbEntity
  8
SK1
100
AcDbLine
 10
216.404842
 20
304.907994
 30
0.0
 11
214.404842
 21
302.907994
 31
0.0
  0
LINE
  5
DA
330
1F
100
AcDbEntity
  8
1
100
AcDbLine
 10
279.404842
 20
267.907994
 30
0.0
 11
279.804337
 21
268.307488
 31
0.0
  0
LINE
  5
DB
330
1F
100
AcDbEntity
  8
1
100
AcDbLine
 10
279.804337
 20
309.508499
 30
0.0
 11
279.404842
 21
309.907994
 31
0.0
  0
LINE
  5
DC
330
1F
100
AcDbEntity
  8
SK1
100
AcDbLine
 10
274.404842
 20
304.907994
 30
0.0
 11
216.404842
 21
304.907994
 31
0.0
  0
LINE
  5
DD
330
1F
100
AcDbEntity
  8
1
100
AcDbLine
 10
274.904842
 20
267.907994
 30
0.0
 11
274.404842
 21
268.407994
 31
0.0
  0
LINE
  5
DE
330
1F
100
AcDbEntity
  8
1
100
AcDbLine
 10
274.404842
 20
309.407994
 30
0.0
 11
274.904842
 21
309.907994
 31
0.0
  0
LINE
  5
DF
330
1F
100
AcDbEntity
  8
1
100
AcDbLine
 10
279.404842
 20
309.907994
 30
0.0
 11
274.904842
 21
309.907994
 31
0.0
  0
LINE
  5
E4
330
1F
100
AcDbEntity
  8
80
100
AcDbLine
 10
275.404416
 20
288.907994
 30
0.0
 11
273.405268
 21
288.907994
 31
0.0
  0
LINE
  5
E5
330
1F
100
AcDbEntity
  8
81
100
AcDbLine
 10
401.4048419999999
 20
307.907994
 30
0.0
 11
401.4048419999999
 21
303.907994
 31
0.0
  0
LINE
  5
E6
330
1F
100
AcDbEntity
  8
81
100
AcDbLine
 10
399.404842
 20
305.907994
 30
0.0
 11
403.4048419999999
 21
305.907994
 31
0.0
  0
LINE
  5
E7
330
1F
100
AcDbEntity
  8
1
100
AcDbLine
 10
274.904842
 20
267.907994
 30
0.0
 11
279.404842
 21
267.907994
 31
0.0
  0
LINE
  5
E8
330
1F
100
AcDbEntity
  8
SK1
100
AcDbLine
 10
216.404842
 20
272.907994
 30
0.0
 11
274.404842
 21
272.907994
 31
0.0
  0
LINE
  5
E9
330
1F
100
AcDbEntity
  8
80
100
AcDbLine
 10
274.404842
 20
287.90842
 30
0.0
 11
274.404842
 21
289.907567
 31
0.0
  0
LINE
  5
EA
330
1F
100
AcDbEntity
  8
1
100
AcDbLine
 10
274.404842
 20
309.407994
 30
0.0
 11
274.404842
 21
288.907994
 31
0.0
  0
LINE
  5
EB
330
1F
100
AcDbEntity
  8
1
100
AcDbLine
 10
274.404842
 20
288.907994
 30
0.0
 11
274.404842
 21
268.407994
 31
0.0
  0
LINE
  5
117
330
1F
100
AcDbEntity
  8
NOCUT
100
AcDbLine
 10
279.404842
 20
309.907994
 30
0.0
 11
279.804337
 21
309.508499
 31
0.0
  0
LINE
  5
118
330
1F
100
AcDbEntity
  8
NOCUT
100
AcDbLine
 10
289.703832
 20
305.407994
 30
0.0
 11
400.4057239999999
 21
305.407994
 31
0.0
  0
LINE
  5
119
330
1F
100
AcDbEntity
  8
NOCUT
100
AcDbLine
 10
400.4057239999999
 20
305.407994
 30
0.0
 11
400.714842
 21
296.621375
 31
0.0
  0
LINE
  5
11A
330
1F
100
AcDbEntity
  8
NOCUT
100
AcDbLine
 10
400.714842
 20
296.621375
 30
0.0
 11
400.714842
 21
288.907994
 31
0.0
  0
LINE
  5
11B
330
1F
100
AcDbEntity
  8
NOCUT
100
AcDbLine
 10
400.714842
 20
288.907994
 30
0.0
 11
214.404842
 21
288.907994
 31
0.0
  0
LINE
  5
11C
330
1F
100
AcDbEntity
  8
NOCUT
100
AcDbLine
 10
274.404842
 20
304.907994
 30
0.0
 11
274.404842
 21
309.407994
 31
0.0
  0
LINE
  5
11D
330
1F
100
AcDbEntity
  8
NOCUT
100
AcDbLine
 10
274.404842
 20
309.407994
 30
0.0
 11
274.904842
 21
309.907994
 31
0.0
  0
LINE
  5
11E
330
1F
100
AcDbEntity
  8
NOCUT
100
AcDbLine
 10
214.404842
 20
302.907994
 30
0.0
 11
216.404842
 21
304.907994
 31
0.0
  0
LINE
  5
11F
330
1F
100
AcDbEntity
  8
NOCUT
100
AcDbLine
 10
274.404842
 20
304.907994
 30
0.0
 11
216.404842
 21
304.907994
 31
0.0
  0
LINE
  5
120
330
1F
100
AcDbEntity
  8
NOCUT
100
AcDbLine
 10
279.404842
 20
309.907994
 30
0.0
 11
274.904842
 21
309.907994
 31
0.0
  0
LINE
  5
121
330
1F
100
AcDbEntity
  8
NOCUT
100
AcDbLine
 10
214.404842
 20
302.907994
 30
0.0
 11
214.404842
 21
288.907994
 31
0.0
  0
CIRCLE
  5
12A
330
1F
100
AcDbEntity
  8
1
100
AcDbCircle
 10
395.418941
 20
284.72888
 30
0.0
 40
1.35
  0
ARC
  5
12B
330
1F
100
AcDbEntity
  8
1
100
AcDbCircle
 10
395.418941
 20
284.72888
 30
0.0
 40
1.75
100
AcDbArc
 50
75.0
 51
345.0
  0
ARC
  5
12C
330
1F
100
AcDbEntity
  8
1
100
AcDbCircle
 10
289.703832
 20
258.407994
 30
0.0
 40
14.0
100
AcDbArc
 50
90.0
 51
135.0
  0
ARC
  5
12D
330
1F
100
AcDbEntity
  8
1
100
AcDbCircle
 10
289.703832
 20
319.407994
 30
0.0
 40
14.0
100
AcDbArc
 50
225.0
 51
270.0
  0
ARC
  5
13C
330
1F
100
AcDbEntity
  8
NOCUT
100
AcDbCircle
 10
289.703832
 20
319.407994
 30
0.0
 40
14.0
100
AcDbArc
 50
225.0
 51
270.0
  0
ELLIPSE
  5
13D
330
1F
100
AcDbEntity
  8
1
100
AcDbEllipse
 10
296.536761
 20
273.987509
 30
0.0
 11
-18.95307524704119
 21
3.89881710456488
 31
0.0
210
0.0
220
0.0
230
0.9999999999999998
 40
0.5072130000000001
 41
5.121723909582451
 42
5.798866810940126
  0
ELLIPSE
  5
13E
330
1F
100
AcDbEntity
  8
1
100
AcDbEllipse
 10
399.792842
 20
288.907994
 30
0.0
 11
28.32090206672864
 21
-16.27816989364642
 31
0.0
210
0.0
220
0.0
230
0.9999999999999998
 40
0.095213
 41
4.192012602979205
 42
4.254342879267253
  0
ELLIPSE
  5
13F
330
1F
100
AcDbEntity
  8
1
100
AcDbEllipse
 10
392.128605
 20
288.907993
 30
0.0
 11
0.5511313473984499
 21
-16.49999641098351
 31
0.0
210
0.0
220
0.0
230
1.0
 40
0.019821
 41
3.050584008084996
 42
3.144957044967618
  0
ELLIPSE
  5
140
330
1F
100
AcDbEntity
  8
1
100
AcDbEllipse
 10
392.879333
 20
297.2820529999999
 30
0.0
 11
1.94123026549537
 21
-0.4812744085496005
 31
0.0
210
0.0
220
0.0
230
1.0
 40
0.99737
 41
5.609016561478191
 42
5.726718448338632
  0
ELLIPSE
  5
141
330
1F
100
AcDbEntity
  8
1
100
AcDbEllipse
 10
391.996617
 20
288.907994
 30
0.0
 11
0.4192149562239121
 21
-16.49989392713486
 31
0.0
210
0.0
220
0.0
230
0.9999999999999998
 40
0.141134
 41
3.142033307410887
 42
3.24628416177885
  0
ELLIPSE
  5
142
330
1F
100
AcDbEntity
  8
1
100
AcDbEllipse
 10
223.574592
 20
288.907988
 30
0.0
 11
429.7369133586012
 21
16.09067449110454
 31
0.0
210
0.0
220
0.0
230
1.0
 40
0.008499
 41
5.116259243874512
 42
5.131142743843808
  0
ELLIPSE
  5
143
330
1F
100
AcDbEntity
  8
1
100
AcDbEllipse
 10
392.884566
 20
297.303158
 30
0.0
 11
-1.941230265495372
 21
0.4812744085495984
 31
0.0
210
0.0
220
0.0
230
1.0
 40
0.99737
 41
2.585125794748829
 42
2.714799021099371
  0
ELLIPSE
  5
144
330
1F
100
AcDbEntity
  8
1
100
AcDbEllipse
 10
400.2131109999999
 20
289.30277
 30
0.0
 11
0.0001758288819766
 21
-0.5000776676640175
 31
0.0
210
0.0
220
0.0
230
1.0
 40
0.140519
 41
3.139090475969334
 42
4.709886802767968
  0
ELLIPSE
  5
145
330
1F
100
AcDbEntity
  8
1
100
AcDbEllipse
 10
400.422652
 20
295.882994
 30
0.0
 11
0.0002992980618442
 21
0.5003076450301509
 31
0.0
210
0.0
220
0.0
230
0.9999999999999998
 40
0.140088
 41
3.216315896184534
 42
4.787112222980768
  0
ELLIPSE
  5
146
330
1F
100
AcDbEntity
  8
1
100
AcDbEllipse
 10
399.826463
 20
279.510587
 30
0.0
 11
0.0538770024347905
 21
0.4991611425064989
 31
0.0
210
0.0
220
0.0
230
0.9999999999999998
 40
0.139171
 41
1.58356817924281
 42
3.154364506043222
  0
ELLIPSE
  5
147
330
1F
100
AcDbEntity
  8
1
100
AcDbEllipse
 10
401.3256079999999
 20
288.907994
 30
0.0
 11
1.785939695437166
 21
16.49813393599389
 31
0.0
210
0.0
220
0.0
230
0.9999999999999998
 40
0.138944
 41
1.942081186579686
 42
3.156632395651058
  0
ELLIPSE
  5
148
330
1F
100
AcDbEntity
  8
1
100
AcDbEllipse
 10
400.714842
 20
288.907994
 30
0.0
 11
0.0
 21
16.49999999990584
 31
0.0
210
0.0
220
0.0
230
1.0
 40
0.140541
 41
1.375254872650707
 42
1.927041444520094
  0
ELLIPSE
  5
149
330
1F
100
AcDbEntity
  8
1
100
AcDbEllipse
 10
224.277166
 20
288.907994
 30
0.0
 11
93.5675911679475
 21
-14.25690210767997
 31
0.0
210
0.0
220
0.0
230
0.9999999999999998
 40
0.088771
 41
5.500165465412098
 42
5.585513375591624
  0
ELLIPSE
  5
14A
330
1F
100
AcDbEntity
  8
1
100
AcDbEllipse
 10
390.130525
 20
293.371298
 30
0.0
 11
-5.152134845294837
 21
-0.2028665603139066
 31
0.0
210
0.0
220
0.0
230
1.0
 40
0.22151
 41
2.052777603174536
 42
4.228124275359383
  0
ELLIPSE
  5
14B
330
1F
100
AcDbEntity
  8
1
100
AcDbEllipse
 10
401.1058379999999
 20
288.134824
 30
0.0
 11
0.131518841262802
 21
-0.2701031955134941
 31
0.0
210
0.0
220
0.0
230
1.0
 40
0.9668319999999999
 41
1.111868186686228
 42
1.625627445310569
  0
ELLIPSE
  5
14C
330
1F
100
AcDbEntity
  8
1
100
AcDbEllipse
 10
400.37015
 20
287.951396
 30
0.0
 11
0.3432777551855762
 21
0.1251912073755441
 31
0.0
210
0.0
220
0.0
230
0.9999999999999998
 40
0.81881
 41
6.264719810131424
 42
6.411625124546893
  0
ELLIPSE
  5
14D
330
1F
100
AcDbEntity
  8
1
100
AcDbEllipse
 10
399.928017
 20
288.7490259999999
 30
0.0
 11
0.2880776544376973
 21
0.2247748101436377
 31
0.0
210
0.0
220
0.0
230
1.0
 40
0.81881
 41
6.154745487363505
 42
6.301650803250629
  0
ELLIPSE
  5
14E
330
1F
100
AcDbEntity
  8
1
100
AcDbEllipse
 10
399.779035
 20
280.21387
 30
0.0
 11
0.2800576256789264
 21
-0.2346916410887031
 31
0.0
210
0.0
220
0.0
230
1.0
 40
0.8188100000000002
 41
6.264719815046293
 42
6.411625133735801
  0
ELLIPSE
  5
14F
330
1F
100
AcDbEntity
  8
1
100
AcDbEllipse
 10
400.2487359999999
 20
280.995584
 30
0.0
 11
0.3386995416393224
 21
-0.1370951725392731
 31
0.0
210
0.0
220
0.0
230
1.0
 40
0.81881
 41
6.154745497417954
 42
6.301650809012577
  0
ELLIPSE
  5
150
330
1F
100
AcDbEntity
  8
1
100
AcDbEllipse
 10
399.779035
 20
280.21387
 30
0.0
 11
0.2247748213408198
 21
-0.2880776731017899
 31
0.0
210
0.0
220
0.0
230
1.0
 40
0.81881
 41
6.154745497111942
 42
6.301650808649934
  0
ELLIPSE
  5
151
330
1F
100
AcDbEntity
  8
1
100
AcDbEllipse
 10
399.928017
 20
288.7490259999999
 30
0.0
 11
0.2346916545688553
 21
0.2800576466866928
 31
0.0
210
0.0
220
0.0
230
1.0
 40
0.81881
 41
6.264719808590507
 42
6.366380867503736
  0
ELLIPSE
  5
152
330
1F
100
AcDbEntity
  8
1
100
AcDbEllipse
 10
400.2487359999999
 20
280.995584
 30
0.0
 11
0.3598828808709609
 21
-0.0632201124861851
 31
0.0
210
0.0
220
0.0
230
0.9999999999999998
 40
0.81881
 41
6.264719804439554
 42
6.411625114732442
  0
ELLIPSE
  5
153
330
1F
100
AcDbEntity
  8
1
100
AcDbEllipse
 10
400.37015
 20
287.951396
 30
0.0
 11
0.3618699702225566
 21
0.0506218684212074
 31
0.0
210
0.0
220
0.0
230
0.9999999999999998
 40
0.81881
 41
6.154745486629187
 42
6.301650802887536
  0
ELLIPSE
  5
154
330
1F
100
AcDbEntity
  8
1
100
AcDbEllipse
 10
396.25252
 20
300.960293
 30
0.0
 11
3.004300737143696
 21
-0.7448333595834349
 31
0.0
210
0.0
220
0.0
230
1.0
 40
0.99737
 41
2.34541817881764
 42
6.283185307179585
  0
ELLIPSE
  5
155
330
1F
100
AcDbEntity
  8
1
100
AcDbEllipse
 10
396.25252
 20
300.960293
 30
0.0
 11
3.004300737143696
 21
-0.7448333595834349
 31
0.0
210
0.0
220
0.0
230
1.0
 40
0.99737
 41
0.0
 42
0.7962201585796384
  0
ELLIPSE
  5
156
330
1F
100
AcDbEntity
  8
1
100
AcDbEllipse
 10
392.33694
 20
296.654493
 30
0.0
 11
0.9628846432523777
 21
1.033844773515494
 31
0.0
210
0.0
220
0.0
230
1.0
 40
0.024929
 41
0.9711163850309445
 42
1.525927418871769
  0
ELLIPSE
  5
157
330
1F
100
AcDbEntity
  8
1
100
AcDbEllipse
 10
396.232724
 20
300.880443
 30
0.0
 11
3.062035671581702
 21
-0.7591471413733615
 31
0.0
210
0.0
220
0.0
230
1.0
 40
0.9973700000000002
 41
0.0
 42
6.283185307179585
  0
ELLIPSE
  5
158
330
1F
100
AcDbEntity
  8
1
100
AcDbEllipse
 10
396.229846
 20
300.868835
 30
0.0
 11
-3.154499181429986
 21
0.7820709138930989
 31
0.0
210
0.0
220
0.0
230
0.9999999999999996
 40
0.99737
 41
0.0
 42
6.283185307179585
  0
ELLIPSE
  5
159
330
1F
100
AcDbEntity
  8
1
100
AcDbEllipse
 10
400.3840229999999
 20
296.934862
 30
0.0
 11
1.0345638936351
 21
-0.9635544050030302
 31
0.0
210
0.0
220
0.0
230
0.9999999999999998
 40
0.044837
 41
1.595685964577283
 42
2.150496997421483
  0
ELLIPSE
  5
15A
330
1F
100
AcDbEntity
  8
1
100
AcDbEllipse
 10
392.046017
 20
304.68321
 30
0.0
 11
1.034563893968462
 21
-0.9635544052764403
 31
0.0
210
0.0
220
0.0
230
1.0
 40
0.044837
 41
1.040874931454619
 42
1.595685964132781
  0
ELLIPSE
  5
15B
330
1F
100
AcDbEntity
  8
1
100
AcDbEllipse
 10
400.0930999999999
 20
304.963579
 30
0.0
 11
0.9628846456730219
 21
1.033844776143254
 31
0.0
210
0.0
220
0.0
230
1.0
 40
0.024929
 41
1.525927418401328
 42
2.080738450923834
  0
ELLIPSE
  5
15C
330
1F
100
AcDbEntity
  8
1
100
AcDbEllipse
 10
399.646217
 20
281.168354
 30
0.0
 11
-0.3086390084417319
 21
0.0885008115358406
 31
0.0
210
0.0
220
0.0
230
0.9999999999999998
 40
0.6229040000000001
 41
2.976210626445484
 42
3.306974680734088
  0
ELLIPSE
  5
15D
330
1F
100
AcDbEntity
  8
1
100
AcDbEllipse
 10
400.473427
 20
289.275723
 30
0.0
 11
0.1593661330193058
 21
-0.2546671896706097
 31
0.0
210
0.0
220
0.0
230
1.0
 40
0.9668319999999999
 41
1.515965208769775
 42
2.029724467353485
  0
ELLIPSE
  5
15E
330
1F
100
AcDbEntity
  8
1
100
AcDbEllipse
 10
400.9699069999999
 20
280.788792
 30
0.0
 11
-0.2941597133632818
 21
0.0843489404830548
 31
0.0
210
0.0
220
0.0
230
0.9999999999999998
 40
0.9803469999999999
 41
2.884713024277096
 42
3.398472282902498
  0
ELLIPSE
  5
15F
330
1F
100
AcDbEntity
  8
1
100
AcDbEllipse
 10
400.3057319999999
 20
279.66846
 30
0.0
 11
0.2546671895960443
 21
0.1593661331040766
 31
0.0
210
0.0
220
0.0
230
1.0
 40
0.9668319999999999
 41
4.657557861972633
 42
5.171317120586865
  0
ELLIPSE
  5
160
330
1F
100
AcDbEntity
  8
1
100
AcDbEllipse
 10
395.443109
 20
299.318736
 30
0.0
 11
-0.0925165327032324
 21
0.0229369180716155
 31
0.0
210
0.0
220
0.0
230
1.0
 40
0.99737
 41
5.361399360079455
 42
6.038131276960151
  0
ELLIPSE
  5
161
330
1F
100
AcDbEntity
  8
1
100
AcDbEllipse
 10
395.274704
 20
299.408011
 30
0.0
 11
-0.0925165327032323
 21
0.0229369180716155
 31
0.0
210
0.0
220
0.0
230
1.0
 40
0.99737
 41
1.696207930891446
 42
2.896538623370719
  0
ELLIPSE
  5
162
330
1F
100
AcDbEntity
  8
1
100
AcDbEllipse
 10
395.33371
 20
299.908815
 30
0.0
 11
-0.5832372129945674
 21
0.1445975522416693
 31
0.0
210
0.0
220
0.0
230
1.0
 40
0.9973699999999999
 41
0.4316778866614066
 42
1.696207930891565
  0
ELLIPSE
  5
163
330
1F
100
AcDbEntity
  8
1
100
AcDbEllipse
 10
394.837238
 20
299.81454
 30
0.0
 11
-0.0925165327032344
 21
0.022936918071616
 31
0.0
210
0.0
220
0.0
230
1.0
 40
0.9973700000000002
 41
5.514532501362041
 42
6.714863193841094
  0
ELLIPSE
  5
164
330
1F
100
AcDbEntity
  8
1
100
AcDbEllipse
 10
394.736033
 20
299.975807
 30
0.0
 11
-0.0925165327032344
 21
0.022936918071616
 31
0.0
210
0.0
220
0.0
230
1.0
 40
0.9973700000000002
 41
2.372939847772298
 42
3.049671764652941
  0
ELLIPSE
  5
165
330
1F
100
AcDbEntity
  8
1
100
AcDbEllipse
 10
394.258522
 20
300.14188
 30
0.0
 11
-0.5832372129945672
 21
0.1445975522416692
 31
0.0
210
0.0
220
0.0
230
1.0
 40
0.9973699999999999
 41
3.049671764652901
 42
4.314201808883093
  0
ELLIPSE
  5
166
330
1F
100
AcDbEntity
  8
1
100
AcDbEllipse
 10
394.560646
 20
300.545846
 30
0.0
 11
-0.0925165327032324
 21
0.0229369180716155
 31
0.0
210
0.0
220
0.0
230
1.0
 40
0.99737
 41
4.314201808883021
 42
4.990933725763794
  0
ELLIPSE
  5
167
330
1F
100
AcDbEntity
  8
1
100
AcDbEllipse
 10
394.553759
 20
300.735892
 30
0.0
 11
-0.0925165327032323
 21
0.0229369180716155
 31
0.0
210
0.0
220
0.0
230
1.0
 40
0.99737
 41
0.6490103796948819
 42
1.849341072173774
  0
ELLIPSE
  5
168
330
1F
100
AcDbEntity
  8
1
100
AcDbEllipse
 10
395.018046
 20
300.934778
 30
0.0
 11
-0.5832372129945674
 21
0.1445975522416693
 31
0.0
210
0.0
220
0.0
230
1.0
 40
0.9973699999999999
 41
5.667665642644369
 42
6.932195686874564
  0
ELLIPSE
  5
169
330
1F
100
AcDbEntity
  8
1
100
AcDbEllipse
 10
394.687445
 20
301.316699
 30
0.0
 11
-0.0925165327032344
 21
0.022936918071616
 31
0.0
210
0.0
220
0.0
230
1.0
 40
0.9973700000000002
 41
4.467334950165527
 42
5.667665642644349
  0
ELLIPSE
  5
16A
330
1F
100
AcDbEntity
  8
1
100
AcDbEllipse
 10
394.776722
 20
301.484603
 30
0.0
 11
-0.0925165327032344
 21
0.022936918071616
 31
0.0
210
0.0
220
0.0
230
1.0
 40
0.9973700000000002
 41
1.32574229657568
 42
2.002474213456359
  0
ELLIPSE
  5
16B
330
1F
100
AcDbEntity
  8
1
100
AcDbEllipse
 10
394.681617
 20
301.980037
 30
0.0
 11
-0.5832372129945672
 21
0.1445975522416692
 31
0.0
210
0.0
220
0.0
230
1.0
 40
0.9973699999999999
 41
2.002474213456285
 42
3.267004257686488
  0
ELLIPSE
  5
16C
330
1F
100
AcDbEntity
  8
1
100
AcDbEllipse
 10
395.183661
 20
301.920551
 30
0.0
 11
-0.0925165327032324
 21
0.0229369180716155
 31
0.0
210
0.0
220
0.0
230
1.0
 40
0.99737
 41
3.267004257686445
 42
3.943736174567214
  0
ELLIPSE
  5
16D
330
1F
100
AcDbEntity
  8
1
100
AcDbEllipse
 10
395.345179
 20
302.021322
 30
0.0
 11
-0.0925165327032323
 21
0.0229369180716155
 31
0.0
210
0.0
220
0.0
230
1.0
 40
0.99737
 41
5.884998135678168
 42
7.08532882815679
  0
ELLIPSE
  5
16E
330
1F
100
AcDbEntity
  8
1
100
AcDbEllipse
 10
395.750459
 20
301.719404
 30
0.0
 11
-0.5832372129945674
 21
0.1445975522416693
 31
0.0
210
0.0
220
0.0
230
1.0
 40
0.9973699999999999
 41
4.620468091447794
 42
5.884998135677967
  0
ELLIPSE
  5
16F
330
1F
100
AcDbEntity
  8
1
100
AcDbEllipse
 10
395.916332
 20
302.1956
 30
0.0
 11
-0.0925165327032344
 21
0.022936918071616
 31
0.0
210
0.0
220
0.0
230
1.0
 40
0.9973700000000002
 41
3.420137398968912
 42
4.620468091448046
  0
ELLIPSE
  5
170
330
1F
100
AcDbEntity
  8
1
100
AcDbEllipse
 10
396.106813
 20
302.202237
 30
0.0
 11
-0.0925165327032344
 21
0.022936918071616
 31
0.0
210
0.0
220
0.0
230
1.0
 40
0.9973700000000002
 41
0.2785447453790775
 42
0.9552766622597028
  0
ELLIPSE
  5
171
330
1F
100
AcDbEntity
  8
1
100
AcDbEllipse
 10
396.489218
 20
302.531599
 30
0.0
 11
-0.5832372129945672
 21
0.1445975522416692
 31
0.0
210
0.0
220
0.0
230
1.0
 40
0.9973699999999999
 41
0.9552766622597189
 42
2.219806706489866
  0
ELLIPSE
  5
172
330
1F
100
AcDbEntity
  8
1
100
AcDbEllipse
 10
396.689139
 20
302.068147
 30
0.0
 11
-0.0925165327032324
 21
0.0229369180716155
 31
0.0
210
0.0
220
0.0
230
1.0
 40
0.99737
 41
2.219806706489734
 42
2.896538623370393
  0
ELLIPSE
  5
173
330
1F
100
AcDbEntity
  8
1
100
AcDbEllipse
 10
396.857544
 20
301.978871
 30
0.0
 11
-0.0925165327032323
 21
0.0229369180716155
 31
0.0
210
0.0
220
0.0
230
1.0
 40
0.99737
 41
4.837800584481081
 42
6.038131276960151
  0
ELLIPSE
  5
174
330
1F
100
AcDbEntity
  8
1
100
AcDbEllipse
 10
396.798537
 20
301.478067
 30
0.0
 11
-0.5832372129945674
 21
0.1445975522416693
 31
0.0
210
0.0
220
0.0
230
1.0
 40
0.9973699999999999
 41
3.573270540251198
 42
4.837800584481382
  0
ELLIPSE
  5
175
330
1F
100
AcDbEntity
  8
1
100
AcDbEllipse
 10
397.29501
 20
301.572342
 30
0.0
 11
-0.0925165327032344
 21
0.022936918071616
 31
0.0
210
0.0
220
0.0
230
1.0
 40
0.9973700000000002
 41
2.372939847772306
 42
3.573270540251103
  0
ELLIPSE
  5
176
330
1F
100
AcDbEntity
  8
1
100
AcDbEllipse
 10
397.396214
 20
301.411076
 30
0.0
 11
-0.0925165327032344
 21
0.022936918071616
 31
0.0
210
0.0
220
0.0
230
1.0
 40
0.9973700000000002
 41
5.514532501362091
 42
6.191264418242646
  0
ELLIPSE
  5
177
330
1F
100
AcDbEntity
  8
1
100
AcDbEllipse
 10
397.873725
 20
301.245003
 30
0.0
 11
-0.5832372129945672
 21
0.1445975522416692
 31
0.0
210
0.0
220
0.0
230
1.0
 40
0.9973699999999999
 41
6.191264418242673
 42
7.455794462472856
  0
ELLIPSE
  5
178
330
1F
100
AcDbEntity
  8
1
100
AcDbEllipse
 10
397.571602
 20
300.841037
 30
0.0
 11
-0.0925165327032324
 21
0.0229369180716155
 31
0.0
210
0.0
220
0.0
230
1.0
 40
0.99737
 41
1.172609155293012
 42
1.849341072173979
  0
ELLIPSE
  5
179
330
1F
100
AcDbEntity
  8
1
100
AcDbEllipse
 10
397.578488
 20
300.65099
 30
0.0
 11
-0.0925165327032323
 21
0.0229369180716155
 31
0.0
210
0.0
220
0.0
230
1.0
 40
0.99737
 41
3.790603033284854
 42
4.990933725763568
  0
ELLIPSE
  5
17A
330
1F
100
AcDbEntity
  8
1
100
AcDbEllipse
 10
397.114202
 20
300.452105
 30
0.0
 11
-0.5832372129945674
 21
0.1445975522416693
 31
0.0
210
0.0
220
0.0
230
1.0
 40
0.9973699999999999
 41
2.5260729890546
 42
3.790603033284748
  0
ELLIPSE
  5
17B
330
1F
100
AcDbEntity
  8
1
100
AcDbEllipse
 10
397.444802
 20
300.070183
 30
0.0
 11
-0.0925165327032344
 21
0.022936918071616
 31
0.0
210
0.0
220
0.0
230
1.0
 40
0.9973700000000002
 41
1.325742296575718
 42
2.52607298905441
  0
ELLIPSE
  5
17C
330
1F
100
AcDbEntity
  8
1
100
AcDbEllipse
 10
397.355525
 20
299.90228
 30
0.0
 11
-0.0925165327032344
 21
0.022936918071616
 31
0.0
210
0.0
220
0.0
230
1.0
 40
0.9973700000000002
 41
4.467334950165527
 42
5.144066867046121
  0
ELLIPSE
  5
17D
330
1F
100
AcDbEntity
  8
1
100
AcDbEllipse
 10
397.450631
 20
299.406846
 30
0.0
 11
-0.5832372129945672
 21
0.1445975522416692
 31
0.0
210
0.0
220
0.0
230
1.0
 40
0.9973699999999999
 41
5.144066867046078
 42
6.408596911276247
  0
ELLIPSE
  5
17E
330
1F
100
AcDbEntity
  8
1
100
AcDbEllipse
 10
396.948587
 20
299.466331
 30
0.0
 11
-0.0925165327032324
 21
0.0229369180716155
 31
0.0
210
0.0
220
0.0
230
1.0
 40
0.99737
 41
0.1254116040967817
 42
0.8021435209773633
  0
ELLIPSE
  5
17F
330
1F
100
AcDbEntity
  8
1
100
AcDbEllipse
 10
396.787068
 20
299.365561
 30
0.0
 11
-0.0925165327032323
 21
0.0229369180716155
 31
0.0
210
0.0
220
0.0
230
1.0
 40
0.99737
 41
2.74340548208811
 42
3.943736174567056
  0
ELLIPSE
  5
180
330
1F
100
AcDbEntity
  8
1
100
AcDbEllipse
 10
396.381788
 20
299.667479
 30
0.0
 11
-0.5832372129945674
 21
0.1445975522416693
 31
0.0
210
0.0
220
0.0
230
1.0
 40
0.9973699999999999
 41
1.478875437858
 42
2.743405482088189
  0
ELLIPSE
  5
181
330
1F
100
AcDbEntity
  8
1
100
AcDbEllipse
 10
396.215916
 20
299.191282
 30
0.0
 11
-0.0925165327032344
 21
0.022936918071616
 31
0.0
210
0.0
220
0.0
230
1.0
 40
0.9973700000000002
 41
0.2785447453791595
 42
1.478875437858246
  0
ELLIPSE
  5
182
330
1F
100
AcDbEntity
  8
1
100
AcDbEllipse
 10
396.025434
 20
299.184646
 30
0.0
 11
-0.0925165327032344
 21
0.022936918071616
 31
0.0
210
0.0
220
0.0
230
1.0
 40
0.9973700000000002
 41
3.420137398968869
 42
4.096869315849453
  0
ELLIPSE
  5
183
330
1F
100
AcDbEntity
  8
1
100
AcDbEllipse
 10
395.643029
 20
298.855284
 30
0.0
 11
-0.5832372129945672
 21
0.1445975522416692
 31
0.0
210
0.0
220
0.0
230
1.0
 40
0.9973699999999999
 41
4.096869315849477
 42
5.361399360079666
  0
ELLIPSE
  5
184
330
1F
100
AcDbEntity
  8
1
100
AcDbEllipse
 10
396.066124
 20
300.693441
 30
0.0
 11
1.747107238945835
 21
-0.4331469676946408
 31
0.0
210
0.0
220
0.0
230
1.0
 40
0.99737
 41
0.0
 42
6.283185307179585
  0
ELLIPSE
  5
185
330
1F
100
AcDbEntity
  8
1
100
AcDbEllipse
 10
396.071834
 20
300.716476
 30
0.0
 11
2.669191615056135
 21
-0.6617523117557007
 31
0.0
210
0.0
220
0.0
230
1.0
 40
0.99737
 41
0.0
 42
6.283185307179585
  0
ELLIPSE
  5
186
330
1F
100
AcDbEntity
  8
1
100
AcDbEllipse
 10
392.011636
 20
307.702712
 30
0.0
 11
12.22975067262086
 21
-3.032028773862486
 31
0.0
210
0.0
220
0.0
230
0.9999999999999998
 40
0.99737
 41
4.57685673939016
 42
4.990384498665896
  0
ELLIPSE
  5
187
330
1F
100
AcDbEntity
  8
1
100
AcDbEllipse
 10
396.092286
 20
300.798969
 30
0.0
 11
-2.669191615056137
 21
0.6617523117556981
 31
0.0
210
0.0
220
0.0
230
1.0
 40
0.99737
 41
3.141615476525941
 42
6.283109835942767
  0
ELLIPSE
  5
188
330
1F
100
AcDbEntity
  8
1
100
AcDbEllipse
 10
392.952066
 20
297.57542
 30
0.0
 11
-1.941230265495372
 21
0.4812744085495984
 31
0.0
210
0.0
220
0.0
230
1.0
 40
0.99737
 41
0.0758138270677558
 42
1.849341058423438
  0
ELLIPSE
  5
189
330
1F
100
AcDbEntity
  8
1
100
AcDbEllipse
 10
392.952066
 20
297.57542
 30
0.0
 11
-1.941230265495372
 21
0.4812744085495984
 31
0.0
210
0.0
220
0.0
230
1.0
 40
0.99737
 41
1.849341058423438
 42
2.519874968114617
  0
ELLIPSE
  5
18A
330
1F
100
AcDbEntity
  8
1
100
AcDbEllipse
 10
392.884566
 20
297.303158
 30
0.0
 11
-1.941230265495372
 21
0.4812744085495984
 31
0.0
210
0.0
220
0.0
230
1.0
 40
0.99737
 41
5.689739020390954
 42
5.832616980126101
  0
ELLIPSE
  5
18B
330
1F
100
AcDbEntity
  8
1
100
AcDbEllipse
 10
392.879333
 20
297.2820529999999
 30
0.0
 11
1.94123026549537
 21
-0.4812744085496005
 31
0.0
210
0.0
220
0.0
230
1.0
 40
0.99737
 41
2.69102432653631
 42
4.355729963920551
  0
ELLIPSE
  5
18C
330
1F
100
AcDbEntity
  8
1
100
AcDbEllipse
 10
391.694988
 20
288.907991
 30
0.0
 11
0.5511314279563689
 21
-16.49999883066665
 31
0.0
210
0.0
220
0.0
230
0.9999999999999998
 40
0.019821
 41
3.248970511430509
 42
3.267170185921116
  0
ELLIPSE
  5
18D
330
1F
100
AcDbEntity
  8
1
100
AcDbEllipse
 10
338.354485
 20
288.91331
 30
0.0
 11
945.7039196168091
 21
-1.16143209012379
 31
0.0
210
0.0
220
0.0
230
0.9999999999999998
 40
0.017398
 41
1.515007260870758
 42
1.519194687570748
  0
ELLIPSE
  5
18E
330
1F
100
AcDbEntity
  8
1
100
AcDbEllipse
 10
315.017675
 20
288.907994
 30
0.0
 11
93.56759116730581
 21
-14.25690210907844
 31
0.0
210
0.0
220
0.0
230
1.0
 40
0.088771
 41
4.451985213715193
 42
4.542003155686543
  0
ELLIPSE
  5
18F
330
1F
100
AcDbEntity
  8
1
100
AcDbEllipse
 10
297.904842
 20
279.600666
 30
0.0
 11
-2.382605310748658
 21
-7.636962218918757
 31
0.0
210
0.0
220
0.0
230
0.9999999999999998
 40
0.176153
 41
4.280682266067479
 42
5.7691836078696
  0
SPLINE
  5
196
330
1F
100
AcDbEntity
  8
1
100
AcDbSpline
210
0.0
220
0.0
230
1.0
 70
    24
 71
     3
 72
     8
 73
     4
 74
     0
 42
0.000000001
 43
0.0000000001
 40
0.0
 40
0.0
 40
0.0
 40
0.0
 40
1.0
 40
1.0
 40
1.0
 40
1.0
 10
297.9048419452957
 20
272.53489379209
 30
0.0
 10
297.9048419452957
 20
272.5403635779751
 30
0.0
 10
297.9048419452957
 20
272.5458333638604
 30
0.0
 10
297.9048419452957
 20
272.5513031497455
 30
0.0
  0
SPLINE
  5
197
330
1F
100
AcDbEntity
  8
1
100
AcDbSpline
210
0.0
220
0.0
230
1.0
 70
    28
 71
     4
 72
    10
 73
     5
 74
     0
 42
0.000000001
 43
0.0000000001
 40
0.0
 40
0.0
 40
0.0
 40
0.0
 40
0.0
 40
1.0
 40
1.0
 40
1.0
 40
1.0
 40
1.0
 10
297.9048419452957
 20
272.5513031497455
 30
0.0
 41
1.001498006703475
 10
297.9048419452957
 20
272.5993091755009
 30
0.0
 41
1.001498006703475
 10
297.9048419452957
 20
272.6473152012562
 30
0.0
 41
1.001498006703475
 10
297.9048419452957
 20
272.6953212270115
 30
0.0
 41
1.001498006703475
 10
297.9048419452957
 20
272.7433272527668
 30
0.0
 41
1.001498006703475
  0
SPLINE
  5
198
330
1F
100
AcDbEntity
  8
1
100
AcDbSpline
210
0.0
220
0.0
230
1.0
 70
     8
 71
     3
 72
    12
 73
     8
 74
     0
 42
0.000000001
 43
0.0000000001
 40
0.0
 40
0.0
 40
0.0
 40
0.0
 40
0.0142082359491224
 40
0.0142082359491224
 40
0.3428054906327711
 40
0.3428054906327711
 40
1.0
 40
1.0
 40
1.0
 40
1.0
 10
391.6350361106536
 20
305.3266129201732
 30
0.0
 10
391.6348133014542
 20
305.3266802145407
 30
0.0
 10
391.6345918534058
 20
305.326747527251
 30
0.0
 10
391.6292817873322
 20
305.3283720353892
 30
0.0
 10
391.6249064019723
 20
305.3299461040742
 30
0.0
 10
391.6142054754684
 20
305.3346259734195
 30
0.0
 10
391.6102359793933
 20
305.3376925776016
 30
0.0
 10
391.6094771838759
 20
305.3406986290366
 30
0.0
  0
SPLINE
  5
199
330
1F
100
AcDbEntity
  8
1
100
AcDbSpline
210
0.0
220
0.0
230
1.0
 70
     8
 71
     3
 72
    10
 73
     6
 74
     0
 42
0.000000001
 43
0.0000000001
 40
0.0
 40
0.0
 40
0.0
 40
0.0
 40
0.5
 40
0.5
 40
1.0
 40
1.0
 40
1.0
 40
1.0
 10
297.9048419452957
 20
272.5513031497455
 30
0.0
 10
298.7090309056955
 20
272.5638286154451
 30
0.0
 10
299.5116607848633
 20
272.5814570185325
 30
0.0
 10
301.1143197402433
 20
272.6272542305098
 30
0.0
 10
301.9143495997288
 20
272.6554231013712
 30
0.0
 10
302.7133705887743
 20
272.6888690730433
 30
0.0
  0
SPLINE
  5
19A
330
1F
100
AcDbEntity
  8
1
100
AcDbSpline
210
0.0
220
0.0
230
1.0
 70
    12
 71
     3
 72
     8
 73
     4
 74
     0
 42
0.000000001
 43
0.0000000001
 40
0.0
 40
0.0
 40
0.0
 40
0.0
 40
1.0
 40
1.0
 40
1.0
 40
1.0
 10
297.9048419452957
 20
272.7433272527668
 30
0.0
 41
1.001498006703475
 10
299.5438450469614
 20
272.7191718342957
 30
0.0
 41
1.001703451375073
 10
301.1446584016988
 20
272.7004853922869
 30
0.0
 41
1.001827041719252
 10
302.7133705887743
 20
272.6888690730433
 30
0.0
 41
1.001890775468371
  0
SPLINE
  5
19B
330
1F
100
AcDbEntity
  8
1
100
AcDbSpline
210
0.0
220
0.0
230
1.0
 70
     8
 71
     3
 72
    46
 73
    42
 74
     0
 42
0.000000001
 43
0.0000000001
 40
0.0
 40
0.0
 40
0.0
 40
0.0
 40
0.0625000000000015
 40
0.0625000000000015
 40
0.0937500000000028
 40
0.0937500000000028
 40
0.1250000000000041
 40
0.1250000000000041
 40
0.1875000000000068
 40
0.1875000000000068
 40
0.2187500000000075
 40
0.2187500000000075
 40
0.2500000000000083
 40
0.2500000000000083
 40
0.3125000000000111
 40
0.3125000000000111
 40
0.3437500000000134
 40
0.3437500000000134
 40
0.3750000000000157
 40
0.3750000000000157
 40
0.5000000000000166
 40
0.5000000000000166
 40
0.5625000000000162
 40
0.5625000000000162
 40
0.5937500000000151
 40
0.5937500000000151
 40
0.6250000000000139
 40
0.6250000000000139
 40
0.6875000000000118
 40
0.6875000000000118
 40
0.7187500000000105
 40
0.7187500000000105
 40
0.7500000000000091
 40
0.7500000000000091
 40
0.8125000000000067
 40
0.8125000000000067
 40
0.8750000000000046
 40
0.8750000000000046
 40
0.9375000000000021
 40
0.9375000000000021
 40
1.0
 40
1.0
 40
1.0
 40
1.0
 10
398.951156432569
 20
283.1534935137009
 30
0.0
 10
398.9541107065496
 20
283.1157746877799
 30
0.0
 10
398.9574859403043
 20
283.0801669431011
 30
0.0
 10
398.963176143974
 20
283.0299014538391
 30
0.0
 10
398.9651775718547
 20
283.0136713198083
 30
0.0
 10
398.9693907482425
 20
282.9822657936862
 30
0.0
 10
398.9716028926327
 20
282.9670913587465
 30
0.0
 10
398.9785253161108
 20
282.9233501890447
 30
0.0
 10
398.9835301313466
 20
282.8964912516997
 30
0.0
 10
398.9916191105706
 20
282.8596376429014
 30
0.0
 10
398.9944125203658
 20
282.8479263049121
 30
0.0
 10
399.0001944928545
 20
282.8256558477411
 30
0.0
 10
399.0031820568811
 20
282.8151031379237
 30
0.0
 10
399.0123971220628
 20
282.7853120998453
 30
0.0
 10
399.0188890256018
 20
282.7678878111365
 30
0.0
 10
399.0291471877934
 20
282.7453886237791
 30
0.0
 10
399.0326534034839
 20
282.7384958745931
 30
0.0
 10
399.0398404094394
 20
282.7259307533539
 30
0.0
 10
399.0435227547022
 20
282.720257598024
 30
0.0
 10
399.0623093780976
 20
282.6950502713215
 30
0.0
 10
399.0786204454074
 20
282.684891323251
 30
0.0
 10
399.1046500978674
 20
282.6848701726818
 30
0.0
 10
399.1135648631659
 20
282.6873875379306
 30
0.0
 10
399.1272920442503
 20
282.6949259563182
 30
0.0
 10
399.1319270190887
 20
282.6980666255725
 30
0.0
 10
399.1413159911708
 20
282.7056092727937
 30
0.0
 10
399.1460752098486
 20
282.7100169751318
 30
0.0
 10
399.1604917244429
 20
282.7251053115563
 30
0.0
 10
399.1702767051127
 20
282.7376305657706
 30
0.0
 10
399.1852135157557
 20
282.7600950712217
 30
0.0
 10
399.1902357312109
 20
282.7681967943913
 30
0.0
 10
399.2003671143123
 20
282.7856329505669
 30
0.0
 10
399.2054811305329
 20
282.794976883452
 30
0.0
 10
399.2209198274027
 20
282.8248072054432
 30
0.0
 10
399.231317011754
 20
282.847038153953
 30
0.0
 10
399.2523195419525
 20
282.8961595773015
 30
0.0
 10
399.2629341702957
 20
282.9230754884749
 30
0.0
 10
399.2843352653408
 20
282.9815263279004
 30
0.0
 10
399.2950678354569
 20
283.0129103628923
 30
0.0
 10
399.3165966306909
 20
283.0799693614096
 30
0.0
 10
399.3274004126684
 20
283.1156707681282
 30
0.0
 10
399.3382206898774
 20
283.1534935137009
 30
0.0
  0
SPLINE
  5
19C
330
1F
100
AcDbEntity
  8
1
100
AcDbSpline
210
0.0
220
0.0
230
1.0
 70
     8
 71
     3
 72
   142
 73
   138
 74
     0
 42
0.000000001
 43
0.0000000001
 40
0.0
 40
0.0
 40
0.0
 40
0.0
 40
0.015625
 40
0.015625
 40
0.03125
 40
0.03125
 40
0.0625000000000001
 40
0.0625000000000001
 40
0.0781250000000004
 40
0.0781250000000004
 40
0.0937500000000007
 40
0.0937500000000007
 40
0.1015625000000012
 40
0.1015625000000012
 40
0.1093750000000015
 40
0.1250000000000019
 40
0.1250000000000019
 40
0.1328125000000019
 40
0.1328125000000019
 40
0.1406250000000018
 40
0.1562500000000014
 40
0.1562500000000014
 40
0.1640625000000013
 40
0.1640625000000013
 40
0.1718750000000012
 40
0.1875000000000012
 40
0.1875000000000012
 40
0.2031250000000013
 40
0.2031250000000013
 40
0.2187500000000013
 40
0.2187500000000013
 40
0.2343750000000014
 40
0.2343750000000014
 40
0.2500000000000014
 40
0.2500000000000014
 40
0.2656250000000014
 40
0.2656250000000014
 40
0.2812500000000014
 40
0.2812500000000014
 40
0.2890625000000013
 40
0.2890625000000013
 40
0.2968750000000012
 40
0.2968750000000012
 40
0.3125000000000013
 40
0.3125000000000013
 40
0.3203125000000014
 40
0.3203125000000014
 40
0.3281250000000015
 40
0.3281250000000015
 40
0.3437500000000015
 40
0.3437500000000015
 40
0.3593750000000015
 40
0.3593750000000015
 40
0.3750000000000014
 40
0.3750000000000014
 40
0.3906250000000014
 40
0.3906250000000014
 40
0.4062500000000015
 40
0.4218750000000015
 40
0.4218750000000015
 40
0.4375000000000015
 40
0.4375000000000015
 40
0.4531250000000015
 40
0.4531250000000015
 40
0.4609375000000015
 40
0.4609375000000015
 40
0.4687500000000015
 40
0.4687500000000015
 40
0.5000000000000023
 40
0.5000000000000023
 40
0.5156250000000027
 40
0.5156250000000027
 40
0.5312500000000031
 40
0.5312500000000031
 40
0.5468750000000036
 40
0.5468750000000036
 40
0.5625000000000039
 40
0.5625000000000039
 40
0.5781250000000044
 40
0.5781250000000044
 40
0.5859375000000046
 40
0.5859375000000046
 40
0.5937500000000048
 40
0.5937500000000048
 40
0.6093750000000053
 40
0.6093750000000053
 40
0.6171875000000055
 40
0.6171875000000055
 40
0.6250000000000059
 40
0.6250000000000059
 40
0.6562500000000064
 40
0.6562500000000064
 40
0.6875000000000071
 40
0.6875000000000071
 40
0.7031250000000072
 40
0.7031250000000072
 40
0.7187500000000073
 40
0.7187500000000073
 40
0.7265625000000073
 40
0.7265625000000073
 40
0.7343750000000073
 40
0.7500000000000071
 40
0.7500000000000071
 40
0.7578125000000071
 40
0.7578125000000071
 40
0.765625000000007
 40
0.7812500000000067
 40
0.7812500000000067
 40
0.7890625000000066
 40
0.7890625000000066
 40
0.7968750000000064
 40
0.812500000000006
 40
0.812500000000006
 40
0.8281250000000056
 40
0.8281250000000056
 40
0.8437500000000055
 40
0.8437500000000055
 40
0.8593750000000051
 40
0.8593750000000051
 40
0.8750000000000046
 40
0.8750000000000046
 40
0.8828125000000042
 40
0.8828125000000042
 40
0.8906250000000039
 40
0.8906250000000039
 40
0.9062500000000031
 40
0.9062500000000031
 40
0.9375000000000028
 40
0.9375000000000028
 40
0.9453125000000024
 40
0.9453125000000024
 40
0.9531250000000019
 40
0.9531250000000019
 40
0.9687500000000014
 40
0.9843750000000007
 40
0.9843750000000007
 40
1.0
 40
1.0
 40
1.0
 40
1.0
 10
399.3382206898774
 20
283.1534935137009
 30
0.0
 10
399.3446310254663
 20
283.1894284057865
 30
0.0
 10
399.3508261665827
 20
283.2270799640635
 30
0.0
 10
399.3627882656686
 20
283.3057988167361
 30
0.0
 10
399.36855886028
 20
283.3468942028457
 30
0.0
 10
399.3851971253608
 20
283.4751955124927
 30
0.0
 10
399.3952809053996
 20
283.5664852611802
 30
0.0
 10
399.408890725621
 20
283.7120717748303
 30
0.0
 10
399.4131481186414
 20
283.7617817761632
 30
0.0
 10
399.4210960998445
 20
283.8633833149818
 30
0.0
 10
399.4247890700443
 20
283.9153002827482
 30
0.0
 10
399.42990391902
 20
283.9948622485358
 30
0.0
 10
399.4315370908052
 20
284.0216534986532
 30
0.0
 10
399.4346476064716
 20
284.0755646952485
 30
0.0
 10
399.4390850418097
 20
284.1570096966757
 30
0.0
 10
399.4428418743137
 20
284.2401781463557
 30
0.0
 10
399.4461430556344
 20
284.3245004132051
 30
0.0
 10
399.4471679220449
 20
284.3528201428371
 30
0.0
 10
399.4490568166602
 20
284.4096067945111
 30
0.0
 10
399.4516521339836
 20
284.4950859439896
 30
0.0
 10
399.4535389368007
 20
284.5814556219225
 30
0.0
 10
399.45495271037
 20
284.668419848028
 30
0.0
 10
399.4553453161838
 20
284.6975387503848
 30
0.0
 10
399.4559696179381
 20
284.755780775905
 30
0.0
 10
399.4566653267543
 20
284.8431582906584
 30
0.0
 10
399.4566452928164
 20
284.9305788446512
 30
0.0
 10
399.455983016703
 20
285.0471778012284
 30
0.0
 10
399.4553317967324
 20
285.1055520789433
 30
0.0
 10
399.4534045152749
 20
285.221362882663
 30
0.0
 10
399.4521284904625
 20
285.2789167916353
 30
0.0
 10
399.4489535505955
 20
285.3933237368374
 30
0.0
 10
399.4470500436368
 20
285.4502691718178
 30
0.0
 10
399.442648874709
 20
285.5625740198889
 30
0.0
 10
399.4401498412715
 20
285.6180210063685
 30
0.0
 10
399.4345576865827
 20
285.7275107464692
 30
0.0
 10
399.4314572004165
 20
285.7816589870058
 30
0.0
 10
399.4247031379127
 20
285.8878049150644
 30
0.0
 10
399.4210489876632
 20
285.9398436271894
 30
0.0
 10
399.4151545851059
 20
286.01635965282
 30
0.0
 10
399.4131208440975
 20
286.0416076991369
 30
0.0
 10
399.4089149712875
 20
286.0915872954554
 30
0.0
 10
399.4067418293265
 20
286.1163276541001
 30
0.0
 10
399.4000411928744
 20
286.1894744202896
 30
0.0
 10
399.395324774206
 20
286.236907274112
 30
0.0
 10
399.3878787672287
 20
286.3060730231343
 30
0.0
 10
399.3853347990419
 20
286.3287973137096
 30
0.0
 10
399.3801225359792
 20
286.3735818671488
 30
0.0
 10
399.3774515589877
 20
286.3956626284332
 30
0.0
 10
399.3692792936392
 20
286.4606788499042
 30
0.0
 10
399.3636151322223
 20
286.5024298499652
 30
0.0
 10
399.3518581641287
 20
286.5827700717911
 30
0.0
 10
399.3457582802455
 20
286.6214003816342
 30
0.0
 10
399.3331566585865
 20
286.6952863993245
 30
0.0
 10
399.3266779292271
 20
286.7304140083163
 30
0.0
 10
399.3133675679687
 20
286.7970683691102
 30
0.0
 10
399.3065344953005
 20
286.8286012269172
 30
0.0
 10
399.2925179252504
 20
286.8880070178445
 30
0.0
 10
399.2782296182962
 20
286.9434215084746
 30
0.0
 10
399.2634025969347
 20
286.9909233050866
 30
0.0
 10
399.2483037886493
 20
287.0344330667046
 30
0.0
 10
399.2406508051577
 20
287.0540947632333
 30
0.0
 10
399.2251777813718
 20
287.0891599227331
 30
0.0
 10
399.2173516025274
 20
287.1045812351775
 30
0.0
 10
399.205476696909
 20
287.1245195332505
 30
0.0
 10
399.2014955083837
 20
287.1306308255459
 30
0.0
 10
399.1935368831764
 20
287.1417161790912
 30
0.0
 10
399.1895533292547
 20
287.1467011098568
 30
0.0
 10
399.1696146117007
 20
287.1688710460461
 30
0.0
 10
399.1535969692391
 20
287.1778398983874
 30
0.0
 10
399.1294709848014
 20
287.1782059009437
 30
0.0
 10
399.1214123318214
 20
287.1761373029108
 30
0.0
 10
399.1052608959711
 20
287.1675119240773
 30
0.0
 10
399.0971540577594
 20
287.1609263877844
 30
0.0
 10
399.0811062855454
 20
287.1433481300167
 30
0.0
 10
399.0731421522741
 20
287.1323513704433
 30
0.0
 10
399.0573337664983
 20
287.1059287316283
 30
0.0
 10
399.049473188154
 20
287.0904612798827
 30
0.0
 10
399.0339850255206
 20
287.0552720372511
 30
0.0
 10
399.0263520046407
 20
287.0355525352622
 30
0.0
 10
399.0150691153283
 20
287.0027849787559
 30
0.0
 10
399.0113359570613
 20
286.9913304796535
 30
0.0
 10
399.0039256381919
 20
286.967350097624
 30
0.0
 10
399.0002456364932
 20
286.9548129719758
 30
0.0
 10
398.989335175403
 20
286.9157419494918
 30
0.0
 10
398.9822214167799
 20
286.8877136573337
 30
0.0
 10
398.9717900191343
 20
286.8427070250727
 30
0.0
 10
398.968352805088
 20
286.8272102229349
 30
0.0
 10
398.9615586627544
 20
286.7952218758095
 30
0.0
 10
398.9581982437855
 20
286.7787121065337
 30
0.0
 10
398.9416459380475
 20
286.6938953068088
 30
0.0
 10
398.9292154690858
 20
286.6189310583508
 30
0.0
 10
398.9060179759949
 20
286.4548702811147
 30
0.0
 10
398.8953933247044
 20
286.366791196335
 30
0.0
 10
398.8809202281935
 20
286.2255825260062
 30
0.0
 10
398.8763652890907
 20
286.1772220020953
 30
0.0
 10
398.8678118978051
 20
286.0781770498557
 30
0.0
 10
398.863809619556
 20
286.0274554715124
 30
0.0
 10
398.8582207779409
 20
285.9495615617058
 30
0.0
 10
398.8564273702207
 20
285.9232960765948
 30
0.0
 10
398.8529946785462
 20
285.8703916550222
 30
0.0
 10
398.8480706790517
 20
285.7903888602901
 30
0.0
 10
398.8438173946061
 20
285.7084602095091
 30
0.0
 10
398.8400130778243
 20
285.625242416501
 30
0.0
 10
398.8388190540799
 20
285.5972637495133
 30
0.0
 10
398.8365908247148
 20
285.5411034833612
 30
0.0
 10
398.8334849679167
 20
285.4564931395566
 30
0.0
 10
398.8310829771421
 20
285.3707817155951
 30
0.0
 10
398.8291508237566
 20
285.2843353099622
 30
0.0
 10
398.828584690229
 20
285.2553658234503
 30
0.0
 10
398.8276131828355
 20
285.1973572474709
 30
0.0
 10
398.8263968903492
 20
285.1102589000372
 30
0.0
 10
398.8258969073017
 20
285.0229064422679
 30
0.0
 10
398.8258661651921
 20
284.9062109127468
 30
0.0
 10
398.8261707458206
 20
284.8476816574666
 30
0.0
 10
398.8274112062086
 20
284.7313695176131
 30
0.0
 10
398.8283462683881
 20
284.6734739590615
 30
0.0
 10
398.830843945684
 20
284.5582021179089
 30
0.0
 10
398.8324107671783
 20
284.5007247242003
 30
0.0
 10
398.8361490892726
 20
284.3871672222782
 30
0.0
 10
398.8383211445151
 20
284.3310082547901
 30
0.0
 10
398.8420312305749
 20
284.2476946945421
 30
0.0
 10
398.8433433447004
 20
284.2200778300256
 30
0.0
 10
398.8461190416285
 20
284.1651540368849
 30
0.0
 10
398.8475818237078
 20
284.1378689463626
 30
0.0
 10
398.852168406058
 20
284.0569820478833
 30
0.0
 10
398.8554983327961
 20
284.0041807809265
 30
0.0
 10
398.8662841287295
 20
283.8490619652357
 30
0.0
 10
398.8745314788938
 20
283.7500106877438
 30
0.0
 10
398.8861644683873
 20
283.6316596353254
 30
0.0
 10
398.8885576189703
 20
283.6082640734153
 30
0.0
 10
398.8934785755148
 20
283.562028643297
 30
0.0
 10
398.8960097612048
 20
283.5391597026596
 30
0.0
 10
398.9037841505867
 20
283.4716104042525
 30
0.0
 10
398.9145975109882
 20
283.3846380850839
 30
0.0
 10
398.9262965115764
 20
283.3037877808947
 30
0.0
 10
398.938441569432
 20
283.2260208612595
 30
0.0
 10
398.9447099379718
 20
283.1888581771224
 30
0.0
 10
398.951156432569
 20
283.1534935137009
 30
0.0
  0
SPLINE
  5
19D
330
1F
100
AcDbEntity
  8
1
100
AcDbSpline
210
0.0
220
0.0
230
1.0
 70
     8
 71
     3
 72
    18
 73
    14
 74
     0
 42
0.000000001
 43
0.0000000001
 40
0.0
 40
0.0
 40
0.0
 40
0.0
 40
0.2500000000000006
 40
0.2500000000000006
 40
0.5000000000000011
 40
0.5000000000000011
 40
0.5625000000000006
 40
0.5625000000000006
 40
0.625
 40
0.625
 40
0.75
 40
0.75
 40
1.0
 40
1.0
 40
1.0
 40
1.0
 10
279.4048419452957
 20
280.28617332358
 30
0.0
 10
279.1591152351968
 20
280.0381973852718
 30
0.0
 10
278.9345197058635
 20
279.7801272350493
 30
0.0
 10
278.5261323952348
 20
279.2461381213021
 30
0.0
 10
278.342340413199
 20
278.9702133607301
 30
0.0
 10
278.1387017861067
 20
278.6148288843694
 30
0.0
 10
278.0992852218442
 20
278.5432251730637
 30
0.0
 10
278.023114924558
 20
278.3989694804787
 30
0.0
 10
277.9863275019439
 20
278.3262377222241
 30
0.0
 10
277.8807292934978
 20
278.1079617985487
 30
0.0
 10
277.8164350647518
 20
277.9619074637476
 30
0.0
 10
277.641645373455
 20
277.522407797393
 30
0.0
 10
277.5491506306485
 20
277.2276441200065
 30
0.0
 10
277.481192155723
 20
276.9316071205022
 30
0.0
  0
SPLINE
  5
19E
330
1F
100
AcDbEntity
  8
1
100
AcDbSpline
210
0.0
220
0.0
230
1.0
 70
     8
 71
     3
 72
    40
 73
    36
 74
     0
 42
0.000000001
 43
0.0000000001
 40
0.0
 40
0.0
 40
0.0
 40
0.0
 40
0.0624999999999988
 40
0.0624999999999988
 40
0.1249999999999976
 40
0.1249999999999976
 40
0.2499999999999959
 40
0.2499999999999959
 40
0.3749999999999942
 40
0.3749999999999942
 40
0.3906249999999944
 40
0.3906249999999944
 40
0.4062499999999946
 40
0.4062499999999946
 40
0.4374999999999949
 40
0.4374999999999949
 40
0.4999999999999954
 40
0.562499999999996
 40
0.562499999999996
 40
0.6249999999999964
 40
0.6249999999999964
 40
0.6874999999999969
 40
0.6874999999999969
 40
0.7031249999999972
 40
0.7031249999999972
 40
0.7187499999999974
 40
0.7187499999999974
 40
0.7499999999999978
 40
0.7499999999999978
 40
0.8124999999999984
 40
0.8749999999999989
 40
0.8749999999999989
 40
0.9374999999999996
 40
0.9374999999999996
 40
1.0
 40
1.0
 40
1.0
 40
1.0
 10
279.8043368819074
 20
280.8599910307729
 30
0.0
 10
279.9230390314138
 20
281.0219897397694
 30
0.0
 10
280.0450559942258
 20
281.1794125585806
 30
0.0
 10
280.2958358597248
 20
281.4855086605007
 30
0.0
 10
280.4245986877839
 20
281.6341809714574
 30
0.0
 10
280.8212793156447
 20
282.0674388975576
 30
0.0
 10
281.0995481194577
 20
282.3393277126553
 30
0.0
 10
281.6860607486294
 20
282.8495718319825
 30
0.0
 10
281.9942828828535
 20
283.0879371391482
 30
0.0
 10
282.3600807799821
 20
283.3362474957236
 30
0.0
 10
282.4009908568194
 20
283.3635602819585
 30
0.0
 10
282.4833528446509
 20
283.4176250783396
 30
0.0
 10
282.5248393492597
 20
283.444398718109
 30
0.0
 10
282.6497910176702
 20
283.5236562923107
 30
0.0
 10
282.7337750344692
 20
283.5750984648882
 30
0.0
 10
282.9878081421714
 20
283.7252403377109
 30
0.0
 10
283.3320644452117
 20
283.9142817725833
 30
0.0
 10
283.6878463547332
 20
284.0808043355312
 30
0.0
 10
284.0496762938255
 20
284.2357678468462
 30
0.0
 10
284.2336149207267
 20
284.3074709032618
 30
0.0
 10
284.6079084377192
 20
284.4388030999805
 30
0.0
 10
284.7982625451576
 20
284.4984340641417
 30
0.0
 10
285.040509091406
 20
284.5649439431233
 30
0.0
 10
285.0891738814674
 20
284.577843762279
 30
0.0
 10
285.1869429944605
 20
284.6028239496019
 30
0.0
 10
285.2360838049312
 20
284.6149128811315
 30
0.0
 10
285.3839289387922
 20
284.6498669929011
 30
0.0
 10
285.4827561263555
 20
284.6713520073223
 30
0.0
 10
285.7800323638305
 20
284.7303281670144
 30
0.0
 10
286.1785197900978
 20
284.7943670691034
 30
0.0
 10
286.5812815517693
 20
284.8285886839078
 30
0.0
 10
286.9861953554209
 20
284.8473446640762
 30
0.0
 10
287.1897284477657
 20
284.8489907027448
 30
0.0
 10
287.5989546144552
 20
284.8359984401681
 30
0.0
 10
287.8046479356187
 20
284.8213614663629
 30
0.0
 10
288.0114185953723
 20
284.7980254476215
 30
0.0
  0
SPLINE
  5
19F
330
1F
100
AcDbEntity
  8
1
100
AcDbSpline
210
0.0
220
0.0
230
1.0
 70
     8
 71
     3
 72
     8
 73
     4
 74
     0
 42
0.000000001
 43
0.0000000001
 40
0.0
 40
0.0
 40
0.0
 40
0.0
 40
1.0
 40
1.0
 40
1.0
 40
1.0
 10
279.8043368819074
 20
280.8599910307729
 30
0.0
 10
279.6677319201224
 20
280.6735594661913
 30
0.0
 10
279.5345094160797
 20
280.4824117190487
 30
0.0
 10
279.4048419452957
 20
280.28617332358
 30
0.0
  0
SPLINE
  5
1A0
330
1F
100
AcDbEntity
  8
1
100
AcDbSpline
210
0.0
220
0.0
230
1.0
 70
     8
 71
     3
 72
    14
 73
    10
 74
     0
 42
0.000000001
 43
0.0000000001
 40
0.0
 40
0.0
 40
0.0
 40
0.0
 40
0.25
 40
0.25
 40
0.5
 40
0.5
 40
0.75
 40
0.75
 40
1.0
 40
1.0
 40
1.0
 40
1.0
 10
389.8958419452957
 20
292.4319901276622
 30
0.0
 10
390.1273269379253
 20
292.4009201775838
 30
0.0
 10
390.3565462372212
 20
292.3786819625844
 30
0.0
 10
390.8103694763387
 20
292.3508111733174
 30
0.0
 10
391.0349738195931
 20
292.3451813259262
 30
0.0
 10
391.4792865175997
 20
292.3497579161727
 30
0.0
 10
391.6989964421219
 20
292.3599660897874
 30
0.0
 10
392.1330155405219
 20
292.3956642427236
 30
0.0
 10
392.3473280465357
 20
292.4211552200489
 30
0.0
 10
392.5585404641774
 20
292.4540971484207
 30
0.0
  0
SPLINE
  5
1A1
330
1F
100
AcDbEntity
  8
1
100
AcDbSpline
210
0.0
220
0.0
230
1.0
 70
    24
 71
     3
 72
    12
 73
     8
 74
     0
 42
0.000000001
 43
0.0000000001
 40
0.0
 40
0.0
 40
0.0
 40
0.0
 40
0.2111375481716271
 40
0.4222750963432546
 40
0.6334126445148818
 40
0.8445501926865087
 40
1.0
 40
1.0
 40
1.0
 40
1.0
 10
389.8958419452957
 20
294.8389686444146
 30
0.0
 10
389.8958419452957
 20
294.6313837859
 30
0.0
 10
389.8958419452957
 20
294.2294780029168
 30
0.0
 10
389.8958419452957
 20
293.6717436559696
 30
0.0
 10
389.8958419452957
 20
293.1640652065267
 30
0.0
 10
389.8958419452957
 20
292.7507712432015
 30
0.0
 10
389.8958419452957
 20
292.5179404329369
 30
0.0
 10
389.8958419452957
 20
292.4247316444159
 30
0.0
  0
SPLINE
  5
1A2
330
1F
100
AcDbEntity
  8
1
100
AcDbSpline
210
0.0
220
0.0
230
1.0
 70
     8
 71
     3
 72
    14
 73
    10
 74
     0
 42
0.000000001
 43
0.0000000001
 40
0.0
 40
0.0
 40
0.0
 40
0.0
 40
0.25
 40
0.25
 40
0.5
 40
0.5
 40
0.75
 40
0.75
 40
1.0
 40
1.0
 40
1.0
 40
1.0
 10
387.1581921235743
 20
296.0354998899007
 30
0.0
 10
387.3811284088438
 20
295.9102219715002
 30
0.0
 10
387.605145730862
 20
295.7915610771186
 30
0.0
 10
388.0556364535593
 20
295.5670056893742
 30
0.0
 10
388.2821090945037
 20
295.4611118883743
 30
0.0
 10
388.7378598020033
 20
295.2618563271128
 30
0.0
 10
388.967136951018
 20
295.1684945465644
 30
0.0
 10
389.4289275529424
 20
294.9942892059801
 30
0.0
 10
389.6614398337539
 20
294.9134449225713
 30
0.0
 10
389.8958419452957
 20
294.8389686444146
 30
0.0
  0
SPLINE
  5
1A3
330
1F
100
AcDbEntity
  8
1
100
AcDbSpline
210
0.0
220
0.0
230
1.0
 70
     8
 71
     3
 72
    10
 73
     6
 74
     0
 42
0.000000001
 43
0.0000000001
 40
0.0
 40
0.0
 40
0.0
 40
0.0
 40
0.5
 40
0.5
 40
1.0
 40
1.0
 40
1.0
 40
1.0
 10
385.8748677113163
 20
293.8175331889374
 30
0.0
 10
385.6224285084525
 20
293.9559617541561
 30
0.0
 10
385.3705985811051
 20
294.0956891758356
 30
0.0
 10
384.8679548225205
 20
294.3773101377438
 30
0.0
 10
384.617141736283
 20
294.5192052661667
 30
0.0
 10
384.3667635103682
 20
294.6620274319058
 30
0.0
  0
SPLINE
  5
1A4
330
1F
100
AcDbEntity
  8
1
100
AcDbSpline
210
0.0
220
0.0
230
1.0
 70
     8
 71
     3
 72
    38
 73
    34
 74
     0
 42
0.000000001
 43
0.0000000001
 40
0.0
 40
0.0
 40
0.0
 40
0.0
 40
0.0365573057936418
 40
0.0365573057936418
 40
0.090081899916218
 40
0.090081899916218
 40
0.1436064940387943
 40
0.1436064940387943
 40
0.1971310881613706
 40
0.1971310881613706
 40
0.2506556822839469
 40
0.2506556822839469
 40
0.2774179793452348
 40
0.2774179793452348
 40
0.3041802764065226
 40
0.3041802764065226
 40
0.3577048705290979
 40
0.3577048705290979
 40
0.4112294646516733
 40
0.4112294646516733
 40
0.4647540587742486
 40
0.4647540587742486
 40
0.518278652896824
 40
0.518278652896824
 40
0.5718032470193992
 40
0.5718032470193992
 40
0.6788524352645494
 40
0.6788524352645494
 40
0.7859016235096998
 40
0.7859016235096998
 40
0.8929508117548499
 40
0.8929508117548499
 40
1.0
 40
1.0
 40
1.0
 40
1.0
 10
338.7738415358056
 20
275.2091271579311
 30
0.0
 10
338.277554089649
 20
275.1265784760574
 30
0.0
 10
337.7812668660006
 20
275.0456040212451
 30
0.0
 10
336.5582745137842
 20
274.8501188890609
 30
0.0
 10
335.8315339214598
 20
274.7374875526255
 30
0.0
 10
334.3776300675734
 20
274.5197911607909
 30
0.0
 10
333.650466633474
 20
274.4147282068368
 30
0.0
 10
332.1953335832602
 20
274.2127436872753
 30
0.0
 10
331.467368866543
 20
274.1158042707418
 30
0.0
 10
330.0108033880928
 20
273.9297034834318
 30
0.0
 10
329.2822029360852
 20
273.8405427604528
 30
0.0
 10
328.1888967652781
 20
273.712530283414
 30
0.0
 10
327.8243753699559
 20
273.6708139010503
 30
0.0
 10
327.0955852762079
 20
273.5893332116393
 30
0.0
 10
326.7312701633546
 20
273.5495633861501
 30
0.0
 10
325.6385665319926
 20
273.4331691386306
 30
0.0
 10
324.9104219654973
 20
273.3594568971416
 30
0.0
 10
323.4547397398798
 20
273.2199082517135
 30
0.0
 10
322.7272020938266
 20
273.1540735180598
 30
0.0
 10
321.2726198156829
 20
273.0304683453266
 30
0.0
 10
320.5455750255919
 20
272.9726996547784
 30
0.0
 10
319.0917946285456
 20
272.8654407477689
 30
0.0
 10
318.365058709149
 20
272.8159522086306
 30
0.0
 10
316.9116494231849
 20
272.7254415267132
 30
0.0
 10
316.1849756215659
 20
272.6844208443783
 30
0.0
 10
314.0046009256538
 20
272.5742294575807
 30
0.0
 10
312.5505556310654
 20
272.518003185102
 30
0.0
 10
309.6387783363123
 20
272.4394583438259
 30
0.0
 10
308.1810293248165
 20
272.4171482594568
 30
0.0
 10
305.2589742055235
 20
272.4034608263789
 30
0.0
 10
303.7946551496012
 20
272.4120668066785
 30
0.0
 10
300.8569801934352
 20
272.4548925855771
 30
0.0
 10
299.3836177028583
 20
272.4890808241848
 30
0.0
 10
297.9048419452957
 20
272.5326285432461
 30
0.0
  0
SPLINE
  5
1A5
330
1F
100
AcDbEntity
  8
1
100
AcDbSpline
210
0.0
220
0.0
230
1.0
 70
     8
 71
     3
 72
    28
 73
    24
 74
     0
 42
0.000000001
 43
0.0000000001
 40
0.0
 40
0.0
 40
0.0
 40
0.0
 40
0.1250000000000004
 40
0.1250000000000004
 40
0.2500000000000005
 40
0.2500000000000005
 40
0.3750000000000006
 40
0.3750000000000006
 40
0.5000000000000007
 40
0.5000000000000007
 40
0.5625000000000007
 40
0.5625000000000007
 40
0.6250000000000007
 40
0.6250000000000007
 40
0.75
 40
0.75
 40
0.8125
 40
0.8125
 40
0.875
 40
0.875
 40
0.9375
 40
0.9375
 40
1.0
 40
1.0
 40
1.0
 40
1.0
 10
302.7133705887743
 20
272.6888690730433
 30
0.0
 10
303.8330599173277
 20
272.7351723066322
 30
0.0
 10
304.9494084206943
 20
272.7945955790494
 30
0.0
 10
307.1768961563604
 20
272.9425700195736
 30
0.0
 10
308.2880373690697
 20
273.0311482545747
 30
0.0
 10
310.5070341468621
 20
273.2383007668352
 30
0.0
 10
311.614895593708
 20
273.3568933995355
 30
0.0
 10
313.8295951609844
 20
273.6221524244176
 30
0.0
 10
314.9364435301247
 20
273.7688176153065
 30
0.0
 10
316.5977186899021
 20
274.0061088417806
 30
0.0
 10
317.1517147366536
 20
274.0880748798941
 30
0.0
 10
318.2599277446483
 20
274.2567820929465
 30
0.0
 10
318.8141210801329
 20
274.3435168124419
 30
0.0
 10
320.477391500692
 20
274.6093611121086
 30
0.0
 10
321.5871882780892
 20
274.7940835587358
 30
0.0
 10
323.2546477430052
 20
275.0762043014188
 30
0.0
 10
323.8109218040178
 20
275.1710861345847
 30
0.0
 10
324.9245006844127
 20
275.3616727077248
 30
0.0
 10
325.4818058926204
 20
275.4573734812686
 30
0.0
 10
326.5974832642318
 20
275.6489960160519
 30
0.0
 10
327.155855547669
 20
275.7449143110195
 30
0.0
 10
328.2736080447171
 20
275.9367500643239
 30
0.0
 10
328.832988038601
 20
276.0326651958022
 30
0.0
 10
329.3927955158879
 20
276.1287036580536
 30
0.0
  0
SPLINE
  5
1A6
330
1F
100
AcDbEntity
  8
1
100
AcDbSpline
210
0.0
220
0.0
230
1.0
 70
     8
 71
     3
 72
    29
 73
    25
 74
     0
 42
0.000000001
 43
0.0000000001
 40
0.0
 40
0.0
 40
0.0
 40
0.0
 40
0.1249999999999938
 40
0.1249999999999938
 40
0.2499999999999876
 40
0.2499999999999876
 40
0.2812499999999964
 40
0.2812499999999964
 40
0.3125000000000053
 40
0.3750000000000008
 40
0.3750000000000008
 40
0.5000000000000146
 40
0.5000000000000146
 40
0.6250000000000284
 40
0.6250000000000284
 40
0.656250000000026
 40
0.656250000000026
 40
0.6875000000000237
 40
0.6875000000000237
 40
0.7500000000000189
 40
0.7500000000000189
 40
0.8750000000000095
 40
0.8750000000000095
 40
1.0
 40
1.0
 40
1.0
 40
1.0
 10
394.0962288129556
 20
295.6974464914518
 30
0.0
 10
394.0377225938372
 20
295.6527552043521
 30
0.0
 10
393.9775198243554
 20
295.6115603722347
 30
0.0
 10
393.8536184008638
 20
295.5357809301478
 30
0.0
 10
393.7899226788851
 20
295.5011990232565
 30
0.0
 10
393.7079720366457
 20
295.4621111340069
 30
0.0
 10
393.6914440775525
 20
295.4544924816861
 30
0.0
 10
393.6582954986406
 20
295.4397387434381
 30
0.0
 10
393.6084090942177
 20
295.4183200970595
 30
0.0
 10
393.5580099092054
 20
295.3990059633371
 30
0.0
 10
393.4564564236239
 20
295.363144283591
 30
0.0
 10
393.3877534854615
 20
295.3429096387799
 30
0.0
 10
393.2478329392429
 20
295.3099492670125
 30
0.0
 10
393.1766115914799
 20
295.2972224743237
 30
0.0
 10
393.0855914535137
 20
295.2864335443286
 30
0.0
 10
393.0672444784806
 20
295.2845294025963
 30
0.0
 10
393.0305539056801
 20
295.2812695287647
 30
0.0
 10
393.0122526162584
 20
295.2799161292183
 30
0.0
 10
392.9574813460873
 20
295.2766722308737
 30
0.0
 10
392.9211446101552
 20
295.2755978350756
 30
0.0
 10
392.8126475273814
 20
295.2755381162246
 30
0.0
 10
392.7410052980409
 20
295.2797078339768
 30
0.0
 10
392.5988051347294
 20
295.2960593025227
 30
0.0
 10
392.5282409331391
 20
295.3082359524338
 30
0.0
 10
392.4580297705633
 20
295.32437779193
 30
0.0
  0
SPLINE
  5
1A7
330
1F
100
AcDbEntity
  8
1
100
AcDbSpline
210
0.0
220
0.0
230
1.0
 70
     8
 71
     3
 72
    21
 73
    17
 74
     0
 42
0.000000001
 43
0.0000000001
 40
0.0
 40
0.0
 40
0.0
 40
0.0
 40
0.2499999999999887
 40
0.2499999999999887
 40
0.4999999999999772
 40
0.4999999999999772
 40
0.56249999999998
 40
0.56249999999998
 40
0.624999999999983
 40
0.624999999999983
 40
0.7499999999999887
 40
0.8749999999999943
 40
0.8749999999999943
 40
0.9374999999999971
 40
0.9374999999999971
 40
1.0
 40
1.0
 40
1.0
 40
1.0
 10
392.4555289861689
 20
295.0961591817243
 30
0.0
 10
392.0016257873328
 20
295.0801326811603
 30
0.0
 10
391.5497463402587
 20
295.0882276167727
 30
0.0
 10
390.6499512525485
 20
295.1515789899496
 30
0.0
 10
390.2020356794421
 20
295.2068371511609
 30
0.0
 10
389.6446554604498
 20
295.3057323382795
 30
0.0
 10
389.5332219936776
 20
295.3270255432487
 30
0.0
 10
389.3113700054842
 20
295.3724634540762
 30
0.0
 10
389.2008802253254
 20
295.3966184995093
 30
0.0
 10
388.8707129265343
 20
295.473364444746
 30
0.0
 10
388.4339600354273
 20
295.5871019803631
 30
0.0
 10
388.004124222756
 20
295.7235106132987
 30
0.0
 10
387.6843558881715
 20
295.8343333828602
 30
0.0
 10
387.5781327626951
 20
295.8727218008208
 30
0.0
 10
387.3671464220108
 20
295.9521237653136
 30
0.0
 10
387.2623317724915
 20
295.9931530387967
 30
0.0
 10
387.1581921235743
 20
296.0354998899007
 30
0.0
  0
SPLINE
  5
1A8
330
1F
100
AcDbEntity
  8
1
100
AcDbSpline
210
0.0
220
0.0
230
1.0
 70
     8
 71
     3
 72
     8
 73
     4
 74
     0
 42
0.000000001
 43
0.0000000001
 40
0.0
 40
0.0
 40
0.0
 40
0.0
 40
1.0
 40
1.0
 40
1.0
 40
1.0
 10
392.4555289861689
 20
295.0961591817243
 30
0.0
 10
392.4597275797971
 20
295.0963074264675
 30
0.0
 10
392.4639278018144
 20
295.0964547484407
 30
0.0
 10
392.4681296559636
 20
295.0966011455222
 30
0.0
  0
SPLINE
  5
1A9
330
1F
100
AcDbEntity
  8
1
100
AcDbSpline
210
0.0
220
0.0
230
1.0
 70
     8
 71
     3
 72
    27
 73
    23
 74
     0
 42
0.000000001
 43
0.0000000001
 40
0.0
 40
0.0
 40
0.0
 40
0.0
 40
0.1249999999999865
 40
0.1249999999999865
 40
0.249999999999973
 40
0.249999999999973
 40
0.2812499999999684
 40
0.2812499999999684
 40
0.3124999999999639
 40
0.3749999999999548
 40
0.3749999999999548
 40
0.4999999999999421
 40
0.4999999999999421
 40
0.5312499999999433
 40
0.5312499999999433
 40
0.5624999999999444
 40
0.6249999999999523
 40
0.6249999999999523
 40
0.7499999999999682
 40
0.8749999999999841
 40
0.8749999999999841
 40
1.0
 40
1.0
 40
1.0
 40
1.0
 10
385.8793135762231
 20
293.6875905856242
 30
0.0
 10
386.1255401690753
 20
293.5302623634377
 30
0.0
 10
386.3774898261842
 20
293.3822121447881
 30
0.0
 10
386.8927621117787
 20
293.1049990049397
 30
0.0
 10
387.1560840510981
 20
292.9758344578713
 30
0.0
 10
387.492396401811
 20
292.8265207590623
 30
0.0
 10
387.5600327072999
 20
292.79726011461
 30
0.0
 10
387.6957218286765
 20
292.7400893618827
 30
0.0
 10
387.8999880743028
 20
292.6563102361699
 30
0.0
 10
388.1064417799132
 20
292.5784556397653
 30
0.0
 10
388.5222500201038
 20
292.4306547766688
 30
0.0
 10
388.8033189558224
 20
292.3426550130819
 30
0.0
 10
389.1594951232611
 20
292.2460007011422
 30
0.0
 10
389.2310209819989
 20
292.2273259595238
 30
0.0
 10
389.3743191577284
 20
292.1913799205109
 30
0.0
 10
389.5895012482322
 20
292.1395968088243
 30
0.0
 10
389.8053812466784
 20
292.0941736532977
 30
0.0
 10
390.2380587186012
 20
292.0117150530141
 30
0.0
 10
390.8174056543947
 20
291.9241137771572
 30
0.0
 10
391.4015740023259
 20
291.8808038546893
 30
0.0
 10
391.988168232989
 20
291.8598308867323
 30
0.0
 10
392.2826781342674
 20
291.8605115195177
 30
0.0
 10
392.5784337439212
 20
291.8726614519941
 30
0.0
  0
SPLINE
  5
1AA
330
1F
100
AcDbEntity
  8
1
100
AcDbSpline
210
0.0
220
0.0
230
1.0
 70
     8
 71
     3
 72
    18
 73
    14
 74
     0
 42
0.000000001
 43
0.0000000001
 40
0.0
 40
0.0
 40
0.0
 40
0.0
 40
0.2499999999999999
 40
0.2499999999999999
 40
0.4999999999999999
 40
0.4999999999999999
 40
0.7499999999999997
 40
0.7499999999999997
 40
0.8124999999999998
 40
0.8124999999999998
 40
0.8749999999999998
 40
0.8749999999999998
 40
1.0
 40
1.0
 40
1.0
 40
1.0
 10
389.8958419452954
 20
292.4319901276632
 30
0.0
 10
389.5396002369095
 20
292.4933433565506
 30
0.0
 10
389.1889075519858
 20
292.5678737590002
 30
0.0
 10
388.4979488783827
 20
292.7435643706276
 30
0.0
 10
388.1576849781412
 20
292.844723396966
 30
0.0
 10
387.4872290701684
 20
293.0744795253056
 30
0.0
 10
387.1570379106401
 20
293.2030729340412
 30
0.0
 10
386.7505385991852
 20
293.3818456684263
 30
0.0
 10
386.6695513485794
 20
293.418503422869
 30
0.0
 10
386.5082031799088
 20
293.49365450977
 30
0.0
 10
386.4279069599912
 20
293.5321188252715
 30
0.0
 10
386.1885194072394
 20
293.6500214254627
 30
0.0
 10
386.0307772739429
 20
293.732038001132
 30
0.0
 10
385.8748677113163
 20
293.8175331889374
 30
0.0
  0
SPLINE
  5
1AB
330
1F
100
AcDbEntity
  8
1
100
AcDbSpline
210
0.0
220
0.0
230
1.0
 70
     9
 71
     3
 72
   130
 73
   126
 74
     0
 42
0.000000001
 43
0.0000000001
 40
0.0
 40
0.0
 40
0.0
 40
0.0
 40
0.0312499999999938
 40
0.0312499999999938
 40
0.0468749999999909
 40
0.0468749999999909
 40
0.05468749999999
 40
0.05468749999999
 40
0.062499999999989
 40
0.062499999999989
 40
0.0937499999999823
 40
0.0937499999999823
 40
0.1093749999999789
 40
0.1093749999999789
 40
0.1249999999999755
 40
0.1249999999999755
 40
0.1562499999999717
 40
0.1562499999999717
 40
0.1640624999999689
 40
0.1640624999999689
 40
0.171874999999966
 40
0.171874999999966
 40
0.1874999999999644
 40
0.2031249999999628
 40
0.2031249999999628
 40
0.2109374999999598
 40
0.2109374999999598
 40
0.2187499999999568
 40
0.2187499999999568
 40
0.249999999999936
 40
0.249999999999936
 40
0.2656249999999278
 40
0.2656249999999278
 40
0.2734374999999261
 40
0.2734374999999261
 40
0.2812499999999242
 40
0.2812499999999242
 40
0.3124999999999212
 40
0.3124999999999212
 40
0.3203124999999225
 40
0.3203124999999225
 40
0.3281249999999238
 40
0.3281249999999238
 40
0.3437499999999263
 40
0.3593749999999289
 40
0.3593749999999289
 40
0.3671874999999302
 40
0.3671874999999302
 40
0.3749999999999314
 40
0.3749999999999314
 40
0.4062499999999304
 40
0.4062499999999304
 40
0.4218749999999298
 40
0.4218749999999298
 40
0.4296874999999297
 40
0.4296874999999297
 40
0.4374999999999294
 40
0.4374999999999294
 40
0.468749999999932
 40
0.468749999999932
 40
0.4765624999999326
 40
0.4765624999999326
 40
0.4843749999999332
 40
0.4843749999999332
 40
0.4999999999999343
 40
0.4999999999999343
 40
0.5312499999999368
 40
0.5312499999999368
 40
0.5390624999999374
 40
0.5390624999999374
 40
0.5468749999999382
 40
0.5468749999999382
 40
0.5624999999999406
 40
0.5781249999999431
 40
0.5781249999999431
 40
0.5859374999999451
 40
0.5859374999999451
 40
0.5937499999999473
 40
0.5937499999999473
 40
0.6249999999999601
 40
0.6249999999999601
 40
0.6406249999999665
 40
0.6406249999999665
 40
0.648437499999968
 40
0.648437499999968
 40
0.6562499999999694
 40
0.6562499999999694
 40
0.6874999999999824
 40
0.6874999999999824
 40
0.6953124999999826
 40
0.6953124999999826
 40
0.7031249999999828
 40
0.7031249999999828
 40
0.7187499999999833
 40
0.7187499999999833
 40
0.7499999999999887
 40
0.7499999999999887
 40
0.7578124999999889
 40
0.7578124999999889
 40
0.7656249999999892
 40
0.7656249999999892
 40
0.7812499999999896
 40
0.7968749999999902
 40
0.7968749999999902
 40
0.8046874999999904
 40
0.8046874999999904
 40
0.8124999999999905
 40
0.8124999999999905
 40
0.8437499999999916
 40
0.8437499999999916
 40
0.8515624999999921
 40
0.8515624999999921
 40
0.8593749999999923
 40
0.8593749999999923
 40
0.8749999999999927
 40
0.8749999999999927
 40
0.9062499999999939
 40
0.9062499999999939
 40
0.9374999999999948
 40
0.9374999999999948
 40
0.953124999999996
 40
0.953124999999996
 40
0.9687499999999971
 40
0.9687499999999971
 40
1.0
 40
1.0
 40
1.0
 40
1.0
 10
393.9691615337858
 20
284.754186265565
 30
0.0
 10
393.9708071473459
 20
284.8484634032781
 30
0.0
 10
393.981541048254
 20
284.9413177562039
 30
0.0
 10
394.0109430442296
 20
285.0784936041462
 30
0.0
 10
394.0229759341021
 20
285.1238652131207
 30
0.0
 10
394.044473314536
 20
285.1913703898445
 30
0.0
 10
394.0522147832582
 20
285.2137798953078
 30
0.0
 10
394.068878754559
 20
285.2584084768699
 30
0.0
 10
394.0777403937251
 20
285.280462804036
 30
0.0
 10
394.1245898469028
 20
285.3892894534694
 30
0.0
 10
394.1701961236337
 20
285.4719408301463
 30
0.0
 10
394.2508026051792
 20
285.5892313130047
 30
0.0
 10
394.2797178176949
 20
285.627206188668
 30
0.0
 10
394.3418199335864
 20
285.7008005785505
 30
0.0
 10
394.3745461617192
 20
285.7358648574226
 30
0.0
 10
394.4772649466169
 20
285.8356134489394
 30
0.0
 10
394.5518996907722
 20
285.8950779537873
 30
0.0
 10
394.6530679032607
 20
285.9603504106094
 30
0.0
 10
394.6737120967741
 20
285.9729555374794
 30
0.0
 10
394.7157601029216
 20
285.9971964725779
 30
0.0
 10
394.7370059308616
 20
286.0087420849065
 30
0.0
 10
394.8013954220252
 20
286.0416875014424
 30
0.0
 10
394.8889834788929
 20
286.0811126123683
 30
0.0
 10
394.9799798954028
 20
286.1116791469602
 30
0.0
 10
395.0495202072601
 20
286.1312384081066
 30
0.0
 10
395.0729162062502
 20
286.1371962067033
 30
0.0
 10
395.1201474652743
 20
286.1479677690942
 30
0.0
 10
395.1440516977939
 20
286.1527927818857
 30
0.0
 10
395.2637478925975
 20
286.1738258528277
 30
0.0
 10
395.3597221061258
 20
286.1808619087936
 30
0.0
 10
395.5039990695038
 20
286.1771825402359
 30
0.0
 10
395.5521443987143
 20
286.1735660367543
 30
0.0
 10
395.6244443043315
 20
286.1644492605616
 30
0.0
 10
395.6485807086001
 20
286.160785808172
 30
0.0
 10
395.696330719514
 20
286.1523066923975
 30
0.0
 10
395.7200124458883
 20
286.1474840872443
 30
0.0
 10
395.8374715067757
 20
286.1205079336688
 30
0.0
 10
395.9284282700855
 20
286.0898486599591
 30
0.0
 10
396.038340834113
 20
286.0401489355947
 30
0.0
 10
396.0601324152829
 20
286.0296349742128
 30
0.0
 10
396.1033259134968
 20
286.0074366805028
 30
0.0
 10
396.1245813261682
 20
285.9958264005426
 30
0.0
 10
396.1871717347697
 20
285.9595894262923
 30
0.0
 10
396.2676502438617
 20
285.9074532985515
 30
0.0
 10
396.3423196285454
 20
285.8478798559911
 30
0.0
 10
396.3961328701049
 20
285.8004061166502
 30
0.0
 10
396.4137051689561
 20
285.7841151024517
 30
0.0
 10
396.448109122484
 20
285.7505892586529
 30
0.0
 10
396.4649847778797
 20
285.7333060015956
 30
0.0
 10
396.5468815702071
 20
285.6451322397906
 30
0.0
 10
396.6042724661499
 20
285.5693907392459
 30
0.0
 10
396.6787163452707
 20
285.4483992935479
 30
0.0
 10
396.7015763245025
 20
285.4068297161759
 30
0.0
 10
396.7328771762545
 20
285.3425889343863
 30
0.0
 10
396.7428245750972
 20
285.3208231441382
 30
0.0
 10
396.7615137004593
 20
285.2771161850679
 30
0.0
 10
396.7702819260803
 20
285.2551251717576
 30
0.0
 10
396.8113017575697
 20
285.1445000647259
 30
0.0
 10
396.8351664893883
 20
285.0538755237039
 30
0.0
 10
396.8539715715199
 20
284.9380153114095
 30
0.0
 10
396.8571765196216
 20
284.9147130751857
 30
0.0
 10
396.8624589215026
 20
284.8678451858761
 30
0.0
 10
396.8645311083173
 20
284.8442923810743
 30
0.0
 10
396.8690002971363
 20
284.7739753577851
 30
0.0
 10
396.8696849153495
 20
284.7273072435912
 30
0.0
 10
396.8650644603908
 20
284.5879152003476
 30
0.0
 10
396.8531470380989
 20
284.4957994218373
 30
0.0
 10
396.82695272725
 20
284.3816764226274
 30
0.0
 10
396.8211408498526
 20
284.3589070639268
 30
0.0
 10
396.808498274668
 20
284.3139402986913
 30
0.0
 10
396.8016547759823
 20
284.2916830105864
 30
0.0
 10
396.7795821016697
 20
284.2255771436802
 30
0.0
 10
396.7460459754667
 20
284.1392091667413
 30
0.0
 10
396.7043773317453
 20
284.0563312465373
 30
0.0
 10
396.6700166268856
 20
283.9954967525929
 30
0.0
 10
396.6580439259945
 20
283.9754396223452
 30
0.0
 10
396.6330384206327
 20
283.9357747670052
 30
0.0
 10
396.6199724358545
 20
283.9161230773622
 30
0.0
 10
396.5525973791758
 20
283.8199541245781
 30
0.0
 10
396.4919171123787
 20
283.7490953094221
 30
0.0
 10
396.3907861900263
 20
283.651751884348
 30
0.0
 10
396.355378783263
 20
283.6208055228201
 30
0.0
 10
396.2996136748549
 20
283.5767185747145
 30
0.0
 10
396.2805345706689
 20
283.5623789815521
 30
0.0
 10
396.2416891217704
 20
283.534663250906
 30
0.0
 10
396.2219838469981
 20
283.521326761722
 30
0.0
 10
396.122062517062
 20
283.4572118870836
 30
0.0
 10
396.0377024306093
 20
283.4140599928054
 30
0.0
 10
395.9265944677833
 20
283.3704408966891
 30
0.0
 10
395.9040874023888
 20
283.3622379228274
 30
0.0
 10
395.8584882671894
 20
283.3468974319509
 30
0.0
 10
395.8353470890762
 20
283.3397462768587
 30
0.0
 10
395.7653513673973
 20
283.3200332768911
 30
0.0
 10
395.7183696626498
 20
283.309321014519
 30
0.0
 10
395.57649556531
 20
283.28426915683
 30
0.0
 10
395.4806831542738
 20
283.2769439600924
 30
0.0
 10
395.3593262776225
 20
283.2799028535327
 30
0.0
 10
395.3349143566649
 20
283.2811133041417
 30
0.0
 10
395.2864852426007
 20
283.2847385988149
 30
0.0
 10
395.2624148106009
 20
283.2871517066252
 30
0.0
 10
395.1906269148035
 20
283.2961559052579
 30
0.0
 10
395.0960366658153
 20
283.3128588124001
 30
0.0
 10
395.0036561866003
 20
283.3387884868069
 30
0.0
 10
394.9352071095082
 20
283.361736932535
 30
0.0
 10
394.9124961705014
 20
283.3699845449149
 30
0.0
 10
394.867507515187
 20
283.3876103132943
 30
0.0
 10
394.8453485198001
 20
283.3969398182379
 30
0.0
 10
394.7361834191549
 20
283.4461034754162
 30
0.0
 10
394.6540189839994
 20
283.4934108027894
 30
0.0
 10
394.5575354067472
 20
283.5622428808188
 30
0.0
 10
394.5385527277101
 20
283.5764988101766
 30
0.0
 10
394.5012212343858
 20
283.6060013833371
 30
0.0
 10
394.4828835737223
 20
283.6212442240711
 30
0.0
 10
394.4293892016211
 20
283.6679702623884
 30
0.0
 10
394.3955471215555
 20
283.700602140656
 30
0.0
 10
394.2992782461592
 20
283.8028039821426
 30
0.0
 10
394.2420585390847
 20
283.8766390217029
 30
0.0
 10
394.1417184631015
 20
284.03600933888
 30
0.0
 10
394.1001165802297
 20
284.1191350004887
 30
0.0
 10
394.0499514950549
 20
284.2487603288111
 30
0.0
 10
394.0352834008556
 20
284.2928001188924
 30
0.0
 10
394.0101287248509
 20
284.3825823637479
 30
0.0
 10
393.9996235093967
 20
284.4285004656878
 30
0.0
 10
393.9750040970066
 20
284.5666943049238
 30
0.0
 10
393.9675159202258
 20
284.6599091278518
 30
0.0
 10
393.9691615337858
 20
284.754186265565
 30
0.0
  0
SPLINE
  5
1AC
330
1F
100
AcDbEntity
  8
1
100
AcDbSpline
210
0.0
220
0.0
230
1.0
 70
     8
 71
     3
 72
    18
 73
    14
 74
     0
 42
0.000000001
 43
0.0000000001
 40
0.0
 40
0.0
 40
0.0
 40
0.0
 40
0.2500000000000019
 40
0.2500000000000019
 40
0.5000000000000038
 40
0.5000000000000038
 40
0.6250000000000047
 40
0.6250000000000047
 40
0.6875000000000034
 40
0.6875000000000034
 40
0.7500000000000019
 40
0.7500000000000019
 40
1.0
 40
1.0
 40
1.0
 40
1.0
 10
295.1686807986904
 20
272.646249933037
 30
0.0
 10
295.3786495248571
 20
272.6264254736296
 30
0.0
 10
295.5928843142824
 20
272.6097544838717
 30
0.0
 10
296.030857318214
 20
272.5817675146325
 30
0.0
 10
296.2545935190578
 20
272.5704486671701
 30
0.0
 10
296.5982963760122
 20
272.5569814672119
 30
0.0
 10
296.7142164844268
 20
272.5530800283356
 30
0.0
 10
296.8902745235732
 20
272.548073789757
 30
0.0
 10
296.949414230668
 20
272.5465443108214
 30
0.0
 10
297.0678707119703
 20
272.5437774864195
 30
0.0
 10
297.1272008577982
 20
272.5425391954021
 30
0.0
 10
297.424366326453
 20
272.5370525652848
 30
0.0
 10
297.663745414733
 20
272.5348937920899
 30
0.0
 10
297.9048419452957
 20
272.53489379209
 30
0.0
  0
SPLINE
  5
1AD
330
1F
100
AcDbEntity
  8
1
100
AcDbSpline
210
0.0
220
0.0
230
1.0
 70
     8
 71
     3
 72
     8
 73
     4
 74
     0
 42
0.000000001
 43
0.0000000001
 40
0.0
 40
0.0
 40
0.0
 40
0.0
 40
1.0
 40
1.0
 40
1.0
 40
1.0
 10
289.7038318185191
 20
272.9436027901958
 30
0.0
 10
289.2664191229108
 20
272.9708662787896
 30
0.0
 10
288.8383889743296
 20
272.9836079596627
 30
0.0
 10
288.4182654547609
 20
272.9841121802912
 30
0.0
  0
SPLINE
  5
1AE
330
1F
100
AcDbEntity
  8
1
100
AcDbSpline
210
0.0
220
0.0
230
1.0
 70
     8
 71
     3
 72
    30
 73
    26
 74
     0
 42
0.000000001
 43
0.0000000001
 40
0.0
 40
0.0
 40
0.0
 40
0.0
 40
0.2499999999999957
 40
0.2499999999999957
 40
0.37499999999999
 40
0.37499999999999
 40
0.4999999999999842
 40
0.4999999999999842
 40
0.562499999999991
 40
0.562499999999991
 40
0.6249999999999977
 40
0.6249999999999977
 40
0.6875000000000044
 40
0.6875000000000044
 40
0.7500000000000111
 40
0.7500000000000111
 40
0.8125000000000177
 40
0.8125000000000177
 40
0.8437500000000147
 40
0.8437500000000147
 40
0.8750000000000117
 40
0.8750000000000117
 40
0.937500000000006
 40
0.937500000000006
 40
1.0
 40
1.0
 40
1.0
 40
1.0
 10
385.7751485870423
 20
296.8951487781896
 30
0.0
 10
385.7473930852491
 20
296.9316843133902
 30
0.0
 10
385.7218600263891
 20
296.9696024659769
 30
0.0
 10
385.688352958832
 20
297.0294247244694
 30
0.0
 10
385.6779919266404
 20
297.0498617665731
 30
0.0
 10
385.6593850688849
 20
297.0920245459241
 30
0.0
 10
385.6511266992041
 20
297.1137429041818
 30
0.0
 10
385.6410094784643
 20
297.1476913084364
 30
0.0
 10
385.6380094425932
 20
297.1592960839549
 30
0.0
 10
385.6330535197882
 20
297.1827164498598
 30
0.0
 10
385.6310897550363
 20
297.194538564599
 30
0.0
 10
385.6284068596604
 20
297.218451304406
 30
0.0
 10
385.6276862493904
 20
297.2305839101318
 30
0.0
 10
385.6278085299789
 20
297.2549979572658
 30
0.0
 10
385.6286476022086
 20
297.267137474025
 30
0.0
 10
385.6321435816357
 20
297.2912563450792
 30
0.0
 10
385.6347985697732
 20
297.3032358799214
 30
0.0
 10
385.6404259587439
 20
297.321058181486
 30
0.0
 10
385.6425852216742
 20
297.3269843813725
 30
0.0
 10
385.6473909245278
 20
297.3385142364421
 30
0.0
 10
385.6500463510061
 20
297.3441510627424
 30
0.0
 10
385.6587784981729
 20
297.3606728953224
 30
0.0
 10
385.6656472990757
 20
297.3712037742634
 30
0.0
 10
385.6813782742213
 20
297.3910500960066
 30
0.0
 10
385.6900785922776
 20
297.4001771348995
 30
0.0
 10
385.6995283079354
 20
297.4085896957478
 30
0.0
  0
SPLINE
  5
1AF
330
1F
100
AcDbEntity
  8
1
100
AcDbSpline
210
0.0
220
0.0
230
1.0
 70
     8
 71
     3
 72
    10
 73
     6
 74
     0
 42
0.000000001
 43
0.0000000001
 40
0.0
 40
0.0
 40
0.0
 40
0.0
 40
0.7194243696678481
 40
0.7194243696678481
 40
1.0
 40
1.0
 40
1.0
 40
1.0
 10
329.3927955158881
 20
276.1287036580536
 30
0.0
 10
329.9135363444168
 20
276.2179501616259
 30
0.0
 10
330.434740140546
 20
276.3065157452002
 30
0.0
 10
331.1596656612713
 20
276.4293257948003
 30
0.0
 10
331.3631114671118
 20
276.4637513361853
 30
0.0
 10
331.5665982296668
 20
276.4981792175234
 30
0.0
  0
SPLINE
  5
1B0
330
1F
100
AcDbEntity
  8
1
100
AcDbSpline
210
0.0
220
0.0
230
1.0
 70
    12
 71
     3
 72
     8
 73
     4
 74
     0
 42
0.000000001
 43
0.0000000001
 40
0.0
 40
0.0
 40
0.0
 40
0.0
 40
1.0
 40
1.0
 40
1.0
 40
1.0
 10
329.3927955158953
 20
276.1287036580543
 30
0.0
 41
1.001668135262965
 10
330.2811025145027
 20
276.2161396942143
 30
0.0
 41
1.00147808480161
 10
331.1698079077374
 20
276.3079208114342
 30
0.0
 41
1.001320282970455
 10
332.0599308432848
 20
276.4053433032178
 30
0.0
 41
1.00120798995435
  0
SPLINE
  5
1B1
330
1F
100
AcDbEntity
  8
1
100
AcDbSpline
210
0.0
220
0.0
230
1.0
 70
     8
 71
     3
 72
    14
 73
    10
 74
     0
 42
0.000000001
 43
0.0000000001
 40
0.0
 40
0.0
 40
0.0
 40
0.0
 40
0.25
 40
0.25
 40
0.5
 40
0.5
 40
0.75
 40
0.75
 40
1.0
 40
1.0
 40
1.0
 40
1.0
 10
392.4893707866796
 20
294.4757708053402
 30
0.0
 10
392.2830225420005
 20
294.4916176056352
 30
0.0
 10
392.0738498273789
 20
294.5103139162894
 30
0.0
 10
391.6505628431916
 20
294.5546278747709
 30
0.0
 10
391.4364458111534
 20
294.5802412412133
 30
0.0
 10
391.0037163590956
 20
294.6394240539687
 30
0.0
 10
390.7851026075
 20
294.6729904517933
 30
0.0
 10
390.34363303743
 20
294.7490455277506
 30
0.0
 10
390.1207768414922
 20
294.7915316045345
 30
0.0
 10
389.8958419452958
 20
294.8389686444146
 30
0.0
  0
SPLINE
  5
1B2
330
1F
100
AcDbEntity
  8
1
100
AcDbSpline
210
0.0
220
0.0
230
1.0
 70
     8
 71
     3
 72
     8
 73
     4
 74
     0
 42
0.000000001
 43
0.0000000001
 40
0.0
 40
0.0
 40
0.0
 40
0.0
 40
1.0
 40
1.0
 40
1.0
 40
1.0
 10
400.7311931720171
 20
288.0074807728481
 30
0.0
 10
400.7276505834055
 20
288.0292200467837
 30
0.0
 10
400.722340263689
 20
288.0505185758535
 30
0.0
 10
400.7152622128678
 20
288.0713763600573
 30
0.0
  0
SPLINE
  5
1B3
330
1F
100
AcDbEntity
  8
1
100
AcDbSpline
210
0.0
220
0.0
230
1.0
 70
     8
 71
     3
 72
     8
 73
     4
 74
     0
 42
0.000000001
 43
0.0000000001
 40
0.0
 40
0.0
 40
0.0
 40
0.0
 40
1.0
 40
1.0
 40
1.0
 40
1.0
 10
400.5894505876547
 20
280.8636331788934
 30
0.0
 10
400.5972522528897
 20
280.8842312366872
 30
0.0
 10
400.6033026456479
 20
280.9053314637831
 30
0.0
 10
400.6076017659293
 20
280.9269338601808
 30
0.0
  0
SPLINE
  5
1B4
330
1F
100
AcDbEntity
  8
1
100
AcDbSpline
210
0.0
220
0.0
230
1.0
 70
     8
 71
     3
 72
     8
 73
     4
 74
     0
 42
0.000000001
 43
0.0000000001
 40
0.0
 40
0.0
 40
0.0
 40
0.0
 40
1.0
 40
1.0
 40
1.0
 40
1.0
 10
400.0081269389876
 20
279.9292402055162
 30
0.0
 10
400.0251824081699
 20
279.943177814217
 30
0.0
 10
400.0409723155494
 20
279.9584259505285
 30
0.0
 10
400.0554966611258
 20
279.9749846144509
 30
0.0
  0
SPLINE
  5
1B5
330
1F
100
AcDbEntity
  8
1
100
AcDbSpline
210
0.0
220
0.0
230
1.0
 70
     8
 71
     3
 72
     8
 73
     4
 74
     0
 42
0.000000001
 43
0.0000000001
 40
0.0
 40
0.0
 40
0.0
 40
0.0
 40
1.0
 40
1.0
 40
1.0
 40
1.0
 10
400.2126469442885
 20
288.9781183071029
 30
0.0
 10
400.1987093355878
 20
288.9951737762852
 30
0.0
 10
400.1834611992762
 20
289.0109636836646
 30
0.0
 10
400.166902535354
 20
289.0254880292411
 30
0.0
  0
SPLINE
  5
1B6
330
1F
100
AcDbEntity
  8
1
100
AcDbSpline
210
0.0
220
0.0
230
1.0
 70
     8
 71
     3
 72
    36
 73
    32
 74
     0
 42
0.000000001
 43
0.0000000001
 40
0.0
 40
0.0
 40
0.0
 40
0.0
 40
0.124999999999964
 40
0.124999999999964
 40
0.187499999999946
 40
0.187499999999946
 40
0.2187499999999369
 40
0.2187499999999369
 40
0.2499999999999279
 40
0.2499999999999279
 40
0.3749999999998052
 40
0.3749999999998052
 40
0.4062499999997881
 40
0.4062499999997881
 40
0.437499999999771
 40
0.437499999999771
 40
0.4999999999997432
 40
0.4999999999997432
 40
0.6249999999997322
 40
0.6249999999997322
 40
0.6562499999997583
 40
0.6562499999997583
 40
0.6874999999997844
 40
0.7499999999998407
 40
0.8124999999998971
 40
0.8124999999998971
 40
0.8437499999999252
 40
0.8437499999999252
 40
0.8749999999999532
 40
0.8749999999999532
 40
1.0
 40
1.0
 40
1.0
 40
1.0
 10
400.8470132345147
 20
305.0223982831108
 30
0.0
 10
400.8451722971653
 20
305.0732033241474
 30
0.0
 10
400.8381835465284
 20
305.1229463881527
 30
0.0
 10
400.8204583389579
 20
305.1960669664284
 30
0.0
 10
400.813332868133
 20
305.2201894153134
 30
0.0
 10
400.8007929260296
 20
305.255991081593
 30
0.0
 10
400.7962904837919
 20
305.2678926848822
 30
0.0
 10
400.7867271431136
 20
305.2913941616292
 30
0.0
 10
400.781672773685
 20
305.3029835728591
 30
0.0
 10
400.7550682743161
 20
305.3601422399567
 30
0.0
 10
400.7295597199735
 20
305.403369715723
 30
0.0
 10
400.6924717985258
 20
305.4543264532842
 30
0.0
 10
400.6847916559222
 20
305.464362472875
 30
0.0
 10
400.6688982859889
 20
305.4841191423341
 30
0.0
 10
400.6606698176425
 20
305.4938548065794
 30
0.0
 10
400.6354360942578
 20
305.5222869644252
 30
0.0
 10
400.6178139118726
 20
305.5403043312274
 30
0.0
 10
400.5626144424282
 20
305.5916217900335
 30
0.0
 10
400.5227274950055
 20
305.6222145079668
 30
0.0
 10
400.4688765798277
 20
305.6557757292755
 30
0.0
 10
400.45789104778
 20
305.6622574802746
 30
0.0
 10
400.4357527244526
 20
305.6746056757975
 30
0.0
 10
400.4022105324988
 20
305.6922589901851
 30
0.0
 10
400.3446617967272
 20
305.7174101552852
 30
0.0
 10
400.2968790611062
 20
305.7330039053372
 30
0.0
 10
400.2603721765036
 20
305.74296017236
 30
0.0
 10
400.2480913670311
 20
305.7459885441791
 30
0.0
 10
400.223300682617
 20
305.7514505793706
 30
0.0
 10
400.2107745656298
 20
305.753885501983
 30
0.0
 10
400.1481517411527
 20
305.7644392802155
 30
0.0
 10
400.0976512580248
 20
305.7678547278428
 30
0.0
 10
400.0467356045165
 20
305.7660807721514
 30
0.0
  0
SPLINE
  5
1B7
330
1F
100
AcDbEntity
  8
1
100
AcDbSpline
210
0.0
220
0.0
230
1.0
 70
     8
 71
     3
 72
    36
 73
    32
 74
     0
 42
0.000000001
 43
0.0000000001
 40
0.0
 40
0.0
 40
0.0
 40
0.0
 40
0.1250000000000604
 40
0.1250000000000604
 40
0.1875000000000738
 40
0.1875000000000738
 40
0.2187500000000805
 40
0.2187500000000805
 40
0.2500000000000872
 40
0.2500000000000872
 40
0.375000000000017
 40
0.375000000000017
 40
0.4062500000000135
 40
0.4062500000000135
 40
0.4375000000000099
 40
0.4375000000000099
 40
0.5000000000000224
 40
0.5000000000000224
 40
0.6250000000000712
 40
0.6250000000000712
 40
0.6562500000000662
 40
0.6562500000000662
 40
0.6875000000000612
 40
0.7500000000000587
 40
0.8125000000000564
 40
0.8125000000000564
 40
0.8437500000000508
 40
0.8437500000000508
 40
0.8750000000000451
 40
0.8750000000000451
 40
1.0
 40
1.0
 40
1.0
 40
1.0
 10
392.0741120947631
 20
305.4883060628641
 30
0.0
 10
392.0231908319104
 20
305.4865319117372
 30
0.0
 10
391.9733403561846
 20
305.4796206107111
 30
0.0
 10
391.9000710546069
 20
305.4620265790981
 30
0.0
 10
391.8759011142089
 20
305.4549473546766
 30
0.0
 10
391.8400313797665
 20
305.4424806179391
 30
0.0
 10
391.8281075591107
 20
305.4380032875721
 30
0.0
 10
391.8045630383905
 20
305.4284910979652
 30
0.0
 10
391.7929528169208
 20
305.4234627396843
 30
0.0
 10
391.7356935768603
 20
305.3969904248424
 30
0.0
 10
391.6923966698945
 20
305.3715943670986
 30
0.0
 10
391.6413667211977
 20
305.3346553764813
 30
0.0
 10
391.6313167446593
 20
305.3270054394567
 30
0.0
 10
391.6115335526613
 20
305.3111733322351
 30
0.0
 10
391.6017853065594
 20
305.3029759749329
 30
0.0
 10
391.5733178847989
 20
305.277835906375
 30
0.0
 10
391.5552801787953
 20
305.26027686675
 30
0.0
 10
391.5039109502743
 20
305.2052688857714
 30
0.0
 10
391.4732959575051
 20
305.1655123236971
 30
0.0
 10
391.4397227181721
 20
305.1118279157125
 30
0.0
 10
391.4332393660655
 20
305.1008759022668
 30
0.0
 10
391.4208896091153
 20
305.0788042480493
 30
0.0
 10
391.4032363909967
 20
305.0453617689296
 30
0.0
 10
391.378097371114
 20
304.9879777917847
 30
0.0
 10
391.3625260407964
 20
304.9403253479043
 30
0.0
 10
391.3525914684466
 20
304.9039156000818
 30
0.0
 10
391.3495711430206
 20
304.8916670723501
 30
0.0
 10
391.3441268694053
 20
304.8669407523803
 30
0.0
 10
391.3417016790216
 20
304.8544467574124
 30
0.0
 10
391.3312003324709
 20
304.7919825308696
 30
0.0
 10
391.3278390502778
 20
304.7416036759186
 30
0.0
 10
391.3296797848346
 20
304.6908042314237
 30
0.0
  0
SPLINE
  5
1B8
330
1F
100
AcDbEntity
  8
1
100
AcDbSpline
210
0.0
220
0.0
230
1.0
 70
     8
 71
     3
 72
    36
 73
    32
 74
     0
 42
0.000000001
 43
0.0000000001
 40
0.0
 40
0.0
 40
0.0
 40
0.0
 40
0.1249999999999969
 40
0.1249999999999969
 40
0.1874999999999902
 40
0.1874999999999902
 40
0.2187499999999868
 40
0.2187499999999868
 40
0.2499999999999835
 40
0.2499999999999835
 40
0.3749999999999268
 40
0.3749999999999268
 40
0.4062499999999071
 40
0.4062499999999071
 40
0.4374999999998874
 40
0.4374999999998874
 40
0.4999999999998709
 40
0.4999999999998709
 40
0.6249999999998376
 40
0.6249999999998376
 40
0.6562499999998299
 40
0.6562499999998299
 40
0.687499999999822
 40
0.7499999999998374
 40
0.8124999999998525
 40
0.8124999999998525
 40
0.8437499999998602
 40
0.8437499999998602
 40
0.8749999999998678
 40
0.8749999999998678
 40
1.0
 40
1.0
 40
1.0
 40
1.0
 10
391.6179110573797
 20
296.736377300686
 30
0.0
 10
391.619751994729
 20
296.6855722596495
 30
0.0
 10
391.6267407453659
 20
296.6358291956441
 30
0.0
 10
391.6444659529363
 20
296.5627086173684
 30
0.0
 10
391.6515914237614
 20
296.5385861684834
 30
0.0
 10
391.6641313658647
 20
296.5027845022039
 30
0.0
 10
391.6686338081025
 20
296.4908828989146
 30
0.0
 10
391.6781971487809
 20
296.4673814221678
 30
0.0
 10
391.6832515182093
 20
296.4557920109376
 30
0.0
 10
391.7098560175782
 20
296.3986333438401
 30
0.0
 10
391.7353645719208
 20
296.3554058680738
 30
0.0
 10
391.7724524933687
 20
296.3044491305126
 30
0.0
 10
391.7801326359722
 20
296.2944131109218
 30
0.0
 10
391.7960260059054
 20
296.2746564414627
 30
0.0
 10
391.8042544742517
 20
296.2649207772173
 30
0.0
 10
391.8294881976365
 20
296.2364886193716
 30
0.0
 10
391.8471103800217
 20
296.2184712525694
 30
0.0
 10
391.9023098494661
 20
296.1671537937633
 30
0.0
 10
391.9421967968888
 20
296.1365610758301
 30
0.0
 10
391.9960477120666
 20
296.1029998545213
 30
0.0
 10
392.0070332441144
 20
296.0965181035222
 30
0.0
 10
392.0291715674418
 20
296.0841699079994
 30
0.0
 10
392.0627137593955
 20
296.0665165936116
 30
0.0
 10
392.1202624951673
 20
296.0413654285115
 30
0.0
 10
392.1680452307881
 20
296.0257716784596
 30
0.0
 10
392.2045521153907
 20
296.0158154114368
 30
0.0
 10
392.2168329248634
 20
296.0127870396176
 30
0.0
 10
392.2416236092773
 20
296.0073250044263
 30
0.0
 10
392.2541497262646
 20
296.0048900818138
 30
0.0
 10
392.3167725507415
 20
295.9943363035813
 30
0.0
 10
392.3672730338697
 20
295.9909208559539
 30
0.0
 10
392.4181886873778
 20
295.9926948116454
 30
0.0
  0
SPLINE
  5
1B9
330
1F
100
AcDbEntity
  8
1
100
AcDbSpline
210
0.0
220
0.0
230
1.0
 70
     8
 71
     3
 72
    36
 73
    32
 74
     0
 42
0.000000001
 43
0.0000000001
 40
0.0
 40
0.0
 40
0.0
 40
0.0
 40
0.124999999999873
 40
0.124999999999873
 40
0.187499999999843
 40
0.187499999999843
 40
0.218749999999828
 40
0.218749999999828
 40
0.249999999999813
 40
0.249999999999813
 40
0.3749999999997539
 40
0.3749999999997539
 40
0.4062499999997526
 40
0.4062499999997526
 40
0.4374999999997514
 40
0.4374999999997514
 40
0.4999999999997989
 40
0.4999999999997989
 40
0.6249999999998935
 40
0.6249999999998935
 40
0.6562499999999173
 40
0.6562499999999173
 40
0.6874999999999409
 40
0.7499999999999575
 40
0.8124999999999742
 40
0.8124999999999742
 40
0.8437499999999714
 40
0.8437499999999714
 40
0.8749999999999687
 40
0.8749999999999687
 40
1.0
 40
1.0
 40
1.0
 40
1.0
 10
400.3908121971313
 20
296.2704695209326
 30
0.0
 10
400.441733459984
 20
296.2722436720597
 30
0.0
 10
400.4915839357096
 20
296.2791549730856
 30
0.0
 10
400.5648532372875
 20
296.2967490046988
 30
0.0
 10
400.5890231776854
 20
296.3038282291203
 30
0.0
 10
400.6248929121278
 20
296.3162949658577
 30
0.0
 10
400.6368167327836
 20
296.3207722962247
 30
0.0
 10
400.6603612535037
 20
296.3302844858317
 30
0.0
 10
400.6719714749735
 20
296.3353128441125
 30
0.0
 10
400.7292307150341
 20
296.3617851589544
 30
0.0
 10
400.7725276219999
 20
296.3871812166982
 30
0.0
 10
400.8235575706967
 20
296.4241202073155
 30
0.0
 10
400.8336075472348
 20
296.43177014434
 30
0.0
 10
400.853390739233
 20
296.4476022515617
 30
0.0
 10
400.8631389853349
 20
296.455799608864
 30
0.0
 10
400.8916064070953
 20
296.4809396774218
 30
0.0
 10
400.9096441130989
 20
296.4984987170469
 30
0.0
 10
400.9610133416201
 20
296.5535066980254
 30
0.0
 10
400.9916283343891
 20
296.5932632600996
 30
0.0
 10
401.0252015737221
 20
296.6469476680843
 30
0.0
 10
401.0316849258287
 20
296.65789968153
 30
0.0
 10
401.0440346827788
 20
296.6799713357477
 30
0.0
 10
401.0616879008976
 20
296.7134138148672
 30
0.0
 10
401.0868269207803
 20
296.7707977920122
 30
0.0
 10
401.1023982510979
 20
296.8184502358925
 30
0.0
 10
401.1123328234478
 20
296.8548599837149
 30
0.0
 10
401.1153531488736
 20
296.8671085114468
 30
0.0
 10
401.120797422489
 20
296.8918348314165
 30
0.0
 10
401.1232226128728
 20
296.9043288263844
 30
0.0
 10
401.1337239594233
 20
296.9667930529271
 30
0.0
 10
401.1370852416164
 20
297.0171719078782
 30
0.0
 10
401.1352445070597
 20
297.0679713523732
 30
0.0
  0
SPLINE
  5
1BA
330
1F
100
AcDbEntity
  8
1
100
AcDbSpline
210
0.0
220
0.0
230
1.0
 70
     8
 71
     3
 72
    27
 73
    23
 74
     0
 42
0.000000001
 43
0.0000000001
 40
0.0
 40
0.0
 40
0.0
 40
0.0
 40
0.0867734994879539
 40
0.0867734994879539
 40
0.1520039638102754
 40
0.1520039638102754
 40
0.2172344281325968
 40
0.2172344281325968
 40
0.3476953567771973
 40
0.3476953567771973
 40
0.4129258210994717
 40
0.4129258210994717
 40
0.4781562854217464
 40
0.4781562854217464
 40
0.6086172140662956
 40
0.6086172140662956
 40
0.6738476783885984
 40
0.6738476783885984
 40
0.7390781427109014
 40
0.7390781427109014
 40
0.8695390713554505
 40
1.0
 40
1.0
 40
1.0
 40
1.0
 10
396.8738739473477
 20
299.4049915035136
 30
0.0
 10
396.8604010649956
 20
299.3886971058627
 30
0.0
 10
396.8461249249856
 20
299.3731744734475
 30
0.0
 10
396.8197251810489
 20
299.3473214025194
 30
0.0
 10
396.8079450389956
 20
299.3366606512201
 30
0.0
 10
396.7834647309282
 20
299.3162243724329
 30
0.0
 10
396.7707245190112
 20
299.3064258654808
 30
0.0
 10
396.7317192746128
 20
299.2788383389659
 30
0.0
 10
396.7045139836216
 20
299.2626933888041
 30
0.0
 10
396.6619320695393
 20
299.2417922223179
 30
0.0
 10
396.6474410571684
 20
299.23538045402
 30
0.0
 10
396.6178528410268
 20
299.2236901152166
 30
0.0
 10
396.602683895228
 20
299.2183922179176
 30
0.0
 10
396.5569296427597
 20
299.2044637755799
 30
0.0
 10
396.5260466191939
 20
299.1977352161686
 30
0.0
 10
396.4791694386375
 20
299.1913624015489
 30
0.0
 10
396.463451167381
 20
299.1898611334183
 30
0.0
 10
396.4318273102418
 20
299.1881208689154
 30
0.0
 10
396.4158627899038
 20
299.1878838986853
 30
0.0
 10
396.3680996010916
 20
299.1891136802968
 30
0.0
 10
396.3054162588176
 20
299.1958444838339
 30
0.0
 10
396.2446582039613
 20
299.2123129457826
 30
0.0
 10
396.2147788337146
 20
299.2230550737994
 30
0.0
  0
SPLINE
  5
1BB
330
1F
100
AcDbEntity
  8
1
100
AcDbSpline
210
0.0
220
0.0
230
1.0
 70
     8
 71
     3
 72
    24
 73
    20
 74
     0
 42
0.000000001
 43
0.0000000001
 40
0.0
 40
0.0
 40
0.0
 40
0.0
 40
0.1347958400490805
 40
0.1347958400490805
 40
0.2695916800981609
 40
0.2695916800981609
 40
0.3369896001227149
 40
0.3369896001227149
 40
0.4043875201472689
 40
0.4043875201472689
 40
0.5391833601963768
 40
0.5391833601963768
 40
0.6739792002454848
 40
0.6739792002454848
 40
0.8087750402945927
 40
0.8087750402945927
 40
0.9435708803437005
 40
0.9435708803437005
 40
1.0
 40
1.0
 40
1.0
 40
1.0
 10
394.6486902193719
 20
300.747386324154
 30
0.0
 10
394.6738658086853
 20
300.7293610505075
 30
0.0
 10
394.697406007106
 20
300.7094833412864
 30
0.0
 10
394.7412616535951
 20
300.6659919043525
 30
0.0
 10
394.7615786235559
 20
300.6423800407971
 30
0.0
 10
394.7894714624875
 20
300.6039024079593
 30
0.0
 10
394.7982734624254
 20
300.5906409363786
 30
0.0
 10
394.8146792691271
 20
300.5635697804694
 30
0.0
 10
394.8223177950942
 20
300.5497130108491
 30
0.0
 10
394.8435424930594
 20
300.50717582615
 30
0.0
 10
394.8554647589098
 20
300.4774859874502
 30
0.0
 10
394.8745022537094
 20
300.4155791072288
 30
0.0
 10
394.8813466457608
 20
300.3842716616752
 30
0.0
 10
394.8899897624775
 20
300.320987880295
 30
0.0
 10
394.891787202372
 20
300.2889991711876
 30
0.0
 10
394.8902370549908
 20
300.22438598283
 30
0.0
 10
394.8869166905739
 20
300.1927030951175
 30
0.0
 10
394.8788671062235
 20
300.1485511769506
 30
0.0
 10
394.8760787886239
 20
300.1356204911788
 30
0.0
 10
394.8728770056443
 20
300.1227869161164
 30
0.0
  0
SPLINE
  5
1BC
330
1F
100
AcDbEntity
  8
1
100
AcDbSpline
210
0.0
220
0.0
230
1.0
 70
     8
 71
     3
 72
    10
 73
     6
 74
     0
 42
0.000000001
 43
0.0000000001
 40
0.0
 40
0.0
 40
0.0
 40
0.0
 40
0.5
 40
0.5
 40
1.0
 40
1.0
 40
1.0
 40
1.0
 10
394.5879090916455
 20
300.7647245685547
 30
0.0
 10
394.5987178422734
 20
300.7653740227594
 30
0.0
 10
394.6093624479552
 20
300.7642383085771
 30
0.0
 10
394.6301410776607
 20
300.7583532922448
 30
0.0
 10
394.639800242162
 20
300.7537513895323
 30
0.0
 10
394.6486902193719
 20
300.747386324154
 30
0.0
  0
SPLINE
  5
1BD
330
1F
100
AcDbEntity
  8
1
100
AcDbSpline
210
0.0
220
0.0
230
1.0
 70
     8
 71
     3
 72
    20
 73
    16
 74
     0
 42
0.000000001
 43
0.0000000001
 40
0.0
 40
0.0
 40
0.0
 40
0.0
 40
0.1249999999999761
 40
0.1249999999999761
 40
0.2499999999999521
 40
0.2499999999999521
 40
0.3749999999999283
 40
0.3749999999999283
 40
0.4999999999999043
 40
0.4999999999999043
 40
0.6249999999998803
 40
0.6249999999998803
 40
0.7499999999998565
 40
0.7499999999998565
 40
1.0
 40
1.0
 40
1.0
 40
1.0
 10
394.5879090916455
 20
300.7647245685547
 30
0.0
 10
394.5831801971948
 20
300.7644404283715
 30
0.0
 10
394.5784695731654
 20
300.7645032282725
 30
0.0
 10
394.5690847865174
 20
300.7653182195431
 30
0.0
 10
394.5644052321928
 20
300.7660767034851
 30
0.0
 10
394.5553040195274
 20
300.768251886505
 30
0.0
 10
394.5508539065654
 20
300.7696694127114
 30
0.0
 10
394.5421586183737
 20
300.773174924176
 30
0.0
 10
394.5378818861237
 20
300.7752837072287
 30
0.0
 10
394.5297510397
 20
300.7801009651767
 30
0.0
 10
394.5258895891782
 20
300.7828049498625
 30
0.0
 10
394.5185793575853
 20
300.7888088211088
 30
0.0
 10
394.5151094696811
 20
300.7921327359436
 30
0.0
 10
394.5055178046098
 20
300.8028985643948
 30
0.0
 10
394.5003086128335
 20
300.8109559438142
 30
0.0
 10
394.4963616437133
 20
300.8199468588078
 30
0.0
  0
SPLINE
  5
1BE
330
1F
100
AcDbEntity
  8
1
100
AcDbSpline
210
0.0
220
0.0
230
1.0
 70
     8
 71
     3
 72
    24
 73
    20
 74
     0
 42
0.000000001
 43
0.0000000001
 40
0.0
 40
0.0
 40
0.0
 40
0.0
 40
0.0281492071728186
 40
0.0281492071728186
 40
0.1669850347195362
 40
0.1669850347195362
 40
0.2364029484928917
 40
0.2364029484928917
 40
0.3058208622662471
 40
0.3058208622662471
 40
0.4446566898129978
 40
0.4446566898129978
 40
0.5834925173597484
 40
0.5834925173597484
 40
0.7223283449064989
 40
0.7223283449064989
 40
0.8611641724532493
 40
0.8611641724532493
 40
1.0
 40
1.0
 40
1.0
 40
1.0
 10
396.8985953523984
 20
299.6772980497297
 30
0.0
 10
396.9001270919071
 20
299.6835139605689
 30
0.0
 10
396.9017556257662
 20
299.6897075213973
 30
0.0
 10
396.9119901666102
 20
299.7263169115829
 30
0.0
 10
396.922850347608
 20
299.7562154449413
 30
0.0
 10
396.9429524510431
 20
299.8002153151465
 30
0.0
 10
396.9502549307208
 20
299.8146456622948
 30
0.0
 10
396.965879551912
 20
299.8426858211613
 30
0.0
 10
396.974226074918
 20
299.8563501314936
 30
0.0
 10
397.0008674767937
 20
299.8962767488215
 30
0.0
 10
397.0207875024629
 20
299.9215171585229
 30
0.0
 10
397.0649864436515
 20
299.9688534477773
 30
0.0
 10
397.0886112071132
 20
299.9902610423912
 30
0.0
 10
397.1387451085344
 20
300.0288179508132
 30
0.0
 10
397.1652649965926
 20
300.0459719094036
 30
0.0
 10
397.2212242235772
 20
300.0759329324275
 30
0.0
 10
397.2498453277299
 20
300.0883073013651
 30
0.0
 10
397.3083222770859
 20
300.1082724084321
 30
0.0
 10
397.338178714422
 20
300.115860573391
 30
0.0
 10
397.3686791715001
 20
300.1210654538704
 30
0.0
  0
SPLINE
  5
1BF
330
1F
100
AcDbEntity
  8
1
100
AcDbSpline
210
0.0
220
0.0
230
1.0
 70
     8
 71
     3
 72
    10
 73
     6
 74
     0
 42
0.000000001
 43
0.0000000001
 40
0.0
 40
0.0
 40
0.0
 40
0.0
 40
0.5
 40
0.5
 40
1.0
 40
1.0
 40
1.0
 40
1.0
 10
397.3686791715001
 20
300.1210654538704
 30
0.0
 10
397.3794482724443
 20
300.1229031929948
 30
0.0
 10
397.3902127694532
 20
300.1228135149653
 30
0.0
 10
397.4114289585814
 20
300.1190131351833
 30
0.0
 10
397.4214419932102
 20
300.1153969553329
 30
0.0
 10
397.4308701263562
 20
300.110087413485
 30
0.0
  0
SPLINE
  5
1C0
330
1F
100
AcDbEntity
  8
1
100
AcDbSpline
210
0.0
220
0.0
230
1.0
 70
     8
 71
     3
 72
    18
 73
    14
 74
     0
 42
0.000000001
 43
0.0000000001
 40
0.0
 40
0.0
 40
0.0
 40
0.0
 40
0.2499999999997653
 40
0.2499999999997653
 40
0.3749999999998044
 40
0.3749999999998044
 40
0.4999999999998435
 40
0.4999999999998435
 40
0.6249999999998826
 40
0.6249999999998826
 40
0.7499999999999217
 40
0.7499999999999217
 40
1.0
 40
1.0
 40
1.0
 40
1.0
 10
397.537265935057
 20
300.1197301095033
 30
0.0
 10
397.5297786227804
 20
300.1133608085266
 30
0.0
 10
397.5213678900137
 20
300.1082952625426
 30
0.0
 10
397.508177389547
 20
300.1028848666517
 30
0.0
 10
397.5036596296925
 20
300.1014277584042
 30
0.0
 10
397.49438134055
 20
300.0992116140773
 30
0.0
 10
397.4896658521203
 20
300.0984691127716
 30
0.0
 10
397.480305967898
 20
300.0977112610453
 30
0.0
 10
397.4756285312417
 20
300.0976877317234
 30
0.0
 10
397.4662794497481
 20
300.0983409918854
 30
0.0
 10
397.4615720584744
 20
300.0990284683633
 30
0.0
 10
397.4478368676727
 20
300.1020949117508
 30
0.0
 10
397.4391274563521
 20
300.1054372204418
 30
0.0
 10
397.4308701263562
 20
300.110087413485
 30
0.0
  0
SPLINE
  5
1C1
330
1F
100
AcDbEntity
  8
1
100
AcDbSpline
210
0.0
220
0.0
230
1.0
 70
     8
 71
     3
 72
    16
 73
    12
 74
     0
 42
0.000000001
 43
0.0000000001
 40
0.0
 40
0.0
 40
0.0
 40
0.0
 40
0.2922265880969874
 40
0.2922265880969874
 40
0.4383398821454891
 40
0.4383398821454891
 40
0.584453176193991
 40
0.584453176193991
 40
0.8766797642910102
 40
0.8766797642910102
 40
1.0
 40
1.0
 40
1.0
 40
1.0
 10
394.4963616437133
 20
300.8199468588078
 30
0.0
 10
394.4837377390772
 20
300.8487032159043
 30
0.0
 10
394.4735261261845
 20
300.8782291941833
 30
0.0
 10
394.4617730581556
 20
300.9236461070746
 30
0.0
 10
394.4584521459433
 20
300.9389739630265
 30
0.0
 10
394.4530282631496
 20
300.9700139116357
 30
0.0
 10
394.4509254217121
 20
300.9857717535696
 30
0.0
 10
394.446561482377
 20
301.0328734641728
 30
0.0
 10
394.4461812526839
 20
301.0642591363529
 30
0.0
 10
394.4491802600718
 20
301.1088655373646
 30
0.0
 10
394.4505156237027
 20
301.122100190751
 30
0.0
 10
394.4523040277903
 20
301.1353317087439
 30
0.0
  0
SPLINE
  5
1C2
330
1F
100
AcDbEntity
  8
1
100
AcDbSpline
210
0.0
220
0.0
230
1.0
 70
     8
 71
     3
 72
    15
 73
    11
 74
     0
 42
0.000000001
 43
0.0000000001
 40
0.0
 40
0.0
 40
0.0
 40
0.0
 40
0.0169968353291117
 40
0.0169968353291117
 40
0.1808306961075933
 40
0.1808306961075933
 40
0.3446645568860746
 40
0.3446645568860746
 40
0.6723322784430375
 40
1.0
 40
1.0
 40
1.0
 40
1.0
 10
397.7026497196862
 20
300.350868551478
 30
0.0
 10
397.7020488106363
 20
300.3493536674771
 30
0.0
 10
397.7014417125521
 20
300.3478413054385
 30
0.0
 10
397.6949170082992
 20
300.3317779530054
 30
0.0
 10
397.6884287148955
 20
300.3174595349012
 30
0.0
 10
397.6742836383818
 20
300.2892992466475
 30
0.0
 10
397.6665959637509
 20
300.2754075004717
 30
0.0
 10
397.6419440067632
 20
300.2348265585532
 30
0.0
 10
397.6052310964244
 20
300.1841561440438
 30
0.0
 10
397.5611784217692
 20
300.1400719650774
 30
0.0
 10
397.537265935057
 20
300.1197301095033
 30
0.0
  0
SPLINE
  5
1C3
330
1F
100
AcDbEntity
  8
1
100
AcDbSpline
210
0.0
220
0.0
230
1.0
 70
     8
 71
     3
 72
    10
 73
     6
 74
     0
 42
0.000000001
 43
0.0000000001
 40
0.0
 40
0.0
 40
0.0
 40
0.0
 40
0.5
 40
0.5
 40
1.0
 40
1.0
 40
1.0
 40
1.0
 10
395.2951267416307
 20
302.0947923418337
 30
0.0
 10
395.3009021169424
 20
302.0859734407859
 30
0.0
 10
395.3050486569637
 20
302.0764037673856
 30
0.0
 10
395.3099634230529
 20
302.0558864581726
 30
0.0
 10
395.3106293216964
 20
302.0454168486508
 30
0.0
 10
395.3093968617078
 20
302.0347165873991
 30
0.0
  0
SPLINE
  5
1C4
330
1F
100
AcDbEntity
  8
1
100
AcDbSpline
210
0.0
220
0.0
230
1.0
 70
     8
 71
     3
 72
    10
 73
     6
 74
     0
 42
0.000000001
 43
0.0000000001
 40
0.0
 40
0.0
 40
0.0
 40
0.0
 40
0.5
 40
0.5
 40
1.0
 40
1.0
 40
1.0
 40
1.0
 10
397.337272819588
 20
301.5677657809361
 30
0.0
 10
397.3408350235252
 20
301.577929690392
 30
0.0
 10
397.346043460561
 20
301.5871164701589
 30
0.0
 10
397.3594103584744
 20
301.6033945628089
 30
0.0
 10
397.3672789559307
 20
301.6101575297757
 30
0.0
 10
397.3763186629776
 20
301.6155646838004
 30
0.0
  0
SPLINE
  5
1C5
330
1F
100
AcDbEntity
  8
1
100
AcDbSpline
210
0.0
220
0.0
230
1.0
 70
     8
 71
     3
 72
     8
 73
     4
 74
     0
 42
0.000000001
 43
0.0000000001
 40
0.0
 40
0.0
 40
0.0
 40
0.0
 40
1.0
 40
1.0
 40
1.0
 40
1.0
 10
397.3220442875797
 20
301.516892121454
 30
0.0
 10
397.3263320666073
 20
301.5340746639492
 30
0.0
 10
397.3314075348617
 20
301.551030573198
 30
0.0
 10
397.337272819588
 20
301.5677657809361
 30
0.0
  0
SPLINE
  5
1C6
330
1F
100
AcDbEntity
  8
1
100
AcDbSpline
210
0.0
220
0.0
230
1.0
 70
     8
 71
     3
 72
     8
 73
     4
 74
     0
 42
0.000000001
 43
0.0000000001
 40
0.0
 40
0.0
 40
0.0
 40
0.0
 40
1.0
 40
1.0
 40
1.0
 40
1.0
 10
395.3093968617078
 20
302.0347165873991
 30
0.0
 10
395.3066140464268
 20
302.0105560866141
 30
0.0
 10
395.3023139681853
 20
301.9866815845028
 30
0.0
 10
395.2964983572164
 20
301.9630764278359
 30
0.0
  0
SPLINE
  5
1C7
330
1F
100
AcDbEntity
  8
1
100
AcDbSpline
210
0.0
220
0.0
230
1.0
 70
     8
 71
     3
 72
    20
 73
    16
 74
     0
 42
0.000000001
 43
0.0000000001
 40
0.0
 40
0.0
 40
0.0
 40
0.0
 40
0.1249999999999594
 40
0.1249999999999594
 40
0.2499999999999188
 40
0.2499999999999188
 40
0.3749999999998782
 40
0.3749999999998782
 40
0.4999999999998376
 40
0.4999999999998376
 40
0.6249999999997968
 40
0.6249999999997968
 40
0.7499999999997562
 40
0.7499999999997562
 40
1.0
 40
1.0
 40
1.0
 40
1.0
 10
395.3896126478299
 20
299.4872292200073
 30
0.0
 10
395.387380246493
 20
299.4829664550991
 30
0.0
 10
395.3848566257409
 20
299.4788937228848
 30
0.0
 10
395.3792308879301
 20
299.4711259084937
 30
0.0
 10
395.3761202823102
 20
299.4674290166097
 30
0.0
 10
395.3694633788718
 20
299.4605899542634
 30
0.0
 10
395.3659015038718
 20
299.4574234499116
 30
0.0
 10
395.3583037014147
 20
299.4516051360155
 30
0.0
 10
395.3542331831554
 20
299.448936223133
 30
0.0
 10
395.345792565685
 20
299.4442667744104
 30
0.0
 10
395.3414229066967
 20
299.4422578359616
 30
0.0
 10
395.3323826727153
 20
299.4388980930814
 30
0.0
 10
395.3276804355601
 20
299.4375409802265
 30
0.0
 10
395.3133106108151
 20
299.4345795618873
 30
0.0
 10
395.3035874492335
 20
299.4340788992719
 30
0.0
 10
395.2937141233507
 20
299.4351449245801
 30
0.0
  0
SPLINE
  5
1C8
330
1F
100
AcDbEntity
  8
1
100
AcDbSpline
210
0.0
220
0.0
230
1.0
 70
     8
 71
     3
 72
    18
 73
    14
 74
     0
 42
0.000000001
 43
0.0000000001
 40
0.0
 40
0.0
 40
0.0
 40
0.0
 40
0.2499999999999739
 40
0.2499999999999739
 40
0.3749999999999608
 40
0.3749999999999608
 40
0.4999999999999477
 40
0.4999999999999477
 40
0.6249999999999347
 40
0.6249999999999347
 40
0.7499999999999215
 40
0.7499999999999215
 40
1.0
 40
1.0
 40
1.0
 40
1.0
 10
396.2147788337146
 20
299.2230550737992
 30
0.0
 10
396.2054232662638
 20
299.226418555104
 30
0.0
 10
396.1967108064562
 20
299.2312549156262
 30
0.0
 10
396.1852278700292
 20
299.2401226425823
 30
0.0
 10
396.1816357509323
 20
299.2433602459146
 30
0.0
 10
396.1749263586984
 20
299.25040233762
 30
0.0
 10
396.1718454043818
 20
299.2541770265666
 30
0.0
 10
396.1663466365174
 20
299.2620312862009
 30
0.0
 10
396.1639042468553
 20
299.2661361967427
 30
0.0
 10
396.1596245112596
 20
299.2746956178538
 30
0.0
 10
396.1577777023285
 20
299.2791872019451
 30
0.0
 10
396.1532997877699
 20
299.2928328438519
 30
0.0
 10
396.1516620606221
 20
299.30219386878
 30
0.0
 10
396.1513817611939
 20
299.3118197229711
 30
0.0
  0
SPLINE
  5
1C9
330
1F
100
AcDbEntity
  8
1
100
AcDbSpline
210
0.0
220
0.0
230
1.0
 70
     8
 71
     3
 72
    10
 73
     6
 74
     0
 42
0.000000001
 43
0.0000000001
 40
0.0
 40
0.0
 40
0.0
 40
0.0
 40
0.5
 40
0.5
 40
1.0
 40
1.0
 40
1.0
 40
1.0
 10
395.3896126478299
 20
299.4872292200073
 30
0.0
 10
395.3947153466259
 20
299.4969728109136
 30
0.0
 10
395.4012795283773
 20
299.5056771382431
 30
0.0
 10
395.4172732455226
 20
299.5208299193647
 30
0.0
 10
395.4263257023779
 20
299.5269379104207
 30
0.0
 10
395.436501635477
 20
299.5314913201682
 30
0.0
  0
SPLINE
  5
1CA
330
1F
100
AcDbEntity
  8
1
100
AcDbSpline
210
0.0
220
0.0
230
1.0
 70
     8
 71
     3
 72
    10
 73
     6
 74
     0
 42
0.000000001
 43
0.0000000001
 40
0.0
 40
0.0
 40
0.0
 40
0.0
 40
0.5
 40
0.5
 40
1.0
 40
1.0
 40
1.0
 40
1.0
 10
396.1286146297251
 20
299.3721212563476
 30
0.0
 10
396.1357683647137
 20
299.3635772708147
 30
0.0
 10
396.1412633559841
 20
299.3540607773214
 30
0.0
 10
396.1489842619535
 20
299.3334581133224
 30
0.0
 10
396.1510617160512
 20
299.3228104977131
 30
0.0
 10
396.1513817611939
 20
299.3118197229711
 30
0.0
  0
SPLINE
  5
1CB
330
1F
100
AcDbEntity
  8
1
100
AcDbSpline
210
0.0
220
0.0
230
1.0
 70
     8
 71
     3
 72
    27
 73
    23
 74
     0
 42
0.000000001
 43
0.0000000001
 40
0.0
 40
0.0
 40
0.0
 40
0.0
 40
0.1291801084767503
 40
0.1291801084767503
 40
0.1937701627151516
 40
0.1937701627151516
 40
0.2583602169535529
 40
0.2583602169535529
 40
0.3875403254303555
 40
0.3875403254303555
 40
0.4521303796687567
 40
0.4521303796687567
 40
0.5167204339071582
 40
0.5167204339071582
 40
0.6459005423839609
 40
0.6459005423839609
 40
0.7104905966223824
 40
0.7104905966223824
 40
0.775080650860804
 40
0.775080650860804
 40
0.9042607593376407
 40
1.0
 40
1.0
 40
1.0
 40
1.0
 10
395.2937141233507
 20
299.4351449245801
 30
0.0
 10
395.2621338144032
 20
299.4385546579343
 30
0.0
 10
395.2311299324015
 20
299.4444459739912
 30
0.0
 10
395.185480329595
 20
299.4569440278815
 30
0.0
 10
395.1704071352405
 20
299.4617230387694
 30
0.0
 10
395.1405538945739
 20
299.4725313280709
 30
0.0
 10
395.125733816868
 20
299.4785836764773
 30
0.0
 10
395.0824252684681
 20
299.4983443048294
 30
0.0
 10
395.0548699483158
 20
299.5137073417132
 30
0.0
 10
395.0154820345402
 20
299.5399822465719
 30
0.0
 10
395.0026784109662
 20
299.5492814584739
 30
0.0
 10
394.9777358815603
 20
299.5689836384394
 30
0.0
 10
394.9655441937384
 20
299.5794389930591
 30
0.0
 10
394.9305270715294
 20
299.6120224434667
 30
0.0
 10
394.9091807752436
 20
299.6353786087366
 30
0.0
 10
394.880068447419
 20
299.6727897253027
 30
0.0
 10
394.8708511985714
 20
299.6856581584022
 30
0.0
 10
394.8534030532367
 20
299.7122015205734
 30
0.0
 10
394.8451442090036
 20
299.7259284927149
 30
0.0
 10
394.8220943431597
 20
299.7679878528297
 30
0.0
 10
394.7995733794718
 20
299.8183145958819
 30
0.0
 10
394.784103135701
 20
299.8711457623534
 30
0.0
 10
394.7788241919606
 20
299.8940971422036
 30
0.0
  0
SPLINE
  5
1CC
330
1F
100
AcDbEntity
  8
1
100
AcDbSpline
210
0.0
220
0.0
230
1.0
 70
     8
 71
     3
 72
    24
 73
    20
 74
     0
 42
0.000000001
 43
0.0000000001
 40
0.0
 40
0.0
 40
0.0
 40
0.0
 40
0.1250000000000396
 40
0.1250000000000396
 40
0.2500000000000793
 40
0.2500000000000793
 40
0.3125000000000726
 40
0.3125000000000726
 40
0.3750000000000661
 40
0.3750000000000661
 40
0.5000000000000529
 40
0.5000000000000529
 40
0.6250000000000397
 40
0.6250000000000397
 40
0.7500000000000265
 40
0.7500000000000265
 40
0.8750000000000131
 40
0.8750000000000131
 40
1.0
 40
1.0
 40
1.0
 40
1.0
 10
395.436501635477
 20
299.5314913201682
 30
0.0
 10
395.4653202970786
 20
299.5443867640915
 30
0.0
 10
395.4948773170887
 20
299.5549256498808
 30
0.0
 10
395.5555036384735
 20
299.571310261588
 30
0.0
 10
395.5865721575634
 20
299.5771582594139
 30
0.0
 10
395.6344319255664
 20
299.5821339002871
 30
0.0
 10
395.6504959721452
 20
299.5831402540661
 30
0.0
 10
395.6824571155236
 20
299.5838300796743
 30
0.0
 10
395.698413021846
 20
299.5835201434335
 30
0.0
 10
395.7462087162244
 20
299.5806254872876
 30
0.0
 10
395.7780273548394
 20
299.5760778977583
 30
0.0
 10
395.8412631352883
 20
299.5615070954745
 30
0.0
 10
395.871756504703
 20
299.551705644162
 30
0.0
 10
395.9306271293624
 20
299.5273565160071
 30
0.0
 10
395.9590146299192
 20
299.5128013266308
 30
0.0
 10
396.013603817517
 20
299.4788788725216
 30
0.0
 10
396.0390132673511
 20
299.4600097734847
 30
0.0
 10
396.0863899123682
 20
299.4187301859302
 30
0.0
 10
396.1083552350805
 20
299.3963178438677
 30
0.0
 10
396.1286146297251
 20
299.3721212563476
 30
0.0
  0
SPLINE
  5
1CD
330
1F
100
AcDbEntity
  8
1
100
AcDbSpline
210
0.0
220
0.0
230
1.0
 70
     8
 71
     3
 72
    14
 73
    10
 74
     0
 42
0.000000001
 43
0.0000000001
 40
0.0
 40
0.0
 40
0.0
 40
0.0
 40
0.25
 40
0.25
 40
0.5
 40
0.5
 40
0.75
 40
0.75
 40
1.0
 40
1.0
 40
1.0
 40
1.0
 10
386.2803308932419
 20
296.4773175120265
 30
0.0
 10
386.2317443846612
 20
296.5040888631682
 30
0.0
 10
386.1846226996389
 20
296.5326466999087
 30
0.0
 10
386.0934064689832
 20
296.5935043349524
 30
0.0
 10
386.0493088986219
 20
296.6258003566766
 30
0.0
 10
385.9644373504967
 20
296.6945464060828
 30
0.0
 10
385.9236545122735
 20
296.7309855370889
 30
0.0
 10
385.8460683616732
 20
296.808871477366
 30
0.0
 10
385.8092342502146
 20
296.8502806307518
 30
0.0
 10
385.7751485870423
 20
296.8951487781896
 30
0.0
  0
SPLINE
  5
1CE
330
1F
100
AcDbEntity
  8
1
100
AcDbSpline
210
0.0
220
0.0
230
1.0
 70
     8
 71
     3
 72
    18
 73
    14
 74
     0
 42
0.000000001
 43
0.0000000001
 40
0.0
 40
0.0
 40
0.0
 40
0.0
 40
0.2499999999999778
 40
0.2499999999999778
 40
0.4999999999999556
 40
0.4999999999999556
 40
0.7499999999999334
 40
0.7499999999999334
 40
0.8124999999999504
 40
0.8124999999999504
 40
0.8749999999999676
 40
0.8749999999999676
 40
1.0
 40
1.0
 40
1.0
 40
1.0
 10
392.4580297705634
 20
295.32437779193
 30
0.0
 10
392.3950693037347
 20
295.3388526661932
 30
0.0
 10
392.3333262227076
 20
295.3562737093101
 30
0.0
 10
392.2118848959833
 20
295.3967698798523
 30
0.0
 10
392.1521891837014
 20
295.4198461302328
 30
0.0
 10
392.0345836089566
 20
295.4716814176915
 30
0.0
 10
391.9766761425839
 20
295.5004390896985
 30
0.0
 10
391.9052794266992
 20
295.5401198662039
 30
0.0
 10
391.891049491874
 20
295.5482434381867
 30
0.0
 10
391.8626850646793
 20
295.5648731816198
 30
0.0
 10
391.8485268841105
 20
295.5733943596676
 30
0.0
 10
391.8064396378486
 20
295.5993893464686
 30
0.0
 10
391.778862012975
 20
295.6173121788597
 30
0.0
 10
391.7517608143835
 20
295.6358062161406
 30
0.0
  0
SPLINE
  5
1CF
330
1F
100
AcDbEntity
  8
1
100
AcDbSpline
210
0.0
220
0.0
230
1.0
 70
    12
 71
     2
 72
     6
 73
     3
 74
     0
 42
0.000000001
 43
0.0000000001
 40
0.0
 40
0.0
 40
0.0
 40
1.0
 40
1.0
 40
1.0
 10
391.1119805339065
 20
305.3117879968945
 30
0.0
 41
0.5000009722700075
 10
391.2241649119575
 20
305.3115768246515
 30
0.0
 41
0.4999990277299928
 10
391.3363482855839
 20
305.3113651902422
 30
0.0
 41
0.5000009722700075
  0
SPLINE
  5
1D0
330
1F
100
AcDbEntity
  8
1
100
AcDbSpline
210
0.0
220
0.0
230
1.0
 70
     8
 71
     3
 72
    10
 73
     6
 74
     0
 42
0.000000001
 43
0.0000000001
 40
0.0
 40
0.0
 40
0.0
 40
0.0
 40
0.5
 40
0.5
 40
1.0
 40
1.0
 40
1.0
 40
1.0
 10
386.9674851723495
 20
299.6877784867066
 30
0.0
 10
387.0077151719968
 20
300.62034525289
 30
0.0
 10
387.0419721147147
 20
301.5531622050398
 30
0.0
 10
387.1027061513312
 20
303.4190417556638
 30
0.0
 10
387.1291454211104
 20
304.3521025595788
 30
0.0
 10
387.1528835350692
 20
305.2852465961941
 30
0.0
  0
SPLINE
  5
1D1
330
1F
100
AcDbEntity
  8
1
100
AcDbSpline
210
0.0
220
0.0
230
1.0
 70
    28
 71
     4
 72
    13
 73
     8
 74
     0
 42
0.000000001
 43
0.0000000001
 40
0.0
 40
0.0
 40
0.0
 40
0.0
 40
0.0
 40
0.2972516255331775
 40
0.2972516255331775
 40
0.2972516255331775
 40
1.0
 40
1.0
 40
1.0
 40
1.0
 40
1.0
 10
297.9048419452957
 20
283.141880252734
 30
0.0
 41
0.9972147034304812
 10
297.9048419452959
 20
282.3306898224025
 30
0.0
 41
0.9977864055372995
 10
297.9048419452957
 20
281.4655322943947
 30
0.0
 41
0.9993538697545288
 10
297.9048419452957
 20
280.5861249387439
 30
0.0
 41
1.001498006703475
 10
297.9048419452957
 20
277.7405895195692
 30
0.0
 41
1.001498006703475
 10
297.9048419452957
 20
275.4999127662604
 30
0.0
 41
0.9895139530756713
 10
297.9048419452957
 20
273.7734034025869
 30
0.0
 41
1.001498006703475
 10
297.9048419452957
 20
272.7433272527668
 30
0.0
 41
1.001498006703475
  0
SPLINE
  5
1D2
330
1F
100
AcDbEntity
  8
1
100
AcDbSpline
210
0.0
220
0.0
230
1.0
 70
     8
 71
     3
 72
     8
 73
     4
 74
     0
 42
0.000000001
 43
0.0000000001
 40
0.0
 40
0.0
 40
0.0
 40
0.0
 40
1.0
 40
1.0
 40
1.0
 40
1.0
 10
387.1581921235743
 20
296.0354998899007
 30
0.0
 10
386.8617411173967
 20
296.1710207450715
 30
0.0
 10
386.5692191334355
 20
296.3181389922084
 30
0.0
 10
386.2803308932416
 20
296.4773175120259
 30
0.0
  0
SPLINE
  5
1D3
330
1F
100
AcDbEntity
  8
1
100
AcDbSpline
210
0.0
220
0.0
230
1.0
 70
     8
 71
     3
 72
    28
 73
    24
 74
     0
 42
0.000000001
 43
0.0000000001
 40
0.0
 40
0.0
 40
0.0
 40
0.0
 40
0.1249999999999972
 40
0.1249999999999972
 40
0.2499999999999944
 40
0.2499999999999944
 40
0.3749999999999916
 40
0.3749999999999916
 40
0.4999999999999889
 40
0.4999999999999889
 40
0.5312499999999894
 40
0.5312499999999894
 40
0.5624999999999897
 40
0.5624999999999897
 40
0.6249999999999907
 40
0.6249999999999907
 40
0.7499999999999926
 40
0.7499999999999926
 40
0.8124999999999943
 40
0.8124999999999943
 40
0.8749999999999962
 40
0.8749999999999962
 40
1.0
 40
1.0
 40
1.0
 40
1.0
 10
385.6995283079354
 20
297.4085896957478
 30
0.0
 10
385.7831150845042
 20
297.4830023944437
 30
0.0
 10
385.8641919864533
 20
297.5595209041301
 30
0.0
 10
386.0207842889718
 20
297.7172240811811
 30
0.0
 10
386.0963016203996
 20
297.7984071285355
 30
0.0
 10
386.241076450316
 20
297.9660252883864
 30
0.0
 10
386.3103370869583
 20
298.052457767939
 30
0.0
 10
386.4416675111784
 20
298.2313559244285
 30
0.0
 10
386.5037427121986
 20
298.3238170594309
 30
0.0
 10
386.576038101124
 20
298.4438390692233
 30
0.0
 10
386.5902311179362
 20
298.4680666991136
 30
0.0
 10
386.6180597156061
 20
298.5169896534758
 30
0.0
 10
386.6316760198312
 20
298.5416533277755
 30
0.0
 10
386.6714275501844
 20
298.6159442991513
 30
0.0
 10
386.6965359618783
 20
298.6659931603242
 30
0.0
 10
386.7674800000482
 20
298.8177805493503
 30
0.0
 10
386.8089479238572
 20
298.921154828971
 30
0.0
 10
386.8613847019968
 20
299.0798733865343
 30
0.0
 10
386.8772329879686
 20
299.1333902646882
 30
0.0
 10
386.9054526615274
 20
299.2417261569495
 30
0.0
 10
386.9178307049016
 20
299.2965791088461
 30
0.0
 10
386.9493292026585
 20
299.4630232485878
 30
0.0
 10
386.9625285831585
 20
299.5749117150587
 30
0.0
 10
386.9674851723496
 20
299.6877784867066
 30
0.0
  0
SPLINE
  5
1D4
330
1F
100
AcDbEntity
  8
1
100
AcDbSpline
210
0.0
220
0.0
230
1.0
 70
    12
 71
     3
 72
     9
 73
     5
 74
     0
 42
0.000000001
 43
0.0000000001
 40
0.0
 40
0.0
 40
0.0
 40
0.0
 40
0.1104000434399487
 40
1.0
 40
1.0
 40
1.0
 40
1.0
 10
364.8433651752539
 20
299.3062834422417
 30
0.0
 41
1.001513312020839
 10
365.6613821409713
 20
299.2811966235253
 30
0.0
 41
1.001515031597721
 10
373.0717929540185
 20
299.0442683284438
 30
0.0
 41
1.001524686131677
 10
380.4937591400801
 20
298.8044972109842
 30
0.0
 41
1.001456518849979
 10
386.9674851723496
 20
299.6877784867066
 30
0.0
 41
1.001480702085002
  0
SPLINE
  5
1D5
330
1F
100
AcDbEntity
  8
1
100
AcDbSpline
210
0.0
220
0.0
230
1.0
 70
     8
 71
     3
 72
     8
 73
     4
 74
     0
 42
0.000000001
 43
0.0000000001
 40
0.0
 40
0.0
 40
0.0
 40
0.0
 40
1.0
 40
1.0
 40
1.0
 40
1.0
 10
288.0114185953723
 20
284.7980254476215
 30
0.0
 10
288.5735826971949
 20
284.7345799276839
 30
0.0
 10
289.137731518527
 20
284.6526991191604
 30
0.0
 10
289.7038318185191
 20
284.5526917833919
 30
0.0
  0
SPLINE
  5
1D6
330
1F
100
AcDbEntity
  8
1
100
AcDbSpline
210
0.0
220
0.0
230
1.0
 70
     8
 71
     3
 72
     8
 73
     4
 74
     0
 42
0.000000001
 43
0.0000000001
 40
0.0
 40
0.0
 40
0.0
 40
0.0
 40
1.0
 40
1.0
 40
1.0
 40
1.0
 10
279.4048419452957
 20
272.1268816175431
 30
0.0
 10
279.5348453827909
 20
272.1140357228054
 30
0.0
 10
279.668136545019
 20
272.1099580021256
 30
0.0
 10
279.8043368819074
 20
272.1135926497409
 30
0.0
  0
SPLINE
  5
1D7
330
1F
100
AcDbEntity
  8
1
100
AcDbSpline
210
0.0
220
0.0
230
1.0
 70
     8
 71
     3
 72
    34
 73
    30
 74
     0
 42
0.000000001
 43
0.0000000001
 40
0.0
 40
0.0
 40
0.0
 40
0.0
 40
0.125000000000006
 40
0.125000000000006
 40
0.250000000000012
 40
0.250000000000012
 40
0.3125000000000153
 40
0.3125000000000153
 40
0.3437500000000164
 40
0.3437500000000164
 40
0.3593750000000165
 40
0.3593750000000165
 40
0.3750000000000166
 40
0.3750000000000166
 40
0.5000000000000165
 40
0.5000000000000165
 40
0.6250000000000164
 40
0.6250000000000164
 40
0.6875000000000162
 40
0.6875000000000162
 40
0.7031250000000158
 40
0.7031250000000158
 40
0.7187500000000148
 40
0.7187500000000148
 40
0.750000000000013
 40
0.750000000000013
 40
0.8750000000000065
 40
0.8750000000000065
 40
1.0
 40
1.0
 40
1.0
 40
1.0
 10
277.481192155723
 20
276.9316071205022
 30
0.0
 10
277.4327343827771
 20
276.6866866722095
 30
0.0
 10
277.4019430342361
 20
276.4457044579437
 30
0.0
 10
277.3739706262793
 20
275.9715764249186
 30
0.0
 10
277.3767962461211
 20
275.7384306247314
 30
0.0
 10
277.406012074193
 20
275.3945913419421
 30
0.0
 10
277.4199238426584
 20
275.2809584833392
 30
0.0
 10
277.447113824013
 20
275.1119828190969
 30
0.0
 10
277.4572315190269
 20
275.0559032226022
 30
0.0
 10
277.4740034046985
 20
274.972152863917
 30
0.0
 10
277.4798647423569
 20
274.9442762726941
 30
0.0
 10
277.4920977255851
 20
274.8887553780909
 30
0.0
 10
277.4984656142503
 20
274.8611257931223
 30
0.0
 10
277.5580188007345
 20
274.6136236123696
 30
0.0
 10
277.6268436944122
 20
274.4018803984643
 30
0.0
 10
277.7947476619897
 20
273.9936337454047
 30
0.0
 10
277.8938333381691
 20
273.7971343091611
 30
0.0
 10
278.0649266993383
 20
273.5131526180464
 30
0.0
 10
278.1257107309091
 20
273.4202892633205
 30
0.0
 10
278.2064226543988
 20
273.3064049406682
 30
0.0
 10
278.2228018041415
 20
273.2837378626181
 30
0.0
 10
278.2560353415254
 20
273.2386221577322
 30
0.0
 10
278.272896787579
 20
273.2161647820088
 30
0.0
 10
278.3240673860249
 20
273.1492852486567
 30
0.0
 10
278.3589989363789
 20
273.1053049316533
 30
0.0
 10
278.5376944955653
 20
272.888351121875
 30
0.0
 10
278.6935336421855
 20
272.724197685818
 30
0.0
 10
279.0303029792884
 20
272.4130003280622
 30
0.0
 10
279.2112350515126
 20
272.2659606035322
 30
0.0
 10
279.4048419452957
 20
272.1268816175431
 30
0.0
  0
SPLINE
  5
1D8
330
1F
100
AcDbEntity
  8
1
100
AcDbSpline
210
0.0
220
0.0
230
1.0
 70
     8
 71
     3
 72
    63
 73
    59
 74
     0
 42
0.000000001
 43
0.0000000001
 40
0.0
 40
0.0
 40
0.0
 40
0.0
 40
0.0625000000000009
 40
0.0625000000000009
 40
0.1250000000000017
 40
0.1250000000000017
 40
0.1875000000000026
 40
0.1875000000000026
 40
0.2031250000000027
 40
0.2031250000000027
 40
0.2187500000000028
 40
0.2187500000000028
 40
0.2500000000000029
 40
0.2500000000000029
 40
0.3125000000000033
 40
0.3125000000000033
 40
0.3750000000000037
 40
0.3750000000000037
 40
0.4062500000000041
 40
0.4062500000000041
 40
0.4218750000000041
 40
0.4218750000000041
 40
0.4375000000000041
 40
0.4375000000000041
 40
0.4687500000000039
 40
0.4687500000000039
 40
0.5000000000000036
 40
0.5000000000000036
 40
0.5312500000000032
 40
0.5312500000000032
 40
0.5625000000000029
 40
0.5625000000000029
 40
0.5781250000000027
 40
0.5781250000000027
 40
0.5937500000000025
 40
0.5937500000000025
 40
0.6250000000000015
 40
0.6250000000000015
 40
0.6562500000000006
 40
0.6562500000000006
 40
0.6718750000000004
 40
0.6718750000000004
 40
0.6875000000000001
 40
0.6875000000000001
 40
0.7499999999999999
 40
0.7499999999999999
 40
0.8124999999999994
 40
0.8124999999999994
 40
0.8437499999999996
 40
0.8437499999999996
 40
0.8749999999999996
 40
0.8749999999999996
 40
0.9062499999999996
 40
0.9062499999999996
 40
0.9374999999999998
 40
0.96875
 40
0.96875
 40
1.0
 40
1.0
 40
1.0
 40
1.0
 10
297.9048419452957
 20
283.139640977126
 30
0.0
 10
299.6236302102071
 20
282.803393371794
 30
0.0
 10
301.3408435346494
 20
282.4658309311011
 30
0.0
 10
304.7720136974651
 20
281.7887641359096
 30
0.0
 10
306.4859689055484
 20
281.4492498394143
 30
0.0
 10
309.9104562080041
 20
280.7689769852705
 30
0.0
 10
311.6209849307712
 20
280.4282025524431
 30
0.0
 10
313.7569114111954
 20
280.0021476284935
 30
0.0
 10
314.1839851837365
 20
279.9169340208062
 30
0.0
 10
315.0379084828551
 20
279.7465273658669
 30
0.0
 10
315.4647627286422
 20
279.6613333571787
 30
0.0
 10
316.7445203817733
 20
279.4059206520236
 30
0.0
 10
317.5967709603871
 20
279.2358380938001
 30
0.0
 10
320.1506873097625
 20
278.7266342786437
 30
0.0
 10
321.8495052079735
 20
278.3885018507567
 30
0.0
 10
325.2393992395915
 20
277.7185622540825
 30
0.0
 10
326.9304680500488
 20
277.3867469328778
 30
0.0
 10
329.4615040317469
 20
276.8978850084128
 30
0.0
 10
330.3042593493771
 20
276.7364232860832
 30
0.0
 10
331.5670855854735
 20
276.4971218150738
 30
0.0
 10
331.987810234238
 20
276.4178374444546
 30
0.0
 10
332.828842255793
 20
276.2603538375453
 30
0.0
 10
333.2491430540935
 20
276.1821392435538
 30
0.0
 10
334.5095022127507
 20
275.9494331873431
 30
0.0
 10
335.3490667440052
 20
275.7970185398314
 30
0.0
 10
337.0281086099177
 20
275.500825835929
 30
0.0
 10
337.8675864408303
 20
275.3570456885783
 30
0.0
 10
339.5475596080157
 20
275.0803875410416
 30
0.0
 10
340.3880550022475
 20
274.9475059738294
 30
0.0
 10
342.0709990874154
 20
274.6940705148095
 30
0.0
 10
342.9134470204027
 20
274.5735115439813
 30
0.0
 10
344.1791658832692
 20
274.4024554736768
 30
0.0
 10
344.6014194798513
 20
274.3470749386299
 30
0.0
 10
345.4466513479929
 20
274.239531381551
 30
0.0
 10
345.8696195126342
 20
274.1873496933227
 30
0.0
 10
347.1395063574974
 20
274.0352896374183
 30
0.0
 10
347.9874042198712
 20
273.9398854854633
 30
0.0
 10
349.6854993740676
 20
273.7597929566584
 30
0.0
 10
350.5356973695591
 20
273.6751079439707
 30
0.0
 10
351.8125541368619
 20
273.5554345584705
 30
0.0
 10
352.238461034607
 20
273.5167689742038
 30
0.0
 10
353.0904575300477
 20
273.4418271722222
 30
0.0
 10
353.5165823224256
 20
273.4055475648092
 30
0.0
 10
355.6478179012111
 20
273.2298890099976
 30
0.0
 10
357.354742621182
 20
273.1076604996695
 30
0.0
 10
360.7722942893853
 20
272.8955497968916
 30
0.0
 10
362.4829235829953
 20
272.8057008056805
 30
0.0
 10
365.0518686786509
 20
272.6928752125948
 30
0.0
 10
365.9086872102597
 20
272.6589302388781
 30
0.0
 10
367.6234155019637
 20
272.5980117062805
 30
0.0
 10
368.4813427532687
 20
272.5710449876341
 30
0.0
 10
370.1981674563651
 20
272.5236008136248
 30
0.0
 10
371.0571187823118
 20
272.5031198876324
 30
0.0
 10
372.7753761015693
 20
272.468251547328
 30
0.0
 10
374.4940377833656
 20
272.4394728568803
 30
0.0
 10
376.2130667547867
 20
272.4223248192226
 30
0.0
 10
377.9320207236225
 20
272.4108723709618
 30
0.0
 10
378.7914600754092
 20
272.4079935137005
 30
0.0
 10
379.6507163289112
 20
272.4079935137005
 30
0.0
  0
SPLINE
  5
1D9
330
1F
100
AcDbEntity
  8
1
100
AcDbSpline
210
0.0
220
0.0
230
1.0
 70
     8
 71
     3
 72
    70
 73
    66
 74
     0
 42
0.000000001
 43
0.0000000001
 40
0.0
 40
0.0
 40
0.0
 40
0.0
 40
0.0120668972025144
 40
0.0120668972025144
 40
0.0473502223024247
 40
0.0473502223024247
 40
0.0826335474023349
 40
0.0826335474023349
 40
0.1179168725022451
 40
0.1179168725022451
 40
0.1532001976021554
 40
0.1532001976021554
 40
0.1884835227020657
 40
0.1884835227020657
 40
0.2237668478019759
 40
0.2237668478019759
 40
0.2590501729018861
 40
0.2590501729018861
 40
0.2943334980017964
 40
0.2943334980017964
 40
0.3296168231017067
 40
0.3296168231017067
 40
0.3649001482016169
 40
0.3649001482016169
 40
0.4001834733015272
 40
0.4001834733015272
 40
0.4354667984014374
 40
0.4354667984014374
 40
0.4707501235013477
 40
0.4707501235013477
 40
0.506033448601258
 40
0.506033448601258
 40
0.5413167737011682
 40
0.5413167737011682
 40
0.5766000988010786
 40
0.5766000988010786
 40
0.6118834239009887
 40
0.6118834239009887
 40
0.6471667490008989
 40
0.6471667490008989
 40
0.6824500741008093
 40
0.6824500741008093
 40
0.7177333992007195
 40
0.7177333992007195
 40
0.7530167243006298
 40
0.7530167243006298
 40
0.7706583868505849
 40
0.7706583868505849
 40
0.7883000494005401
 40
0.7883000494005401
 40
0.8235833745004496
 40
0.8235833745004496
 40
0.8588666996003594
 40
0.8588666996003594
 40
0.8941500247002693
 40
0.8941500247002693
 40
0.9117916872502243
 40
0.9117916872502243
 40
0.9294333498001794
 40
0.9294333498001794
 40
0.9470750123501346
 40
0.9647166749000898
 40
0.9647166749000898
 40
0.9823583374500447
 40
1.0
 40
1.0
 40
1.0
 40
1.0
 10
307.8912179900155
 20
305.4079929991037
 30
0.0
 10
308.2012648662875
 20
305.4079993072294
 30
0.0
 10
308.5112142472046
 20
305.407548423942
 30
0.0
 10
309.7270821319308
 20
305.4039133470842
 30
0.0
 10
310.6322960451208
 20
305.3971378146119
 30
0.0
 10
312.4413858606441
 20
305.374630998319
 30
0.0
 10
313.3448749664824
 20
305.3589026823674
 30
0.0
 10
315.149966809289
 20
305.3178413751909
 30
0.0
 10
316.0515824147182
 20
305.2925069177419
 30
0.0
 10
317.8533111812624
 20
305.2317612530389
 30
0.0
 10
318.7534247692925
 20
305.1963491090332
 30
0.0
 10
320.5525549476882
 20
305.1151977834355
 30
0.0
 10
321.4515721137724
 20
305.0694582084383
 30
0.0
 10
323.2489464890108
 20
304.9676437826919
 30
0.0
 10
324.1473043730551
 20
304.9115691897992
 30
0.0
 10
325.9438098401262
 20
304.7893209135247
 30
0.0
 10
326.8419581259405
 20
304.723148151503
 30
0.0
 10
328.6384857090145
 20
304.5811664014703
 30
0.0
 10
329.5368656576555
 20
304.5053589037345
 30
0.0
 10
331.3342689133171
 20
304.3447605820964
 30
0.0
 10
332.2332927486322
 20
304.2599716321321
 30
0.0
 10
334.0323491980241
 20
304.0822020824148
 30
0.0
 10
334.9323792288984
 20
303.9892435110207
 30
0.0
 10
336.7328500479767
 20
303.7944107411882
 30
0.0
 10
337.6332911538919
 20
303.6925289599318
 30
0.0
 10
339.4343020508753
 20
303.4792420282602
 30
0.0
 10
340.3345829346492
 20
303.3678665469293
 30
0.0
 10
342.1343828065094
 20
303.1354687551047
 30
0.0
 10
343.0339505667398
 20
303.0144403582269
 30
0.0
 10
344.8326188724669
 20
302.7629290705867
 30
0.0
 10
345.7317082260621
 20
302.6324151220951
 30
0.0
 10
347.5299618378669
 20
302.3629721155943
 30
0.0
 10
348.4291321930623
 20
302.2240598544692
 30
0.0
 10
350.2279660429112
 20
301.9388363364062
 30
0.0
 10
351.127628118575
 20
301.7925254757134
 30
0.0
 10
352.927686116805
 20
301.4932448936476
 30
0.0
 10
353.8278966894912
 20
301.3403057071386
 30
0.0
 10
355.6285716855697
 20
301.0283673032459
 30
0.0
 10
356.5290732608482
 20
300.8693619287645
 30
0.0
 10
358.3304364243868
 20
300.5455223508729
 30
0.0
 10
359.2312976868265
 20
300.3806887272337
 30
0.0
 10
361.033329860859
 20
300.0451727830689
 30
0.0
 10
361.9345007739334
 20
299.8744918704265
 30
0.0
 10
363.7370258461207
 20
299.526969435097
 30
0.0
 10
364.6383803260826
 20
299.3501304532149
 30
0.0
 10
365.9903939758522
 20
299.079754968566
 30
0.0
 10
366.4410405097469
 20
298.98877811158
 30
0.0
 10
367.3421318821958
 20
298.805022265587
 30
0.0
 10
367.7925999850615
 20
298.7122594236188
 30
0.0
 10
369.1436002400914
 20
298.4307710886666
 30
0.0
 10
370.0437028510607
 20
298.2387783838085
 30
0.0
 10
371.8419651688993
 20
297.8432643728232
 30
0.0
 10
372.7401195714348
 20
297.6397204689298
 30
0.0
 10
374.5341354940198
 20
297.2194261714387
 30
0.0
 10
375.4299901734884
 20
297.0026445119783
 30
0.0
 10
376.7722831701446
 20
296.6678280094916
 30
0.0
 10
377.2194718245125
 20
296.5546340893542
 30
0.0
 10
378.1134828291915
 20
296.3253914121823
 30
0.0
 10
378.560263794632
 20
296.2093521298662
 30
0.0
 10
379.4534511485448
 20
295.9750107133394
 30
0.0
 10
380.3462948211145
 20
295.7383974394987
 30
0.0
 10
381.2389350824157
 20
295.4988290569602
 30
0.0
 10
382.1317866609311
 20
295.2588511292312
 30
0.0
 10
383.0248494750783
 20
295.0184629745369
 30
0.0
 10
383.919106656774
 20
294.7799699121382
 30
0.0
 10
384.3667635103685
 20
294.6620274319057
 30
0.0
  0
SPLINE
  5
1DA
330
1F
100
AcDbEntity
  8
1
100
AcDbSpline
210
0.0
220
0.0
230
1.0
 70
     8
 71
     3
 72
    44
 73
    40
 74
     0
 42
0.000000001
 43
0.0000000001
 40
0.0
 40
0.0
 40
0.0
 40
0.0
 40
0.062529310943417
 40
0.062529310943417
 40
0.125058621886834
 40
0.125058621886834
 40
0.187587932830251
 40
0.187587932830251
 40
0.250117243773668
 40
0.250117243773668
 40
0.2813818992453769
 40
0.2813818992453769
 40
0.3126465547170859
 40
0.3126465547170859
 40
0.3751758656605038
 40
0.3751758656605038
 40
0.4377051766039216
 40
0.4377051766039216
 40
0.4689698320756306
 40
0.4689698320756306
 40
0.5002344875473396
 40
0.5002344875473396
 40
0.5627637984907575
 40
0.5627637984907575
 40
0.6252931094341755
 40
0.6252931094341755
 40
0.6878224203775933
 40
0.6878224203775933
 40
0.7503517313210111
 40
0.7503517313210111
 40
0.8128810422644288
 40
0.8128810422644288
 40
0.8754103532078467
 40
0.8754103532078467
 40
0.9379396641512649
 40
0.9379396641512649
 40
0.9692043196229731
 40
0.9692043196229731
 40
1.0
 40
1.0
 40
1.0
 40
1.0
 10
387.1528835350692
 20
305.2852465961941
 30
0.0
 10
386.262762999115
 20
305.3280391770071
 30
0.0
 10
385.3678472850445
 20
305.3577788037159
 30
0.0
 10
383.5678801759816
 20
305.3967910234109
 30
0.0
 10
382.6628318333267
 20
305.406080233364
 30
0.0
 10
380.842783398745
 20
305.4093715640058
 30
0.0
 10
379.9277862393603
 20
305.4033841846252
 30
0.0
 10
378.0886576664626
 20
305.3803939779688
 30
0.0
 10
377.1645292362503
 20
305.3633968458714
 30
0.0
 10
375.7725080816001
 20
305.3319836023632
 30
0.0
 10
375.3075335945658
 20
305.3205168251647
 30
0.0
 10
374.3758632310829
 20
305.2958645451068
 30
0.0
 10
373.9090880726526
 20
305.2826764657518
 30
0.0
 10
372.5076789016394
 20
305.2408588229245
 30
0.0
 10
371.5716308016649
 20
305.2100090248511
 30
0.0
 10
369.6973726412513
 20
305.1429551573016
 30
0.0
 10
368.7591646375513
 20
305.1067498988025
 30
0.0
 10
367.3514289657419
 20
305.0479064267818
 30
0.0
 10
366.8821282348709
 20
305.0275112573815
 30
0.0
 10
365.9435007635417
 20
304.985092275405
 30
0.0
 10
365.4741660838527
 20
304.9630759694099
 30
0.0
 10
364.0661432325734
 20
304.8945681264635
 30
0.0
 10
363.1274368049072
 20
304.8456225838233
 30
0.0
 10
361.2502090773077
 20
304.7408461833463
 30
0.0
 10
360.3116884138602
 20
304.6850140190613
 30
0.0
 10
358.4350432127044
 20
304.56598263791
 30
0.0
 10
357.496873168812
 20
304.502779271183
 30
0.0
 10
355.6215671991483
 20
304.3684472169164
 30
0.0
 10
354.684386153047
 20
304.2973169571409
 30
0.0
 10
352.8111545031667
 20
304.1464315107765
 30
0.0
 10
351.8751025794954
 20
304.0666792105883
 30
0.0
 10
350.0043271148119
 20
303.8976879922397
 30
0.0
 10
349.0696017715276
 20
303.8084544349867
 30
0.0
 10
347.2017375927454
 20
303.6193500789718
 30
0.0
 10
346.2685966948623
 20
303.5194874146147
 30
0.0
 10
344.8703582062111
 20
303.3604846391322
 30
0.0
 10
344.4045316848678
 20
303.3059302193207
 30
0.0
 10
343.4803842852857
 20
303.1943868827566
 30
0.0
 10
343.0220478224998
 20
303.1374629248066
 30
0.0
 10
342.5639304801389
 20
303.0789603610842
 30
0.0
  0
SPLINE
  5
1DB
330
1F
100
AcDbEntity
  8
1
100
AcDbSpline
210
0.0
220
0.0
230
1.0
 70
     8
 71
     3
 72
    32
 73
    28
 74
     0
 42
0.000000001
 43
0.0000000001
 40
0.0
 40
0.0
 40
0.0
 40
0.0
 40
0.0624999999999998
 40
0.0624999999999998
 40
0.1249999999999995
 40
0.1249999999999995
 40
0.1874999999999993
 40
0.1874999999999993
 40
0.249999999999999
 40
0.249999999999999
 40
0.3749999999999989
 40
0.3749999999999989
 40
0.4374999999999992
 40
0.4374999999999992
 40
0.4999999999999992
 40
0.4999999999999992
 40
0.6249999999999992
 40
0.6249999999999992
 40
0.7499999999999995
 40
0.7499999999999995
 40
0.8749999999999996
 40
0.8749999999999996
 40
0.9062499999999996
 40
0.9062499999999996
 40
0.9374999999999998
 40
0.9374999999999998
 40
1.0
 40
1.0
 40
1.0
 40
1.0
 10
288.4182654547609
 20
272.9841121802912
 30
0.0
 10
288.1865266578359
 20
272.9843903067858
 30
0.0
 10
287.9586563476554
 20
272.9814868777836
 30
0.0
 10
287.5098103755574
 20
272.9701960618076
 30
0.0
 10
287.2888373316433
 20
272.9618075899436
 30
0.0
 10
286.8531815825136
 20
272.9403283888701
 30
0.0
 10
286.6385005736447
 20
272.9272368107816
 30
0.0
 10
286.2149917313346
 20
272.897067079629
 30
0.0
 10
286.0061650342235
 20
272.8799882222809
 30
0.0
 10
285.3879977895243
 20
272.8237807396811
 30
0.0
 10
284.9869331653829
 20
272.7796819552973
 30
0.0
 10
284.4008585229344
 20
272.7074749643968
 30
0.0
 10
284.2094063905753
 20
272.6825584418053
 30
0.0
 10
283.8341128153468
 20
272.6317536175741
 30
0.0
 10
283.650234234233
 20
272.605859905835
 30
0.0
 10
283.1094215639512
 20
272.5277143446442
 30
0.0
 10
282.7632787255723
 20
272.4749869587704
 30
0.0
 10
282.0981865604966
 20
272.3737086803894
 30
0.0
 10
281.7792476759241
 20
272.325133579188
 30
0.0
 10
281.1678947541523
 20
272.2381896766041
 30
0.0
 10
280.8754839185564
 20
272.1997831315969
 30
0.0
 10
280.5265680843528
 20
272.1628703399745
 30
0.0
 10
280.4575759657009
 20
272.1560449526918
 30
0.0
 10
280.3216328172943
 20
272.1436909797327
 30
0.0
 10
280.2546456852546
 20
272.1381579401936
 30
0.0
 10
280.0566245223212
 20
272.123699287738
 30
0.0
 10
279.9285290290017
 20
272.116906846325
 30
0.0
 10
279.8043368819074
 20
272.1135926497409
 30
0.0
  0
LINE
  5
201
330
1F
100
AcDbEntity
  8
4
100
AcDbLine
 10
266.703832
 20
288.907994
 30
0.0
 11
405.617231
 21
288.907994
 31
0.0
  0
LINE
  5
202
330
1F
100
AcDbEntity
  8
SK4
100
AcDbLine
 10
210.904842
 20
288.907994
 30
0.0
 11
277.404842
 21
288.907994
 31
0.0
  0
MTEXT
  5
203
330
1F
100
AcDbEntity
  8
SK6
100
AcDbMText
 10
258.520787
 20
241.27662
 30
0.0
 40
3.5
 41
0.0
 71
     7
 72
     5
  1
\W0.7147;803D-34-102-S32
  7
cesky
 73
     2
 44
0.8433729999999998
  0
MTEXT
  5
319
330
1F
100
AcDbEntity
  8
2
100
AcDbMText
 10
414.061493
 20
290.6774529999999
 30
0.0
 40
3.5
 41
0.0
 71
     7
 72
     5
  1
\W0.6844;34
  7
cesky
 11
0.0000000000000001
 21
1.0
 31
0.0
 73
     2
 44
0.8433729999999998
  0
MTEXT
  5
31A
330
1F
100
AcDbEntity
  8
2
100
AcDbMText
 10
414.061493
 20
283.939953
 30
0.0
 40
3.5
 41
0.0
 71
     7
 72
     5
  1
\W3.0115;\H2.63;%%c\H3.50;
  7
cesky
 11
0.0000000000000001
 21
1.0
 31
0.0
 73
     2
 44
0.8433729999999998
  0
LINE
  5
31B
330
1F
100
AcDbEntity
  8
2
100
AcDbLine
 10
403.4048419999999
 20
305.907994
 30
0.0
 11
415.2489089999999
 21
305.907994
 31
0.0
  0
LINE
  5
31C
330
1F
100
AcDbEntity
  8
2
100
AcDbLine
 10
414.2489089999999
 20
305.907994
 30
0.0
 11
414.2489089999999
 21
283.782453
 31
0.0
  0
SOLID
  5
31D
330
1F
100
AcDbEntity
  8
2
100
AcDbTrace
 10
414.2489089999999
 20
305.907994
 30
0.0
 11
414.8660539999999
 21
302.407996
 31
0.0
 12
413.6317649999999
 22
302.4079910000001
 32
0.0
 13
413.6317649999999
 23
302.4079910000001
 33
0.0
  0
MTEXT
  5
31E
330
1F
100
AcDbEntity
  8
2
100
AcDbMText
 10
334.827842
 20
327.385163
 30
0.0
 40
3.5
 41
0.0
 71
     7
 72
     5
  1
\W0.7809;127
  7
cesky
 73
     2
 44
0.8433729999999998
  0
LINE
  5
31F
330
1F
100
AcDbEntity
  8
2
100
AcDbLine
 10
401.4048419999999
 20
305.907994
 30
0.0
 11
401.4048419999999
 21
328.5109970000001
 31
0.0
  0
LINE
  5
320
330
1F
100
AcDbEntity
  8
2
100
AcDbLine
 10
274.404842
 20
289.907567
 30
0.0
 11
274.404842
 21
328.5109970000001
 31
0.0
  0
LINE
  5
321
330
1F
100
AcDbEntity
  8
2
100
AcDbLine
 10
401.4048419999999
 20
327.510997
 30
0.0
 11
274.404842
 21
327.510997
 31
0.0
  0
SOLID
  5
322
330
1F
100
AcDbEntity
  8
2
100
AcDbTrace
 10
401.4048419999999
 20
327.510997
 30
0.0
 11
397.904844
 21
326.893852
 31
0.0
 12
397.90484
 22
328.128141
 32
0.0
 13
397.90484
 23
328.128141
 33
0.0
  0
SOLID
  5
323
330
1F
100
AcDbEntity
  8
2
100
AcDbTrace
 10
274.404842
 20
327.510997
 30
0.0
 11
277.90484
 21
328.128141
 31
0.0
 12
277.904844
 22
326.893852
 32
0.0
 13
277.904844
 23
326.893852
 33
0.0
  0
MTEXT
  5
324
330
1F
100
AcDbEntity
  8
2
100
AcDbMText
 10
304.827842
 20
340.562135
 30
0.0
 40
3.5
 41
0.0
 71
     7
 72
     5
  1
\W0.7809;187
  7
cesky
 73
     2
 44
0.8433729999999998
  0
LINE
  5
325
330
1F
100
AcDbEntity
  8
2
100
AcDbLine
 10
401.4048419999999
 20
307.907994
 30
0.0
 11
401.4048419999999
 21
341.687968
 31
0.0
  0
LINE
  5
326
330
1F
100
AcDbEntity
  8
2
100
AcDbLine
 10
214.404842
 20
302.907994
 30
0.0
 11
214.404842
 21
341.687968
 31
0.0
  0
LINE
  5
327
330
1F
100
AcDbEntity
  8
2
100
AcDbLine
 10
401.4048419999999
 20
340.687968
 30
0.0
 11
214.404842
 21
340.687968
 31
0.0
  0
SOLID
  5
328
330
1F
100
AcDbEntity
  8
2
100
AcDbTrace
 10
401.4048419999999
 20
340.687968
 30
0.0
 11
397.904844
 21
340.070823
 31
0.0
 12
397.90484
 22
341.305112
 32
0.0
 13
397.90484
 23
341.305112
 33
0.0
  0
SOLID
  5
329
330
1F
100
AcDbEntity
  8
2
100
AcDbTrace
 10
214.404842
 20
340.687968
 30
0.0
 11
217.90484
 21
341.305112
 31
0.0
 12
217.904844
 22
340.070823
 32
0.0
 13
217.904844
 23
340.070823
 33
0.0
  0
MTEXT
  5
32A
330
1F
100
AcDbEntity
  8
2
100
AcDbMText
 10
242.590342
 20
327.385163
 30
0.0
 40
3.5
 41
0.0
 71
     7
 72
     5
  1
\W0.7045;60
  7
cesky
 73
     2
 44
0.8433729999999998
  0
LINE
  5
32B
330
1F
100
AcDbEntity
  8
2
100
AcDbLine
 10
274.404842
 20
288.907994
 30
0.0
 11
274.404842
 21
328.5109970000001
 31
0.0
  0
LINE
  5
32C
330
1F
100
AcDbEntity
  8
2
100
AcDbLine
 10
214.404842
 20
302.907994
 30
0.0
 11
214.404842
 21
328.5109970000001
 31
0.0
  0
LINE
  5
32D
330
1F
100
AcDbEntity
  8
2
100
AcDbLine
 10
274.404842
 20
327.510997
 30
0.0
 11
214.404842
 21
327.510997
 31
0.0
  0
SOLID
  5
32E
330
1F
100
AcDbEntity
  8
2
100
AcDbTrace
 10
274.404842
 20
327.510997
 30
0.0
 11
270.904844
 21
326.893852
 31
0.0
 12
270.90484
 22
328.128141
 32
0.0
 13
270.90484
 23
328.128141
 33
0.0
  0
SOLID
  5
32F
330
1F
100
AcDbEntity
  8
2
100
AcDbTrace
 10
214.404842
 20
327.510997
 30
0.0
 11
217.90484
 21
328.128141
 31
0.0
 12
217.904844
 22
326.893852
 32
0.0
 13
217.904844
 23
326.893852
 33
0.0
  0
MTEXT
  5
330
330
1F
100
AcDbEntity
  8
2
100
AcDbMText
 10
343.829685
 20
316.149515
 30
0.0
 40
3.5
 41
0.0
 71
     7
 72
     5
  1
\W0.7969;109
  7
cesky
 73
     2
 44
0.8433729999999998
  0
LINE
  5
331
330
1F
100
AcDbEntity
  8
2
100
AcDbLine
 10
401.4048419999999
 20
307.907994
 30
0.0
 11
401.4048419999999
 21
317.275348
 31
0.0
  0
LINE
  5
332
330
1F
100
AcDbEntity
  8
2
100
AcDbLine
 10
292.408528
 20
306.125533
 30
0.0
 11
292.408528
 21
317.275348
 31
0.0
  0
LINE
  5
333
330
1F
100
AcDbEntity
  8
2
100
AcDbLine
 10
401.4048419999999
 20
316.275348
 30
0.0
 11
292.408528
 21
316.275348
 31
0.0
  0
SOLID
  5
334
330
1F
100
AcDbEntity
  8
2
100
AcDbTrace
 10
401.4048419999999
 20
316.275348
 30
0.0
 11
397.904844
 21
315.658204
 31
0.0
 12
397.90484
 22
316.892492
 32
0.0
 13
397.90484
 23
316.892492
 33
0.0
  0
SOLID
  5
335
330
1F
100
AcDbEntity
  8
2
100
AcDbTrace
 10
292.408528
 20
316.275348
 30
0.0
 11
295.908526
 21
316.892492
 31
0.0
 12
295.90853
 22
315.658204
 32
0.0
 13
295.90853
 23
315.658204
 33
0.0
  0
MTEXT
  5
336
330
1F
100
AcDbEntity
  8
SK2
100
AcDbMText
 10
205.691127
 20
290.434244
 30
0.0
 40
3.5
 41
0.0
 71
     7
 72
     5
  1
\W0.7045;32
  7
cesky
 11
0.0000000000000001
 21
1.0
 31
0.0
 73
     2
 44
0.8433729999999998
  0
MTEXT
  5
337
330
1F
100
AcDbEntity
  8
SK2
100
AcDbMText
 10
205.691127
 20
283.696744
 30
0.0
 40
3.5
 41
0.0
 71
     7
 72
     5
  1
\W3.0115;\H2.63;%%c\H3.50;
  7
cesky
 11
0.0000000000000001
 21
1.0
 31
0.0
 73
     2
 44
0.8433729999999998
  0
LINE
  5
338
330
1F
100
AcDbEntity
  8
SK2
100
AcDbLine
 10
216.404842
 20
304.907994
 30
0.0
 11
204.878544
 21
304.907994
 31
0.0
  0
LINE
  5
339
330
1F
100
AcDbEntity
  8
SK2
100
AcDbLine
 10
216.404842
 20
272.907994
 30
0.0
 11
204.878544
 21
272.907994
 31
0.0
  0
LINE
  5
33A
330
1F
100
AcDbEntity
  8
SK2
100
AcDbLine
 10
205.878544
 20
304.907994
 30
0.0
 11
205.878544
 21
272.907994
 31
0.0
  0
SOLID
  5
33B
330
1F
100
AcDbEntity
  8
SK2
100
AcDbTrace
 10
205.878544
 20
304.907994
 30
0.0
 11
206.495689
 21
301.407996
 31
0.0
 12
205.2614
 22
301.407991
 32
0.0
 13
205.2614
 23
301.407991
 33
0.0
  0
SOLID
  5
33C
330
1F
100
AcDbEntity
  8
SK2
100
AcDbTrace
 10
205.878544
 20
272.907994
 30
0.0
 11
205.2614
 21
276.407991
 31
0.0
 12
206.495689
 22
276.407996
 32
0.0
 13
206.495689
 23
276.407996
 33
0.0
  0
MTEXT
  5
33D
330
1F
100
AcDbEntity
  8
SK2
100
AcDbMText
 10
193.332501
 20
290.434244
 30
0.0
 40
3.5
 41
0.0
 71
     7
 72
     5
  1
\W0.7045;42
  7
cesky
 11
0.0000000000000001
 21
1.0
 31
0.0
 73
     2
 44
0.8433729999999998
  0
MTEXT
  5
33E
330
1F
100
AcDbEntity
  8
SK2
100
AcDbMText
 10
193.332501
 20
283.696744
 30
0.0
 40
3.5
 41
0.0
 71
     7
 72
     5
  1
\W3.0115;\H2.63;%%c\H3.50;
  7
cesky
 11
0.0000000000000001
 21
1.0
 31
0.0
 73
     2
 44
0.8433729999999998
  0
LINE
  5
33F
330
1F
100
AcDbEntity
  8
SK2
100
AcDbLine
 10
274.904842
 20
309.907994
 30
0.0
 11
192.519918
 21
309.907994
 31
0.0
  0
LINE
  5
340
330
1F
100
AcDbEntity
  8
SK2
100
AcDbLine
 10
274.904842
 20
267.907994
 30
0.0
 11
192.519918
 21
267.907994
 31
0.0
  0
LINE
  5
341
330
1F
100
AcDbEntity
  8
SK2
100
AcDbLine
 10
193.519918
 20
309.907994
 30
0.0
 11
193.519918
 21
267.907994
 31
0.0
  0
SOLID
  5
342
330
1F
100
AcDbEntity
  8
SK2
100
AcDbTrace
 10
193.519918
 20
309.907994
 30
0.0
 11
194.137062
 21
306.407996
 31
0.0
 12
192.902773
 22
306.407991
 32
0.0
 13
192.902773
 23
306.407991
 33
0.0
  0
SOLID
  5
343
330
1F
100
AcDbEntity
  8
SK2
100
AcDbTrace
 10
193.519918
 20
267.907994
 30
0.0
 11
192.902773
 21
271.4079910000001
 31
0.0
 12
194.137062
 22
271.407996
 32
0.0
 13
194.137062
 23
271.407996
 33
0.0
  0
LINE
  5
344
330
1F
100
AcDbEntity
  8
CUT
100
AcDbLine
 10
392.0741120947631
 20
305.6095752511592
 30
0.0
 11
400.0467356045165
 21
305.9049165187757
 31
0.0
  0
LINE
  5
347
330
1F
100
AcDbEntity
  8
CUT
100
AcDbLine
 10
400.8470132345147
 20
305.1625015666012
 30
0.0
 11
401.1302951695565
 21
297.3542400235922
 31
0.0
  0
LINE
  5
349
330
1F
100
AcDbEntity
  8
CUT
100
AcDbLine
 10
401.1302951695565
 20
297.3542400235923
 30
0.0
 11
401.2334058386328
 21
297.1826473299074
 31
0.0
  0
LINE
  5
34A
330
1F
100
AcDbEntity
  8
CUT
100
AcDbLine
 10
401.2754235247553
 20
297.0361251382748
 30
0.0
 11
401.3998607906597
 21
289.9114987447
 31
0.0
  0
LINE
  5
34B
330
1F
100
AcDbEntity
  8
CUT
100
AcDbLine
 10
401.3998609999999
 20
288.907994
 30
0.0
 11
391.32968
 21
288.907994
 31
0.0
  0
LINE
  5
34C
330
1F
100
AcDbEntity
  8
CUT
100
AcDbLine
 10
391.32968
 20
288.907994
 30
0.0
 11
391.32968
 21
304.809555
 31
0.0
  0
LINE
  5
34D
330
1F
100
AcDbEntity
  8
CUT
100
AcDbLine
 10
401.3998609999999
 20
289.9114990000001
 30
0.0
 11
401.3998609999999
 21
288.907994
 31
0.0
  0
ARC
  5
34E
330
1F
100
AcDbEntity
  8
CUT
100
AcDbCircle
 10
400.0673640570783
 20
305.1240165121176
 30
0.0
 40
0.7811724223586732
100
AcDbArc
 50
6.977636344508475
 51
91.51318792679209
  0
ARC
  5
34F
330
1F
100
AcDbEntity
  8
CUT
100
AcDbCircle
 10
400.1247774592601
 20
305.1362995385734
 30
0.0
 40
0.7227109113125488
100
AcDbArc
 50
2.077725241154079
 51
6.564005532691012
  0
ARC
  5
350
330
1F
100
AcDbEntity
  8
CUT
100
AcDbCircle
 10
392.1119704362266
 20
304.8283362018247
 30
0.0
 40
0.7825160772891298
100
AcDbArc
 50
95.53929728227689
 51
181.3753186283389
  0
ARC
  5
351
330
1F
100
AcDbEntity
  8
CUT
100
AcDbCircle
 10
392.1008952614664
 20
304.8853052627147
 30
0.0
 40
0.7247650337730144
100
AcDbArc
 50
92.117806224797
 51
95.10257176903781
  0
LINE
  5
352
330
1F
100
AcDbEntity
  8
CUT
100
AcDbLine
 10
401.2334058386329
 20
297.1826473299075
 30
0.0
 11
401.2334058386329
 21
297.1826473299075
 31
0.0
  0
ARC
  5
353
330
1F
100
AcDbEntity
  8
CUT
100
AcDbCircle
 10
400.9810543088369
 20
297.0309955806549
 30
0.0
 40
0.2944139053131386
100
AcDbArc
 50
0.9983117935428015
 51
31.00394560248438
  0
ENDSEC
  0
SECTION
  2
OBJECTS
  0
DICTIONARY
  5
C
330
0
100
AcDbDictionary
281
     1
  3
ACAD_CIP_PREVIOUS_PRODUCT_INFO
350
316
  3
ACAD_COLOR
350
311
  3
ACAD_DETAILVIEWSTYLE
350
30D
  3
ACAD_GROUP
350
D
  3
ACAD_LAYOUT
350
1A
  3
ACAD_MATERIAL
350
43
  3
ACAD_MLEADERSTYLE
350
6B
  3
ACAD_MLINESTYLE
350
17
  3
ACAD_PLOTSETTINGS
350
19
  3
ACAD_PLOTSTYLENAME
350
E
  3
ACAD_SCALELIST
350
47
  3
ACAD_SECTIONVIEWSTYLE
350
30E
  3
ACAD_TABLESTYLE
350
69
  3
ACAD_VISUALSTYLE
350
2A
  3
ACDB_RECOMPOSE_DATA
350
37F
  3
AcDbVariableDictionary
350
2CA
  0
DICTIONARY
  5
362
330
10
100
AcDbDictionary
280
     1
281
     1
  3
ADSK_XREC_LAYER_RECONCILED
360
363
  0
DICTIONARY
  5
364
330
354
100
AcDbDictionary
280
     1
281
     1
  3
ADSK_XREC_LAYER_RECONCILED
360
365
  0
DICTIONARY
  5
366
330
355
100
AcDbDictionary
280
     1
281
     1
  3
ADSK_XREC_LAYER_RECONCILED
360
367
  0
DICTIONARY
  5
368
330
356
100
AcDbDictionary
280
     1
281
     1
  3
ADSK_XREC_LAYER_RECONCILED
360
369
  0
DICTIONARY
  5
36A
330
358
100
AcDbDictionary
280
     1
281
     1
  3
ADSK_XREC_LAYER_RECONCILED
360
36B
  0
DICTIONARY
  5
36C
330
359
100
AcDbDictionary
280
     1
281
     1
  3
ADSK_XREC_LAYER_RECONCILED
360
36D
  0
DICTIONARY
  5
36E
330
35B
100
AcDbDictionary
280
     1
281
     1
  3
ADSK_XREC_LAYER_RECONCILED
360
36F
  0
DICTIONARY
  5
370
330
35C
100
AcDbDictionary
280
     1
281
     1
  3
ADSK_XREC_LAYER_RECONCILED
360
371
  0
DICTIONARY
  5
372
330
35D
100
AcDbDictionary
280
     1
281
     1
  3
ADSK_XREC_LAYER_RECONCILED
360
373
  0
DICTIONARY
  5
374
330
35E
100
AcDbDictionary
280
     1
281
     1
  3
ADSK_XREC_LAYER_RECONCILED
360
375
  0
DICTIONARY
  5
376
330
35F
100
AcDbDictionary
280
     1
281
     1
  3
ADSK_XREC_LAYER_RECONCILED
360
377
  0
DICTIONARY
  5
378
330
360
100
AcDbDictionary
280
     1
281
     1
  3
ADSK_XREC_LAYER_RECONCILED
360
379
  0
DICTIONARY
  5
317
330
1F
100
AcDbDictionary
280
     1
281
     1
  3
ACAD_SORTENTS
360
318
  0
XRECORD
  5
316
102
{ACAD_REACTORS
330
C
102
}
330
C
100
AcDbXrecord
280
     1
300
ACD
300
2019
300
87084ACD_2019_0F
  0
DICTIONARY
  5
311
102
{ACAD_REACTORS
330
C
102
}
330
C
100
AcDbDictionary
281
     1
  0
DICTIONARY
  5
30D
102
{ACAD_REACTORS
330
C
102
}
330
C
100
AcDbDictionary
281
     1
  3
Metric50
350
313
  0
DICTIONARY
  5
D
102
{ACAD_REACTORS
330
C
102
}
330
C
100
AcDbDictionary
281
     1
  3
NULOVY_BOD
350
361
  0
DICTIONARY
  5
1A
102
{ACAD_REACTORS
330
C
102
}
330
C
100
AcDbDictionary
281
     1
  3
Layout1
350
1E
  3
Layout2
350
26
  3
Model
350
22
  0
DICTIONARY
  5
43
102
{ACAD_REACTORS
330
C
102
}
330
C
100
AcDbDictionary
281
     1
  3
ByBlock
350
45
  3
ByLayer
350
44
  3
Global
350
46
  0
DICTIONARY
  5
6B
102
{ACAD_REACTORS
330
C
102
}
330
C
100
AcDbDictionary
281
     1
  3
Standard
350
6C
  0
DICTIONARY
  5
17
102
{ACAD_REACTORS
330
C
102
}
330
C
100
AcDbDictionary
281
     1
  3
Standard
350
18
  0
DICTIONARY
  5
19
102
{ACAD_REACTORS
330
C
102
}
330
C
100
AcDbDictionary
281
     1
  0
ACDBDICTIONARYWDFLT
  5
E
102
{ACAD_REACTORS
330
C
102
}
330
C
100
AcDbDictionary
281
     1
  3
Normal
350
F
100
AcDbDictionaryWithDefault
340
F
  0
DICTIONARY
  5
47
102
{ACAD_REACTORS
330
C
102
}
330
C
100
AcDbDictionary
281
     1
  3
A0
350
48
  3
A1
350
49
  3
A2
350
4A
  3
A3
350
4B
  3
A4
350
4C
  3
A5
350
4D
  3
A6
350
4E
  3
A7
350
4F
  3
A8
350
50
  3
A9
350
51
  3
B0
350
52
  3
B1
350
53
  3
B2
350
54
  3
B3
350
55
  3
B4
350
56
  3
B5
350
57
  3
B6
350
58
  3
B7
350
59
  3
B8
350
5A
  3
B9
350
5B
  3
C0
350
5C
  3
C1
350
5D
  3
C2
350
5E
  3
C3
350
5F
  3
C4
350
60
  3
C5
350
61
  3
C6
350
62
  3
C7
350
63
  3
C8
350
64
  3
C9
350
65
  3
D0
350
66
  3
D1
350
67
  3
D2
350
68
  0
DICTIONARY
  5
30E
102
{ACAD_REACTORS
330
C
102
}
330
C
100
AcDbDictionary
281
     1
  3
Metric50
350
312
  0
DICTIONARY
  5
69
102
{ACAD_REACTORS
330
C
102
}
330
C
100
AcDbDictionary
281
     1
  3
Standard
350
6A
  0
DICTIONARY
  5
2A
102
{ACAD_REACTORS
330
C
102
}
330
C
100
AcDbDictionary
281
     1
  3
2dWireframe
350
2F
  3
Basic
350
32
  3
Brighten
350
36
  3
ColorChange
350
3A
  3
Conceptual
350
34
  3
Dim
350
35
  3
EdgeColorOff
350
3D
  3
Facepattern
350
39
  3
Flat
350
2B
  3
FlatWithEdges
350
2C
  3
Gouraud
350
2D
  3
GouraudWithEdges
350
2E
  3
Hidden
350
31
  3
JitterOff
350
3B
  3
Linepattern
350
38
  3
OverhangOff
350
3C
  3
Realistic
350
33
  3
Shaded
350
42
  3
Shaded with edges
350
41
  3
Shades of Gray
350
3E
  3
Sketchy
350
3F
  3
Thicken
350
37
  3
Wireframe
350
30
  3
X-Ray
350
40
  0
XRECORD
  5
37F
102
{ACAD_REACTORS
330
C
102
}
330
C
100
AcDbXrecord
280
     1
 90
        1
330
6A
  0
DICTIONARY
  5
2CA
102
{ACAD_REACTORS
330
C
102
}
330
C
100
AcDbDictionary
281
     1
  3
CANNOSCALE
350
2CB
  3
CMLEADERSTYLE
350
30C
  3
CTABLESTYLE
350
30B
  3
CVIEWDETAILSTYLE
350
37A
  3
CVIEWSECTIONSTYLE
350
37B
  3
MSLTSCALE
350
2CC
  3
XCLIPFRAME
350
37C
  0
XRECORD
  5
363
102
{ACAD_REACTORS
330
362
102
}
330
362
100
AcDbXrecord
280
     1
290
     1
  0
XRECORD
  5
365
102
{ACAD_REACTORS
330
364
102
}
330
364
100
AcDbXrecord
280
     1
290
     1
  0
XRECORD
  5
367
102
{ACAD_REACTORS
330
366
102
}
330
366
100
AcDbXrecord
280
     1
290
     1
  0
XRECORD
  5
369
102
{ACAD_REACTORS
330
368
102
}
330
368
100
AcDbXrecord
280
     1
290
     1
  0
XRECORD
  5
36B
102
{ACAD_REACTORS
330
36A
102
}
330
36A
100
AcDbXrecord
280
     1
290
     1
  0
XRECORD
  5
36D
102
{ACAD_REACTORS
330
36C
102
}
330
36C
100
AcDbXrecord
280
     1
290
     1
  0
XRECORD
  5
36F
102
{ACAD_REACTORS
330
36E
102
}
330
36E
100
AcDbXrecord
280
     1
290
     1
  0
XRECORD
  5
371
102
{ACAD_REACTORS
330
370
102
}
330
370
100
AcDbXrecord
280
     1
290
     1
  0
XRECORD
  5
373
102
{ACAD_REACTORS
330
372
102
}
330
372
100
AcDbXrecord
280
     1
290
     1
  0
XRECORD
  5
375
102
{ACAD_REACTORS
330
374
102
}
330
374
100
AcDbXrecord
280
     1
290
     1
  0
XRECORD
  5
377
102
{ACAD_REACTORS
330
376
102
}
330
376
100
AcDbXrecord
280
     1
290
     1
  0
XRECORD
  5
379
102
{ACAD_REACTORS
330
378
102
}
330
378
100
AcDbXrecord
280
     1
290
     1
  0
SORTENTSTABLE
  5
318
102
{ACAD_REACTORS
330
317
102
}
330
317
100
AcDbSortentsTable
330
1F
331
319
  5
224
331
31A
  5
23D
331
31B
  5
319
331
31C
  5
31A
331
31D
  5
31B
331
31E
  5
32C
331
31F
  5
32D
331
320
  5
32E
331
321
  5
32F
331
322
  5
330
331
323
  5
331
331
324
  5
332
331
325
  5
333
331
326
  5
334
331
327
  5
335
331
328
  5
336
331
329
  5
337
331
32A
  5
338
331
32B
  5
339
331
32C
  5
33A
331
32D
  5
33B
331
32E
  5
33C
331
32F
  5
33D
331
330
  5
33E
331
331
  5
33F
331
332
  5
340
331
333
  5
341
331
334
  5
342
331
335
  5
343
331
336
  5
31E
331
337
  5
31F
331
338
  5
320
331
339
  5
321
331
33A
  5
322
331
33B
  5
323
331
33C
  5
324
331
33D
  5
325
331
33E
  5
326
331
33F
  5
327
331
340
  5
328
331
341
  5
329
331
342
  5
32A
331
343
  5
32B
331
347
  5
34C
331
349
  5
34F
331
34A
  5
350
331
34B
  5
351
331
34C
  5
352
331
34D
  5
353
331
34E
  5
347
331
34F
  5
349
331
350
  5
34A
331
351
  5
34B
331
352
  5
34D
331
353
  5
34E
  0
ACDBDETAILVIEWSTYLE
  5
313
102
{ACAD_XDICTIONARY
360
3B3
102
}
102
{ACAD_REACTORS
330
30D
102
}
330
30D
100
AcDbModelDocViewStyle
 70
     0
  3
Metric50
290
     0
100
AcDbDetailViewStyle
 70
     0
 71
     0
 90
        3
 71
     1
340
11
 62
   256
 40
5.0
340
0
 62
   256
 40
5.0
300

 40
0.0
280
     1
 71
     2
340
16
 90
       25
 62
   256
 71
     3
340
11
 62
   256
 40
5.0
 90
        0
 40
15.0
 90
        1
300
%<\AcVar ViewDetailId>% (%<\AcVar ViewScale \f "%sn">%)
 71
     4
340
16
 90
       25
 62
   256
340
16
 90
       25
 62
   256
280
     0
  0
GROUP
  5
361
102
{ACAD_REACTORS
330
D
102
}
330
D
100
AcDbGroup
300

 70
     0
 71
     1
340
73
  0
LAYOUT
  5
1E
102
{ACAD_REACTORS
330
1A
102
}
330
1A
100
AcDbPlotSettings
  1

  2
none_device
  4

  6

 40
0.0
 41
0.0
 42
0.0
 43
0.0
 44
0.0
 45
0.0
 46
0.0
 47
0.0
 48
0.0
 49
0.0
140
0.0
141
0.0
142
1.0
143
1.0
 70
   688
 72
     0
 73
     0
 74
     5
  7

 75
    16
147
1.0
 76
     0
 77
     2
 78
   300
148
0.0
149
0.0
100
AcDbLayout
  1
Layout1
 70
     1
 71
     1
 10
-0.5
 20
-0.5
 11
5.0
 21
5.0
 12
0.0
 22
0.0
 32
0.0
 14
-0.5
 24
-0.5
 34
-0.5
 15
5.0
 25
5.0
 35
5.0
146
0.0
 13
0.0
 23
0.0
 33
0.0
 16
1.0
 26
0.0
 36
0.0
 17
0.0
 27
1.0
 37
0.0
 76
     0
330
1B
  0
LAYOUT
  5
26
102
{ACAD_REACTORS
330
1A
102
}
330
1A
100
AcDbPlotSettings
  1

  2
none_device
  4

  6

 40
0.0
 41
0.0
 42
0.0
 43
0.0
 44
0.0
 45
0.0
 46
0.0
 47
0.0
 48
0.0
 49
0.0
140
0.0
141
0.0
142
1.0
143
1.0
 70
   688
 72
     0
 73
     0
 74
     5
  7

 75
    16
147
1.0
 76
     0
 77
     2
 78
   300
148
0.0
149
0.0
100
AcDbLayout
  1
Layout2
 70
     1
 71
     2
 10
0.0
 20
0.0
 11
0.0
 21
0.0
 12
0.0
 22
0.0
 32
0.0
 14
0.0
 24
0.0
 34
0.0
 15
0.0
 25
0.0
 35
0.0
146
0.0
 13
0.0
 23
0.0
 33
0.0
 16
1.0
 26
0.0
 36
0.0
 17
0.0
 27
1.0
 37
0.0
 76
     0
330
23
  0
LAYOUT
  5
22
102
{ACAD_REACTORS
330
1A
102
}
330
1A
100
AcDbPlotSettings
  1

  2
none_device
  4
Letter_(8.50_x_11.00_Inches)
  6

 40
6.349999999999999
 41
6.349999999999999
 42
6.350005
 43
6.350005
 44
215.9
 45
279.4
 46
0.0
 47
0.0
 48
0.0
 49
0.0
140
0.0
141
0.0
142
1.0
143
1.0
 70
  1712
 72
     0
 73
     0
 74
     0
  7

 75
     0
147
1.0
 76
     0
 77
     2
 78
   300
148
0.0
149
0.0
100
AcDbLayout
  1
Model
 70
     1
 71
     0
 10
-0.5
 20
-0.5
 11
5.0
 21
5.0
 12
0.0
 22
0.0
 32
0.0
 14
-0.5
 24
-0.5
 34
-0.5
 15
5.0
 25
5.0
 35
5.0
146
0.0
 13
0.0
 23
0.0
 33
0.0
 16
1.0
 26
0.0
 36
0.0
 17
0.0
 27
1.0
 37
0.0
 76
     0
330
1F
331
29
  0
MATERIAL
  5
45
102
{ACAD_XDICTIONARY
360
300
102
}
102
{ACAD_REACTORS
330
43
102
}
330
43
100
AcDbMaterial
  1
ByBlock
  0
MATERIAL
  5
44
102
{ACAD_XDICTIONARY
360
2FE
102
}
102
{ACAD_REACTORS
330
43
102
}
330
43
100
AcDbMaterial
  1
ByLayer
  0
MATERIAL
  5
46
102
{ACAD_XDICTIONARY
360
302
102
}
102
{ACAD_REACTORS
330
43
102
}
330
43
100
AcDbMaterial
  1
Global
  0
MLEADERSTYLE
  5
6C
102
{ACAD_REACTORS
330
6B
102
}
330
6B
100
AcDbMLeaderStyle
170
     2
171
     1
172
     0
 90
        2
 40
0.0
 41
0.0
173
     1
 91
-1056964608
340
14
 92
       -2
290
     1
 42
0.09
291
     1
 43
0.36
  3
Standard
 44
0.18
300

342
11
174
     1
178
     6
175
     1
176
     0
 93
-1056964608
 45
0.18
292
     0
297
     0
 46
0.18
 94
-1056964608
 47
1.0
 49
1.0
140
1.0
293
     1
141
0.0
294
     1
177
     0
142
1.0
295
     0
296
     0
143
0.125
1001
ACAD_MLEADERVER
1070
     2
  0
MLINESTYLE
  5
18
102
{ACAD_REACTORS
330
17
102
}
330
17
100
AcDbMlineStyle
  2
STANDARD
 70
     0
  3

 62
   256
 51
90.0
 52
90.0
 71
     2
 49
0.5
 62
   256
  6
BYLAYER
 49
-0.5
 62
   256
  6
BYLAYER
  0
ACDBPLACEHOLDER
  5
F
102
{ACAD_REACTORS
330
E
102
}
330
E
  0
SCALE
  5
48
102
{ACAD_REACTORS
330
47
102
}
330
47
100
AcDbScale
 70
     0
300
1:1
140
1.0
141
1.0
290
     1
  0
SCALE
  5
49
102
{ACAD_REACTORS
330
47
102
}
330
47
100
AcDbScale
 70
     0
300
1:2
140
1.0
141
2.0
290
     0
  0
SCALE
  5
4A
102
{ACAD_REACTORS
330
47
102
}
330
47
100
AcDbScale
 70
     0
300
1:4
140
1.0
141
4.0
290
     0
  0
SCALE
  5
4B
102
{ACAD_REACTORS
330
47
102
}
330
47
100
AcDbScale
 70
     0
300
1:5
140
1.0
141
5.0
290
     0
  0
SCALE
  5
4C
102
{ACAD_REACTORS
330
47
102
}
330
47
100
AcDbScale
 70
     0
300
1:8
140
1.0
141
8.0
290
     0
  0
SCALE
  5
4D
102
{ACAD_REACTORS
330
47
102
}
330
47
100
AcDbScale
 70
     0
300
1:10
140
1.0
141
10.0
290
     0
  0
SCALE
  5
4E
102
{ACAD_REACTORS
330
47
102
}
330
47
100
AcDbScale
 70
     0
300
1:16
140
1.0
141
16.0
290
     0
  0
SCALE
  5
4F
102
{ACAD_REACTORS
330
47
102
}
330
47
100
AcDbScale
 70
     0
300
1:20
140
1.0
141
20.0
290
     0
  0
SCALE
  5
50
102
{ACAD_REACTORS
330
47
102
}
330
47
100
AcDbScale
 70
     0
300
1:30
140
1.0
141
30.0
290
     0
  0
SCALE
  5
51
102
{ACAD_REACTORS
330
47
102
}
330
47
100
AcDbScale
 70
     0
300
1:40
140
1.0
141
40.0
290
     0
  0
SCALE
  5
52
102
{ACAD_REACTORS
330
47
102
}
330
47
100
AcDbScale
 70
     0
300
1:50
140
1.0
141
50.0
290
     0
  0
SCALE
  5
53
102
{ACAD_REACTORS
330
47
102
}
330
47
100
AcDbScale
 70
     0
300
1:100
140
1.0
141
100.0
290
     0
  0
SCALE
  5
54
102
{ACAD_REACTORS
330
47
102
}
330
47
100
AcDbScale
 70
     0
300
2:1
140
2.0
141
1.0
290
     0
  0
SCALE
  5
55
102
{ACAD_REACTORS
330
47
102
}
330
47
100
AcDbScale
 70
     0
300
4:1
140
4.0
141
1.0
290
     0
  0
SCALE
  5
56
102
{ACAD_REACTORS
330
47
102
}
330
47
100
AcDbScale
 70
     0
300
8:1
140
8.0
141
1.0
290
     0
  0
SCALE
  5
57
102
{ACAD_REACTORS
330
47
102
}
330
47
100
AcDbScale
 70
     0
300
10:1
140
10.0
141
1.0
290
     0
  0
SCALE
  5
58
102
{ACAD_REACTORS
330
47
102
}
330
47
100
AcDbScale
 70
     0
300
100:1
140
100.0
141
1.0
290
     0
  0
SCALE
  5
59
102
{ACAD_REACTORS
330
47
102
}
330
47
100
AcDbScale
 70
     0
300
1/128" = 1'-0"
140
0.007812
141
12.0
290
     0
  0
SCALE
  5
5A
102
{ACAD_REACTORS
330
47
102
}
330
47
100
AcDbScale
 70
     0
300
1/64" = 1'-0"
140
0.015625
141
12.0
290
     0
  0
SCALE
  5
5B
102
{ACAD_REACTORS
330
47
102
}
330
47
100
AcDbScale
 70
     0
300
1/32" = 1'-0"
140
0.03125
141
12.0
290
     0
  0
SCALE
  5
5C
102
{ACAD_REACTORS
330
47
102
}
330
47
100
AcDbScale
 70
     0
300
1/16" = 1'-0"
140
0.0625
141
12.0
290
     0
  0
SCALE
  5
5D
102
{ACAD_REACTORS
330
47
102
}
330
47
100
AcDbScale
 70
     0
300
3/32" = 1'-0"
140
0.09375
141
12.0
290
     0
  0
SCALE
  5
5E
102
{ACAD_REACTORS
330
47
102
}
330
47
100
AcDbScale
 70
     0
300
1/8" = 1'-0"
140
0.125
141
12.0
290
     0
  0
SCALE
  5
5F
102
{ACAD_REACTORS
330
47
102
}
330
47
100
AcDbScale
 70
     0
300
3/16" = 1'-0"
140
0.1875
141
12.0
290
     0
  0
SCALE
  5
60
102
{ACAD_REACTORS
330
47
102
}
330
47
100
AcDbScale
 70
     0
300
1/4" = 1'-0"
140
0.25
141
12.0
290
     0
  0
SCALE
  5
61
102
{ACAD_REACTORS
330
47
102
}
330
47
100
AcDbScale
 70
     0
300
3/8" = 1'-0"
140
0.375
141
12.0
290
     0
  0
SCALE
  5
62
102
{ACAD_REACTORS
330
47
102
}
330
47
100
AcDbScale
 70
     0
300
1/2" = 1'-0"
140
0.5
141
12.0
290
     0
  0
SCALE
  5
63
102
{ACAD_REACTORS
330
47
102
}
330
47
100
AcDbScale
 70
     0
300
3/4" = 1'-0"
140
0.75
141
12.0
290
     0
  0
SCALE
  5
64
102
{ACAD_REACTORS
330
47
102
}
330
47
100
AcDbScale
 70
     0
300
1" = 1'-0"
140
1.0
141
12.0
290
     0
  0
SCALE
  5
65
102
{ACAD_REACTORS
330
47
102
}
330
47
100
AcDbScale
 70
     0
300
1-1/2" = 1'-0"
140
1.5
141
12.0
290
     0
  0
SCALE
  5
66
102
{ACAD_REACTORS
330
47
102
}
330
47
100
AcDbScale
 70
     0
300
3" = 1'-0"
140
3.0
141
12.0
290
     0
  0
SCALE
  5
67
102
{ACAD_REACTORS
330
47
102
}
330
47
100
AcDbScale
 70
     0
300
6" = 1'-0"
140
6.0
141
12.0
290
     0
  0
SCALE
  5
68
102
{ACAD_REACTORS
330
47
102
}
330
47
100
AcDbScale
 70
     0
300
1'-0" = 1'-0"
140
12.0
141
12.0
290
     0
  0
ACDBSECTIONVIEWSTYLE
  5
312
102
{ACAD_XDICTIONARY
360
3B1
102
}
102
{ACAD_REACTORS
330
30E
102
}
330
30E
100
AcDbModelDocViewStyle
 70
     0
  3
Metric50
290
     0
100
AcDbSectionViewStyle
 70
     0
 71
     0
 90
      102
 71
     1
340
11
 62
   256
 40
5.0
340
0
340
0
 62
   256
 40
5.0
300
I, O, Q, S, X, Z
 40
10.0
 90
        0
 40
2.5
 90
        0
 71
     2
340
16
 90
       25
 62
   256
340
16
 90
       50
 62
   256
 40
5.0
 40
2.5
 40
5.0
 71
     3
340
11
 62
   256
 40
5.0
 90
        0
 40
15.0
 90
        1
300
%<\AcVar ViewSectionStartId>%-%<\AcVar ViewSectionEndId>% (%<\AcVar ViewScale \f "%sn">%)
 71
     4
 62
   256
 62
   257
300
ANSI31
 40
1.0
 90
        0
290
     0
290
     0
 90
        6
 40
0.0
 40
1.570796326794896
 40
0.2617993877991494
 40
1.308996938995747
 40
-0.2617993877991494
 40
1.832595714594046
  0
TABLESTYLE
  5
6A
102
{ACAD_XDICTIONARY
360
304
102
}
102
{ACAD_REACTORS
330
69
102
}
330
69
100
AcDbTableStyle
  3
Standard
 70
     0
 71
     0
 40
0.06
 41
0.06
280
     0
281
     0
  7
Standard
140
0.18
170
     2
 62
     0
 63
     7
283
     0
274
    -2
284
     1
 64
     0
275
    -2
285
     1
 65
     0
276
    -2
286
     1
 66
     0
277
    -2
287
     1
 67
     0
278
    -2
288
     1
 68
     0
279
    -2
289
     1
 69
     0
  7
Standard
140
0.25
170
     5
 62
     0
 63
     7
283
     0
274
    -2
284
     1
 64
     0
275
    -2
285
     1
 65
     0
276
    -2
286
     1
 66
     0
277
    -2
287
     1
 67
     0
278
    -2
288
     1
 68
     0
279
    -2
289
     1
 69
     0
  7
Standard
140
0.18
170
     5
 62
     0
 63
     7
283
     0
274
    -2
284
     1
 64
     0
275
    -2
285
     1
 65
     0
276
    -2
286
     1
 66
     0
277
    -2
287
     1
 67
     0
278
    -2
288
     1
 68
     0
279
    -2
289
     1
 69
     0
  0
VISUALSTYLE
  5
2F
102
{ACAD_XDICTIONARY
360
388
102
}
102
{ACAD_REACTORS
330
2A
102
}
330
2A
100
AcDbVisualStyle
  2

 70
     4
 71
     0
 72
     2
 73
     0
 90
        0
 40
-0.6
 41
-30.0
 62
     5
 63
     7
421
 16777215
 74
     1
 91
        4
 64
     7
 65
   257
 75
     1
175
     1
 42
1.0
 92
        0
 66
   257
 43
1.0
 76
     1
 77
     6
 78
     2
 67
     7
 79
     5
170
     0
171
     0
290
     0
174
     0
 93
        1
 44
0.0
173
     0
291
     0
 45
0.0
1001
ACAD
1000
AcDbSavedByObjectVersion
1070
     0
  0
VISUALSTYLE
  5
32
102
{ACAD_XDICTIONARY
360
38E
102
}
102
{ACAD_REACTORS
330
2A
102
}
330
2A
100
AcDbVisualStyle
  2

 70
     7
 71
     1
 72
     0
 73
     1
 90
        0
 40
-0.6
 41
-30.0
 62
     5
 63
     7
421
 16777215
 74
     0
 91
        4
 64
     7
 65
   257
 75
     1
175
     1
 42
1.0
 92
        8
 66
     7
 43
1.0
 76
     1
 77
     6
 78
     2
 67
     7
 79
     5
170
     0
171
     0
290
     0
174
     0
 93
        1
 44
0.0
173
     0
291
     1
 45
0.0
1001
ACAD
1000
AcDbSavedByObjectVersion
1070
     0
  0
VISUALSTYLE
  5
36
102
{ACAD_XDICTIONARY
360
396
102
}
102
{ACAD_REACTORS
330
2A
102
}
330
2A
100
AcDbVisualStyle
  2

 70
    12
 71
     2
 72
     2
 73
     0
 90
        0
 40
-0.6
 41
-30.0
 62
     5
 63
     7
421
 16777215
 74
     1
 91
        4
 64
     7
 65
   257
 75
     1
175
     1
 42
1.0
 92
        8
 66
     7
 43
1.0
 76
     1
 77
     6
 78
     2
 67
     7
 79
     5
170
     0
171
     0
290
     0
174
     0
 93
        1
 44
50.0
173
     0
291
     1
 45
0.0
1001
ACAD
1000
AcDbSavedByObjectVersion
1070
     0
  0
VISUALSTYLE
  5
3A
102
{ACAD_XDICTIONARY
360
39E
102
}
102
{ACAD_REACTORS
330
2A
102
}
330
2A
100
AcDbVisualStyle
  2

 70
    16
 71
     2
 72
     2
 73
     3
 90
        0
 40
-0.6
 41
-30.0
 62
     5
 63
     8
421
  8421504
 74
     1
 91
        4
 64
     7
 65
   257
 75
     1
175
     1
 42
1.0
 92
        8
 66
     8
424
  8421504
 43
1.0
 76
     1
 77
     6
 78
     2
 67
     7
 79
     5
170
     0
171
     0
290
     0
174
     0
 93
        1
 44
0.0
173
     0
291
     1
 45
0.0
1001
ACAD
1000
AcDbSavedByObjectVersion
1070
     0
  0
VISUALSTYLE
  5
34
102
{ACAD_XDICTIONARY
360
392
102
}
102
{ACAD_REACTORS
330
2A
102
}
330
2A
100
AcDbVisualStyle
  2

 70
     9
 71
     3
 72
     2
 73
     0
 90
        0
 40
-0.6
 41
-30.0
 62
     5
 63
     7
421
 16777215
 74
     2
 91
        2
 64
     7
 65
   257
 75
     1
175
     1
 42
179.0
 92
        8
 66
     7
 43
1.0
 76
     1
 77
     6
 78
     2
 67
     7
 79
     3
170
     0
171
     0
290
     0
174
     0
 93
        1
 44
0.0
173
     0
291
     0
 45
0.0
1001
ACAD
1000
AcDbSavedByObjectVersion
1070
     0
  0
VISUALSTYLE
  5
35
102
{ACAD_XDICTIONARY
360
394
102
}
102
{ACAD_REACTORS
330
2A
102
}
330
2A
100
AcDbVisualStyle
  2

 70
    11
 71
     2
 72
     2
 73
     0
 90
        0
 40
-0.6
 41
-30.0
 62
     5
 63
     7
421
 16777215
 74
     1
 91
        4
 64
     7
 65
   257
 75
     1
175
     1
 42
1.0
 92
        8
 66
     7
 43
1.0
 76
     1
 77
     6
 78
     2
 67
     7
 79
     5
170
     0
171
     0
290
     0
174
     0
 93
        1
 44
-50.0
173
     0
291
     1
 45
0.0
1001
ACAD
1000
AcDbSavedByObjectVersion
1070
     0
  0
VISUALSTYLE
  5
3D
102
{ACAD_XDICTIONARY
360
3A4
102
}
102
{ACAD_REACTORS
330
2A
102
}
330
2A
100
AcDbVisualStyle
  2

 70
    22
 71
     2
 72
     2
 73
     0
 90
        0
 40
-0.6
 41
-30.0
 62
     5
 63
     7
421
 16777215
 74
     1
 91
        4
 64
     7
 65
   257
 75
     1
175
     1
 42
1.0
 92
        8
 66
     7
 43
1.0
 76
     1
 77
     6
 78
     2
 67
     7
 79
     5
170
     0
171
     0
290
     0
174
     0
 93
        1
 44
0.0
173
     0
291
     1
 45
0.0
1001
ACAD
1000
AcDbSavedByObjectVersion
1070
     0
  0
VISUALSTYLE
  5
39
102
{ACAD_XDICTIONARY
360
39C
102
}
102
{ACAD_REACTORS
330
2A
102
}
330
2A
100
AcDbVisualStyle
  2

 70
    15
 71
     2
 72
     2
 73
     0
 90
        0
 40
-0.6
 41
-30.0
 62
     5
 63
     7
421
 16777215
 74
     1
 91
        4
 64
     7
 65
   257
 75
     1
175
     1
 42
1.0
 92
        8
 66
     7
 43
1.0
 76
     1
 77
     6
 78
     2
 67
     7
 79
     5
170
     0
171
     0
290
     0
174
     0
 93
        1
 44
0.0
173
     0
291
     1
 45
0.0
1001
ACAD
1000
AcDbSavedByObjectVersion
1070
     0
  0
VISUALSTYLE
  5
2B
102
{ACAD_XDICTIONARY
360
380
102
}
102
{ACAD_REACTORS
330
2A
102
}
330
2A
100
AcDbVisualStyle
  2

 70
     0
 71
     2
 72
     1
 73
     1
 90
        2
 40
-0.6
 41
30.0
 62
     5
 63
     7
421
 16777215
 74
     0
 91
        0
 64
     7
 65
   257
 75
     1
175
     1
 42
1.0
 92
        8
 66
     7
 43
1.0
 76
     1
 77
     6
 78
     2
 67
     7
 79
     5
170
     0
171
     0
290
     0
174
     0
 93
       13
 44
0.0
173
     0
291
     1
 45
0.0
1001
ACAD
1000
AcDbSavedByObjectVersion
1070
     0
  0
VISUALSTYLE
  5
2C
102
{ACAD_XDICTIONARY
360
382
102
}
102
{ACAD_REACTORS
330
2A
102
}
330
2A
100
AcDbVisualStyle
  2

 70
     1
 71
     2
 72
     1
 73
     1
 90
        2
 40
-0.6
 41
30.0
 62
     5
 63
     7
421
 16777215
 74
     1
 91
        0
 64
     7
 65
   257
 75
     1
175
     1
 42
1.0
 92
        0
 66
   257
 43
1.0
 76
     1
 77
     6
 78
     2
 67
     7
 79
     5
170
     0
171
     0
290
     0
174
     0
 93
       13
 44
0.0
173
     0
291
     1
 45
0.0
1001
ACAD
1000
AcDbSavedByObjectVersion
1070
     0
  0
VISUALSTYLE
  5
2D
102
{ACAD_XDICTIONARY
360
384
102
}
102
{ACAD_REACTORS
330
2A
102
}
330
2A
100
AcDbVisualStyle
  2

 70
     2
 71
     2
 72
     2
 73
     1
 90
        2
 40
-0.6
 41
30.0
 62
     5
 63
     7
421
 16777215
 74
     0
 91
        0
 64
     7
 65
   257
 75
     1
175
     1
 42
1.0
 92
        0
 66
     7
 43
1.0
 76
     1
 77
     6
 78
     2
 67
     7
 79
     5
170
     0
171
     0
290
     0
174
     0
 93
       13
 44
0.0
173
     0
291
     1
 45
0.0
1001
ACAD
1000
AcDbSavedByObjectVersion
1070
     0
  0
VISUALSTYLE
  5
2E
102
{ACAD_XDICTIONARY
360
386
102
}
102
{ACAD_REACTORS
330
2A
102
}
330
2A
100
AcDbVisualStyle
  2

 70
     3
 71
     2
 72
     2
 73
     1
 90
        2
 40
-0.6
 41
30.0
 62
     5
 63
     7
421
 16777215
 74
     1
 91
        0
 64
     7
 65
   257
 75
     1
175
     1
 42
1.0
 92
        0
 66
   257
 43
1.0
 76
     1
 77
     6
 78
     2
 67
     7
 79
     5
170
     0
171
     0
290
     0
174
     0
 93
       13
 44
0.0
173
     0
291
     1
 45
0.0
1001
ACAD
1000
AcDbSavedByObjectVersion
1070
     0
  0
VISUALSTYLE
  5
31
102
{ACAD_XDICTIONARY
360
38C
102
}
102
{ACAD_REACTORS
330
2A
102
}
330
2A
100
AcDbVisualStyle
  2

 70
     6
 71
     1
 72
     2
 73
     2
 90
        0
 40
-0.6
 41
-30.0
 62
     5
 63
     7
421
 16777215
 74
     2
 91
        2
 64
     7
 65
   257
 75
     2
175
     1
 42
40.0
 92
        0
 66
   257
 43
1.0
 76
     1
 77
     6
 78
     2
 67
     7
 79
     3
170
     0
171
     0
290
     0
174
     0
 93
        1
 44
0.0
173
     0
291
     0
 45
0.0
1001
ACAD
1000
AcDbSavedByObjectVersion
1070
     0
  0
VISUALSTYLE
  5
3B
102
{ACAD_XDICTIONARY
360
3A0
102
}
102
{ACAD_REACTORS
330
2A
102
}
330
2A
100
AcDbVisualStyle
  2

 70
    20
 71
     2
 72
     2
 73
     0
 90
        0
 40
-0.6
 41
-30.0
 62
     5
 63
     7
421
 16777215
 74
     1
 91
        4
 64
     7
 65
   257
 75
     1
175
     1
 42
1.0
 92
       10
 66
     7
 43
1.0
 76
     1
 77
     6
 78
     2
 67
     7
 79
     5
170
     0
171
     0
290
     0
174
     0
 93
        1
 44
0.0
173
     0
291
     1
 45
0.0
1001
ACAD
1000
AcDbSavedByObjectVersion
1070
     0
  0
VISUALSTYLE
  5
38
102
{ACAD_XDICTIONARY
360
39A
102
}
102
{ACAD_REACTORS
330
2A
102
}
330
2A
100
AcDbVisualStyle
  2

 70
    14
 71
     2
 72
     2
 73
     0
 90
        0
 40
-0.6
 41
-30.0
 62
     5
 63
     7
421
 16777215
 74
     1
 91
        4
 64
     7
 65
   257
 75
     7
175
     7
 42
1.0
 92
        8
 66
     7
 43
1.0
 76
     1
 77
     6
 78
     2
 67
     7
 79
     5
170
     0
171
     0
290
     0
174
     0
 93
        1
 44
0.0
173
     0
291
     1
 45
0.0
1001
ACAD
1000
AcDbSavedByObjectVersion
1070
     0
  0
VISUALSTYLE
  5
3C
102
{ACAD_XDICTIONARY
360
3A2
102
}
102
{ACAD_REACTORS
330
2A
102
}
330
2A
100
AcDbVisualStyle
  2

 70
    21
 71
     2
 72
     2
 73
     0
 90
        0
 40
-0.6
 41
-30.0
 62
     5
 63
     7
421
 16777215
 74
     1
 91
        4
 64
     7
 65
   257
 75
     1
175
     1
 42
1.0
 92
        9
 66
     7
 43
1.0
 76
     1
 77
     6
 78
     2
 67
     7
 79
     5
170
     0
171
     0
290
     0
174
     0
 93
        1
 44
0.0
173
     0
291
     1
 45
0.0
1001
ACAD
1000
AcDbSavedByObjectVersion
1070
     0
  0
VISUALSTYLE
  5
33
102
{ACAD_XDICTIONARY
360
390
102
}
102
{ACAD_REACTORS
330
2A
102
}
330
2A
100
AcDbVisualStyle
  2

 70
     8
 71
     2
 72
     3
 73
     0
 90
        2
 40
-0.6
 41
30.0
 62
     5
 63
     7
421
 16777215
 74
     0
 91
        0
 64
     7
 65
   257
 75
     1
175
     1
 42
1.0
 92
        8
 66
   257
 43
1.0
 76
     1
 77
     6
 78
     2
 67
     7
 79
     3
170
     0
171
     0
290
     0
174
     0
 93
       13
 44
0.0
173
     0
291
     0
 45
0.0
1001
ACAD
1000
AcDbSavedByObjectVersion
1070
     0
  0
VISUALSTYLE
  5
42
102
{ACAD_XDICTIONARY
360
3AE
102
}
102
{ACAD_REACTORS
330
2A
102
}
330
2A
100
AcDbVisualStyle
  2

 70
    27
 71
     2
 72
     2
 73
     1
 90
        2
 40
-0.6
 41
30.0
 62
     5
 63
     7
421
 16777215
 74
     0
 91
        4
 64
     7
 65
   257
 75
     1
175
     1
 42
1.0
 92
        8
 66
   257
 43
1.0
 76
     1
 77
     6
 78
     2
 67
     8
425
  7895160
 79
     3
170
     0
171
     0
290
     0
174
     0
 93
        5
 44
0.0
173
     0
291
     0
 45
0.0
1001
ACAD
1000
AcDbSavedByObjectVersion
1070
     0
  0
VISUALSTYLE
  5
41
102
{ACAD_XDICTIONARY
360
3AC
102
}
102
{ACAD_REACTORS
330
2A
102
}
330
2A
100
AcDbVisualStyle
  2

 70
    26
 71
     2
 72
     2
 73
     1
 90
        2
 40
-0.6
 41
30.0
 62
     5
 63
     7
421
 16777215
 74
     1
 91
       10
 64
     7
 65
   257
 75
     2
175
     1
 42
1.0
 92
        8
 66
   257
 43
1.0
 76
     1
 77
     6
 78
     2
 67
     7
 79
     3
170
     0
171
     0
290
     0
174
     0
 93
        5
 44
0.0
173
     0
291
     0
 45
0.0
1001
ACAD
1000
AcDbSavedByObjectVersion
1070
     0
  0
VISUALSTYLE
  5
3E
102
{ACAD_XDICTIONARY
360
3A6
102
}
102
{ACAD_REACTORS
330
2A
102
}
330
2A
100
AcDbVisualStyle
  2

 70
    23
 71
     2
 72
     2
 73
     3
 90
        0
 40
-0.6
 41
-30.0
 62
     5
 63
     7
421
 16777215
 74
     2
 91
        2
 64
     7
 65
     7
 75
     1
175
     1
 42
40.0
 92
        8
 66
     7
 43
1.0
 76
     1
 77
     6
 78
     2
 67
     7
 79
     3
170
     0
171
     0
290
     0
174
     0
 93
        1
 44
0.0
173
     0
291
     0
 45
0.0
1001
ACAD
1000
AcDbSavedByObjectVersion
1070
     0
  0
VISUALSTYLE
  5
3F
102
{ACAD_XDICTIONARY
360
3A8
102
}
102
{ACAD_REACTORS
330
2A
102
}
330
2A
100
AcDbVisualStyle
  2

 70
    24
 71
     1
 72
     2
 73
     2
 90
        0
 40
-0.6
 41
-30.0
 62
     5
 63
     7
421
 16777215
 74
     2
 91
        2
 64
     7
 65
     7
 75
     1
175
     1
 42
40.0
 92
       11
 66
     7
 43
1.0
 76
     1
 77
     6
 78
     2
 67
     7
 79
     6
170
     0
171
     0
290
     0
174
     0
 93
        1
 44
0.0
173
     0
291
     0
 45
0.0
1001
ACAD
1000
AcDbSavedByObjectVersion
1070
     0
  0
VISUALSTYLE
  5
37
102
{ACAD_XDICTIONARY
360
398
102
}
102
{ACAD_REACTORS
330
2A
102
}
330
2A
100
AcDbVisualStyle
  2

 70
    13
 71
     2
 72
     2
 73
     0
 90
        0
 40
-0.6
 41
-30.0
 62
     5
 63
     7
421
 16777215
 74
     1
 91
        4
 64
     7
 65
   257
 75
     1
175
     1
 42
1.0
 92
       12
 66
     7
 43
1.0
 76
     1
 77
     6
 78
     2
 67
     7
 79
     5
170
     0
171
     0
290
     0
174
     0
 93
        1
 44
0.0
173
     0
291
     1
 45
0.0
1001
ACAD
1000
AcDbSavedByObjectVersion
1070
     0
  0
VISUALSTYLE
  5
30
102
{ACAD_XDICTIONARY
360
38A
102
}
102
{ACAD_REACTORS
330
2A
102
}
330
2A
100
AcDbVisualStyle
  2

 70
     5
 71
     0
 72
     2
 73
     0
 90
        0
 40
-0.6
 41
-30.0
 62
     5
 63
     7
421
 16777215
 74
     1
 91
        4
 64
     7
 65
   257
 75
     1
175
     1
 42
1.0
 92
        0
 66
   257
 43
1.0
 76
     1
 77
     6
 78
     2
 67
     7
 79
     3
170
     0
171
     0
290
     0
174
     0
 93
        1
 44
0.0
173
     0
291
     0
 45
0.0
1001
ACAD
1000
AcDbSavedByObjectVersion
1070
     0
  0
VISUALSTYLE
  5
40
102
{ACAD_XDICTIONARY
360
3AA
102
}
102
{ACAD_REACTORS
330
2A
102
}
330
2A
100
AcDbVisualStyle
  2

 70
    25
 71
     2
 72
     2
 73
     1
 90
        1
 40
0.5
 41
-30.0
 62
     5
 63
     7
421
 16777215
 74
     1
 91
        0
 64
     7
 65
   257
 75
     1
175
     1
 42
1.0
 92
        8
 66
     7
 43
1.0
 76
     1
 77
     6
 78
     2
 67
     7
 79
     3
170
     0
171
     0
290
     0
174
     0
 93
       13
 44
0.0
173
     0
291
     0
 45
0.0
1001
ACAD
1000
AcDbSavedByObjectVersion
1070
     0
  0
DICTIONARYVAR
  5
2CB
102
{ACAD_REACTORS
330
2CA
102
}
330
2CA
100
DictionaryVariables
280
     0
  1
1:1
  0
DICTIONARYVAR
  5
30C
102
{ACAD_REACTORS
330
2CA
102
}
330
2CA
100
DictionaryVariables
280
     0
  1
STANDARD
  0
DICTIONARYVAR
  5
30B
102
{ACAD_REACTORS
330
2CA
102
}
330
2CA
100
DictionaryVariables
280
     0
  1
STANDARD
  0
DICTIONARYVAR
  5
37A
102
{ACAD_REACTORS
330
2CA
102
}
330
2CA
100
DictionaryVariables
280
     0
  1
Metric50
  0
DICTIONARYVAR
  5
37B
102
{ACAD_REACTORS
330
2CA
102
}
330
2CA
100
DictionaryVariables
280
     0
  1
Metric50
  0
DICTIONARYVAR
  5
2CC
102
{ACAD_REACTORS
330
2CA
102
}
330
2CA
100
DictionaryVariables
280
     0
  1
1
  0
DICTIONARYVAR
  5
37C
102
{ACAD_REACTORS
330
2CA
102
}
330
2CA
100
DictionaryVariables
280
     0
  1
2
  0
DICTIONARY
  5
3B3
330
313
100
AcDbDictionary
280
     1
281
     1
  3
ACAD_XREC_ROUNDTRIP
360
3B4
  0
DICTIONARY
  5
300
330
45
100
AcDbDictionary
280
     1
281
     1
  3
ACAD_XREC_ROUNDTRIP
360
301
  0
DICTIONARY
  5
2FE
330
44
100
AcDbDictionary
280
     1
281
     1
  3
ACAD_XREC_ROUNDTRIP
360
2FF
  0
DICTIONARY
  5
302
330
46
100
AcDbDictionary
280
     1
281
     1
  3
ACAD_XREC_ROUNDTRIP
360
303
  0
DICTIONARY
  5
3B1
330
312
100
AcDbDictionary
280
     1
281
     1
  3
ACAD_XREC_ROUNDTRIP
360
3B2
  0
DICTIONARY
  5
304
330
6A
100
AcDbDictionary
280
     1
281
     1
  3
ACAD_ROUNDTRIP_2008_TABLESTYLE_CELLSTYLEMAP
360
37E
  3
ACAD_XREC_ROUNDTRIP
360
3B0
  0
DICTIONARY
  5
388
330
2F
100
AcDbDictionary
280
     1
281
     1
  3
ACAD_XREC_ROUNDTRIP
360
389
  0
DICTIONARY
  5
38E
330
32
100
AcDbDictionary
280
     1
281
     1
  3
ACAD_XREC_ROUNDTRIP
360
38F
  0
DICTIONARY
  5
396
330
36
100
AcDbDictionary
280
     1
281
     1
  3
ACAD_XREC_ROUNDTRIP
360
397
  0
DICTIONARY
  5
39E
330
3A
100
AcDbDictionary
280
     1
281
     1
  3
ACAD_XREC_ROUNDTRIP
360
39F
  0
DICTIONARY
  5
392
330
34
100
AcDbDictionary
280
     1
281
     1
  3
ACAD_XREC_ROUNDTRIP
360
393
  0
DICTIONARY
  5
394
330
35
100
AcDbDictionary
280
     1
281
     1
  3
ACAD_XREC_ROUNDTRIP
360
395
  0
DICTIONARY
  5
3A4
330
3D
100
AcDbDictionary
280
     1
281
     1
  3
ACAD_XREC_ROUNDTRIP
360
3A5
  0
DICTIONARY
  5
39C
330
39
100
AcDbDictionary
280
     1
281
     1
  3
ACAD_XREC_ROUNDTRIP
360
39D
  0
DICTIONARY
  5
380
330
2B
100
AcDbDictionary
280
     1
281
     1
  3
ACAD_XREC_ROUNDTRIP
360
381
  0
DICTIONARY
  5
382
330
2C
100
AcDbDictionary
280
     1
281
     1
  3
ACAD_XREC_ROUNDTRIP
360
383
  0
DICTIONARY
  5
384
330
2D
100
AcDbDictionary
280
     1
281
     1
  3
ACAD_XREC_ROUNDTRIP
360
385
  0
DICTIONARY
  5
386
330
2E
100
AcDbDictionary
280
     1
281
     1
  3
ACAD_XREC_ROUNDTRIP
360
387
  0
DICTIONARY
  5
38C
330
31
100
AcDbDictionary
280
     1
281
     1
  3
ACAD_XREC_ROUNDTRIP
360
38D
  0
DICTIONARY
  5
3A0
330
3B
100
AcDbDictionary
280
     1
281
     1
  3
ACAD_XREC_ROUNDTRIP
360
3A1
  0
DICTIONARY
  5
39A
330
38
100
AcDbDictionary
280
     1
281
     1
  3
ACAD_XREC_ROUNDTRIP
360
39B
  0
DICTIONARY
  5
3A2
330
3C
100
AcDbDictionary
280
     1
281
     1
  3
ACAD_XREC_ROUNDTRIP
360
3A3
  0
DICTIONARY
  5
390
330
33
100
AcDbDictionary
280
     1
281
     1
  3
ACAD_XREC_ROUNDTRIP
360
391
  0
DICTIONARY
  5
3AE
330
42
100
AcDbDictionary
280
     1
281
     1
  3
ACAD_XREC_ROUNDTRIP
360
3AF
  0
DICTIONARY
  5
3AC
330
41
100
AcDbDictionary
280
     1
281
     1
  3
ACAD_XREC_ROUNDTRIP
360
3AD
  0
DICTIONARY
  5
3A6
330
3E
100
AcDbDictionary
280
     1
281
     1
  3
ACAD_XREC_ROUNDTRIP
360
3A7
  0
DICTIONARY
  5
3A8
330
3F
100
AcDbDictionary
280
     1
281
     1
  3
ACAD_XREC_ROUNDTRIP
360
3A9
  0
DICTIONARY
  5
398
330
37
100
AcDbDictionary
280
     1
281
     1
  3
ACAD_XREC_ROUNDTRIP
360
399
  0
DICTIONARY
  5
38A
330
30
100
AcDbDictionary
280
     1
281
     1
  3
ACAD_XREC_ROUNDTRIP
360
38B
  0
DICTIONARY
  5
3AA
330
40
100
AcDbDictionary
280
     1
281
     1
  3
ACAD_XREC_ROUNDTRIP
360
3AB
  0
XRECORD
  5
3B4
102
{ACAD_REACTORS
330
3B3
102
}
330
3B3
100
AcDbXrecord
280
     1
102
DISPLAYNAME
  1
Metric50
102
FLAGS
 90
        0
  0
XRECORD
  5
301
102
{ACAD_REACTORS
330
300
102
}
330
300
100
AcDbXrecord
280
     1
102
MATERIAL
148
0.0
149
0.0
149
0.0
 93
        0
 94
      127
282
     0
 72
     1
 77
     1
171
     1
175
     1
179
     1
273
     0
  0
XRECORD
  5
2FF
102
{ACAD_REACTORS
330
2FE
102
}
330
2FE
100
AcDbXrecord
280
     1
102
MATERIAL
148
0.0
149
0.0
149
0.0
 93
        0
 94
      127
282
     0
 72
     1
 77
     1
171
     1
175
     1
179
     1
273
     0
  0
XRECORD
  5
303
102
{ACAD_REACTORS
330
302
102
}
330
302
100
AcDbXrecord
280
     1
102
MATERIAL
148
0.0
149
0.0
149
0.0
 93
        0
 94
      127
282
     0
 72
     1
 77
     1
171
     1
175
     1
179
     1
273
     0
  0
XRECORD
  5
3B2
102
{ACAD_REACTORS
330
3B1
102
}
330
3B1
100
AcDbXrecord
280
     1
102
DISPLAYNAME
  1
Metric50
102
FLAGS
 90
        0
  0
CELLSTYLEMAP
  5
37E
102
{ACAD_REACTORS
330
304
102
}
330
304
100
AcDbCellStyleMap
 90
        3
300
CELLSTYLE
  1
TABLEFORMAT_BEGIN
 90
        5
170
     1
 91
        0
 92
    32768
 62
   257
 93
        1
300
CONTENTFORMAT
  1
CONTENTFORMAT_BEGIN
 90
        0
 91
        0
 92
        4
 93
        0
300

 40
0.0
140
1.0
 94
        5
 62
     0
340
11
144
0.25
309
CONTENTFORMAT_END
171
     1
301
MARGIN
  1
CELLMARGIN_BEGIN
 40
0.06
 40
0.06
 40
0.06
 40
0.06
 40
0.18
 40
0.18
309
CELLMARGIN_END
 94
        6
 95
        1
302
GRIDFORMAT
  1
GRIDFORMAT_BEGIN
 90
        0
 91
        1
 62
     0
 92
       -2
340
14
 93
        0
 40
0.045
309
GRIDFORMAT_END
 95
        2
302
GRIDFORMAT
  1
GRIDFORMAT_BEGIN
 90
        0
 91
        1
 62
     0
 92
       -2
340
14
 93
        0
 40
0.045
309
GRIDFORMAT_END
 95
        4
302
GRIDFORMAT
  1
GRIDFORMAT_BEGIN
 90
        0
 91
        1
 62
     0
 92
       -2
340
14
 93
        0
 40
0.045
309
GRIDFORMAT_END
 95
        8
302
GRIDFORMAT
  1
GRIDFORMAT_BEGIN
 90
        0
 91
        1
 62
     0
 92
       -2
340
14
 93
        0
 40
0.045
309
GRIDFORMAT_END
 95
       16
302
GRIDFORMAT
  1
GRIDFORMAT_BEGIN
 90
        0
 91
        1
 62
     0
 92
       -2
340
14
 93
        0
 40
0.045
309
GRIDFORMAT_END
 95
       32
302
GRIDFORMAT
  1
GRIDFORMAT_BEGIN
 90
        0
 91
        1
 62
     0
 92
       -2
340
14
 93
        0
 40
0.045
309
GRIDFORMAT_END
309
TABLEFORMAT_END
  1
CELLSTYLE_BEGIN
 90
        1
 91
        1
300
_TITLE
309
CELLSTYLE_END
300
CELLSTYLE
  1
TABLEFORMAT_BEGIN
 90
        5
170
     1
 91
        0
 92
        0
 62
   257
 93
        1
300
CONTENTFORMAT
  1
CONTENTFORMAT_BEGIN
 90
        0
 91
        0
 92
        4
 93
        0
300

 40
0.0
140
1.0
 94
        5
 62
     0
340
11
144
0.18
309
CONTENTFORMAT_END
171
     1
301
MARGIN
  1
CELLMARGIN_BEGIN
 40
0.06
 40
0.06
 40
0.06
 40
0.06
 40
0.18
 40
0.18
309
CELLMARGIN_END
 94
        6
 95
        1
302
GRIDFORMAT
  1
GRIDFORMAT_BEGIN
 90
        0
 91
        1
 62
     0
 92
       -2
340
14
 93
        0
 40
0.045
309
GRIDFORMAT_END
 95
        2
302
GRIDFORMAT
  1
GRIDFORMAT_BEGIN
 90
        0
 91
        1
 62
     0
 92
       -2
340
14
 93
        0
 40
0.045
309
GRIDFORMAT_END
 95
        4
302
GRIDFORMAT
  1
GRIDFORMAT_BEGIN
 90
        0
 91
        1
 62
     0
 92
       -2
340
14
 93
        0
 40
0.045
309
GRIDFORMAT_END
 95
        8
302
GRIDFORMAT
  1
GRIDFORMAT_BEGIN
 90
        0
 91
        1
 62
     0
 92
       -2
340
14
 93
        0
 40
0.045
309
GRIDFORMAT_END
 95
       16
302
GRIDFORMAT
  1
GRIDFORMAT_BEGIN
 90
        0
 91
        1
 62
     0
 92
       -2
340
14
 93
        0
 40
0.045
309
GRIDFORMAT_END
 95
       32
302
GRIDFORMAT
  1
GRIDFORMAT_BEGIN
 90
        0
 91
        1
 62
     0
 92
       -2
340
14
 93
        0
 40
0.045
309
GRIDFORMAT_END
309
TABLEFORMAT_END
  1
CELLSTYLE_BEGIN
 90
        2
 91
        1
300
_HEADER
309
CELLSTYLE_END
300
CELLSTYLE
  1
TABLEFORMAT_BEGIN
 90
        5
170
     1
 91
        0
 92
        0
 62
   257
 93
        1
300
CONTENTFORMAT
  1
CONTENTFORMAT_BEGIN
 90
        0
 91
        0
 92
        4
 93
        0
300

 40
0.0
140
1.0
 94
        2
 62
     0
340
11
144
0.18
309
CONTENTFORMAT_END
171
     1
301
MARGIN
  1
CELLMARGIN_BEGIN
 40
0.06
 40
0.06
 40
0.06
 40
0.06
 40
0.18
 40
0.18
309
CELLMARGIN_END
 94
        6
 95
        1
302
GRIDFORMAT
  1
GRIDFORMAT_BEGIN
 90
        0
 91
        1
 62
     0
 92
       -2
340
14
 93
        0
 40
0.045
309
GRIDFORMAT_END
 95
        2
302
GRIDFORMAT
  1
GRIDFORMAT_BEGIN
 90
        0
 91
        1
 62
     0
 92
       -2
340
14
 93
        0
 40
0.045
309
GRIDFORMAT_END
 95
        4
302
GRIDFORMAT
  1
GRIDFORMAT_BEGIN
 90
        0
 91
        1
 62
     0
 92
       -2
340
14
 93
        0
 40
0.045
309
GRIDFORMAT_END
 95
        8
302
GRIDFORMAT
  1
GRIDFORMAT_BEGIN
 90
        0
 91
        1
 62
     0
 92
       -2
340
14
 93
        0
 40
0.045
309
GRIDFORMAT_END
 95
       16
302
GRIDFORMAT
  1
GRIDFORMAT_BEGIN
 90
        0
 91
        1
 62
     0
 92
       -2
340
14
 93
        0
 40
0.045
309
GRIDFORMAT_END
 95
       32
302
GRIDFORMAT
  1
GRIDFORMAT_BEGIN
 90
        0
 91
        1
 62
     0
 92
       -2
340
14
 93
        0
 40
0.045
309
GRIDFORMAT_END
309
TABLEFORMAT_END
  1
CELLSTYLE_BEGIN
 90
        3
 91
        2
300
_DATA
309
CELLSTYLE_END
  0
XRECORD
  5
3B0
102
{ACAD_REACTORS
330
304
102
}
330
304
100
AcDbXrecord
280
     1
102
ACAD_ROUNDTRIP_PRE2007_TABLESTYLE
 90
        4
 91
        0
  1

 92
        4
 93
        0
  2

 94
        4
 95
        0
  3

  0
XRECORD
  5
389
102
{ACAD_REACTORS
330
388
102
}
330
388
100
AcDbXrecord
280
     1
102
RTVSPost2010Prop28
280
     1
102
RTVSPost2010PropOp28
 70
     1
102
RTVSPost2010Prop29
280
     1
102
RTVSPost2010PropOp29
 70
     1
102
RTVSPost2010Prop30
280
     0
102
RTVSPost2010PropOp30
 70
     1
102
RTVSPost2010Prop31
280
     0
102
RTVSPost2010PropOp31
 70
     1
102
RTVSPost2010Prop32
280
     0
102
RTVSPost2010PropOp32
 70
     1
102
RTVSPost2010Prop33
280
     0
102
RTVSPost2010PropOp33
 70
     1
102
RTVSPost2010Prop34
280
     0
102
RTVSPost2010PropOp34
 70
     1
102
RTVSPost2010Prop35
280
     0
102
RTVSPost2010PropOp35
 70
     1
102
RTVSPost2010Prop36
280
     0
102
RTVSPost2010PropOp36
 70
     1
102
RTVSPost2010Prop37
 90
       50
102
RTVSPost2010PropOp37
 70
     1
102
RTVSPost2010Prop38
140
0.0
102
RTVSPost2010PropOp38
 70
     1
102
RTVSPost2010Prop39
140
1.0
102
RTVSPost2010PropOp39
 70
     1
102
RTVSPost2010Prop40
 90
        0
102
RTVSPost2010PropOp40
 70
     1
102
RTVSPost2010Prop41ColorIndex
 90
       18
102
RTVSPost2010Prop41ColorRGB
 90
        0
102
RTVSPost2010PropOp41
 70
     1
102
RTVSPost2010Prop42
 90
       50
102
RTVSPost2010PropOp42
 70
     1
102
RTVSPost2010Prop43
 90
        3
102
RTVSPost2010PropOp43
 70
     1
102
RTVSPost2010Prop44ColorIndex
 90
        5
102
RTVSPost2010Prop44ColorRGB
 90
      255
102
RTVSPost2010PropOp44
 70
     1
102
RTVSPost2010Prop45
280
     0
102
RTVSPost2010PropOp45
 70
     1
102
RTVSPost2010Prop46
 90
       50
102
RTVSPost2010PropOp46
 70
     1
102
RTVSPost2010Prop47
 90
       50
102
RTVSPost2010PropOp47
 70
     1
102
RTVSPost2010Prop48
 90
       50
102
RTVSPost2010PropOp48
 70
     1
102
RTVSPost2010Prop49
280
     0
102
RTVSPost2010PropOp49
 70
     1
102
RTVSPost2010Prop50
 90
       50
102
RTVSPost2010PropOp50
 70
     1
102
RTVSPost2010Prop51ColorIndex
 90
      256
102
RTVSPost2010Prop51ColorRGB
 90
-16777216
102
RTVSPost2010PropOp51
 70
     0
102
RTVSPost2010Prop52
140
1.0
102
RTVSPost2010PropOp52
 70
     0
102
RTVSPost2010Prop53
 90
        2
102
RTVSPost2010PropOp53
 70
     1
102
RTVSPost2010Prop54
  1
strokes_ogs.tif
102
RTVSPost2010PropOp54
 70
     1
102
RTVSPost2010Prop55
280
     0
102
RTVSPost2010PropOp55
 70
     1
102
RTVSPost2010Prop56
140
1.0
102
RTVSPost2010PropOp56
 70
     1
102
RTVSPost2010Prop57
140
1.0
102
RTVSPost2010PropOp57
 70
     1
102
RTVSPropertyOp0
 70
     1
102
RTVSPropertyOp1
 70
     1
102
RTVSPropertyOp2
 70
     1
102
RTVSPropertyOp3
 70
     1
102
RTVSPropertyOp4
 70
     1
102
RTVSPropertyOp5
 70
     1
102
RTVSPropertyOp6
 70
     1
102
RTVSPropertyOp7
 70
     1
102
RTVSPropertyOp8
 70
     1
102
RTVSPropertyOp9
 70
     1
102
RTVSPropertyOp10
 70
     1
102
RTVSPropertyOp11
 70
     1
102
RTVSPropertyOp12
 70
     1
102
RTVSPropertyOp13
 70
     1
102
RTVSPropertyOp14
 70
     1
102
RTVSPropertyOp15
 70
     1
102
RTVSPropertyOp16
 70
     1
102
RTVSPropertyOp17
 70
     1
102
RTVSPropertyOp18
 70
     1
102
RTVSPropertyOp19
 70
     1
102
RTVSPropertyOp20
 70
     1
102
RTVSPropertyOp21
 70
     1
102
RTVSPropertyOp22
 70
     1
102
RTVSPropertyOp23
 70
     1
102
RTVSPropertyOp24
 70
     1
102
RTVSPropertyOp25
 70
     1
102
RTVSPropertyOp26
 70
     1
102
RTVSPropertyOp27
 70
     1
102
RTVSPropertyOp28
 70
     1
102
RTVSPropertyOp29
 70
     1
102
RTVSPropertyOp30
 70
     1
102
RTVSPropertyOp31
 70
     1
102
RTVSPropertyOp32
 70
     1
102
RTVSPropertyOp33
 70
     1
102
RTVSPropertyOp34
 70
     1
102
RTVSPropertyOp35
 70
     1
102
RTVSPropertyOp36
 70
     1
102
RTVSPropertyOp37
 70
     1
102
RTVSPropertyOp38
 70
     1
102
RTVSPropertyOp39
 70
     1
102
RTVSPropertyOp40
 70
     1
102
RTVSPropertyOp41
 70
     1
102
RTVSPropertyOp42
 70
     1
102
RTVSPropertyOp43
 70
     1
102
RTVSPropertyOp44
 70
     1
102
RTVSPropertyOp45
 70
     1
102
RTVSPropertyOp46
 70
     1
102
RTVSPropertyOp47
 70
     1
102
RTVSPropertyOp48
 70
     1
102
RTVSPropertyOp49
 70
     1
102
RTVSPropertyOp50
 70
     1
102
RTVSPropertyOp51
 70
     0
102
RTVSPropertyOp52
 70
     0
102
RTVSPropertyOp53
 70
     1
102
RTVSPropertyOp54
 70
     1
102
RTVSPropertyOp55
 70
     1
102
RTVSPropertyOp56
 70
     1
102
RTVSPropertyOp57
 70
     1
102
RTVSPropertyOp58
 70
     1
102
RTVSPropertyOp59
 70
     1
102
RTVSPropertyOp60
 70
     1
102
RTVSPropertyOp61
 70
     1
102
RTVSPropertyOp62
 70
     1
  0
XRECORD
  5
38F
102
{ACAD_REACTORS
330
38E
102
}
330
38E
100
AcDbXrecord
280
     1
102
RTVSPost2010Prop28
280
     0
102
RTVSPost2010PropOp28
 70
     1
102
RTVSPost2010Prop29
280
     1
102
RTVSPost2010PropOp29
 70
     1
102
RTVSPost2010Prop30
280
     1
102
RTVSPost2010PropOp30
 70
     1
102
RTVSPost2010Prop31
280
     0
102
RTVSPost2010PropOp31
 70
     1
102
RTVSPost2010Prop32
280
     0
102
RTVSPost2010PropOp32
 70
     1
102
RTVSPost2010Prop33
280
     0
102
RTVSPost2010PropOp33
 70
     1
102
RTVSPost2010Prop34
280
     0
102
RTVSPost2010PropOp34
 70
     1
102
RTVSPost2010Prop35
280
     0
102
RTVSPost2010PropOp35
 70
     1
102
RTVSPost2010Prop36
280
     0
102
RTVSPost2010PropOp36
 70
     1
102
RTVSPost2010Prop37
 90
       50
102
RTVSPost2010PropOp37
 70
     1
102
RTVSPost2010Prop38
140
0.0
102
RTVSPost2010PropOp38
 70
     1
102
RTVSPost2010Prop39
140
1.0
102
RTVSPost2010PropOp39
 70
     1
102
RTVSPost2010Prop40
 90
        0
102
RTVSPost2010PropOp40
 70
     1
102
RTVSPost2010Prop41ColorIndex
 90
       18
102
RTVSPost2010Prop41ColorRGB
 90
        0
102
RTVSPost2010PropOp41
 70
     1
102
RTVSPost2010Prop42
 90
       50
102
RTVSPost2010PropOp42
 70
     1
102
RTVSPost2010Prop43
 90
        3
102
RTVSPost2010PropOp43
 70
     1
102
RTVSPost2010Prop44ColorIndex
 90
        5
102
RTVSPost2010Prop44ColorRGB
 90
      255
102
RTVSPost2010PropOp44
 70
     1
102
RTVSPost2010Prop45
280
     0
102
RTVSPost2010PropOp45
 70
     1
102
RTVSPost2010Prop46
 90
       50
102
RTVSPost2010PropOp46
 70
     1
102
RTVSPost2010Prop47
 90
       50
102
RTVSPost2010PropOp47
 70
     1
102
RTVSPost2010Prop48
 90
       50
102
RTVSPost2010PropOp48
 70
     1
102
RTVSPost2010Prop49
280
     0
102
RTVSPost2010PropOp49
 70
     1
102
RTVSPost2010Prop50
 90
       50
102
RTVSPost2010PropOp50
 70
     1
102
RTVSPost2010Prop51ColorIndex
 90
      256
102
RTVSPost2010Prop51ColorRGB
 90
-16777216
102
RTVSPost2010PropOp51
 70
     0
102
RTVSPost2010Prop52
140
1.0
102
RTVSPost2010PropOp52
 70
     0
102
RTVSPost2010Prop53
 90
        2
102
RTVSPost2010PropOp53
 70
     1
102
RTVSPost2010Prop54
  1
strokes_ogs.tif
102
RTVSPost2010PropOp54
 70
     1
102
RTVSPost2010Prop55
280
     0
102
RTVSPost2010PropOp55
 70
     1
102
RTVSPost2010Prop56
140
1.0
102
RTVSPost2010PropOp56
 70
     1
102
RTVSPost2010Prop57
140
1.0
102
RTVSPost2010PropOp57
 70
     1
102
RTVSPropertyOp0
 70
     1
102
RTVSPropertyOp1
 70
     1
102
RTVSPropertyOp2
 70
     1
102
RTVSPropertyOp3
 70
     1
102
RTVSPropertyOp4
 70
     1
102
RTVSPropertyOp5
 70
     1
102
RTVSPropertyOp6
 70
     1
102
RTVSPropertyOp7
 70
     1
102
RTVSPropertyOp8
 70
     1
102
RTVSPropertyOp9
 70
     1
102
RTVSPropertyOp10
 70
     1
102
RTVSPropertyOp11
 70
     1
102
RTVSPropertyOp12
 70
     1
102
RTVSPropertyOp13
 70
     1
102
RTVSPropertyOp14
 70
     1
102
RTVSPropertyOp15
 70
     1
102
RTVSPropertyOp16
 70
     1
102
RTVSPropertyOp17
 70
     1
102
RTVSPropertyOp18
 70
     1
102
RTVSPropertyOp19
 70
     1
102
RTVSPropertyOp20
 70
     1
102
RTVSPropertyOp21
 70
     1
102
RTVSPropertyOp22
 70
     1
102
RTVSPropertyOp23
 70
     1
102
RTVSPropertyOp24
 70
     1
102
RTVSPropertyOp25
 70
     1
102
RTVSPropertyOp26
 70
     1
102
RTVSPropertyOp27
 70
     1
102
RTVSPropertyOp28
 70
     1
102
RTVSPropertyOp29
 70
     1
102
RTVSPropertyOp30
 70
     1
102
RTVSPropertyOp31
 70
     1
102
RTVSPropertyOp32
 70
     1
102
RTVSPropertyOp33
 70
     1
102
RTVSPropertyOp34
 70
     1
102
RTVSPropertyOp35
 70
     1
102
RTVSPropertyOp36
 70
     1
102
RTVSPropertyOp37
 70
     1
102
RTVSPropertyOp38
 70
     1
102
RTVSPropertyOp39
 70
     1
102
RTVSPropertyOp40
 70
     1
102
RTVSPropertyOp41
 70
     1
102
RTVSPropertyOp42
 70
     1
102
RTVSPropertyOp43
 70
     1
102
RTVSPropertyOp44
 70
     1
102
RTVSPropertyOp45
 70
     1
102
RTVSPropertyOp46
 70
     1
102
RTVSPropertyOp47
 70
     1
102
RTVSPropertyOp48
 70
     1
102
RTVSPropertyOp49
 70
     1
102
RTVSPropertyOp50
 70
     1
102
RTVSPropertyOp51
 70
     0
102
RTVSPropertyOp52
 70
     0
102
RTVSPropertyOp53
 70
     1
102
RTVSPropertyOp54
 70
     1
102
RTVSPropertyOp55
 70
     1
102
RTVSPropertyOp56
 70
     1
102
RTVSPropertyOp57
 70
     1
102
RTVSPropertyOp58
 70
     1
102
RTVSPropertyOp59
 70
     1
102
RTVSPropertyOp60
 70
     1
102
RTVSPropertyOp61
 70
     1
102
RTVSPropertyOp62
 70
     1
  0
XRECORD
  5
397
102
{ACAD_REACTORS
330
396
102
}
330
396
100
AcDbXrecord
280
     1
102
RTVSPost2010Prop28
280
     0
102
RTVSPost2010PropOp28
 70
     1
102
RTVSPost2010Prop29
280
     1
102
RTVSPost2010PropOp29
 70
     1
102
RTVSPost2010Prop30
280
     1
102
RTVSPost2010PropOp30
 70
     1
102
RTVSPost2010Prop31
280
     0
102
RTVSPost2010PropOp31
 70
     1
102
RTVSPost2010Prop32
280
     0
102
RTVSPost2010PropOp32
 70
     1
102
RTVSPost2010Prop33
280
     0
102
RTVSPost2010PropOp33
 70
     1
102
RTVSPost2010Prop34
280
     0
102
RTVSPost2010PropOp34
 70
     1
102
RTVSPost2010Prop35
280
     0
102
RTVSPost2010PropOp35
 70
     1
102
RTVSPost2010Prop36
280
     0
102
RTVSPost2010PropOp36
 70
     1
102
RTVSPost2010Prop37
 90
       50
102
RTVSPost2010PropOp37
 70
     1
102
RTVSPost2010Prop38
140
0.0
102
RTVSPost2010PropOp38
 70
     1
102
RTVSPost2010Prop39
140
1.0
102
RTVSPost2010PropOp39
 70
     1
102
RTVSPost2010Prop40
 90
        0
102
RTVSPost2010PropOp40
 70
     1
102
RTVSPost2010Prop41ColorIndex
 90
       18
102
RTVSPost2010Prop41ColorRGB
 90
        0
102
RTVSPost2010PropOp41
 70
     1
102
RTVSPost2010Prop42
 90
       50
102
RTVSPost2010PropOp42
 70
     1
102
RTVSPost2010Prop43
 90
        3
102
RTVSPost2010PropOp43
 70
     1
102
RTVSPost2010Prop44ColorIndex
 90
        5
102
RTVSPost2010Prop44ColorRGB
 90
      255
102
RTVSPost2010PropOp44
 70
     1
102
RTVSPost2010Prop45
280
     0
102
RTVSPost2010PropOp45
 70
     1
102
RTVSPost2010Prop46
 90
       50
102
RTVSPost2010PropOp46
 70
     1
102
RTVSPost2010Prop47
 90
       50
102
RTVSPost2010PropOp47
 70
     1
102
RTVSPost2010Prop48
 90
       50
102
RTVSPost2010PropOp48
 70
     1
102
RTVSPost2010Prop49
280
     0
102
RTVSPost2010PropOp49
 70
     1
102
RTVSPost2010Prop50
 90
       50
102
RTVSPost2010PropOp50
 70
     1
102
RTVSPost2010Prop51ColorIndex
 90
      256
102
RTVSPost2010Prop51ColorRGB
 90
-16777216
102
RTVSPost2010PropOp51
 70
     0
102
RTVSPost2010Prop52
140
1.0
102
RTVSPost2010PropOp52
 70
     0
102
RTVSPost2010Prop53
 90
        2
102
RTVSPost2010PropOp53
 70
     1
102
RTVSPost2010Prop54
  1
strokes_ogs.tif
102
RTVSPost2010PropOp54
 70
     1
102
RTVSPost2010Prop55
280
     0
102
RTVSPost2010PropOp55
 70
     1
102
RTVSPost2010Prop56
140
1.0
102
RTVSPost2010PropOp56
 70
     1
102
RTVSPost2010Prop57
140
1.0
102
RTVSPost2010PropOp57
 70
     1
102
RTVSPropertyOp0
 70
     1
102
RTVSPropertyOp1
 70
     1
102
RTVSPropertyOp2
 70
     1
102
RTVSPropertyOp3
 70
     1
102
RTVSPropertyOp4
 70
     1
102
RTVSPropertyOp5
 70
     1
102
RTVSPropertyOp6
 70
     1
102
RTVSPropertyOp7
 70
     1
102
RTVSPropertyOp8
 70
     1
102
RTVSPropertyOp9
 70
     1
102
RTVSPropertyOp10
 70
     1
102
RTVSPropertyOp11
 70
     1
102
RTVSPropertyOp12
 70
     1
102
RTVSPropertyOp13
 70
     1
102
RTVSPropertyOp14
 70
     1
102
RTVSPropertyOp15
 70
     1
102
RTVSPropertyOp16
 70
     1
102
RTVSPropertyOp17
 70
     1
102
RTVSPropertyOp18
 70
     1
102
RTVSPropertyOp19
 70
     1
102
RTVSPropertyOp20
 70
     1
102
RTVSPropertyOp21
 70
     1
102
RTVSPropertyOp22
 70
     1
102
RTVSPropertyOp23
 70
     1
102
RTVSPropertyOp24
 70
     1
102
RTVSPropertyOp25
 70
     1
102
RTVSPropertyOp26
 70
     1
102
RTVSPropertyOp27
 70
     1
102
RTVSPropertyOp28
 70
     1
102
RTVSPropertyOp29
 70
     1
102
RTVSPropertyOp30
 70
     1
102
RTVSPropertyOp31
 70
     1
102
RTVSPropertyOp32
 70
     1
102
RTVSPropertyOp33
 70
     1
102
RTVSPropertyOp34
 70
     1
102
RTVSPropertyOp35
 70
     1
102
RTVSPropertyOp36
 70
     1
102
RTVSPropertyOp37
 70
     1
102
RTVSPropertyOp38
 70
     1
102
RTVSPropertyOp39
 70
     1
102
RTVSPropertyOp40
 70
     1
102
RTVSPropertyOp41
 70
     1
102
RTVSPropertyOp42
 70
     1
102
RTVSPropertyOp43
 70
     1
102
RTVSPropertyOp44
 70
     1
102
RTVSPropertyOp45
 70
     1
102
RTVSPropertyOp46
 70
     1
102
RTVSPropertyOp47
 70
     1
102
RTVSPropertyOp48
 70
     1
102
RTVSPropertyOp49
 70
     1
102
RTVSPropertyOp50
 70
     1
102
RTVSPropertyOp51
 70
     0
102
RTVSPropertyOp52
 70
     0
102
RTVSPropertyOp53
 70
     1
102
RTVSPropertyOp54
 70
     1
102
RTVSPropertyOp55
 70
     1
102
RTVSPropertyOp56
 70
     1
102
RTVSPropertyOp57
 70
     1
102
RTVSPropertyOp58
 70
     1
102
RTVSPropertyOp59
 70
     1
102
RTVSPropertyOp60
 70
     1
102
RTVSPropertyOp61
 70
     1
102
RTVSPropertyOp62
 70
     1
  0
XRECORD
  5
39F
102
{ACAD_REACTORS
330
39E
102
}
330
39E
100
AcDbXrecord
280
     1
102
RTVSPost2010Prop28
280
     0
102
RTVSPost2010PropOp28
 70
     1
102
RTVSPost2010Prop29
280
     1
102
RTVSPost2010PropOp29
 70
     1
102
RTVSPost2010Prop30
280
     1
102
RTVSPost2010PropOp30
 70
     1
102
RTVSPost2010Prop31
280
     0
102
RTVSPost2010PropOp31
 70
     1
102
RTVSPost2010Prop32
280
     0
102
RTVSPost2010PropOp32
 70
     1
102
RTVSPost2010Prop33
280
     0
102
RTVSPost2010PropOp33
 70
     1
102
RTVSPost2010Prop34
280
     0
102
RTVSPost2010PropOp34
 70
     1
102
RTVSPost2010Prop35
280
     0
102
RTVSPost2010PropOp35
 70
     1
102
RTVSPost2010Prop36
280
     0
102
RTVSPost2010PropOp36
 70
     1
102
RTVSPost2010Prop37
 90
       50
102
RTVSPost2010PropOp37
 70
     1
102
RTVSPost2010Prop38
140
0.0
102
RTVSPost2010PropOp38
 70
     1
102
RTVSPost2010Prop39
140
1.0
102
RTVSPost2010PropOp39
 70
     1
102
RTVSPost2010Prop40
 90
        0
102
RTVSPost2010PropOp40
 70
     1
102
RTVSPost2010Prop41ColorIndex
 90
       18
102
RTVSPost2010Prop41ColorRGB
 90
        0
102
RTVSPost2010PropOp41
 70
     1
102
RTVSPost2010Prop42
 90
       50
102
RTVSPost2010PropOp42
 70
     1
102
RTVSPost2010Prop43
 90
        3
102
RTVSPost2010PropOp43
 70
     1
102
RTVSPost2010Prop44ColorIndex
 90
        5
102
RTVSPost2010Prop44ColorRGB
 90
      255
102
RTVSPost2010PropOp44
 70
     1
102
RTVSPost2010Prop45
280
     0
102
RTVSPost2010PropOp45
 70
     1
102
RTVSPost2010Prop46
 90
       50
102
RTVSPost2010PropOp46
 70
     1
102
RTVSPost2010Prop47
 90
       50
102
RTVSPost2010PropOp47
 70
     1
102
RTVSPost2010Prop48
 90
       50
102
RTVSPost2010PropOp48
 70
     1
102
RTVSPost2010Prop49
280
     0
102
RTVSPost2010PropOp49
 70
     1
102
RTVSPost2010Prop50
 90
       50
102
RTVSPost2010PropOp50
 70
     1
102
RTVSPost2010Prop51ColorIndex
 90
      256
102
RTVSPost2010Prop51ColorRGB
 90
-16777216
102
RTVSPost2010PropOp51
 70
     0
102
RTVSPost2010Prop52
140
1.0
102
RTVSPost2010PropOp52
 70
     0
102
RTVSPost2010Prop53
 90
        2
102
RTVSPost2010PropOp53
 70
     1
102
RTVSPost2010Prop54
  1
strokes_ogs.tif
102
RTVSPost2010PropOp54
 70
     1
102
RTVSPost2010Prop55
280
     0
102
RTVSPost2010PropOp55
 70
     1
102
RTVSPost2010Prop56
140
1.0
102
RTVSPost2010PropOp56
 70
     1
102
RTVSPost2010Prop57
140
1.0
102
RTVSPost2010PropOp57
 70
     1
102
RTVSPropertyOp0
 70
     1
102
RTVSPropertyOp1
 70
     1
102
RTVSPropertyOp2
 70
     1
102
RTVSPropertyOp3
 70
     1
102
RTVSPropertyOp4
 70
     1
102
RTVSPropertyOp5
 70
     1
102
RTVSPropertyOp6
 70
     1
102
RTVSPropertyOp7
 70
     1
102
RTVSPropertyOp8
 70
     1
102
RTVSPropertyOp9
 70
     1
102
RTVSPropertyOp10
 70
     1
102
RTVSPropertyOp11
 70
     1
102
RTVSPropertyOp12
 70
     1
102
RTVSPropertyOp13
 70
     1
102
RTVSPropertyOp14
 70
     1
102
RTVSPropertyOp15
 70
     1
102
RTVSPropertyOp16
 70
     1
102
RTVSPropertyOp17
 70
     1
102
RTVSPropertyOp18
 70
     1
102
RTVSPropertyOp19
 70
     1
102
RTVSPropertyOp20
 70
     1
102
RTVSPropertyOp21
 70
     1
102
RTVSPropertyOp22
 70
     1
102
RTVSPropertyOp23
 70
     1
102
RTVSPropertyOp24
 70
     1
102
RTVSPropertyOp25
 70
     1
102
RTVSPropertyOp26
 70
     1
102
RTVSPropertyOp27
 70
     1
102
RTVSPropertyOp28
 70
     1
102
RTVSPropertyOp29
 70
     1
102
RTVSPropertyOp30
 70
     1
102
RTVSPropertyOp31
 70
     1
102
RTVSPropertyOp32
 70
     1
102
RTVSPropertyOp33
 70
     1
102
RTVSPropertyOp34
 70
     1
102
RTVSPropertyOp35
 70
     1
102
RTVSPropertyOp36
 70
     1
102
RTVSPropertyOp37
 70
     1
102
RTVSPropertyOp38
 70
     1
102
RTVSPropertyOp39
 70
     1
102
RTVSPropertyOp40
 70
     1
102
RTVSPropertyOp41
 70
     1
102
RTVSPropertyOp42
 70
     1
102
RTVSPropertyOp43
 70
     1
102
RTVSPropertyOp44
 70
     1
102
RTVSPropertyOp45
 70
     1
102
RTVSPropertyOp46
 70
     1
102
RTVSPropertyOp47
 70
     1
102
RTVSPropertyOp48
 70
     1
102
RTVSPropertyOp49
 70
     1
102
RTVSPropertyOp50
 70
     1
102
RTVSPropertyOp51
 70
     0
102
RTVSPropertyOp52
 70
     0
102
RTVSPropertyOp53
 70
     1
102
RTVSPropertyOp54
 70
     1
102
RTVSPropertyOp55
 70
     1
102
RTVSPropertyOp56
 70
     1
102
RTVSPropertyOp57
 70
     1
102
RTVSPropertyOp58
 70
     1
102
RTVSPropertyOp59
 70
     1
102
RTVSPropertyOp60
 70
     1
102
RTVSPropertyOp61
 70
     1
102
RTVSPropertyOp62
 70
     1
  0
XRECORD
  5
393
102
{ACAD_REACTORS
330
392
102
}
330
392
100
AcDbXrecord
280
     1
102
RTVSPost2010Prop28
280
     0
102
RTVSPost2010PropOp28
 70
     1
102
RTVSPost2010Prop29
280
     1
102
RTVSPost2010PropOp29
 70
     1
102
RTVSPost2010Prop30
280
     1
102
RTVSPost2010PropOp30
 70
     1
102
RTVSPost2010Prop31
280
     0
102
RTVSPost2010PropOp31
 70
     1
102
RTVSPost2010Prop32
280
     0
102
RTVSPost2010PropOp32
 70
     1
102
RTVSPost2010Prop33
280
     0
102
RTVSPost2010PropOp33
 70
     1
102
RTVSPost2010Prop34
280
     0
102
RTVSPost2010PropOp34
 70
     1
102
RTVSPost2010Prop35
280
     0
102
RTVSPost2010PropOp35
 70
     1
102
RTVSPost2010Prop36
280
     0
102
RTVSPost2010PropOp36
 70
     1
102
RTVSPost2010Prop37
 90
       50
102
RTVSPost2010PropOp37
 70
     1
102
RTVSPost2010Prop38
140
0.0
102
RTVSPost2010PropOp38
 70
     1
102
RTVSPost2010Prop39
140
1.0
102
RTVSPost2010PropOp39
 70
     1
102
RTVSPost2010Prop40
 90
        0
102
RTVSPost2010PropOp40
 70
     1
102
RTVSPost2010Prop41ColorIndex
 90
       18
102
RTVSPost2010Prop41ColorRGB
 90
        0
102
RTVSPost2010PropOp41
 70
     1
102
RTVSPost2010Prop42
 90
       50
102
RTVSPost2010PropOp42
 70
     1
102
RTVSPost2010Prop43
 90
        3
102
RTVSPost2010PropOp43
 70
     1
102
RTVSPost2010Prop44ColorIndex
 90
        5
102
RTVSPost2010Prop44ColorRGB
 90
      255
102
RTVSPost2010PropOp44
 70
     1
102
RTVSPost2010Prop45
280
     0
102
RTVSPost2010PropOp45
 70
     1
102
RTVSPost2010Prop46
 90
       50
102
RTVSPost2010PropOp46
 70
     1
102
RTVSPost2010Prop47
 90
       50
102
RTVSPost2010PropOp47
 70
     1
102
RTVSPost2010Prop48
 90
       50
102
RTVSPost2010PropOp48
 70
     1
102
RTVSPost2010Prop49
280
     0
102
RTVSPost2010PropOp49
 70
     1
102
RTVSPost2010Prop50
 90
       50
102
RTVSPost2010PropOp50
 70
     1
102
RTVSPost2010Prop51ColorIndex
 90
      256
102
RTVSPost2010Prop51ColorRGB
 90
-16777216
102
RTVSPost2010PropOp51
 70
     0
102
RTVSPost2010Prop52
140
1.0
102
RTVSPost2010PropOp52
 70
     0
102
RTVSPost2010Prop53
 90
        2
102
RTVSPost2010PropOp53
 70
     1
102
RTVSPost2010Prop54
  1
strokes_ogs.tif
102
RTVSPost2010PropOp54
 70
     1
102
RTVSPost2010Prop55
280
     0
102
RTVSPost2010PropOp55
 70
     1
102
RTVSPost2010Prop56
140
1.0
102
RTVSPost2010PropOp56
 70
     1
102
RTVSPost2010Prop57
140
1.0
102
RTVSPost2010PropOp57
 70
     1
102
RTVSPropertyOp0
 70
     1
102
RTVSPropertyOp1
 70
     1
102
RTVSPropertyOp2
 70
     1
102
RTVSPropertyOp3
 70
     1
102
RTVSPropertyOp4
 70
     1
102
RTVSPropertyOp5
 70
     1
102
RTVSPropertyOp6
 70
     1
102
RTVSPropertyOp7
 70
     1
102
RTVSPropertyOp8
 70
     1
102
RTVSPropertyOp9
 70
     1
102
RTVSPropertyOp10
 70
     1
102
RTVSPropertyOp11
 70
     1
102
RTVSPropertyOp12
 70
     1
102
RTVSPropertyOp13
 70
     1
102
RTVSPropertyOp14
 70
     1
102
RTVSPropertyOp15
 70
     1
102
RTVSPropertyOp16
 70
     1
102
RTVSPropertyOp17
 70
     1
102
RTVSPropertyOp18
 70
     1
102
RTVSPropertyOp19
 70
     1
102
RTVSPropertyOp20
 70
     1
102
RTVSPropertyOp21
 70
     1
102
RTVSPropertyOp22
 70
     1
102
RTVSPropertyOp23
 70
     1
102
RTVSPropertyOp24
 70
     1
102
RTVSPropertyOp25
 70
     1
102
RTVSPropertyOp26
 70
     1
102
RTVSPropertyOp27
 70
     1
102
RTVSPropertyOp28
 70
     1
102
RTVSPropertyOp29
 70
     1
102
RTVSPropertyOp30
 70
     1
102
RTVSPropertyOp31
 70
     1
102
RTVSPropertyOp32
 70
     1
102
RTVSPropertyOp33
 70
     1
102
RTVSPropertyOp34
 70
     1
102
RTVSPropertyOp35
 70
     1
102
RTVSPropertyOp36
 70
     1
102
RTVSPropertyOp37
 70
     1
102
RTVSPropertyOp38
 70
     1
102
RTVSPropertyOp39
 70
     1
102
RTVSPropertyOp40
 70
     1
102
RTVSPropertyOp41
 70
     1
102
RTVSPropertyOp42
 70
     1
102
RTVSPropertyOp43
 70
     1
102
RTVSPropertyOp44
 70
     1
102
RTVSPropertyOp45
 70
     1
102
RTVSPropertyOp46
 70
     1
102
RTVSPropertyOp47
 70
     1
102
RTVSPropertyOp48
 70
     1
102
RTVSPropertyOp49
 70
     1
102
RTVSPropertyOp50
 70
     1
102
RTVSPropertyOp51
 70
     0
102
RTVSPropertyOp52
 70
     0
102
RTVSPropertyOp53
 70
     1
102
RTVSPropertyOp54
 70
     1
102
RTVSPropertyOp55
 70
     1
102
RTVSPropertyOp56
 70
     1
102
RTVSPropertyOp57
 70
     1
102
RTVSPropertyOp58
 70
     1
102
RTVSPropertyOp59
 70
     1
102
RTVSPropertyOp60
 70
     1
102
RTVSPropertyOp61
 70
     1
102
RTVSPropertyOp62
 70
     1
  0
XRECORD
  5
395
102
{ACAD_REACTORS
330
394
102
}
330
394
100
AcDbXrecord
280
     1
102
RTVSPost2010Prop28
280
     0
102
RTVSPost2010PropOp28
 70
     1
102
RTVSPost2010Prop29
280
     1
102
RTVSPost2010PropOp29
 70
     1
102
RTVSPost2010Prop30
280
     1
102
RTVSPost2010PropOp30
 70
     1
102
RTVSPost2010Prop31
280
     0
102
RTVSPost2010PropOp31
 70
     1
102
RTVSPost2010Prop32
280
     0
102
RTVSPost2010PropOp32
 70
     1
102
RTVSPost2010Prop33
280
     0
102
RTVSPost2010PropOp33
 70
     1
102
RTVSPost2010Prop34
280
     0
102
RTVSPost2010PropOp34
 70
     1
102
RTVSPost2010Prop35
280
     0
102
RTVSPost2010PropOp35
 70
     1
102
RTVSPost2010Prop36
280
     0
102
RTVSPost2010PropOp36
 70
     1
102
RTVSPost2010Prop37
 90
       50
102
RTVSPost2010PropOp37
 70
     1
102
RTVSPost2010Prop38
140
0.0
102
RTVSPost2010PropOp38
 70
     1
102
RTVSPost2010Prop39
140
1.0
102
RTVSPost2010PropOp39
 70
     1
102
RTVSPost2010Prop40
 90
        0
102
RTVSPost2010PropOp40
 70
     1
102
RTVSPost2010Prop41ColorIndex
 90
       18
102
RTVSPost2010Prop41ColorRGB
 90
        0
102
RTVSPost2010PropOp41
 70
     1
102
RTVSPost2010Prop42
 90
       50
102
RTVSPost2010PropOp42
 70
     1
102
RTVSPost2010Prop43
 90
        3
102
RTVSPost2010PropOp43
 70
     1
102
RTVSPost2010Prop44ColorIndex
 90
        5
102
RTVSPost2010Prop44ColorRGB
 90
      255
102
RTVSPost2010PropOp44
 70
     1
102
RTVSPost2010Prop45
280
     0
102
RTVSPost2010PropOp45
 70
     1
102
RTVSPost2010Prop46
 90
       50
102
RTVSPost2010PropOp46
 70
     1
102
RTVSPost2010Prop47
 90
       50
102
RTVSPost2010PropOp47
 70
     1
102
RTVSPost2010Prop48
 90
       50
102
RTVSPost2010PropOp48
 70
     1
102
RTVSPost2010Prop49
280
     0
102
RTVSPost2010PropOp49
 70
     1
102
RTVSPost2010Prop50
 90
       50
102
RTVSPost2010PropOp50
 70
     1
102
RTVSPost2010Prop51ColorIndex
 90
      256
102
RTVSPost2010Prop51ColorRGB
 90
-16777216
102
RTVSPost2010PropOp51
 70
     0
102
RTVSPost2010Prop52
140
1.0
102
RTVSPost2010PropOp52
 70
     0
102
RTVSPost2010Prop53
 90
        2
102
RTVSPost2010PropOp53
 70
     1
102
RTVSPost2010Prop54
  1
strokes_ogs.tif
102
RTVSPost2010PropOp54
 70
     1
102
RTVSPost2010Prop55
280
     0
102
RTVSPost2010PropOp55
 70
     1
102
RTVSPost2010Prop56
140
1.0
102
RTVSPost2010PropOp56
 70
     1
102
RTVSPost2010Prop57
140
1.0
102
RTVSPost2010PropOp57
 70
     1
102
RTVSPropertyOp0
 70
     1
102
RTVSPropertyOp1
 70
     1
102
RTVSPropertyOp2
 70
     1
102
RTVSPropertyOp3
 70
     1
102
RTVSPropertyOp4
 70
     1
102
RTVSPropertyOp5
 70
     1
102
RTVSPropertyOp6
 70
     1
102
RTVSPropertyOp7
 70
     1
102
RTVSPropertyOp8
 70
     1
102
RTVSPropertyOp9
 70
     1
102
RTVSPropertyOp10
 70
     1
102
RTVSPropertyOp11
 70
     1
102
RTVSPropertyOp12
 70
     1
102
RTVSPropertyOp13
 70
     1
102
RTVSPropertyOp14
 70
     1
102
RTVSPropertyOp15
 70
     1
102
RTVSPropertyOp16
 70
     1
102
RTVSPropertyOp17
 70
     1
102
RTVSPropertyOp18
 70
     1
102
RTVSPropertyOp19
 70
     1
102
RTVSPropertyOp20
 70
     1
102
RTVSPropertyOp21
 70
     1
102
RTVSPropertyOp22
 70
     1
102
RTVSPropertyOp23
 70
     1
102
RTVSPropertyOp24
 70
     1
102
RTVSPropertyOp25
 70
     1
102
RTVSPropertyOp26
 70
     1
102
RTVSPropertyOp27
 70
     1
102
RTVSPropertyOp28
 70
     1
102
RTVSPropertyOp29
 70
     1
102
RTVSPropertyOp30
 70
     1
102
RTVSPropertyOp31
 70
     1
102
RTVSPropertyOp32
 70
     1
102
RTVSPropertyOp33
 70
     1
102
RTVSPropertyOp34
 70
     1
102
RTVSPropertyOp35
 70
     1
102
RTVSPropertyOp36
 70
     1
102
RTVSPropertyOp37
 70
     1
102
RTVSPropertyOp38
 70
     1
102
RTVSPropertyOp39
 70
     1
102
RTVSPropertyOp40
 70
     1
102
RTVSPropertyOp41
 70
     1
102
RTVSPropertyOp42
 70
     1
102
RTVSPropertyOp43
 70
     1
102
RTVSPropertyOp44
 70
     1
102
RTVSPropertyOp45
 70
     1
102
RTVSPropertyOp46
 70
     1
102
RTVSPropertyOp47
 70
     1
102
RTVSPropertyOp48
 70
     1
102
RTVSPropertyOp49
 70
     1
102
RTVSPropertyOp50
 70
     1
102
RTVSPropertyOp51
 70
     0
102
RTVSPropertyOp52
 70
     0
102
RTVSPropertyOp53
 70
     1
102
RTVSPropertyOp54
 70
     1
102
RTVSPropertyOp55
 70
     1
102
RTVSPropertyOp56
 70
     1
102
RTVSPropertyOp57
 70
     1
102
RTVSPropertyOp58
 70
     1
102
RTVSPropertyOp59
 70
     1
102
RTVSPropertyOp60
 70
     1
102
RTVSPropertyOp61
 70
     1
102
RTVSPropertyOp62
 70
     1
  0
XRECORD
  5
3A5
102
{ACAD_REACTORS
330
3A4
102
}
330
3A4
100
AcDbXrecord
280
     1
102
RTVSPost2010Prop28
280
     0
102
RTVSPost2010PropOp28
 70
     0
102
RTVSPost2010Prop29
280
     1
102
RTVSPost2010PropOp29
 70
     0
102
RTVSPost2010Prop30
280
     1
102
RTVSPost2010PropOp30
 70
     0
102
RTVSPost2010Prop31
280
     0
102
RTVSPost2010PropOp31
 70
     0
102
RTVSPost2010Prop32
280
     0
102
RTVSPost2010PropOp32
 70
     0
102
RTVSPost2010Prop33
280
     0
102
RTVSPost2010PropOp33
 70
     0
102
RTVSPost2010Prop34
280
     0
102
RTVSPost2010PropOp34
 70
     0
102
RTVSPost2010Prop35
280
     0
102
RTVSPost2010PropOp35
 70
     0
102
RTVSPost2010Prop36
280
     0
102
RTVSPost2010PropOp36
 70
     0
102
RTVSPost2010Prop37
 90
       50
102
RTVSPost2010PropOp37
 70
     0
102
RTVSPost2010Prop38
140
0.0
102
RTVSPost2010PropOp38
 70
     0
102
RTVSPost2010Prop39
140
1.0
102
RTVSPost2010PropOp39
 70
     0
102
RTVSPost2010Prop40
 90
        0
102
RTVSPost2010PropOp40
 70
     0
102
RTVSPost2010Prop41ColorIndex
 90
       18
102
RTVSPost2010Prop41ColorRGB
 90
        0
102
RTVSPost2010PropOp41
 70
     0
102
RTVSPost2010Prop42
 90
       50
102
RTVSPost2010PropOp42
 70
     0
102
RTVSPost2010Prop43
 90
        3
102
RTVSPost2010PropOp43
 70
     0
102
RTVSPost2010Prop44ColorIndex
 90
        5
102
RTVSPost2010Prop44ColorRGB
 90
      255
102
RTVSPost2010PropOp44
 70
     0
102
RTVSPost2010Prop45
280
     0
102
RTVSPost2010PropOp45
 70
     0
102
RTVSPost2010Prop46
 90
       50
102
RTVSPost2010PropOp46
 70
     0
102
RTVSPost2010Prop47
 90
       50
102
RTVSPost2010PropOp47
 70
     0
102
RTVSPost2010Prop48
 90
       50
102
RTVSPost2010PropOp48
 70
     0
102
RTVSPost2010Prop49
280
     0
102
RTVSPost2010PropOp49
 70
     0
102
RTVSPost2010Prop50
 90
       50
102
RTVSPost2010PropOp50
 70
     0
102
RTVSPost2010Prop51ColorIndex
 90
      256
102
RTVSPost2010Prop51ColorRGB
 90
-16777216
102
RTVSPost2010PropOp51
 70
     0
102
RTVSPost2010Prop52
140
1.0
102
RTVSPost2010PropOp52
 70
     0
102
RTVSPost2010Prop53
 90
        2
102
RTVSPost2010PropOp53
 70
     0
102
RTVSPost2010Prop54
  1
strokes_ogs.tif
102
RTVSPost2010PropOp54
 70
     0
102
RTVSPost2010Prop55
280
     0
102
RTVSPost2010PropOp55
 70
     0
102
RTVSPost2010Prop56
140
1.0
102
RTVSPost2010PropOp56
 70
     0
102
RTVSPost2010Prop57
140
1.0
102
RTVSPost2010PropOp57
 70
     0
102
RTVSPropertyOp0
 70
     0
102
RTVSPropertyOp1
 70
     0
102
RTVSPropertyOp2
 70
     0
102
RTVSPropertyOp3
 70
     0
102
RTVSPropertyOp4
 70
     0
102
RTVSPropertyOp5
 70
     0
102
RTVSPropertyOp6
 70
     0
102
RTVSPropertyOp7
 70
     0
102
RTVSPropertyOp8
 70
     0
102
RTVSPropertyOp9
 70
     0
102
RTVSPropertyOp10
 70
     0
102
RTVSPropertyOp11
 70
     0
102
RTVSPropertyOp12
 70
     0
102
RTVSPropertyOp13
 70
     0
102
RTVSPropertyOp14
 70
     2
102
RTVSPropertyOp15
 70
     0
102
RTVSPropertyOp16
 70
     0
102
RTVSPropertyOp17
 70
     0
102
RTVSPropertyOp18
 70
     0
102
RTVSPropertyOp19
 70
     0
102
RTVSPropertyOp20
 70
     0
102
RTVSPropertyOp21
 70
     0
102
RTVSPropertyOp22
 70
     0
102
RTVSPropertyOp23
 70
     0
102
RTVSPropertyOp24
 70
     0
102
RTVSPropertyOp25
 70
     0
102
RTVSPropertyOp26
 70
     0
102
RTVSPropertyOp27
 70
     0
102
RTVSPropertyOp28
 70
     0
102
RTVSPropertyOp29
 70
     0
102
RTVSPropertyOp30
 70
     0
102
RTVSPropertyOp31
 70
     0
102
RTVSPropertyOp32
 70
     0
102
RTVSPropertyOp33
 70
     0
102
RTVSPropertyOp34
 70
     0
102
RTVSPropertyOp35
 70
     0
102
RTVSPropertyOp36
 70
     0
102
RTVSPropertyOp37
 70
     0
102
RTVSPropertyOp38
 70
     0
102
RTVSPropertyOp39
 70
     0
102
RTVSPropertyOp40
 70
     0
102
RTVSPropertyOp41
 70
     0
102
RTVSPropertyOp42
 70
     0
102
RTVSPropertyOp43
 70
     0
102
RTVSPropertyOp44
 70
     0
102
RTVSPropertyOp45
 70
     0
102
RTVSPropertyOp46
 70
     0
102
RTVSPropertyOp47
 70
     0
102
RTVSPropertyOp48
 70
     0
102
RTVSPropertyOp49
 70
     0
102
RTVSPropertyOp50
 70
     0
102
RTVSPropertyOp51
 70
     0
102
RTVSPropertyOp52
 70
     0
102
RTVSPropertyOp53
 70
     0
102
RTVSPropertyOp54
 70
     0
102
RTVSPropertyOp55
 70
     0
102
RTVSPropertyOp56
 70
     0
102
RTVSPropertyOp57
 70
     0
102
RTVSPropertyOp58
 70
     1
102
RTVSPropertyOp59
 70
     1
102
RTVSPropertyOp60
 70
     1
102
RTVSPropertyOp61
 70
     1
102
RTVSPropertyOp62
 70
     1
  0
XRECORD
  5
39D
102
{ACAD_REACTORS
330
39C
102
}
330
39C
100
AcDbXrecord
280
     1
102
RTVSPost2010Prop28
280
     0
102
RTVSPost2010PropOp28
 70
     1
102
RTVSPost2010Prop29
280
     1
102
RTVSPost2010PropOp29
 70
     1
102
RTVSPost2010Prop30
280
     1
102
RTVSPost2010PropOp30
 70
     1
102
RTVSPost2010Prop31
280
     0
102
RTVSPost2010PropOp31
 70
     1
102
RTVSPost2010Prop32
280
     0
102
RTVSPost2010PropOp32
 70
     1
102
RTVSPost2010Prop33
280
     0
102
RTVSPost2010PropOp33
 70
     1
102
RTVSPost2010Prop34
280
     0
102
RTVSPost2010PropOp34
 70
     1
102
RTVSPost2010Prop35
280
     0
102
RTVSPost2010PropOp35
 70
     1
102
RTVSPost2010Prop36
280
     0
102
RTVSPost2010PropOp36
 70
     1
102
RTVSPost2010Prop37
 90
       50
102
RTVSPost2010PropOp37
 70
     1
102
RTVSPost2010Prop38
140
0.0
102
RTVSPost2010PropOp38
 70
     1
102
RTVSPost2010Prop39
140
1.0
102
RTVSPost2010PropOp39
 70
     1
102
RTVSPost2010Prop40
 90
        0
102
RTVSPost2010PropOp40
 70
     1
102
RTVSPost2010Prop41ColorIndex
 90
       18
102
RTVSPost2010Prop41ColorRGB
 90
        0
102
RTVSPost2010PropOp41
 70
     1
102
RTVSPost2010Prop42
 90
       50
102
RTVSPost2010PropOp42
 70
     1
102
RTVSPost2010Prop43
 90
        3
102
RTVSPost2010PropOp43
 70
     1
102
RTVSPost2010Prop44ColorIndex
 90
        5
102
RTVSPost2010Prop44ColorRGB
 90
      255
102
RTVSPost2010PropOp44
 70
     1
102
RTVSPost2010Prop45
280
     0
102
RTVSPost2010PropOp45
 70
     1
102
RTVSPost2010Prop46
 90
       50
102
RTVSPost2010PropOp46
 70
     1
102
RTVSPost2010Prop47
 90
       50
102
RTVSPost2010PropOp47
 70
     1
102
RTVSPost2010Prop48
 90
       50
102
RTVSPost2010PropOp48
 70
     1
102
RTVSPost2010Prop49
280
     0
102
RTVSPost2010PropOp49
 70
     1
102
RTVSPost2010Prop50
 90
       50
102
RTVSPost2010PropOp50
 70
     1
102
RTVSPost2010Prop51ColorIndex
 90
      256
102
RTVSPost2010Prop51ColorRGB
 90
-16777216
102
RTVSPost2010PropOp51
 70
     0
102
RTVSPost2010Prop52
140
1.0
102
RTVSPost2010PropOp52
 70
     0
102
RTVSPost2010Prop53
 90
        2
102
RTVSPost2010PropOp53
 70
     1
102
RTVSPost2010Prop54
  1
strokes_ogs.tif
102
RTVSPost2010PropOp54
 70
     1
102
RTVSPost2010Prop55
280
     0
102
RTVSPost2010PropOp55
 70
     1
102
RTVSPost2010Prop56
140
1.0
102
RTVSPost2010PropOp56
 70
     1
102
RTVSPost2010Prop57
140
1.0
102
RTVSPost2010PropOp57
 70
     1
102
RTVSPropertyOp0
 70
     1
102
RTVSPropertyOp1
 70
     1
102
RTVSPropertyOp2
 70
     1
102
RTVSPropertyOp3
 70
     1
102
RTVSPropertyOp4
 70
     1
102
RTVSPropertyOp5
 70
     1
102
RTVSPropertyOp6
 70
     1
102
RTVSPropertyOp7
 70
     1
102
RTVSPropertyOp8
 70
     1
102
RTVSPropertyOp9
 70
     1
102
RTVSPropertyOp10
 70
     1
102
RTVSPropertyOp11
 70
     1
102
RTVSPropertyOp12
 70
     1
102
RTVSPropertyOp13
 70
     1
102
RTVSPropertyOp14
 70
     1
102
RTVSPropertyOp15
 70
     1
102
RTVSPropertyOp16
 70
     1
102
RTVSPropertyOp17
 70
     1
102
RTVSPropertyOp18
 70
     1
102
RTVSPropertyOp19
 70
     1
102
RTVSPropertyOp20
 70
     1
102
RTVSPropertyOp21
 70
     1
102
RTVSPropertyOp22
 70
     1
102
RTVSPropertyOp23
 70
     1
102
RTVSPropertyOp24
 70
     1
102
RTVSPropertyOp25
 70
     1
102
RTVSPropertyOp26
 70
     1
102
RTVSPropertyOp27
 70
     1
102
RTVSPropertyOp28
 70
     1
102
RTVSPropertyOp29
 70
     1
102
RTVSPropertyOp30
 70
     1
102
RTVSPropertyOp31
 70
     1
102
RTVSPropertyOp32
 70
     1
102
RTVSPropertyOp33
 70
     1
102
RTVSPropertyOp34
 70
     1
102
RTVSPropertyOp35
 70
     1
102
RTVSPropertyOp36
 70
     1
102
RTVSPropertyOp37
 70
     1
102
RTVSPropertyOp38
 70
     1
102
RTVSPropertyOp39
 70
     1
102
RTVSPropertyOp40
 70
     1
102
RTVSPropertyOp41
 70
     1
102
RTVSPropertyOp42
 70
     1
102
RTVSPropertyOp43
 70
     1
102
RTVSPropertyOp44
 70
     1
102
RTVSPropertyOp45
 70
     1
102
RTVSPropertyOp46
 70
     1
102
RTVSPropertyOp47
 70
     1
102
RTVSPropertyOp48
 70
     1
102
RTVSPropertyOp49
 70
     1
102
RTVSPropertyOp50
 70
     1
102
RTVSPropertyOp51
 70
     0
102
RTVSPropertyOp52
 70
     0
102
RTVSPropertyOp53
 70
     1
102
RTVSPropertyOp54
 70
     1
102
RTVSPropertyOp55
 70
     1
102
RTVSPropertyOp56
 70
     1
102
RTVSPropertyOp57
 70
     1
102
RTVSPropertyOp58
 70
     1
102
RTVSPropertyOp59
 70
     1
102
RTVSPropertyOp60
 70
     1
102
RTVSPropertyOp61
 70
     1
102
RTVSPropertyOp62
 70
     1
  0
XRECORD
  5
381
102
{ACAD_REACTORS
330
380
102
}
330
380
100
AcDbXrecord
280
     1
102
RTVSPost2010Prop28
280
     0
102
RTVSPost2010PropOp28
 70
     1
102
RTVSPost2010Prop29
280
     1
102
RTVSPost2010PropOp29
 70
     1
102
RTVSPost2010Prop30
280
     1
102
RTVSPost2010PropOp30
 70
     1
102
RTVSPost2010Prop31
280
     0
102
RTVSPost2010PropOp31
 70
     1
102
RTVSPost2010Prop32
280
     0
102
RTVSPost2010PropOp32
 70
     1
102
RTVSPost2010Prop33
280
     0
102
RTVSPost2010PropOp33
 70
     1
102
RTVSPost2010Prop34
280
     0
102
RTVSPost2010PropOp34
 70
     1
102
RTVSPost2010Prop35
280
     0
102
RTVSPost2010PropOp35
 70
     1
102
RTVSPost2010Prop36
280
     0
102
RTVSPost2010PropOp36
 70
     1
102
RTVSPost2010Prop37
 90
       50
102
RTVSPost2010PropOp37
 70
     1
102
RTVSPost2010Prop38
140
0.0
102
RTVSPost2010PropOp38
 70
     1
102
RTVSPost2010Prop39
140
1.0
102
RTVSPost2010PropOp39
 70
     1
102
RTVSPost2010Prop40
 90
        0
102
RTVSPost2010PropOp40
 70
     1
102
RTVSPost2010Prop41ColorIndex
 90
       18
102
RTVSPost2010Prop41ColorRGB
 90
        0
102
RTVSPost2010PropOp41
 70
     1
102
RTVSPost2010Prop42
 90
       50
102
RTVSPost2010PropOp42
 70
     1
102
RTVSPost2010Prop43
 90
        3
102
RTVSPost2010PropOp43
 70
     1
102
RTVSPost2010Prop44ColorIndex
 90
        5
102
RTVSPost2010Prop44ColorRGB
 90
      255
102
RTVSPost2010PropOp44
 70
     1
102
RTVSPost2010Prop45
280
     0
102
RTVSPost2010PropOp45
 70
     1
102
RTVSPost2010Prop46
 90
       50
102
RTVSPost2010PropOp46
 70
     1
102
RTVSPost2010Prop47
 90
       50
102
RTVSPost2010PropOp47
 70
     1
102
RTVSPost2010Prop48
 90
       50
102
RTVSPost2010PropOp48
 70
     1
102
RTVSPost2010Prop49
280
     0
102
RTVSPost2010PropOp49
 70
     1
102
RTVSPost2010Prop50
 90
       50
102
RTVSPost2010PropOp50
 70
     1
102
RTVSPost2010Prop51ColorIndex
 90
      256
102
RTVSPost2010Prop51ColorRGB
 90
-16777216
102
RTVSPost2010PropOp51
 70
     0
102
RTVSPost2010Prop52
140
1.0
102
RTVSPost2010PropOp52
 70
     0
102
RTVSPost2010Prop53
 90
        2
102
RTVSPost2010PropOp53
 70
     1
102
RTVSPost2010Prop54
  1
strokes_ogs.tif
102
RTVSPost2010PropOp54
 70
     1
102
RTVSPost2010Prop55
280
     0
102
RTVSPost2010PropOp55
 70
     1
102
RTVSPost2010Prop56
140
1.0
102
RTVSPost2010PropOp56
 70
     1
102
RTVSPost2010Prop57
140
1.0
102
RTVSPost2010PropOp57
 70
     1
102
RTVSPropertyOp0
 70
     1
102
RTVSPropertyOp1
 70
     1
102
RTVSPropertyOp2
 70
     1
102
RTVSPropertyOp3
 70
     1
102
RTVSPropertyOp4
 70
     1
102
RTVSPropertyOp5
 70
     1
102
RTVSPropertyOp6
 70
     1
102
RTVSPropertyOp7
 70
     1
102
RTVSPropertyOp8
 70
     1
102
RTVSPropertyOp9
 70
     1
102
RTVSPropertyOp10
 70
     1
102
RTVSPropertyOp11
 70
     1
102
RTVSPropertyOp12
 70
     1
102
RTVSPropertyOp13
 70
     1
102
RTVSPropertyOp14
 70
     1
102
RTVSPropertyOp15
 70
     1
102
RTVSPropertyOp16
 70
     1
102
RTVSPropertyOp17
 70
     1
102
RTVSPropertyOp18
 70
     1
102
RTVSPropertyOp19
 70
     1
102
RTVSPropertyOp20
 70
     1
102
RTVSPropertyOp21
 70
     1
102
RTVSPropertyOp22
 70
     1
102
RTVSPropertyOp23
 70
     1
102
RTVSPropertyOp24
 70
     1
102
RTVSPropertyOp25
 70
     1
102
RTVSPropertyOp26
 70
     1
102
RTVSPropertyOp27
 70
     1
102
RTVSPropertyOp28
 70
     1
102
RTVSPropertyOp29
 70
     1
102
RTVSPropertyOp30
 70
     1
102
RTVSPropertyOp31
 70
     1
102
RTVSPropertyOp32
 70
     1
102
RTVSPropertyOp33
 70
     1
102
RTVSPropertyOp34
 70
     1
102
RTVSPropertyOp35
 70
     1
102
RTVSPropertyOp36
 70
     1
102
RTVSPropertyOp37
 70
     1
102
RTVSPropertyOp38
 70
     1
102
RTVSPropertyOp39
 70
     1
102
RTVSPropertyOp40
 70
     1
102
RTVSPropertyOp41
 70
     1
102
RTVSPropertyOp42
 70
     1
102
RTVSPropertyOp43
 70
     1
102
RTVSPropertyOp44
 70
     1
102
RTVSPropertyOp45
 70
     1
102
RTVSPropertyOp46
 70
     1
102
RTVSPropertyOp47
 70
     1
102
RTVSPropertyOp48
 70
     1
102
RTVSPropertyOp49
 70
     1
102
RTVSPropertyOp50
 70
     1
102
RTVSPropertyOp51
 70
     0
102
RTVSPropertyOp52
 70
     0
102
RTVSPropertyOp53
 70
     1
102
RTVSPropertyOp54
 70
     1
102
RTVSPropertyOp55
 70
     1
102
RTVSPropertyOp56
 70
     1
102
RTVSPropertyOp57
 70
     1
102
RTVSPropertyOp58
 70
     1
102
RTVSPropertyOp59
 70
     1
102
RTVSPropertyOp60
 70
     1
102
RTVSPropertyOp61
 70
     1
102
RTVSPropertyOp62
 70
     1
  0
XRECORD
  5
383
102
{ACAD_REACTORS
330
382
102
}
330
382
100
AcDbXrecord
280
     1
102
RTVSPost2010Prop28
280
     0
102
RTVSPost2010PropOp28
 70
     1
102
RTVSPost2010Prop29
280
     1
102
RTVSPost2010PropOp29
 70
     1
102
RTVSPost2010Prop30
280
     1
102
RTVSPost2010PropOp30
 70
     1
102
RTVSPost2010Prop31
280
     0
102
RTVSPost2010PropOp31
 70
     1
102
RTVSPost2010Prop32
280
     0
102
RTVSPost2010PropOp32
 70
     1
102
RTVSPost2010Prop33
280
     0
102
RTVSPost2010PropOp33
 70
     1
102
RTVSPost2010Prop34
280
     0
102
RTVSPost2010PropOp34
 70
     1
102
RTVSPost2010Prop35
280
     0
102
RTVSPost2010PropOp35
 70
     1
102
RTVSPost2010Prop36
280
     0
102
RTVSPost2010PropOp36
 70
     1
102
RTVSPost2010Prop37
 90
       50
102
RTVSPost2010PropOp37
 70
     1
102
RTVSPost2010Prop38
140
0.0
102
RTVSPost2010PropOp38
 70
     1
102
RTVSPost2010Prop39
140
1.0
102
RTVSPost2010PropOp39
 70
     1
102
RTVSPost2010Prop40
 90
        0
102
RTVSPost2010PropOp40
 70
     1
102
RTVSPost2010Prop41ColorIndex
 90
       18
102
RTVSPost2010Prop41ColorRGB
 90
        0
102
RTVSPost2010PropOp41
 70
     1
102
RTVSPost2010Prop42
 90
       50
102
RTVSPost2010PropOp42
 70
     1
102
RTVSPost2010Prop43
 90
        3
102
RTVSPost2010PropOp43
 70
     1
102
RTVSPost2010Prop44ColorIndex
 90
        5
102
RTVSPost2010Prop44ColorRGB
 90
      255
102
RTVSPost2010PropOp44
 70
     1
102
RTVSPost2010Prop45
280
     0
102
RTVSPost2010PropOp45
 70
     1
102
RTVSPost2010Prop46
 90
       50
102
RTVSPost2010PropOp46
 70
     1
102
RTVSPost2010Prop47
 90
       50
102
RTVSPost2010PropOp47
 70
     1
102
RTVSPost2010Prop48
 90
       50
102
RTVSPost2010PropOp48
 70
     1
102
RTVSPost2010Prop49
280
     0
102
RTVSPost2010PropOp49
 70
     1
102
RTVSPost2010Prop50
 90
       50
102
RTVSPost2010PropOp50
 70
     1
102
RTVSPost2010Prop51ColorIndex
 90
      256
102
RTVSPost2010Prop51ColorRGB
 90
-16777216
102
RTVSPost2010PropOp51
 70
     0
102
RTVSPost2010Prop52
140
1.0
102
RTVSPost2010PropOp52
 70
     0
102
RTVSPost2010Prop53
 90
        2
102
RTVSPost2010PropOp53
 70
     1
102
RTVSPost2010Prop54
  1
strokes_ogs.tif
102
RTVSPost2010PropOp54
 70
     1
102
RTVSPost2010Prop55
280
     0
102
RTVSPost2010PropOp55
 70
     1
102
RTVSPost2010Prop56
140
1.0
102
RTVSPost2010PropOp56
 70
     1
102
RTVSPost2010Prop57
140
1.0
102
RTVSPost2010PropOp57
 70
     1
102
RTVSPropertyOp0
 70
     1
102
RTVSPropertyOp1
 70
     1
102
RTVSPropertyOp2
 70
     1
102
RTVSPropertyOp3
 70
     1
102
RTVSPropertyOp4
 70
     1
102
RTVSPropertyOp5
 70
     1
102
RTVSPropertyOp6
 70
     1
102
RTVSPropertyOp7
 70
     1
102
RTVSPropertyOp8
 70
     1
102
RTVSPropertyOp9
 70
     1
102
RTVSPropertyOp10
 70
     1
102
RTVSPropertyOp11
 70
     1
102
RTVSPropertyOp12
 70
     1
102
RTVSPropertyOp13
 70
     1
102
RTVSPropertyOp14
 70
     1
102
RTVSPropertyOp15
 70
     1
102
RTVSPropertyOp16
 70
     1
102
RTVSPropertyOp17
 70
     1
102
RTVSPropertyOp18
 70
     1
102
RTVSPropertyOp19
 70
     1
102
RTVSPropertyOp20
 70
     1
102
RTVSPropertyOp21
 70
     1
102
RTVSPropertyOp22
 70
     1
102
RTVSPropertyOp23
 70
     1
102
RTVSPropertyOp24
 70
     1
102
RTVSPropertyOp25
 70
     1
102
RTVSPropertyOp26
 70
     1
102
RTVSPropertyOp27
 70
     1
102
RTVSPropertyOp28
 70
     1
102
RTVSPropertyOp29
 70
     1
102
RTVSPropertyOp30
 70
     1
102
RTVSPropertyOp31
 70
     1
102
RTVSPropertyOp32
 70
     1
102
RTVSPropertyOp33
 70
     1
102
RTVSPropertyOp34
 70
     1
102
RTVSPropertyOp35
 70
     1
102
RTVSPropertyOp36
 70
     1
102
RTVSPropertyOp37
 70
     1
102
RTVSPropertyOp38
 70
     1
102
RTVSPropertyOp39
 70
     1
102
RTVSPropertyOp40
 70
     1
102
RTVSPropertyOp41
 70
     1
102
RTVSPropertyOp42
 70
     1
102
RTVSPropertyOp43
 70
     1
102
RTVSPropertyOp44
 70
     1
102
RTVSPropertyOp45
 70
     1
102
RTVSPropertyOp46
 70
     1
102
RTVSPropertyOp47
 70
     1
102
RTVSPropertyOp48
 70
     1
102
RTVSPropertyOp49
 70
     1
102
RTVSPropertyOp50
 70
     1
102
RTVSPropertyOp51
 70
     0
102
RTVSPropertyOp52
 70
     0
102
RTVSPropertyOp53
 70
     1
102
RTVSPropertyOp54
 70
     1
102
RTVSPropertyOp55
 70
     1
102
RTVSPropertyOp56
 70
     1
102
RTVSPropertyOp57
 70
     1
102
RTVSPropertyOp58
 70
     1
102
RTVSPropertyOp59
 70
     1
102
RTVSPropertyOp60
 70
     1
102
RTVSPropertyOp61
 70
     1
102
RTVSPropertyOp62
 70
     1
  0
XRECORD
  5
385
102
{ACAD_REACTORS
330
384
102
}
330
384
100
AcDbXrecord
280
     1
102
RTVSPost2010Prop28
280
     0
102
RTVSPost2010PropOp28
 70
     1
102
RTVSPost2010Prop29
280
     1
102
RTVSPost2010PropOp29
 70
     1
102
RTVSPost2010Prop30
280
     1
102
RTVSPost2010PropOp30
 70
     1
102
RTVSPost2010Prop31
280
     0
102
RTVSPost2010PropOp31
 70
     1
102
RTVSPost2010Prop32
280
     0
102
RTVSPost2010PropOp32
 70
     1
102
RTVSPost2010Prop33
280
     0
102
RTVSPost2010PropOp33
 70
     1
102
RTVSPost2010Prop34
280
     0
102
RTVSPost2010PropOp34
 70
     1
102
RTVSPost2010Prop35
280
     0
102
RTVSPost2010PropOp35
 70
     1
102
RTVSPost2010Prop36
280
     0
102
RTVSPost2010PropOp36
 70
     1
102
RTVSPost2010Prop37
 90
       50
102
RTVSPost2010PropOp37
 70
     1
102
RTVSPost2010Prop38
140
0.0
102
RTVSPost2010PropOp38
 70
     1
102
RTVSPost2010Prop39
140
1.0
102
RTVSPost2010PropOp39
 70
     1
102
RTVSPost2010Prop40
 90
        0
102
RTVSPost2010PropOp40
 70
     1
102
RTVSPost2010Prop41ColorIndex
 90
       18
102
RTVSPost2010Prop41ColorRGB
 90
        0
102
RTVSPost2010PropOp41
 70
     1
102
RTVSPost2010Prop42
 90
       50
102
RTVSPost2010PropOp42
 70
     1
102
RTVSPost2010Prop43
 90
        3
102
RTVSPost2010PropOp43
 70
     1
102
RTVSPost2010Prop44ColorIndex
 90
        5
102
RTVSPost2010Prop44ColorRGB
 90
      255
102
RTVSPost2010PropOp44
 70
     1
102
RTVSPost2010Prop45
280
     0
102
RTVSPost2010PropOp45
 70
     1
102
RTVSPost2010Prop46
 90
       50
102
RTVSPost2010PropOp46
 70
     1
102
RTVSPost2010Prop47
 90
       50
102
RTVSPost2010PropOp47
 70
     1
102
RTVSPost2010Prop48
 90
       50
102
RTVSPost2010PropOp48
 70
     1
102
RTVSPost2010Prop49
280
     0
102
RTVSPost2010PropOp49
 70
     1
102
RTVSPost2010Prop50
 90
       50
102
RTVSPost2010PropOp50
 70
     1
102
RTVSPost2010Prop51ColorIndex
 90
      256
102
RTVSPost2010Prop51ColorRGB
 90
-16777216
102
RTVSPost2010PropOp51
 70
     0
102
RTVSPost2010Prop52
140
1.0
102
RTVSPost2010PropOp52
 70
     0
102
RTVSPost2010Prop53
 90
        2
102
RTVSPost2010PropOp53
 70
     1
102
RTVSPost2010Prop54
  1
strokes_ogs.tif
102
RTVSPost2010PropOp54
 70
     1
102
RTVSPost2010Prop55
280
     0
102
RTVSPost2010PropOp55
 70
     1
102
RTVSPost2010Prop56
140
1.0
102
RTVSPost2010PropOp56
 70
     1
102
RTVSPost2010Prop57
140
1.0
102
RTVSPost2010PropOp57
 70
     1
102
RTVSPropertyOp0
 70
     1
102
RTVSPropertyOp1
 70
     1
102
RTVSPropertyOp2
 70
     1
102
RTVSPropertyOp3
 70
     1
102
RTVSPropertyOp4
 70
     1
102
RTVSPropertyOp5
 70
     1
102
RTVSPropertyOp6
 70
     1
102
RTVSPropertyOp7
 70
     1
102
RTVSPropertyOp8
 70
     1
102
RTVSPropertyOp9
 70
     1
102
RTVSPropertyOp10
 70
     1
102
RTVSPropertyOp11
 70
     1
102
RTVSPropertyOp12
 70
     1
102
RTVSPropertyOp13
 70
     1
102
RTVSPropertyOp14
 70
     1
102
RTVSPropertyOp15
 70
     1
102
RTVSPropertyOp16
 70
     1
102
RTVSPropertyOp17
 70
     1
102
RTVSPropertyOp18
 70
     1
102
RTVSPropertyOp19
 70
     1
102
RTVSPropertyOp20
 70
     1
102
RTVSPropertyOp21
 70
     1
102
RTVSPropertyOp22
 70
     1
102
RTVSPropertyOp23
 70
     1
102
RTVSPropertyOp24
 70
     1
102
RTVSPropertyOp25
 70
     1
102
RTVSPropertyOp26
 70
     1
102
RTVSPropertyOp27
 70
     1
102
RTVSPropertyOp28
 70
     1
102
RTVSPropertyOp29
 70
     1
102
RTVSPropertyOp30
 70
     1
102
RTVSPropertyOp31
 70
     1
102
RTVSPropertyOp32
 70
     1
102
RTVSPropertyOp33
 70
     1
102
RTVSPropertyOp34
 70
     1
102
RTVSPropertyOp35
 70
     1
102
RTVSPropertyOp36
 70
     1
102
RTVSPropertyOp37
 70
     1
102
RTVSPropertyOp38
 70
     1
102
RTVSPropertyOp39
 70
     1
102
RTVSPropertyOp40
 70
     1
102
RTVSPropertyOp41
 70
     1
102
RTVSPropertyOp42
 70
     1
102
RTVSPropertyOp43
 70
     1
102
RTVSPropertyOp44
 70
     1
102
RTVSPropertyOp45
 70
     1
102
RTVSPropertyOp46
 70
     1
102
RTVSPropertyOp47
 70
     1
102
RTVSPropertyOp48
 70
     1
102
RTVSPropertyOp49
 70
     1
102
RTVSPropertyOp50
 70
     1
102
RTVSPropertyOp51
 70
     0
102
RTVSPropertyOp52
 70
     0
102
RTVSPropertyOp53
 70
     1
102
RTVSPropertyOp54
 70
     1
102
RTVSPropertyOp55
 70
     1
102
RTVSPropertyOp56
 70
     1
102
RTVSPropertyOp57
 70
     1
102
RTVSPropertyOp58
 70
     1
102
RTVSPropertyOp59
 70
     1
102
RTVSPropertyOp60
 70
     1
102
RTVSPropertyOp61
 70
     1
102
RTVSPropertyOp62
 70
     1
  0
XRECORD
  5
387
102
{ACAD_REACTORS
330
386
102
}
330
386
100
AcDbXrecord
280
     1
102
RTVSPost2010Prop28
280
     0
102
RTVSPost2010PropOp28
 70
     1
102
RTVSPost2010Prop29
280
     1
102
RTVSPost2010PropOp29
 70
     1
102
RTVSPost2010Prop30
280
     1
102
RTVSPost2010PropOp30
 70
     1
102
RTVSPost2010Prop31
280
     0
102
RTVSPost2010PropOp31
 70
     1
102
RTVSPost2010Prop32
280
     0
102
RTVSPost2010PropOp32
 70
     1
102
RTVSPost2010Prop33
280
     0
102
RTVSPost2010PropOp33
 70
     1
102
RTVSPost2010Prop34
280
     0
102
RTVSPost2010PropOp34
 70
     1
102
RTVSPost2010Prop35
280
     0
102
RTVSPost2010PropOp35
 70
     1
102
RTVSPost2010Prop36
280
     0
102
RTVSPost2010PropOp36
 70
     1
102
RTVSPost2010Prop37
 90
       50
102
RTVSPost2010PropOp37
 70
     1
102
RTVSPost2010Prop38
140
0.0
102
RTVSPost2010PropOp38
 70
     1
102
RTVSPost2010Prop39
140
1.0
102
RTVSPost2010PropOp39
 70
     1
102
RTVSPost2010Prop40
 90
        0
102
RTVSPost2010PropOp40
 70
     1
102
RTVSPost2010Prop41ColorIndex
 90
       18
102
RTVSPost2010Prop41ColorRGB
 90
        0
102
RTVSPost2010PropOp41
 70
     1
102
RTVSPost2010Prop42
 90
       50
102
RTVSPost2010PropOp42
 70
     1
102
RTVSPost2010Prop43
 90
        3
102
RTVSPost2010PropOp43
 70
     1
102
RTVSPost2010Prop44ColorIndex
 90
        5
102
RTVSPost2010Prop44ColorRGB
 90
      255
102
RTVSPost2010PropOp44
 70
     1
102
RTVSPost2010Prop45
280
     0
102
RTVSPost2010PropOp45
 70
     1
102
RTVSPost2010Prop46
 90
       50
102
RTVSPost2010PropOp46
 70
     1
102
RTVSPost2010Prop47
 90
       50
102
RTVSPost2010PropOp47
 70
     1
102
RTVSPost2010Prop48
 90
       50
102
RTVSPost2010PropOp48
 70
     1
102
RTVSPost2010Prop49
280
     0
102
RTVSPost2010PropOp49
 70
     1
102
RTVSPost2010Prop50
 90
       50
102
RTVSPost2010PropOp50
 70
     1
102
RTVSPost2010Prop51ColorIndex
 90
      256
102
RTVSPost2010Prop51ColorRGB
 90
-16777216
102
RTVSPost2010PropOp51
 70
     0
102
RTVSPost2010Prop52
140
1.0
102
RTVSPost2010PropOp52
 70
     0
102
RTVSPost2010Prop53
 90
        2
102
RTVSPost2010PropOp53
 70
     1
102
RTVSPost2010Prop54
  1
strokes_ogs.tif
102
RTVSPost2010PropOp54
 70
     1
102
RTVSPost2010Prop55
280
     0
102
RTVSPost2010PropOp55
 70
     1
102
RTVSPost2010Prop56
140
1.0
102
RTVSPost2010PropOp56
 70
     1
102
RTVSPost2010Prop57
140
1.0
102
RTVSPost2010PropOp57
 70
     1
102
RTVSPropertyOp0
 70
     1
102
RTVSPropertyOp1
 70
     1
102
RTVSPropertyOp2
 70
     1
102
RTVSPropertyOp3
 70
     1
102
RTVSPropertyOp4
 70
     1
102
RTVSPropertyOp5
 70
     1
102
RTVSPropertyOp6
 70
     1
102
RTVSPropertyOp7
 70
     1
102
RTVSPropertyOp8
 70
     1
102
RTVSPropertyOp9
 70
     1
102
RTVSPropertyOp10
 70
     1
102
RTVSPropertyOp11
 70
     1
102
RTVSPropertyOp12
 70
     1
102
RTVSPropertyOp13
 70
     1
102
RTVSPropertyOp14
 70
     1
102
RTVSPropertyOp15
 70
     1
102
RTVSPropertyOp16
 70
     1
102
RTVSPropertyOp17
 70
     1
102
RTVSPropertyOp18
 70
     1
102
RTVSPropertyOp19
 70
     1
102
RTVSPropertyOp20
 70
     1
102
RTVSPropertyOp21
 70
     1
102
RTVSPropertyOp22
 70
     1
102
RTVSPropertyOp23
 70
     1
102
RTVSPropertyOp24
 70
     1
102
RTVSPropertyOp25
 70
     1
102
RTVSPropertyOp26
 70
     1
102
RTVSPropertyOp27
 70
     1
102
RTVSPropertyOp28
 70
     1
102
RTVSPropertyOp29
 70
     1
102
RTVSPropertyOp30
 70
     1
102
RTVSPropertyOp31
 70
     1
102
RTVSPropertyOp32
 70
     1
102
RTVSPropertyOp33
 70
     1
102
RTVSPropertyOp34
 70
     1
102
RTVSPropertyOp35
 70
     1
102
RTVSPropertyOp36
 70
     1
102
RTVSPropertyOp37
 70
     1
102
RTVSPropertyOp38
 70
     1
102
RTVSPropertyOp39
 70
     1
102
RTVSPropertyOp40
 70
     1
102
RTVSPropertyOp41
 70
     1
102
RTVSPropertyOp42
 70
     1
102
RTVSPropertyOp43
 70
     1
102
RTVSPropertyOp44
 70
     1
102
RTVSPropertyOp45
 70
     1
102
RTVSPropertyOp46
 70
     1
102
RTVSPropertyOp47
 70
     1
102
RTVSPropertyOp48
 70
     1
102
RTVSPropertyOp49
 70
     1
102
RTVSPropertyOp50
 70
     1
102
RTVSPropertyOp51
 70
     0
102
RTVSPropertyOp52
 70
     0
102
RTVSPropertyOp53
 70
     1
102
RTVSPropertyOp54
 70
     1
102
RTVSPropertyOp55
 70
     1
102
RTVSPropertyOp56
 70
     1
102
RTVSPropertyOp57
 70
     1
102
RTVSPropertyOp58
 70
     1
102
RTVSPropertyOp59
 70
     1
102
RTVSPropertyOp60
 70
     1
102
RTVSPropertyOp61
 70
     1
102
RTVSPropertyOp62
 70
     1
  0
XRECORD
  5
38D
102
{ACAD_REACTORS
330
38C
102
}
330
38C
100
AcDbXrecord
280
     1
102
RTVSPost2010Prop28
280
     0
102
RTVSPost2010PropOp28
 70
     1
102
RTVSPost2010Prop29
280
     1
102
RTVSPost2010PropOp29
 70
     1
102
RTVSPost2010Prop30
280
     1
102
RTVSPost2010PropOp30
 70
     1
102
RTVSPost2010Prop31
280
     0
102
RTVSPost2010PropOp31
 70
     1
102
RTVSPost2010Prop32
280
     0
102
RTVSPost2010PropOp32
 70
     1
102
RTVSPost2010Prop33
280
     0
102
RTVSPost2010PropOp33
 70
     1
102
RTVSPost2010Prop34
280
     0
102
RTVSPost2010PropOp34
 70
     1
102
RTVSPost2010Prop35
280
     0
102
RTVSPost2010PropOp35
 70
     1
102
RTVSPost2010Prop36
280
     0
102
RTVSPost2010PropOp36
 70
     1
102
RTVSPost2010Prop37
 90
       50
102
RTVSPost2010PropOp37
 70
     1
102
RTVSPost2010Prop38
140
0.0
102
RTVSPost2010PropOp38
 70
     1
102
RTVSPost2010Prop39
140
1.0
102
RTVSPost2010PropOp39
 70
     1
102
RTVSPost2010Prop40
 90
        0
102
RTVSPost2010PropOp40
 70
     1
102
RTVSPost2010Prop41ColorIndex
 90
       18
102
RTVSPost2010Prop41ColorRGB
 90
        0
102
RTVSPost2010PropOp41
 70
     1
102
RTVSPost2010Prop42
 90
       50
102
RTVSPost2010PropOp42
 70
     1
102
RTVSPost2010Prop43
 90
        3
102
RTVSPost2010PropOp43
 70
     1
102
RTVSPost2010Prop44ColorIndex
 90
        5
102
RTVSPost2010Prop44ColorRGB
 90
      255
102
RTVSPost2010PropOp44
 70
     1
102
RTVSPost2010Prop45
280
     0
102
RTVSPost2010PropOp45
 70
     1
102
RTVSPost2010Prop46
 90
       50
102
RTVSPost2010PropOp46
 70
     1
102
RTVSPost2010Prop47
 90
       50
102
RTVSPost2010PropOp47
 70
     1
102
RTVSPost2010Prop48
 90
       50
102
RTVSPost2010PropOp48
 70
     1
102
RTVSPost2010Prop49
280
     0
102
RTVSPost2010PropOp49
 70
     1
102
RTVSPost2010Prop50
 90
       50
102
RTVSPost2010PropOp50
 70
     1
102
RTVSPost2010Prop51ColorIndex
 90
      256
102
RTVSPost2010Prop51ColorRGB
 90
-16777216
102
RTVSPost2010PropOp51
 70
     0
102
RTVSPost2010Prop52
140
1.0
102
RTVSPost2010PropOp52
 70
     0
102
RTVSPost2010Prop53
 90
        2
102
RTVSPost2010PropOp53
 70
     1
102
RTVSPost2010Prop54
  1
strokes_ogs.tif
102
RTVSPost2010PropOp54
 70
     1
102
RTVSPost2010Prop55
280
     0
102
RTVSPost2010PropOp55
 70
     1
102
RTVSPost2010Prop56
140
1.0
102
RTVSPost2010PropOp56
 70
     1
102
RTVSPost2010Prop57
140
1.0
102
RTVSPost2010PropOp57
 70
     1
102
RTVSPropertyOp0
 70
     1
102
RTVSPropertyOp1
 70
     1
102
RTVSPropertyOp2
 70
     1
102
RTVSPropertyOp3
 70
     1
102
RTVSPropertyOp4
 70
     1
102
RTVSPropertyOp5
 70
     1
102
RTVSPropertyOp6
 70
     1
102
RTVSPropertyOp7
 70
     1
102
RTVSPropertyOp8
 70
     1
102
RTVSPropertyOp9
 70
     1
102
RTVSPropertyOp10
 70
     1
102
RTVSPropertyOp11
 70
     1
102
RTVSPropertyOp12
 70
     1
102
RTVSPropertyOp13
 70
     1
102
RTVSPropertyOp14
 70
     1
102
RTVSPropertyOp15
 70
     1
102
RTVSPropertyOp16
 70
     1
102
RTVSPropertyOp17
 70
     1
102
RTVSPropertyOp18
 70
     1
102
RTVSPropertyOp19
 70
     1
102
RTVSPropertyOp20
 70
     1
102
RTVSPropertyOp21
 70
     1
102
RTVSPropertyOp22
 70
     1
102
RTVSPropertyOp23
 70
     1
102
RTVSPropertyOp24
 70
     1
102
RTVSPropertyOp25
 70
     1
102
RTVSPropertyOp26
 70
     1
102
RTVSPropertyOp27
 70
     1
102
RTVSPropertyOp28
 70
     1
102
RTVSPropertyOp29
 70
     1
102
RTVSPropertyOp30
 70
     1
102
RTVSPropertyOp31
 70
     1
102
RTVSPropertyOp32
 70
     1
102
RTVSPropertyOp33
 70
     1
102
RTVSPropertyOp34
 70
     1
102
RTVSPropertyOp35
 70
     1
102
RTVSPropertyOp36
 70
     1
102
RTVSPropertyOp37
 70
     1
102
RTVSPropertyOp38
 70
     1
102
RTVSPropertyOp39
 70
     1
102
RTVSPropertyOp40
 70
     1
102
RTVSPropertyOp41
 70
     1
102
RTVSPropertyOp42
 70
     1
102
RTVSPropertyOp43
 70
     1
102
RTVSPropertyOp44
 70
     1
102
RTVSPropertyOp45
 70
     1
102
RTVSPropertyOp46
 70
     1
102
RTVSPropertyOp47
 70
     1
102
RTVSPropertyOp48
 70
     1
102
RTVSPropertyOp49
 70
     1
102
RTVSPropertyOp50
 70
     1
102
RTVSPropertyOp51
 70
     0
102
RTVSPropertyOp52
 70
     0
102
RTVSPropertyOp53
 70
     1
102
RTVSPropertyOp54
 70
     1
102
RTVSPropertyOp55
 70
     1
102
RTVSPropertyOp56
 70
     1
102
RTVSPropertyOp57
 70
     1
102
RTVSPropertyOp58
 70
     1
102
RTVSPropertyOp59
 70
     1
102
RTVSPropertyOp60
 70
     1
102
RTVSPropertyOp61
 70
     1
102
RTVSPropertyOp62
 70
     1
  0
XRECORD
  5
3A1
102
{ACAD_REACTORS
330
3A0
102
}
330
3A0
100
AcDbXrecord
280
     1
102
RTVSPost2010Prop28
280
     0
102
RTVSPost2010PropOp28
 70
     0
102
RTVSPost2010Prop29
280
     1
102
RTVSPost2010PropOp29
 70
     0
102
RTVSPost2010Prop30
280
     1
102
RTVSPost2010PropOp30
 70
     0
102
RTVSPost2010Prop31
280
     0
102
RTVSPost2010PropOp31
 70
     0
102
RTVSPost2010Prop32
280
     0
102
RTVSPost2010PropOp32
 70
     0
102
RTVSPost2010Prop33
280
     0
102
RTVSPost2010PropOp33
 70
     0
102
RTVSPost2010Prop34
280
     0
102
RTVSPost2010PropOp34
 70
     0
102
RTVSPost2010Prop35
280
     0
102
RTVSPost2010PropOp35
 70
     0
102
RTVSPost2010Prop36
280
     0
102
RTVSPost2010PropOp36
 70
     0
102
RTVSPost2010Prop37
 90
       50
102
RTVSPost2010PropOp37
 70
     0
102
RTVSPost2010Prop38
140
0.0
102
RTVSPost2010PropOp38
 70
     0
102
RTVSPost2010Prop39
140
1.0
102
RTVSPost2010PropOp39
 70
     0
102
RTVSPost2010Prop40
 90
        0
102
RTVSPost2010PropOp40
 70
     0
102
RTVSPost2010Prop41ColorIndex
 90
       18
102
RTVSPost2010Prop41ColorRGB
 90
        0
102
RTVSPost2010PropOp41
 70
     0
102
RTVSPost2010Prop42
 90
       50
102
RTVSPost2010PropOp42
 70
     0
102
RTVSPost2010Prop43
 90
        3
102
RTVSPost2010PropOp43
 70
     0
102
RTVSPost2010Prop44ColorIndex
 90
        5
102
RTVSPost2010Prop44ColorRGB
 90
      255
102
RTVSPost2010PropOp44
 70
     0
102
RTVSPost2010Prop45
280
     0
102
RTVSPost2010PropOp45
 70
     0
102
RTVSPost2010Prop46
 90
       50
102
RTVSPost2010PropOp46
 70
     0
102
RTVSPost2010Prop47
 90
       50
102
RTVSPost2010PropOp47
 70
     0
102
RTVSPost2010Prop48
 90
       50
102
RTVSPost2010PropOp48
 70
     0
102
RTVSPost2010Prop49
280
     0
102
RTVSPost2010PropOp49
 70
     0
102
RTVSPost2010Prop50
 90
       50
102
RTVSPost2010PropOp50
 70
     0
102
RTVSPost2010Prop51ColorIndex
 90
      256
102
RTVSPost2010Prop51ColorRGB
 90
-16777216
102
RTVSPost2010PropOp51
 70
     0
102
RTVSPost2010Prop52
140
1.0
102
RTVSPost2010PropOp52
 70
     0
102
RTVSPost2010Prop53
 90
        2
102
RTVSPost2010PropOp53
 70
     0
102
RTVSPost2010Prop54
  1
strokes_ogs.tif
102
RTVSPost2010PropOp54
 70
     0
102
RTVSPost2010Prop55
280
     0
102
RTVSPost2010PropOp55
 70
     0
102
RTVSPost2010Prop56
140
1.0
102
RTVSPost2010PropOp56
 70
     0
102
RTVSPost2010Prop57
140
1.0
102
RTVSPost2010PropOp57
 70
     0
102
RTVSPropertyOp0
 70
     0
102
RTVSPropertyOp1
 70
     0
102
RTVSPropertyOp2
 70
     0
102
RTVSPropertyOp3
 70
     0
102
RTVSPropertyOp4
 70
     0
102
RTVSPropertyOp5
 70
     0
102
RTVSPropertyOp6
 70
     0
102
RTVSPropertyOp7
 70
     0
102
RTVSPropertyOp8
 70
     0
102
RTVSPropertyOp9
 70
     0
102
RTVSPropertyOp10
 70
     0
102
RTVSPropertyOp11
 70
     0
102
RTVSPropertyOp12
 70
     0
102
RTVSPropertyOp13
 70
     0
102
RTVSPropertyOp14
 70
     2
102
RTVSPropertyOp15
 70
     0
102
RTVSPropertyOp16
 70
     0
102
RTVSPropertyOp17
 70
     0
102
RTVSPropertyOp18
 70
     0
102
RTVSPropertyOp19
 70
     0
102
RTVSPropertyOp20
 70
     0
102
RTVSPropertyOp21
 70
     0
102
RTVSPropertyOp22
 70
     0
102
RTVSPropertyOp23
 70
     0
102
RTVSPropertyOp24
 70
     0
102
RTVSPropertyOp25
 70
     0
102
RTVSPropertyOp26
 70
     0
102
RTVSPropertyOp27
 70
     0
102
RTVSPropertyOp28
 70
     0
102
RTVSPropertyOp29
 70
     0
102
RTVSPropertyOp30
 70
     0
102
RTVSPropertyOp31
 70
     0
102
RTVSPropertyOp32
 70
     0
102
RTVSPropertyOp33
 70
     0
102
RTVSPropertyOp34
 70
     0
102
RTVSPropertyOp35
 70
     0
102
RTVSPropertyOp36
 70
     0
102
RTVSPropertyOp37
 70
     0
102
RTVSPropertyOp38
 70
     0
102
RTVSPropertyOp39
 70
     0
102
RTVSPropertyOp40
 70
     0
102
RTVSPropertyOp41
 70
     0
102
RTVSPropertyOp42
 70
     0
102
RTVSPropertyOp43
 70
     0
102
RTVSPropertyOp44
 70
     0
102
RTVSPropertyOp45
 70
     0
102
RTVSPropertyOp46
 70
     0
102
RTVSPropertyOp47
 70
     0
102
RTVSPropertyOp48
 70
     0
102
RTVSPropertyOp49
 70
     0
102
RTVSPropertyOp50
 70
     0
102
RTVSPropertyOp51
 70
     0
102
RTVSPropertyOp52
 70
     0
102
RTVSPropertyOp53
 70
     0
102
RTVSPropertyOp54
 70
     0
102
RTVSPropertyOp55
 70
     0
102
RTVSPropertyOp56
 70
     0
102
RTVSPropertyOp57
 70
     0
102
RTVSPropertyOp58
 70
     1
102
RTVSPropertyOp59
 70
     1
102
RTVSPropertyOp60
 70
     1
102
RTVSPropertyOp61
 70
     1
102
RTVSPropertyOp62
 70
     1
  0
XRECORD
  5
39B
102
{ACAD_REACTORS
330
39A
102
}
330
39A
100
AcDbXrecord
280
     1
102
RTVSPost2010Prop28
280
     0
102
RTVSPost2010PropOp28
 70
     1
102
RTVSPost2010Prop29
280
     1
102
RTVSPost2010PropOp29
 70
     1
102
RTVSPost2010Prop30
280
     1
102
RTVSPost2010PropOp30
 70
     1
102
RTVSPost2010Prop31
280
     0
102
RTVSPost2010PropOp31
 70
     1
102
RTVSPost2010Prop32
280
     0
102
RTVSPost2010PropOp32
 70
     1
102
RTVSPost2010Prop33
280
     0
102
RTVSPost2010PropOp33
 70
     1
102
RTVSPost2010Prop34
280
     0
102
RTVSPost2010PropOp34
 70
     1
102
RTVSPost2010Prop35
280
     0
102
RTVSPost2010PropOp35
 70
     1
102
RTVSPost2010Prop36
280
     0
102
RTVSPost2010PropOp36
 70
     1
102
RTVSPost2010Prop37
 90
       50
102
RTVSPost2010PropOp37
 70
     1
102
RTVSPost2010Prop38
140
0.0
102
RTVSPost2010PropOp38
 70
     1
102
RTVSPost2010Prop39
140
1.0
102
RTVSPost2010PropOp39
 70
     1
102
RTVSPost2010Prop40
 90
        0
102
RTVSPost2010PropOp40
 70
     1
102
RTVSPost2010Prop41ColorIndex
 90
       18
102
RTVSPost2010Prop41ColorRGB
 90
        0
102
RTVSPost2010PropOp41
 70
     1
102
RTVSPost2010Prop42
 90
       50
102
RTVSPost2010PropOp42
 70
     1
102
RTVSPost2010Prop43
 90
        3
102
RTVSPost2010PropOp43
 70
     1
102
RTVSPost2010Prop44ColorIndex
 90
        5
102
RTVSPost2010Prop44ColorRGB
 90
      255
102
RTVSPost2010PropOp44
 70
     1
102
RTVSPost2010Prop45
280
     0
102
RTVSPost2010PropOp45
 70
     1
102
RTVSPost2010Prop46
 90
       50
102
RTVSPost2010PropOp46
 70
     1
102
RTVSPost2010Prop47
 90
       50
102
RTVSPost2010PropOp47
 70
     1
102
RTVSPost2010Prop48
 90
       50
102
RTVSPost2010PropOp48
 70
     1
102
RTVSPost2010Prop49
280
     0
102
RTVSPost2010PropOp49
 70
     1
102
RTVSPost2010Prop50
 90
       50
102
RTVSPost2010PropOp50
 70
     1
102
RTVSPost2010Prop51ColorIndex
 90
      256
102
RTVSPost2010Prop51ColorRGB
 90
-16777216
102
RTVSPost2010PropOp51
 70
     0
102
RTVSPost2010Prop52
140
1.0
102
RTVSPost2010PropOp52
 70
     0
102
RTVSPost2010Prop53
 90
        2
102
RTVSPost2010PropOp53
 70
     1
102
RTVSPost2010Prop54
  1
strokes_ogs.tif
102
RTVSPost2010PropOp54
 70
     1
102
RTVSPost2010Prop55
280
     0
102
RTVSPost2010PropOp55
 70
     1
102
RTVSPost2010Prop56
140
1.0
102
RTVSPost2010PropOp56
 70
     1
102
RTVSPost2010Prop57
140
1.0
102
RTVSPost2010PropOp57
 70
     1
102
RTVSPropertyOp0
 70
     1
102
RTVSPropertyOp1
 70
     1
102
RTVSPropertyOp2
 70
     1
102
RTVSPropertyOp3
 70
     1
102
RTVSPropertyOp4
 70
     1
102
RTVSPropertyOp5
 70
     1
102
RTVSPropertyOp6
 70
     1
102
RTVSPropertyOp7
 70
     1
102
RTVSPropertyOp8
 70
     1
102
RTVSPropertyOp9
 70
     1
102
RTVSPropertyOp10
 70
     1
102
RTVSPropertyOp11
 70
     1
102
RTVSPropertyOp12
 70
     1
102
RTVSPropertyOp13
 70
     1
102
RTVSPropertyOp14
 70
     1
102
RTVSPropertyOp15
 70
     1
102
RTVSPropertyOp16
 70
     1
102
RTVSPropertyOp17
 70
     1
102
RTVSPropertyOp18
 70
     1
102
RTVSPropertyOp19
 70
     1
102
RTVSPropertyOp20
 70
     1
102
RTVSPropertyOp21
 70
     1
102
RTVSPropertyOp22
 70
     1
102
RTVSPropertyOp23
 70
     1
102
RTVSPropertyOp24
 70
     1
102
RTVSPropertyOp25
 70
     1
102
RTVSPropertyOp26
 70
     1
102
RTVSPropertyOp27
 70
     1
102
RTVSPropertyOp28
 70
     1
102
RTVSPropertyOp29
 70
     1
102
RTVSPropertyOp30
 70
     1
102
RTVSPropertyOp31
 70
     1
102
RTVSPropertyOp32
 70
     1
102
RTVSPropertyOp33
 70
     1
102
RTVSPropertyOp34
 70
     1
102
RTVSPropertyOp35
 70
     1
102
RTVSPropertyOp36
 70
     1
102
RTVSPropertyOp37
 70
     1
102
RTVSPropertyOp38
 70
     1
102
RTVSPropertyOp39
 70
     1
102
RTVSPropertyOp40
 70
     1
102
RTVSPropertyOp41
 70
     1
102
RTVSPropertyOp42
 70
     1
102
RTVSPropertyOp43
 70
     1
102
RTVSPropertyOp44
 70
     1
102
RTVSPropertyOp45
 70
     1
102
RTVSPropertyOp46
 70
     1
102
RTVSPropertyOp47
 70
     1
102
RTVSPropertyOp48
 70
     1
102
RTVSPropertyOp49
 70
     1
102
RTVSPropertyOp50
 70
     1
102
RTVSPropertyOp51
 70
     0
102
RTVSPropertyOp52
 70
     0
102
RTVSPropertyOp53
 70
     1
102
RTVSPropertyOp54
 70
     1
102
RTVSPropertyOp55
 70
     1
102
RTVSPropertyOp56
 70
     1
102
RTVSPropertyOp57
 70
     1
102
RTVSPropertyOp58
 70
     1
102
RTVSPropertyOp59
 70
     1
102
RTVSPropertyOp60
 70
     1
102
RTVSPropertyOp61
 70
     1
102
RTVSPropertyOp62
 70
     1
  0
XRECORD
  5
3A3
102
{ACAD_REACTORS
330
3A2
102
}
330
3A2
100
AcDbXrecord
280
     1
102
RTVSPost2010Prop28
280
     0
102
RTVSPost2010PropOp28
 70
     0
102
RTVSPost2010Prop29
280
     1
102
RTVSPost2010PropOp29
 70
     0
102
RTVSPost2010Prop30
280
     1
102
RTVSPost2010PropOp30
 70
     0
102
RTVSPost2010Prop31
280
     0
102
RTVSPost2010PropOp31
 70
     0
102
RTVSPost2010Prop32
280
     0
102
RTVSPost2010PropOp32
 70
     0
102
RTVSPost2010Prop33
280
     0
102
RTVSPost2010PropOp33
 70
     0
102
RTVSPost2010Prop34
280
     0
102
RTVSPost2010PropOp34
 70
     0
102
RTVSPost2010Prop35
280
     0
102
RTVSPost2010PropOp35
 70
     0
102
RTVSPost2010Prop36
280
     0
102
RTVSPost2010PropOp36
 70
     0
102
RTVSPost2010Prop37
 90
       50
102
RTVSPost2010PropOp37
 70
     0
102
RTVSPost2010Prop38
140
0.0
102
RTVSPost2010PropOp38
 70
     0
102
RTVSPost2010Prop39
140
1.0
102
RTVSPost2010PropOp39
 70
     0
102
RTVSPost2010Prop40
 90
        0
102
RTVSPost2010PropOp40
 70
     0
102
RTVSPost2010Prop41ColorIndex
 90
       18
102
RTVSPost2010Prop41ColorRGB
 90
        0
102
RTVSPost2010PropOp41
 70
     0
102
RTVSPost2010Prop42
 90
       50
102
RTVSPost2010PropOp42
 70
     0
102
RTVSPost2010Prop43
 90
        3
102
RTVSPost2010PropOp43
 70
     0
102
RTVSPost2010Prop44ColorIndex
 90
        5
102
RTVSPost2010Prop44ColorRGB
 90
      255
102
RTVSPost2010PropOp44
 70
     0
102
RTVSPost2010Prop45
280
     0
102
RTVSPost2010PropOp45
 70
     0
102
RTVSPost2010Prop46
 90
       50
102
RTVSPost2010PropOp46
 70
     0
102
RTVSPost2010Prop47
 90
       50
102
RTVSPost2010PropOp47
 70
     0
102
RTVSPost2010Prop48
 90
       50
102
RTVSPost2010PropOp48
 70
     0
102
RTVSPost2010Prop49
280
     0
102
RTVSPost2010PropOp49
 70
     0
102
RTVSPost2010Prop50
 90
       50
102
RTVSPost2010PropOp50
 70
     0
102
RTVSPost2010Prop51ColorIndex
 90
      256
102
RTVSPost2010Prop51ColorRGB
 90
-16777216
102
RTVSPost2010PropOp51
 70
     0
102
RTVSPost2010Prop52
140
1.0
102
RTVSPost2010PropOp52
 70
     0
102
RTVSPost2010Prop53
 90
        2
102
RTVSPost2010PropOp53
 70
     0
102
RTVSPost2010Prop54
  1
strokes_ogs.tif
102
RTVSPost2010PropOp54
 70
     0
102
RTVSPost2010Prop55
280
     0
102
RTVSPost2010PropOp55
 70
     0
102
RTVSPost2010Prop56
140
1.0
102
RTVSPost2010PropOp56
 70
     0
102
RTVSPost2010Prop57
140
1.0
102
RTVSPost2010PropOp57
 70
     0
102
RTVSPropertyOp0
 70
     0
102
RTVSPropertyOp1
 70
     0
102
RTVSPropertyOp2
 70
     0
102
RTVSPropertyOp3
 70
     0
102
RTVSPropertyOp4
 70
     0
102
RTVSPropertyOp5
 70
     0
102
RTVSPropertyOp6
 70
     0
102
RTVSPropertyOp7
 70
     0
102
RTVSPropertyOp8
 70
     0
102
RTVSPropertyOp9
 70
     0
102
RTVSPropertyOp10
 70
     0
102
RTVSPropertyOp11
 70
     0
102
RTVSPropertyOp12
 70
     0
102
RTVSPropertyOp13
 70
     0
102
RTVSPropertyOp14
 70
     2
102
RTVSPropertyOp15
 70
     0
102
RTVSPropertyOp16
 70
     0
102
RTVSPropertyOp17
 70
     0
102
RTVSPropertyOp18
 70
     0
102
RTVSPropertyOp19
 70
     0
102
RTVSPropertyOp20
 70
     0
102
RTVSPropertyOp21
 70
     0
102
RTVSPropertyOp22
 70
     0
102
RTVSPropertyOp23
 70
     0
102
RTVSPropertyOp24
 70
     0
102
RTVSPropertyOp25
 70
     0
102
RTVSPropertyOp26
 70
     0
102
RTVSPropertyOp27
 70
     0
102
RTVSPropertyOp28
 70
     0
102
RTVSPropertyOp29
 70
     0
102
RTVSPropertyOp30
 70
     0
102
RTVSPropertyOp31
 70
     0
102
RTVSPropertyOp32
 70
     0
102
RTVSPropertyOp33
 70
     0
102
RTVSPropertyOp34
 70
     0
102
RTVSPropertyOp35
 70
     0
102
RTVSPropertyOp36
 70
     0
102
RTVSPropertyOp37
 70
     0
102
RTVSPropertyOp38
 70
     0
102
RTVSPropertyOp39
 70
     0
102
RTVSPropertyOp40
 70
     0
102
RTVSPropertyOp41
 70
     0
102
RTVSPropertyOp42
 70
     0
102
RTVSPropertyOp43
 70
     0
102
RTVSPropertyOp44
 70
     0
102
RTVSPropertyOp45
 70
     0
102
RTVSPropertyOp46
 70
     0
102
RTVSPropertyOp47
 70
     0
102
RTVSPropertyOp48
 70
     0
102
RTVSPropertyOp49
 70
     0
102
RTVSPropertyOp50
 70
     0
102
RTVSPropertyOp51
 70
     0
102
RTVSPropertyOp52
 70
     0
102
RTVSPropertyOp53
 70
     0
102
RTVSPropertyOp54
 70
     0
102
RTVSPropertyOp55
 70
     0
102
RTVSPropertyOp56
 70
     0
102
RTVSPropertyOp57
 70
     0
102
RTVSPropertyOp58
 70
     1
102
RTVSPropertyOp59
 70
     1
102
RTVSPropertyOp60
 70
     1
102
RTVSPropertyOp61
 70
     1
102
RTVSPropertyOp62
 70
     1
  0
XRECORD
  5
391
102
{ACAD_REACTORS
330
390
102
}
330
390
100
AcDbXrecord
280
     1
102
RTVSPost2010Prop28
280
     0
102
RTVSPost2010PropOp28
 70
     1
102
RTVSPost2010Prop29
280
     1
102
RTVSPost2010PropOp29
 70
     1
102
RTVSPost2010Prop30
280
     1
102
RTVSPost2010PropOp30
 70
     1
102
RTVSPost2010Prop31
280
     0
102
RTVSPost2010PropOp31
 70
     1
102
RTVSPost2010Prop32
280
     0
102
RTVSPost2010PropOp32
 70
     1
102
RTVSPost2010Prop33
280
     0
102
RTVSPost2010PropOp33
 70
     1
102
RTVSPost2010Prop34
280
     0
102
RTVSPost2010PropOp34
 70
     1
102
RTVSPost2010Prop35
280
     0
102
RTVSPost2010PropOp35
 70
     1
102
RTVSPost2010Prop36
280
     0
102
RTVSPost2010PropOp36
 70
     1
102
RTVSPost2010Prop37
 90
       50
102
RTVSPost2010PropOp37
 70
     1
102
RTVSPost2010Prop38
140
0.0
102
RTVSPost2010PropOp38
 70
     1
102
RTVSPost2010Prop39
140
1.0
102
RTVSPost2010PropOp39
 70
     1
102
RTVSPost2010Prop40
 90
        0
102
RTVSPost2010PropOp40
 70
     1
102
RTVSPost2010Prop41ColorIndex
 90
       18
102
RTVSPost2010Prop41ColorRGB
 90
        0
102
RTVSPost2010PropOp41
 70
     1
102
RTVSPost2010Prop42
 90
       50
102
RTVSPost2010PropOp42
 70
     1
102
RTVSPost2010Prop43
 90
        3
102
RTVSPost2010PropOp43
 70
     1
102
RTVSPost2010Prop44ColorIndex
 90
        5
102
RTVSPost2010Prop44ColorRGB
 90
      255
102
RTVSPost2010PropOp44
 70
     1
102
RTVSPost2010Prop45
280
     0
102
RTVSPost2010PropOp45
 70
     1
102
RTVSPost2010Prop46
 90
       50
102
RTVSPost2010PropOp46
 70
     1
102
RTVSPost2010Prop47
 90
       50
102
RTVSPost2010PropOp47
 70
     1
102
RTVSPost2010Prop48
 90
       50
102
RTVSPost2010PropOp48
 70
     1
102
RTVSPost2010Prop49
280
     0
102
RTVSPost2010PropOp49
 70
     1
102
RTVSPost2010Prop50
 90
       50
102
RTVSPost2010PropOp50
 70
     1
102
RTVSPost2010Prop51ColorIndex
 90
      256
102
RTVSPost2010Prop51ColorRGB
 90
-16777216
102
RTVSPost2010PropOp51
 70
     0
102
RTVSPost2010Prop52
140
1.0
102
RTVSPost2010PropOp52
 70
     0
102
RTVSPost2010Prop53
 90
        2
102
RTVSPost2010PropOp53
 70
     1
102
RTVSPost2010Prop54
  1
strokes_ogs.tif
102
RTVSPost2010PropOp54
 70
     1
102
RTVSPost2010Prop55
280
     0
102
RTVSPost2010PropOp55
 70
     1
102
RTVSPost2010Prop56
140
1.0
102
RTVSPost2010PropOp56
 70
     1
102
RTVSPost2010Prop57
140
1.0
102
RTVSPost2010PropOp57
 70
     1
102
RTVSPropertyOp0
 70
     1
102
RTVSPropertyOp1
 70
     1
102
RTVSPropertyOp2
 70
     1
102
RTVSPropertyOp3
 70
     1
102
RTVSPropertyOp4
 70
     1
102
RTVSPropertyOp5
 70
     1
102
RTVSPropertyOp6
 70
     1
102
RTVSPropertyOp7
 70
     1
102
RTVSPropertyOp8
 70
     1
102
RTVSPropertyOp9
 70
     1
102
RTVSPropertyOp10
 70
     1
102
RTVSPropertyOp11
 70
     1
102
RTVSPropertyOp12
 70
     1
102
RTVSPropertyOp13
 70
     1
102
RTVSPropertyOp14
 70
     1
102
RTVSPropertyOp15
 70
     1
102
RTVSPropertyOp16
 70
     1
102
RTVSPropertyOp17
 70
     1
102
RTVSPropertyOp18
 70
     1
102
RTVSPropertyOp19
 70
     1
102
RTVSPropertyOp20
 70
     1
102
RTVSPropertyOp21
 70
     1
102
RTVSPropertyOp22
 70
     1
102
RTVSPropertyOp23
 70
     1
102
RTVSPropertyOp24
 70
     1
102
RTVSPropertyOp25
 70
     1
102
RTVSPropertyOp26
 70
     1
102
RTVSPropertyOp27
 70
     1
102
RTVSPropertyOp28
 70
     1
102
RTVSPropertyOp29
 70
     1
102
RTVSPropertyOp30
 70
     1
102
RTVSPropertyOp31
 70
     1
102
RTVSPropertyOp32
 70
     1
102
RTVSPropertyOp33
 70
     1
102
RTVSPropertyOp34
 70
     1
102
RTVSPropertyOp35
 70
     1
102
RTVSPropertyOp36
 70
     1
102
RTVSPropertyOp37
 70
     1
102
RTVSPropertyOp38
 70
     1
102
RTVSPropertyOp39
 70
     1
102
RTVSPropertyOp40
 70
     1
102
RTVSPropertyOp41
 70
     1
102
RTVSPropertyOp42
 70
     1
102
RTVSPropertyOp43
 70
     1
102
RTVSPropertyOp44
 70
     1
102
RTVSPropertyOp45
 70
     1
102
RTVSPropertyOp46
 70
     1
102
RTVSPropertyOp47
 70
     1
102
RTVSPropertyOp48
 70
     1
102
RTVSPropertyOp49
 70
     1
102
RTVSPropertyOp50
 70
     1
102
RTVSPropertyOp51
 70
     0
102
RTVSPropertyOp52
 70
     0
102
RTVSPropertyOp53
 70
     1
102
RTVSPropertyOp54
 70
     1
102
RTVSPropertyOp55
 70
     1
102
RTVSPropertyOp56
 70
     1
102
RTVSPropertyOp57
 70
     1
102
RTVSPropertyOp58
 70
     1
102
RTVSPropertyOp59
 70
     1
102
RTVSPropertyOp60
 70
     1
102
RTVSPropertyOp61
 70
     1
102
RTVSPropertyOp62
 70
     1
  0
XRECORD
  5
3AF
102
{ACAD_REACTORS
330
3AE
102
}
330
3AE
100
AcDbXrecord
280
     1
102
RTVSPost2010Prop28
280
     0
102
RTVSPost2010PropOp28
 70
     1
102
RTVSPost2010Prop29
280
     1
102
RTVSPost2010PropOp29
 70
     1
102
RTVSPost2010Prop30
280
     1
102
RTVSPost2010PropOp30
 70
     1
102
RTVSPost2010Prop31
280
     0
102
RTVSPost2010PropOp31
 70
     1
102
RTVSPost2010Prop32
280
     0
102
RTVSPost2010PropOp32
 70
     1
102
RTVSPost2010Prop33
280
     0
102
RTVSPost2010PropOp33
 70
     1
102
RTVSPost2010Prop34
280
     0
102
RTVSPost2010PropOp34
 70
     1
102
RTVSPost2010Prop35
280
     0
102
RTVSPost2010PropOp35
 70
     1
102
RTVSPost2010Prop36
280
     0
102
RTVSPost2010PropOp36
 70
     1
102
RTVSPost2010Prop37
 90
       50
102
RTVSPost2010PropOp37
 70
     1
102
RTVSPost2010Prop38
140
0.0
102
RTVSPost2010PropOp38
 70
     1
102
RTVSPost2010Prop39
140
1.0
102
RTVSPost2010PropOp39
 70
     1
102
RTVSPost2010Prop40
 90
        0
102
RTVSPost2010PropOp40
 70
     1
102
RTVSPost2010Prop41ColorIndex
 90
       18
102
RTVSPost2010Prop41ColorRGB
 90
        0
102
RTVSPost2010PropOp41
 70
     1
102
RTVSPost2010Prop42
 90
       50
102
RTVSPost2010PropOp42
 70
     1
102
RTVSPost2010Prop43
 90
        3
102
RTVSPost2010PropOp43
 70
     1
102
RTVSPost2010Prop44ColorIndex
 90
        5
102
RTVSPost2010Prop44ColorRGB
 90
      255
102
RTVSPost2010PropOp44
 70
     1
102
RTVSPost2010Prop45
280
     0
102
RTVSPost2010PropOp45
 70
     1
102
RTVSPost2010Prop46
 90
       50
102
RTVSPost2010PropOp46
 70
     1
102
RTVSPost2010Prop47
 90
       50
102
RTVSPost2010PropOp47
 70
     1
102
RTVSPost2010Prop48
 90
       50
102
RTVSPost2010PropOp48
 70
     1
102
RTVSPost2010Prop49
280
     0
102
RTVSPost2010PropOp49
 70
     1
102
RTVSPost2010Prop50
 90
       50
102
RTVSPost2010PropOp50
 70
     1
102
RTVSPost2010Prop51ColorIndex
 90
      256
102
RTVSPost2010Prop51ColorRGB
 90
-16777216
102
RTVSPost2010PropOp51
 70
     0
102
RTVSPost2010Prop52
140
1.0
102
RTVSPost2010PropOp52
 70
     0
102
RTVSPost2010Prop53
 90
        2
102
RTVSPost2010PropOp53
 70
     1
102
RTVSPost2010Prop54
  1
strokes_ogs.tif
102
RTVSPost2010PropOp54
 70
     1
102
RTVSPost2010Prop55
280
     0
102
RTVSPost2010PropOp55
 70
     1
102
RTVSPost2010Prop56
140
1.0
102
RTVSPost2010PropOp56
 70
     1
102
RTVSPost2010Prop57
140
1.0
102
RTVSPost2010PropOp57
 70
     1
102
RTVSPropertyOp0
 70
     1
102
RTVSPropertyOp1
 70
     1
102
RTVSPropertyOp2
 70
     1
102
RTVSPropertyOp3
 70
     1
102
RTVSPropertyOp4
 70
     1
102
RTVSPropertyOp5
 70
     1
102
RTVSPropertyOp6
 70
     1
102
RTVSPropertyOp7
 70
     1
102
RTVSPropertyOp8
 70
     1
102
RTVSPropertyOp9
 70
     1
102
RTVSPropertyOp10
 70
     1
102
RTVSPropertyOp11
 70
     1
102
RTVSPropertyOp12
 70
     1
102
RTVSPropertyOp13
 70
     1
102
RTVSPropertyOp14
 70
     1
102
RTVSPropertyOp15
 70
     1
102
RTVSPropertyOp16
 70
     1
102
RTVSPropertyOp17
 70
     1
102
RTVSPropertyOp18
 70
     1
102
RTVSPropertyOp19
 70
     1
102
RTVSPropertyOp20
 70
     1
102
RTVSPropertyOp21
 70
     1
102
RTVSPropertyOp22
 70
     1
102
RTVSPropertyOp23
 70
     1
102
RTVSPropertyOp24
 70
     1
102
RTVSPropertyOp25
 70
     1
102
RTVSPropertyOp26
 70
     1
102
RTVSPropertyOp27
 70
     1
102
RTVSPropertyOp28
 70
     1
102
RTVSPropertyOp29
 70
     1
102
RTVSPropertyOp30
 70
     1
102
RTVSPropertyOp31
 70
     1
102
RTVSPropertyOp32
 70
     1
102
RTVSPropertyOp33
 70
     1
102
RTVSPropertyOp34
 70
     1
102
RTVSPropertyOp35
 70
     1
102
RTVSPropertyOp36
 70
     1
102
RTVSPropertyOp37
 70
     1
102
RTVSPropertyOp38
 70
     1
102
RTVSPropertyOp39
 70
     1
102
RTVSPropertyOp40
 70
     1
102
RTVSPropertyOp41
 70
     1
102
RTVSPropertyOp42
 70
     1
102
RTVSPropertyOp43
 70
     1
102
RTVSPropertyOp44
 70
     1
102
RTVSPropertyOp45
 70
     1
102
RTVSPropertyOp46
 70
     1
102
RTVSPropertyOp47
 70
     1
102
RTVSPropertyOp48
 70
     1
102
RTVSPropertyOp49
 70
     1
102
RTVSPropertyOp50
 70
     1
102
RTVSPropertyOp51
 70
     0
102
RTVSPropertyOp52
 70
     0
102
RTVSPropertyOp53
 70
     1
102
RTVSPropertyOp54
 70
     1
102
RTVSPropertyOp55
 70
     1
102
RTVSPropertyOp56
 70
     1
102
RTVSPropertyOp57
 70
     1
102
RTVSPropertyOp58
 70
     1
102
RTVSPropertyOp59
 70
     1
102
RTVSPropertyOp60
 70
     1
102
RTVSPropertyOp61
 70
     1
102
RTVSPropertyOp62
 70
     1
  0
XRECORD
  5
3AD
102
{ACAD_REACTORS
330
3AC
102
}
330
3AC
100
AcDbXrecord
280
     1
102
RTVSPost2010Prop28
280
     0
102
RTVSPost2010PropOp28
 70
     1
102
RTVSPost2010Prop29
280
     1
102
RTVSPost2010PropOp29
 70
     1
102
RTVSPost2010Prop30
280
     1
102
RTVSPost2010PropOp30
 70
     1
102
RTVSPost2010Prop31
280
     0
102
RTVSPost2010PropOp31
 70
     1
102
RTVSPost2010Prop32
280
     0
102
RTVSPost2010PropOp32
 70
     1
102
RTVSPost2010Prop33
280
     0
102
RTVSPost2010PropOp33
 70
     1
102
RTVSPost2010Prop34
280
     0
102
RTVSPost2010PropOp34
 70
     1
102
RTVSPost2010Prop35
280
     0
102
RTVSPost2010PropOp35
 70
     1
102
RTVSPost2010Prop36
280
     0
102
RTVSPost2010PropOp36
 70
     1
102
RTVSPost2010Prop37
 90
       50
102
RTVSPost2010PropOp37
 70
     1
102
RTVSPost2010Prop38
140
0.0
102
RTVSPost2010PropOp38
 70
     1
102
RTVSPost2010Prop39
140
1.0
102
RTVSPost2010PropOp39
 70
     1
102
RTVSPost2010Prop40
 90
        0
102
RTVSPost2010PropOp40
 70
     1
102
RTVSPost2010Prop41ColorIndex
 90
       18
102
RTVSPost2010Prop41ColorRGB
 90
        0
102
RTVSPost2010PropOp41
 70
     1
102
RTVSPost2010Prop42
 90
       50
102
RTVSPost2010PropOp42
 70
     1
102
RTVSPost2010Prop43
 90
        3
102
RTVSPost2010PropOp43
 70
     1
102
RTVSPost2010Prop44ColorIndex
 90
        5
102
RTVSPost2010Prop44ColorRGB
 90
      255
102
RTVSPost2010PropOp44
 70
     1
102
RTVSPost2010Prop45
280
     0
102
RTVSPost2010PropOp45
 70
     1
102
RTVSPost2010Prop46
 90
       50
102
RTVSPost2010PropOp46
 70
     1
102
RTVSPost2010Prop47
 90
       50
102
RTVSPost2010PropOp47
 70
     1
102
RTVSPost2010Prop48
 90
       50
102
RTVSPost2010PropOp48
 70
     1
102
RTVSPost2010Prop49
280
     0
102
RTVSPost2010PropOp49
 70
     1
102
RTVSPost2010Prop50
 90
       50
102
RTVSPost2010PropOp50
 70
     1
102
RTVSPost2010Prop51ColorIndex
 90
      256
102
RTVSPost2010Prop51ColorRGB
 90
-16777216
102
RTVSPost2010PropOp51
 70
     0
102
RTVSPost2010Prop52
140
1.0
102
RTVSPost2010PropOp52
 70
     0
102
RTVSPost2010Prop53
 90
        2
102
RTVSPost2010PropOp53
 70
     1
102
RTVSPost2010Prop54
  1
strokes_ogs.tif
102
RTVSPost2010PropOp54
 70
     1
102
RTVSPost2010Prop55
280
     0
102
RTVSPost2010PropOp55
 70
     1
102
RTVSPost2010Prop56
140
1.0
102
RTVSPost2010PropOp56
 70
     1
102
RTVSPost2010Prop57
140
1.0
102
RTVSPost2010PropOp57
 70
     1
102
RTVSPropertyOp0
 70
     1
102
RTVSPropertyOp1
 70
     1
102
RTVSPropertyOp2
 70
     1
102
RTVSPropertyOp3
 70
     1
102
RTVSPropertyOp4
 70
     1
102
RTVSPropertyOp5
 70
     1
102
RTVSPropertyOp6
 70
     1
102
RTVSPropertyOp7
 70
     1
102
RTVSPropertyOp8
 70
     1
102
RTVSPropertyOp9
 70
     1
102
RTVSPropertyOp10
 70
     1
102
RTVSPropertyOp11
 70
     1
102
RTVSPropertyOp12
 70
     1
102
RTVSPropertyOp13
 70
     1
102
RTVSPropertyOp14
 70
     1
102
RTVSPropertyOp15
 70
     1
102
RTVSPropertyOp16
 70
     1
102
RTVSPropertyOp17
 70
     1
102
RTVSPropertyOp18
 70
     1
102
RTVSPropertyOp19
 70
     1
102
RTVSPropertyOp20
 70
     1
102
RTVSPropertyOp21
 70
     1
102
RTVSPropertyOp22
 70
     1
102
RTVSPropertyOp23
 70
     1
102
RTVSPropertyOp24
 70
     1
102
RTVSPropertyOp25
 70
     1
102
RTVSPropertyOp26
 70
     1
102
RTVSPropertyOp27
 70
     1
102
RTVSPropertyOp28
 70
     1
102
RTVSPropertyOp29
 70
     1
102
RTVSPropertyOp30
 70
     1
102
RTVSPropertyOp31
 70
     1
102
RTVSPropertyOp32
 70
     1
102
RTVSPropertyOp33
 70
     1
102
RTVSPropertyOp34
 70
     1
102
RTVSPropertyOp35
 70
     1
102
RTVSPropertyOp36
 70
     1
102
RTVSPropertyOp37
 70
     1
102
RTVSPropertyOp38
 70
     1
102
RTVSPropertyOp39
 70
     1
102
RTVSPropertyOp40
 70
     1
102
RTVSPropertyOp41
 70
     1
102
RTVSPropertyOp42
 70
     1
102
RTVSPropertyOp43
 70
     1
102
RTVSPropertyOp44
 70
     1
102
RTVSPropertyOp45
 70
     1
102
RTVSPropertyOp46
 70
     1
102
RTVSPropertyOp47
 70
     1
102
RTVSPropertyOp48
 70
     1
102
RTVSPropertyOp49
 70
     1
102
RTVSPropertyOp50
 70
     1
102
RTVSPropertyOp51
 70
     0
102
RTVSPropertyOp52
 70
     0
102
RTVSPropertyOp53
 70
     1
102
RTVSPropertyOp54
 70
     1
102
RTVSPropertyOp55
 70
     1
102
RTVSPropertyOp56
 70
     1
102
RTVSPropertyOp57
 70
     1
102
RTVSPropertyOp58
 70
     1
102
RTVSPropertyOp59
 70
     1
102
RTVSPropertyOp60
 70
     1
102
RTVSPropertyOp61
 70
     1
102
RTVSPropertyOp62
 70
     1
  0
XRECORD
  5
3A7
102
{ACAD_REACTORS
330
3A6
102
}
330
3A6
100
AcDbXrecord
280
     1
102
RTVSPost2010Prop28
280
     0
102
RTVSPost2010PropOp28
 70
     1
102
RTVSPost2010Prop29
280
     1
102
RTVSPost2010PropOp29
 70
     1
102
RTVSPost2010Prop30
280
     1
102
RTVSPost2010PropOp30
 70
     1
102
RTVSPost2010Prop31
280
     0
102
RTVSPost2010PropOp31
 70
     1
102
RTVSPost2010Prop32
280
     0
102
RTVSPost2010PropOp32
 70
     1
102
RTVSPost2010Prop33
280
     0
102
RTVSPost2010PropOp33
 70
     1
102
RTVSPost2010Prop34
280
     0
102
RTVSPost2010PropOp34
 70
     1
102
RTVSPost2010Prop35
280
     0
102
RTVSPost2010PropOp35
 70
     1
102
RTVSPost2010Prop36
280
     0
102
RTVSPost2010PropOp36
 70
     1
102
RTVSPost2010Prop37
 90
       50
102
RTVSPost2010PropOp37
 70
     1
102
RTVSPost2010Prop38
140
0.0
102
RTVSPost2010PropOp38
 70
     1
102
RTVSPost2010Prop39
140
1.0
102
RTVSPost2010PropOp39
 70
     1
102
RTVSPost2010Prop40
 90
        0
102
RTVSPost2010PropOp40
 70
     1
102
RTVSPost2010Prop41ColorIndex
 90
       18
102
RTVSPost2010Prop41ColorRGB
 90
        0
102
RTVSPost2010PropOp41
 70
     1
102
RTVSPost2010Prop42
 90
       50
102
RTVSPost2010PropOp42
 70
     1
102
RTVSPost2010Prop43
 90
        3
102
RTVSPost2010PropOp43
 70
     1
102
RTVSPost2010Prop44ColorIndex
 90
        5
102
RTVSPost2010Prop44ColorRGB
 90
      255
102
RTVSPost2010PropOp44
 70
     1
102
RTVSPost2010Prop45
280
     0
102
RTVSPost2010PropOp45
 70
     1
102
RTVSPost2010Prop46
 90
       50
102
RTVSPost2010PropOp46
 70
     1
102
RTVSPost2010Prop47
 90
       50
102
RTVSPost2010PropOp47
 70
     1
102
RTVSPost2010Prop48
 90
       50
102
RTVSPost2010PropOp48
 70
     1
102
RTVSPost2010Prop49
280
     0
102
RTVSPost2010PropOp49
 70
     1
102
RTVSPost2010Prop50
 90
       50
102
RTVSPost2010PropOp50
 70
     1
102
RTVSPost2010Prop51ColorIndex
 90
      256
102
RTVSPost2010Prop51ColorRGB
 90
-16777216
102
RTVSPost2010PropOp51
 70
     0
102
RTVSPost2010Prop52
140
1.0
102
RTVSPost2010PropOp52
 70
     0
102
RTVSPost2010Prop53
 90
        2
102
RTVSPost2010PropOp53
 70
     1
102
RTVSPost2010Prop54
  1
strokes_ogs.tif
102
RTVSPost2010PropOp54
 70
     1
102
RTVSPost2010Prop55
280
     0
102
RTVSPost2010PropOp55
 70
     1
102
RTVSPost2010Prop56
140
1.0
102
RTVSPost2010PropOp56
 70
     1
102
RTVSPost2010Prop57
140
1.0
102
RTVSPost2010PropOp57
 70
     1
102
RTVSPropertyOp0
 70
     1
102
RTVSPropertyOp1
 70
     1
102
RTVSPropertyOp2
 70
     1
102
RTVSPropertyOp3
 70
     1
102
RTVSPropertyOp4
 70
     1
102
RTVSPropertyOp5
 70
     1
102
RTVSPropertyOp6
 70
     1
102
RTVSPropertyOp7
 70
     1
102
RTVSPropertyOp8
 70
     1
102
RTVSPropertyOp9
 70
     1
102
RTVSPropertyOp10
 70
     1
102
RTVSPropertyOp11
 70
     1
102
RTVSPropertyOp12
 70
     1
102
RTVSPropertyOp13
 70
     1
102
RTVSPropertyOp14
 70
     1
102
RTVSPropertyOp15
 70
     1
102
RTVSPropertyOp16
 70
     1
102
RTVSPropertyOp17
 70
     1
102
RTVSPropertyOp18
 70
     1
102
RTVSPropertyOp19
 70
     1
102
RTVSPropertyOp20
 70
     1
102
RTVSPropertyOp21
 70
     1
102
RTVSPropertyOp22
 70
     1
102
RTVSPropertyOp23
 70
     1
102
RTVSPropertyOp24
 70
     1
102
RTVSPropertyOp25
 70
     1
102
RTVSPropertyOp26
 70
     1
102
RTVSPropertyOp27
 70
     1
102
RTVSPropertyOp28
 70
     1
102
RTVSPropertyOp29
 70
     1
102
RTVSPropertyOp30
 70
     1
102
RTVSPropertyOp31
 70
     1
102
RTVSPropertyOp32
 70
     1
102
RTVSPropertyOp33
 70
     1
102
RTVSPropertyOp34
 70
     1
102
RTVSPropertyOp35
 70
     1
102
RTVSPropertyOp36
 70
     1
102
RTVSPropertyOp37
 70
     1
102
RTVSPropertyOp38
 70
     1
102
RTVSPropertyOp39
 70
     1
102
RTVSPropertyOp40
 70
     1
102
RTVSPropertyOp41
 70
     1
102
RTVSPropertyOp42
 70
     1
102
RTVSPropertyOp43
 70
     1
102
RTVSPropertyOp44
 70
     1
102
RTVSPropertyOp45
 70
     1
102
RTVSPropertyOp46
 70
     1
102
RTVSPropertyOp47
 70
     1
102
RTVSPropertyOp48
 70
     1
102
RTVSPropertyOp49
 70
     1
102
RTVSPropertyOp50
 70
     1
102
RTVSPropertyOp51
 70
     0
102
RTVSPropertyOp52
 70
     0
102
RTVSPropertyOp53
 70
     1
102
RTVSPropertyOp54
 70
     1
102
RTVSPropertyOp55
 70
     1
102
RTVSPropertyOp56
 70
     1
102
RTVSPropertyOp57
 70
     1
102
RTVSPropertyOp58
 70
     1
102
RTVSPropertyOp59
 70
     1
102
RTVSPropertyOp60
 70
     1
102
RTVSPropertyOp61
 70
     1
102
RTVSPropertyOp62
 70
     1
  0
XRECORD
  5
3A9
102
{ACAD_REACTORS
330
3A8
102
}
330
3A8
100
AcDbXrecord
280
     1
102
RTVSPost2010Prop28
280
     0
102
RTVSPost2010PropOp28
 70
     1
102
RTVSPost2010Prop29
280
     1
102
RTVSPost2010PropOp29
 70
     1
102
RTVSPost2010Prop30
280
     1
102
RTVSPost2010PropOp30
 70
     1
102
RTVSPost2010Prop31
280
     0
102
RTVSPost2010PropOp31
 70
     1
102
RTVSPost2010Prop32
280
     0
102
RTVSPost2010PropOp32
 70
     1
102
RTVSPost2010Prop33
280
     0
102
RTVSPost2010PropOp33
 70
     1
102
RTVSPost2010Prop34
280
     0
102
RTVSPost2010PropOp34
 70
     1
102
RTVSPost2010Prop35
280
     0
102
RTVSPost2010PropOp35
 70
     1
102
RTVSPost2010Prop36
280
     0
102
RTVSPost2010PropOp36
 70
     1
102
RTVSPost2010Prop37
 90
       50
102
RTVSPost2010PropOp37
 70
     1
102
RTVSPost2010Prop38
140
0.0
102
RTVSPost2010PropOp38
 70
     1
102
RTVSPost2010Prop39
140
1.0
102
RTVSPost2010PropOp39
 70
     1
102
RTVSPost2010Prop40
 90
        0
102
RTVSPost2010PropOp40
 70
     1
102
RTVSPost2010Prop41ColorIndex
 90
       18
102
RTVSPost2010Prop41ColorRGB
 90
        0
102
RTVSPost2010PropOp41
 70
     1
102
RTVSPost2010Prop42
 90
       50
102
RTVSPost2010PropOp42
 70
     1
102
RTVSPost2010Prop43
 90
        3
102
RTVSPost2010PropOp43
 70
     1
102
RTVSPost2010Prop44ColorIndex
 90
        5
102
RTVSPost2010Prop44ColorRGB
 90
      255
102
RTVSPost2010PropOp44
 70
     1
102
RTVSPost2010Prop45
280
     0
102
RTVSPost2010PropOp45
 70
     1
102
RTVSPost2010Prop46
 90
       50
102
RTVSPost2010PropOp46
 70
     1
102
RTVSPost2010Prop47
 90
       50
102
RTVSPost2010PropOp47
 70
     1
102
RTVSPost2010Prop48
 90
       50
102
RTVSPost2010PropOp48
 70
     1
102
RTVSPost2010Prop49
280
     0
102
RTVSPost2010PropOp49
 70
     1
102
RTVSPost2010Prop50
 90
       50
102
RTVSPost2010PropOp50
 70
     1
102
RTVSPost2010Prop51ColorIndex
 90
      256
102
RTVSPost2010Prop51ColorRGB
 90
-16777216
102
RTVSPost2010PropOp51
 70
     0
102
RTVSPost2010Prop52
140
1.0
102
RTVSPost2010PropOp52
 70
     0
102
RTVSPost2010Prop53
 90
        2
102
RTVSPost2010PropOp53
 70
     1
102
RTVSPost2010Prop54
  1
strokes_ogs.tif
102
RTVSPost2010PropOp54
 70
     1
102
RTVSPost2010Prop55
280
     0
102
RTVSPost2010PropOp55
 70
     1
102
RTVSPost2010Prop56
140
1.0
102
RTVSPost2010PropOp56
 70
     1
102
RTVSPost2010Prop57
140
1.0
102
RTVSPost2010PropOp57
 70
     1
102
RTVSPropertyOp0
 70
     1
102
RTVSPropertyOp1
 70
     1
102
RTVSPropertyOp2
 70
     1
102
RTVSPropertyOp3
 70
     1
102
RTVSPropertyOp4
 70
     1
102
RTVSPropertyOp5
 70
     1
102
RTVSPropertyOp6
 70
     1
102
RTVSPropertyOp7
 70
     1
102
RTVSPropertyOp8
 70
     1
102
RTVSPropertyOp9
 70
     1
102
RTVSPropertyOp10
 70
     1
102
RTVSPropertyOp11
 70
     1
102
RTVSPropertyOp12
 70
     1
102
RTVSPropertyOp13
 70
     1
102
RTVSPropertyOp14
 70
     1
102
RTVSPropertyOp15
 70
     1
102
RTVSPropertyOp16
 70
     1
102
RTVSPropertyOp17
 70
     1
102
RTVSPropertyOp18
 70
     1
102
RTVSPropertyOp19
 70
     1
102
RTVSPropertyOp20
 70
     1
102
RTVSPropertyOp21
 70
     1
102
RTVSPropertyOp22
 70
     1
102
RTVSPropertyOp23
 70
     1
102
RTVSPropertyOp24
 70
     1
102
RTVSPropertyOp25
 70
     1
102
RTVSPropertyOp26
 70
     1
102
RTVSPropertyOp27
 70
     1
102
RTVSPropertyOp28
 70
     1
102
RTVSPropertyOp29
 70
     1
102
RTVSPropertyOp30
 70
     1
102
RTVSPropertyOp31
 70
     1
102
RTVSPropertyOp32
 70
     1
102
RTVSPropertyOp33
 70
     1
102
RTVSPropertyOp34
 70
     1
102
RTVSPropertyOp35
 70
     1
102
RTVSPropertyOp36
 70
     1
102
RTVSPropertyOp37
 70
     1
102
RTVSPropertyOp38
 70
     1
102
RTVSPropertyOp39
 70
     1
102
RTVSPropertyOp40
 70
     1
102
RTVSPropertyOp41
 70
     1
102
RTVSPropertyOp42
 70
     1
102
RTVSPropertyOp43
 70
     1
102
RTVSPropertyOp44
 70
     1
102
RTVSPropertyOp45
 70
     1
102
RTVSPropertyOp46
 70
     1
102
RTVSPropertyOp47
 70
     1
102
RTVSPropertyOp48
 70
     1
102
RTVSPropertyOp49
 70
     1
102
RTVSPropertyOp50
 70
     1
102
RTVSPropertyOp51
 70
     0
102
RTVSPropertyOp52
 70
     0
102
RTVSPropertyOp53
 70
     1
102
RTVSPropertyOp54
 70
     1
102
RTVSPropertyOp55
 70
     1
102
RTVSPropertyOp56
 70
     1
102
RTVSPropertyOp57
 70
     1
102
RTVSPropertyOp58
 70
     1
102
RTVSPropertyOp59
 70
     1
102
RTVSPropertyOp60
 70
     1
102
RTVSPropertyOp61
 70
     1
102
RTVSPropertyOp62
 70
     1
  0
XRECORD
  5
399
102
{ACAD_REACTORS
330
398
102
}
330
398
100
AcDbXrecord
280
     1
102
RTVSPost2010Prop28
280
     0
102
RTVSPost2010PropOp28
 70
     1
102
RTVSPost2010Prop29
280
     1
102
RTVSPost2010PropOp29
 70
     1
102
RTVSPost2010Prop30
280
     1
102
RTVSPost2010PropOp30
 70
     1
102
RTVSPost2010Prop31
280
     0
102
RTVSPost2010PropOp31
 70
     1
102
RTVSPost2010Prop32
280
     0
102
RTVSPost2010PropOp32
 70
     1
102
RTVSPost2010Prop33
280
     0
102
RTVSPost2010PropOp33
 70
     1
102
RTVSPost2010Prop34
280
     0
102
RTVSPost2010PropOp34
 70
     1
102
RTVSPost2010Prop35
280
     0
102
RTVSPost2010PropOp35
 70
     1
102
RTVSPost2010Prop36
280
     0
102
RTVSPost2010PropOp36
 70
     1
102
RTVSPost2010Prop37
 90
       50
102
RTVSPost2010PropOp37
 70
     1
102
RTVSPost2010Prop38
140
0.0
102
RTVSPost2010PropOp38
 70
     1
102
RTVSPost2010Prop39
140
1.0
102
RTVSPost2010PropOp39
 70
     1
102
RTVSPost2010Prop40
 90
        0
102
RTVSPost2010PropOp40
 70
     1
102
RTVSPost2010Prop41ColorIndex
 90
       18
102
RTVSPost2010Prop41ColorRGB
 90
        0
102
RTVSPost2010PropOp41
 70
     1
102
RTVSPost2010Prop42
 90
       50
102
RTVSPost2010PropOp42
 70
     1
102
RTVSPost2010Prop43
 90
        3
102
RTVSPost2010PropOp43
 70
     1
102
RTVSPost2010Prop44ColorIndex
 90
        5
102
RTVSPost2010Prop44ColorRGB
 90
      255
102
RTVSPost2010PropOp44
 70
     1
102
RTVSPost2010Prop45
280
     0
102
RTVSPost2010PropOp45
 70
     1
102
RTVSPost2010Prop46
 90
       50
102
RTVSPost2010PropOp46
 70
     1
102
RTVSPost2010Prop47
 90
       50
102
RTVSPost2010PropOp47
 70
     1
102
RTVSPost2010Prop48
 90
       50
102
RTVSPost2010PropOp48
 70
     1
102
RTVSPost2010Prop49
280
     0
102
RTVSPost2010PropOp49
 70
     1
102
RTVSPost2010Prop50
 90
       50
102
RTVSPost2010PropOp50
 70
     1
102
RTVSPost2010Prop51ColorIndex
 90
      256
102
RTVSPost2010Prop51ColorRGB
 90
-16777216
102
RTVSPost2010PropOp51
 70
     0
102
RTVSPost2010Prop52
140
1.0
102
RTVSPost2010PropOp52
 70
     0
102
RTVSPost2010Prop53
 90
        2
102
RTVSPost2010PropOp53
 70
     1
102
RTVSPost2010Prop54
  1
strokes_ogs.tif
102
RTVSPost2010PropOp54
 70
     1
102
RTVSPost2010Prop55
280
     0
102
RTVSPost2010PropOp55
 70
     1
102
RTVSPost2010Prop56
140
1.0
102
RTVSPost2010PropOp56
 70
     1
102
RTVSPost2010Prop57
140
1.0
102
RTVSPost2010PropOp57
 70
     1
102
RTVSPropertyOp0
 70
     1
102
RTVSPropertyOp1
 70
     1
102
RTVSPropertyOp2
 70
     1
102
RTVSPropertyOp3
 70
     1
102
RTVSPropertyOp4
 70
     1
102
RTVSPropertyOp5
 70
     1
102
RTVSPropertyOp6
 70
     1
102
RTVSPropertyOp7
 70
     1
102
RTVSPropertyOp8
 70
     1
102
RTVSPropertyOp9
 70
     1
102
RTVSPropertyOp10
 70
     1
102
RTVSPropertyOp11
 70
     1
102
RTVSPropertyOp12
 70
     1
102
RTVSPropertyOp13
 70
     1
102
RTVSPropertyOp14
 70
     1
102
RTVSPropertyOp15
 70
     1
102
RTVSPropertyOp16
 70
     1
102
RTVSPropertyOp17
 70
     1
102
RTVSPropertyOp18
 70
     1
102
RTVSPropertyOp19
 70
     1
102
RTVSPropertyOp20
 70
     1
102
RTVSPropertyOp21
 70
     1
102
RTVSPropertyOp22
 70
     1
102
RTVSPropertyOp23
 70
     1
102
RTVSPropertyOp24
 70
     1
102
RTVSPropertyOp25
 70
     1
102
RTVSPropertyOp26
 70
     1
102
RTVSPropertyOp27
 70
     1
102
RTVSPropertyOp28
 70
     1
102
RTVSPropertyOp29
 70
     1
102
RTVSPropertyOp30
 70
     1
102
RTVSPropertyOp31
 70
     1
102
RTVSPropertyOp32
 70
     1
102
RTVSPropertyOp33
 70
     1
102
RTVSPropertyOp34
 70
     1
102
RTVSPropertyOp35
 70
     1
102
RTVSPropertyOp36
 70
     1
102
RTVSPropertyOp37
 70
     1
102
RTVSPropertyOp38
 70
     1
102
RTVSPropertyOp39
 70
     1
102
RTVSPropertyOp40
 70
     1
102
RTVSPropertyOp41
 70
     1
102
RTVSPropertyOp42
 70
     1
102
RTVSPropertyOp43
 70
     1
102
RTVSPropertyOp44
 70
     1
102
RTVSPropertyOp45
 70
     1
102
RTVSPropertyOp46
 70
     1
102
RTVSPropertyOp47
 70
     1
102
RTVSPropertyOp48
 70
     1
102
RTVSPropertyOp49
 70
     1
102
RTVSPropertyOp50
 70
     1
102
RTVSPropertyOp51
 70
     0
102
RTVSPropertyOp52
 70
     0
102
RTVSPropertyOp53
 70
     1
102
RTVSPropertyOp54
 70
     1
102
RTVSPropertyOp55
 70
     1
102
RTVSPropertyOp56
 70
     1
102
RTVSPropertyOp57
 70
     1
102
RTVSPropertyOp58
 70
     1
102
RTVSPropertyOp59
 70
     1
102
RTVSPropertyOp60
 70
     1
102
RTVSPropertyOp61
 70
     1
102
RTVSPropertyOp62
 70
     1
  0
XRECORD
  5
38B
102
{ACAD_REACTORS
330
38A
102
}
330
38A
100
AcDbXrecord
280
     1
102
RTVSPost2010Prop28
280
     0
102
RTVSPost2010PropOp28
 70
     1
102
RTVSPost2010Prop29
280
     1
102
RTVSPost2010PropOp29
 70
     1
102
RTVSPost2010Prop30
280
     1
102
RTVSPost2010PropOp30
 70
     1
102
RTVSPost2010Prop31
280
     0
102
RTVSPost2010PropOp31
 70
     1
102
RTVSPost2010Prop32
280
     0
102
RTVSPost2010PropOp32
 70
     1
102
RTVSPost2010Prop33
280
     0
102
RTVSPost2010PropOp33
 70
     1
102
RTVSPost2010Prop34
280
     0
102
RTVSPost2010PropOp34
 70
     1
102
RTVSPost2010Prop35
280
     0
102
RTVSPost2010PropOp35
 70
     1
102
RTVSPost2010Prop36
280
     0
102
RTVSPost2010PropOp36
 70
     1
102
RTVSPost2010Prop37
 90
       50
102
RTVSPost2010PropOp37
 70
     1
102
RTVSPost2010Prop38
140
0.0
102
RTVSPost2010PropOp38
 70
     1
102
RTVSPost2010Prop39
140
1.0
102
RTVSPost2010PropOp39
 70
     1
102
RTVSPost2010Prop40
 90
        0
102
RTVSPost2010PropOp40
 70
     1
102
RTVSPost2010Prop41ColorIndex
 90
       18
102
RTVSPost2010Prop41ColorRGB
 90
        0
102
RTVSPost2010PropOp41
 70
     1
102
RTVSPost2010Prop42
 90
       50
102
RTVSPost2010PropOp42
 70
     1
102
RTVSPost2010Prop43
 90
        3
102
RTVSPost2010PropOp43
 70
     1
102
RTVSPost2010Prop44ColorIndex
 90
        5
102
RTVSPost2010Prop44ColorRGB
 90
      255
102
RTVSPost2010PropOp44
 70
     1
102
RTVSPost2010Prop45
280
     0
102
RTVSPost2010PropOp45
 70
     1
102
RTVSPost2010Prop46
 90
       50
102
RTVSPost2010PropOp46
 70
     1
102
RTVSPost2010Prop47
 90
       50
102
RTVSPost2010PropOp47
 70
     1
102
RTVSPost2010Prop48
 90
       50
102
RTVSPost2010PropOp48
 70
     1
102
RTVSPost2010Prop49
280
     0
102
RTVSPost2010PropOp49
 70
     1
102
RTVSPost2010Prop50
 90
       50
102
RTVSPost2010PropOp50
 70
     1
102
RTVSPost2010Prop51ColorIndex
 90
      256
102
RTVSPost2010Prop51ColorRGB
 90
-16777216
102
RTVSPost2010PropOp51
 70
     0
102
RTVSPost2010Prop52
140
1.0
102
RTVSPost2010PropOp52
 70
     0
102
RTVSPost2010Prop53
 90
        2
102
RTVSPost2010PropOp53
 70
     1
102
RTVSPost2010Prop54
  1
strokes_ogs.tif
102
RTVSPost2010PropOp54
 70
     1
102
RTVSPost2010Prop55
280
     0
102
RTVSPost2010PropOp55
 70
     1
102
RTVSPost2010Prop56
140
1.0
102
RTVSPost2010PropOp56
 70
     1
102
RTVSPost2010Prop57
140
1.0
102
RTVSPost2010PropOp57
 70
     1
102
RTVSPropertyOp0
 70
     1
102
RTVSPropertyOp1
 70
     1
102
RTVSPropertyOp2
 70
     1
102
RTVSPropertyOp3
 70
     1
102
RTVSPropertyOp4
 70
     1
102
RTVSPropertyOp5
 70
     1
102
RTVSPropertyOp6
 70
     1
102
RTVSPropertyOp7
 70
     1
102
RTVSPropertyOp8
 70
     1
102
RTVSPropertyOp9
 70
     1
102
RTVSPropertyOp10
 70
     1
102
RTVSPropertyOp11
 70
     1
102
RTVSPropertyOp12
 70
     1
102
RTVSPropertyOp13
 70
     1
102
RTVSPropertyOp14
 70
     1
102
RTVSPropertyOp15
 70
     1
102
RTVSPropertyOp16
 70
     1
102
RTVSPropertyOp17
 70
     1
102
RTVSPropertyOp18
 70
     1
102
RTVSPropertyOp19
 70
     1
102
RTVSPropertyOp20
 70
     1
102
RTVSPropertyOp21
 70
     1
102
RTVSPropertyOp22
 70
     1
102
RTVSPropertyOp23
 70
     1
102
RTVSPropertyOp24
 70
     1
102
RTVSPropertyOp25
 70
     1
102
RTVSPropertyOp26
 70
     1
102
RTVSPropertyOp27
 70
     1
102
RTVSPropertyOp28
 70
     1
102
RTVSPropertyOp29
 70
     1
102
RTVSPropertyOp30
 70
     1
102
RTVSPropertyOp31
 70
     1
102
RTVSPropertyOp32
 70
     1
102
RTVSPropertyOp33
 70
     1
102
RTVSPropertyOp34
 70
     1
102
RTVSPropertyOp35
 70
     1
102
RTVSPropertyOp36
 70
     1
102
RTVSPropertyOp37
 70
     1
102
RTVSPropertyOp38
 70
     1
102
RTVSPropertyOp39
 70
     1
102
RTVSPropertyOp40
 70
     1
102
RTVSPropertyOp41
 70
     1
102
RTVSPropertyOp42
 70
     1
102
RTVSPropertyOp43
 70
     1
102
RTVSPropertyOp44
 70
     1
102
RTVSPropertyOp45
 70
     1
102
RTVSPropertyOp46
 70
     1
102
RTVSPropertyOp47
 70
     1
102
RTVSPropertyOp48
 70
     1
102
RTVSPropertyOp49
 70
     1
102
RTVSPropertyOp50
 70
     1
102
RTVSPropertyOp51
 70
     0
102
RTVSPropertyOp52
 70
     0
102
RTVSPropertyOp53
 70
     1
102
RTVSPropertyOp54
 70
     1
102
RTVSPropertyOp55
 70
     1
102
RTVSPropertyOp56
 70
     1
102
RTVSPropertyOp57
 70
     1
102
RTVSPropertyOp58
 70
     1
102
RTVSPropertyOp59
 70
     1
102
RTVSPropertyOp60
 70
     1
102
RTVSPropertyOp61
 70
     1
102
RTVSPropertyOp62
 70
     1
  0
XRECORD
  5
3AB
102
{ACAD_REACTORS
330
3AA
102
}
330
3AA
100
AcDbXrecord
280
     1
102
RTVSPost2010Prop28
280
     0
102
RTVSPost2010PropOp28
 70
     1
102
RTVSPost2010Prop29
280
     1
102
RTVSPost2010PropOp29
 70
     1
102
RTVSPost2010Prop30
280
     1
102
RTVSPost2010PropOp30
 70
     1
102
RTVSPost2010Prop31
280
     0
102
RTVSPost2010PropOp31
 70
     1
102
RTVSPost2010Prop32
280
     0
102
RTVSPost2010PropOp32
 70
     1
102
RTVSPost2010Prop33
280
     0
102
RTVSPost2010PropOp33
 70
     1
102
RTVSPost2010Prop34
280
     0
102
RTVSPost2010PropOp34
 70
     1
102
RTVSPost2010Prop35
280
     0
102
RTVSPost2010PropOp35
 70
     1
102
RTVSPost2010Prop36
280
     0
102
RTVSPost2010PropOp36
 70
     1
102
RTVSPost2010Prop37
 90
       50
102
RTVSPost2010PropOp37
 70
     1
102
RTVSPost2010Prop38
140
0.0
102
RTVSPost2010PropOp38
 70
     1
102
RTVSPost2010Prop39
140
1.0
102
RTVSPost2010PropOp39
 70
     1
102
RTVSPost2010Prop40
 90
        0
102
RTVSPost2010PropOp40
 70
     1
102
RTVSPost2010Prop41ColorIndex
 90
       18
102
RTVSPost2010Prop41ColorRGB
 90
        0
102
RTVSPost2010PropOp41
 70
     1
102
RTVSPost2010Prop42
 90
       50
102
RTVSPost2010PropOp42
 70
     1
102
RTVSPost2010Prop43
 90
        3
102
RTVSPost2010PropOp43
 70
     1
102
RTVSPost2010Prop44ColorIndex
 90
        5
102
RTVSPost2010Prop44ColorRGB
 90
      255
102
RTVSPost2010PropOp44
 70
     1
102
RTVSPost2010Prop45
280
     0
102
RTVSPost2010PropOp45
 70
     1
102
RTVSPost2010Prop46
 90
       50
102
RTVSPost2010PropOp46
 70
     1
102
RTVSPost2010Prop47
 90
       50
102
RTVSPost2010PropOp47
 70
     1
102
RTVSPost2010Prop48
 90
       50
102
RTVSPost2010PropOp48
 70
     1
102
RTVSPost2010Prop49
280
     0
102
RTVSPost2010PropOp49
 70
     1
102
RTVSPost2010Prop50
 90
       50
102
RTVSPost2010PropOp50
 70
     1
102
RTVSPost2010Prop51ColorIndex
 90
      256
102
RTVSPost2010Prop51ColorRGB
 90
-16777216
102
RTVSPost2010PropOp51
 70
     0
102
RTVSPost2010Prop52
140
1.0
102
RTVSPost2010PropOp52
 70
     0
102
RTVSPost2010Prop53
 90
        2
102
RTVSPost2010PropOp53
 70
     1
102
RTVSPost2010Prop54
  1
strokes_ogs.tif
102
RTVSPost2010PropOp54
 70
     1
102
RTVSPost2010Prop55
280
     0
102
RTVSPost2010PropOp55
 70
     1
102
RTVSPost2010Prop56
140
1.0
102
RTVSPost2010PropOp56
 70
     1
102
RTVSPost2010Prop57
140
1.0
102
RTVSPost2010PropOp57
 70
     1
102
RTVSPropertyOp0
 70
     1
102
RTVSPropertyOp1
 70
     1
102
RTVSPropertyOp2
 70
     1
102
RTVSPropertyOp3
 70
     1
102
RTVSPropertyOp4
 70
     1
102
RTVSPropertyOp5
 70
     1
102
RTVSPropertyOp6
 70
     1
102
RTVSPropertyOp7
 70
     1
102
RTVSPropertyOp8
 70
     1
102
RTVSPropertyOp9
 70
     1
102
RTVSPropertyOp10
 70
     1
102
RTVSPropertyOp11
 70
     1
102
RTVSPropertyOp12
 70
     1
102
RTVSPropertyOp13
 70
     1
102
RTVSPropertyOp14
 70
     1
102
RTVSPropertyOp15
 70
     1
102
RTVSPropertyOp16
 70
     1
102
RTVSPropertyOp17
 70
     1
102
RTVSPropertyOp18
 70
     1
102
RTVSPropertyOp19
 70
     1
102
RTVSPropertyOp20
 70
     1
102
RTVSPropertyOp21
 70
     1
102
RTVSPropertyOp22
 70
     1
102
RTVSPropertyOp23
 70
     1
102
RTVSPropertyOp24
 70
     1
102
RTVSPropertyOp25
 70
     1
102
RTVSPropertyOp26
 70
     1
102
RTVSPropertyOp27
 70
     1
102
RTVSPropertyOp28
 70
     1
102
RTVSPropertyOp29
 70
     1
102
RTVSPropertyOp30
 70
     1
102
RTVSPropertyOp31
 70
     1
102
RTVSPropertyOp32
 70
     1
102
RTVSPropertyOp33
 70
     1
102
RTVSPropertyOp34
 70
     1
102
RTVSPropertyOp35
 70
     1
102
RTVSPropertyOp36
 70
     1
102
RTVSPropertyOp37
 70
     1
102
RTVSPropertyOp38
 70
     1
102
RTVSPropertyOp39
 70
     1
102
RTVSPropertyOp40
 70
     1
102
RTVSPropertyOp41
 70
     1
102
RTVSPropertyOp42
 70
     1
102
RTVSPropertyOp43
 70
     1
102
RTVSPropertyOp44
 70
     1
102
RTVSPropertyOp45
 70
     1
102
RTVSPropertyOp46
 70
     1
102
RTVSPropertyOp47
 70
     1
102
RTVSPropertyOp48
 70
     1
102
RTVSPropertyOp49
 70
     1
102
RTVSPropertyOp50
 70
     1
102
RTVSPropertyOp51
 70
     0
102
RTVSPropertyOp52
 70
     0
102
RTVSPropertyOp53
 70
     1
102
RTVSPropertyOp54
 70
     1
102
RTVSPropertyOp55
 70
     1
102
RTVSPropertyOp56
 70
     1
102
RTVSPropertyOp57
 70
     1
102
RTVSPropertyOp58
 70
     1
102
RTVSPropertyOp59
 70
     1
102
RTVSPropertyOp60
 70
     1
102
RTVSPropertyOp61
 70
     1
102
RTVSPropertyOp62
 70
     1
  0
ENDSEC
  0
EOF
