  0
SECTION
  2
HEADER
  9
$ACADVER
  1
AC1018
  9
$ACADMAINTVER
 70
   104
  9
$DWGCODEPAGE
  3
ANSI_1250
  9
$LASTSAVEDBY
  1
wq7085
  9
$INSBASE
 10
0.0
 20
0.0
 30
0.0
  9
$EXTMIN
 10
188.6658343333333
 20
118.534924
 30
0.0
  9
$EXTMAX
 10
403.112049
 20
345.2288016666667
 30
0.0
  9
$LIMMIN
 10
-0.5
 20
-0.5
  9
$LIMMAX
 10
5.0
 20
5.0
  9
$ORTHOMODE
 70
     0
  9
$REGENMODE
 70
     1
  9
$FILLMODE
 70
     1
  9
$QTEXTMODE
 70
     0
  9
$MIRRTEXT
 70
     1
  9
$LTSCALE
 40
1.0
  9
$ATTMODE
 70
     1
  9
$TEXTSIZE
 40
0.2
  9
$TRACEWID
 40
0.05
  9
$TEXTSTYLE
  7
Standard
  9
$CLAYER
  8
0
  9
$CELTYPE
  6
ByLayer
  9
$CECOLOR
 62
   256
  9
$CELTSCALE
 40
1.0
  9
$DISPSILH
 70
     0
  9
$DIMSCALE
 40
1.0
  9
$DIMASZ
 40
0.18
  9
$DIMEXO
 40
0.0625
  9
$DIMDLI
 40
0.38
  9
$DIMRND
 40
0.0
  9
$DIMDLE
 40
0.0
  9
$DIMEXE
 40
0.18
  9
$DIMTP
 40
0.0
  9
$DIMTM
 40
0.0
  9
$DIMTXT
 40
0.18
  9
$DIMCEN
 40
0.09
  9
$DIMTSZ
 40
0.0
  9
$DIMTOL
 70
     0
  9
$DIMLIM
 70
     0
  9
$DIMTIH
 70
     1
  9
$DIMTOH
 70
     1
  9
$DIMSE1
 70
     0
  9
$DIMSE2
 70
     0
  9
$DIMTAD
 70
     0
  9
$DIMZIN
 70
     0
  9
$DIMBLK
  1

  9
$DIMASO
 70
     1
  9
$DIMSHO
 70
     1
  9
$DIMPOST
  1

  9
$DIMAPOST
  1

  9
$DIMALT
 70
     0
  9
$DIMALTD
 70
     2
  9
$DIMALTF
 40
25.4
  9
$DIMLFAC
 40
1.0
  9
$DIMTOFL
 70
     0
  9
$DIMTVP
 40
0.0
  9
$DIMTIX
 70
     0
  9
$DIMSOXD
 70
     0
  9
$DIMSAH
 70
     0
  9
$DIMBLK1
  1

  9
$DIMBLK2
  1

  9
$DIMSTYLE
  2
Standard
  9
$DIMCLRD
 70
     0
  9
$DIMCLRE
 70
     0
  9
$DIMCLRT
 70
     0
  9
$DIMTFAC
 40
1.0
  9
$DIMGAP
 40
0.09
  9
$DIMJUST
 70
     0
  9
$DIMSD1
 70
     0
  9
$DIMSD2
 70
     0
  9
$DIMTOLJ
 70
     1
  9
$DIMTZIN
 70
     0
  9
$DIMALTZ
 70
     0
  9
$DIMALTTZ
 70
     0
  9
$DIMUPT
 70
     0
  9
$DIMDEC
 70
     4
  9
$DIMTDEC
 70
     4
  9
$DIMALTU
 70
     2
  9
$DIMALTTD
 70
     2
  9
$DIMTXSTY
  7
Standard
  9
$DIMAUNIT
 70
     0
  9
$DIMADEC
 70
     0
  9
$DIMALTRND
 40
0.0
  9
$DIMAZIN
 70
     0
  9
$DIMDSEP
 70
    46
  9
$DIMATFIT
 70
     3
  9
$DIMFRAC
 70
     0
  9
$DIMLDRBLK
  1

  9
$DIMLUNIT
 70
     2
  9
$DIMLWD
 70
    -2
  9
$DIMLWE
 70
    -2
  9
$DIMTMOVE
 70
     0
  9
$LUNITS
 70
     2
  9
$LUPREC
 70
     4
  9
$SKETCHINC
 40
0.1
  9
$FILLETRAD
 40
0.5
  9
$AUNITS
 70
     0
  9
$AUPREC
 70
     0
  9
$MENU
  1
.
  9
$ELEVATION
 40
0.0
  9
$PELEVATION
 40
0.0
  9
$THICKNESS
 40
0.0
  9
$LIMCHECK
 70
     0
  9
$CHAMFERA
 40
0.0
  9
$CHAMFERB
 40
0.0
  9
$CHAMFERC
 40
0.0
  9
$CHAMFERD
 40
0.0
  9
$SKPOLY
 70
     0
  9
$TDCREATE
 40
2459005.371643519
  9
$TDUCREATE
 40
2459005.288313715
  9
$TDUPDATE
 40
2459005.372673611
  9
$TDUUPDATE
 40
2459005.289340278
  9
$TDINDWG
 40
0.0006597338
  9
$TDUSRTIMER
 40
0.0006597338
  9
$USRTIMER
 70
     1
  9
$ANGBASE
 50
0.0
  9
$ANGDIR
 70
     0
  9
$PDMODE
 70
     0
  9
$PDSIZE
 40
0.0
  9
$PLINEWID
 40
0.0
  9
$SPLFRAME
 70
     0
  9
$SPLINETYPE
 70
     6
  9
$SPLINESEGS
 70
     8
  9
$HANDSEED
  5
39C
  9
$SURFTAB1
 70
     6
  9
$SURFTAB2
 70
     6
  9
$SURFTYPE
 70
     6
  9
$SURFU
 70
     6
  9
$SURFV
 70
     6
  9
$UCSBASE
  2

  9
$UCSNAME
  2

  9
$UCSORG
 10
274.404842
 20
288.907994
 30
0.0
  9
$UCSXDIR
 10
1.0
 20
0.0
 30
0.0
  9
$UCSYDIR
 10
0.0
 20
1.0
 30
0.0
  9
$UCSORTHOREF
  2

  9
$UCSORTHOVIEW
 70
     0
  9
$UCSORGTOP
 10
0.0
 20
0.0
 30
0.0
  9
$UCSORGBOTTOM
 10
0.0
 20
0.0
 30
0.0
  9
$UCSORGLEFT
 10
0.0
 20
0.0
 30
0.0
  9
$UCSORGRIGHT
 10
0.0
 20
0.0
 30
0.0
  9
$UCSORGFRONT
 10
0.0
 20
0.0
 30
0.0
  9
$UCSORGBACK
 10
0.0
 20
0.0
 30
0.0
  9
$PUCSBASE
  2

  9
$PUCSNAME
  2

  9
$PUCSORG
 10
0.0
 20
0.0
 30
0.0
  9
$PUCSXDIR
 10
1.0
 20
0.0
 30
0.0
  9
$PUCSYDIR
 10
0.0
 20
1.0
 30
0.0
  9
$PUCSORTHOREF
  2

  9
$PUCSORTHOVIEW
 70
     0
  9
$PUCSORGTOP
 10
0.0
 20
0.0
 30
0.0
  9
$PUCSORGBOTTOM
 10
0.0
 20
0.0
 30
0.0
  9
$PUCSORGLEFT
 10
0.0
 20
0.0
 30
0.0
  9
$PUCSORGRIGHT
 10
0.0
 20
0.0
 30
0.0
  9
$PUCSORGFRONT
 10
0.0
 20
0.0
 30
0.0
  9
$PUCSORGBACK
 10
0.0
 20
0.0
 30
0.0
  9
$USERI1
 70
     0
  9
$USERI2
 70
     0
  9
$USERI3
 70
     0
  9
$USERI4
 70
     0
  9
$USERI5
 70
     0
  9
$USERR1
 40
0.0
  9
$USERR2
 40
0.0
  9
$USERR3
 40
0.0
  9
$USERR4
 40
0.0
  9
$USERR5
 40
0.0
  9
$WORLDVIEW
 70
     1
  9
$SHADEDGE
 70
     3
  9
$SHADEDIF
 70
    70
  9
$TILEMODE
 70
     1
  9
$MAXACTVP
 70
    64
  9
$PINSBASE
 10
0.0
 20
0.0
 30
0.0
  9
$PLIMCHECK
 70
     0
  9
$PEXTMIN
 10
-0.5
 20
-0.5
 30
-0.5
  9
$PEXTMAX
 10
5.0
 20
5.0
 30
5.0
  9
$PLIMMIN
 10
-0.5
 20
-0.5
  9
$PLIMMAX
 10
5.0
 20
5.0
  9
$UNITMODE
 70
     0
  9
$VISRETAIN
 70
     1
  9
$PLINEGEN
 70
     0
  9
$PSLTSCALE
 70
     1
  9
$TREEDEPTH
 70
  3020
  9
$CMLSTYLE
  2
Standard
  9
$CMLJUST
 70
     0
  9
$CMLSCALE
 40
1.0
  9
$PROXYGRAPHICS
 70
     1
  9
$MEASUREMENT
 70
     1
  9
$CELWEIGHT
370
    13
  9
$ENDCAPS
280
     0
  9
$JOINSTYLE
280
     0
  9
$LWDISPLAY
290
     0
  9
$INSUNITS
 70
     4
  9
$HYPERLINKBASE
  1

  9
$STYLESHEET
  1

  9
$XEDIT
290
     1
  9
$CEPSNTYPE
380
     0
  9
$PSTYLEMODE
290
     1
  9
$FINGERPRINTGUID
  2
{DEDE2B08-1D55-46C9-8B6A-7B2CAEE96A7D}
  9
$VERSIONGUID
  2
{71709D59-5248-704D-88AF-A3771806E768}
  9
$EXTNAMES
290
     1
  9
$PSVPSCALE
 40
0.0
  9
$OLESTARTUP
290
     0
  9
$SORTENTS
280
   127
  9
$INDEXCTL
280
     0
  9
$HIDETEXT
280
     1
  9
$XCLIPFRAME
290
     0
  9
$HALOGAP
280
     0
  9
$OBSCOLOR
 70
   257
  9
$OBSLTYPE
280
     0
  9
$INTERSECTIONDISPLAY
280
     0
  9
$INTERSECTIONCOLOR
 70
   257
  9
$DIMASSOC
280
     2
  9
$PROJECTNAME
  1

  0
ENDSEC
  0
SECTION
  2
CLASSES
  0
CLASS
  1
ACDBDICTIONARYWDFLT
  2
AcDbDictionaryWithDefault
  3
ObjectDBX Classes
 90
        0
 91
        1
280
     0
281
     0
  0
CLASS
  1
VISUALSTYLE
  2
AcDbVisualStyle
  3
ObjectDBX Classes
 90
     4095
 91
       24
280
     0
281
     0
  0
CLASS
  1
MATERIAL
  2
AcDbMaterial
  3
ObjectDBX Classes
 90
     1153
 91
        3
280
     0
281
     0
  0
CLASS
  1
SCALE
  2
AcDbScale
  3
ObjectDBX Classes
 90
     1153
 91
       33
280
     0
281
     0
  0
CLASS
  1
TABLESTYLE
  2
AcDbTableStyle
  3
ObjectDBX Classes
 90
     4095
 91
        1
280
     0
281
     0
  0
CLASS
  1
MLEADERSTYLE
  2
AcDbMLeaderStyle
  3
ACDB_MLEADERSTYLE_CLASS
 90
     4095
 91
        1
280
     0
281
     0
  0
CLASS
  1
SUN
  2
AcDbSun
  3
SCENEOE
 90
     1153
 91
        0
280
     0
281
     0
  0
CLASS
  1
DIMASSOC
  2
AcDbDimAssoc
  3
"AcDbDimAssoc|Product Desc:     AcDim ARX App For Dimension|Company:          Autodesk, Inc.|WEB Address:      www.autodesk.com"
 90
        0
 91
        7
280
     0
281
     0
  0
CLASS
  1
DICTIONARYVAR
  2
AcDbDictionaryVar
  3
ObjectDBX Classes
 90
        0
 91
        8
280
     0
281
     0
  0
CLASS
  1
CELLSTYLEMAP
  2
AcDbCellStyleMap
  3
ObjectDBX Classes
 90
     1152
 91
        2
280
     0
281
     0
  0
CLASS
  1
ACDBSECTIONVIEWSTYLE
  2
AcDbSectionViewStyle
  3
ObjectDBX Classes
 90
     1025
 91
        1
280
     0
281
     0
  0
CLASS
  1
ACDBDETAILVIEWSTYLE
  2
AcDbDetailViewStyle
  3
ObjectDBX Classes
 90
     1025
 91
        1
280
     0
281
     0
  0
CLASS
  1
SORTENTSTABLE
  2
AcDbSortentsTable
  3
ObjectDBX Classes
 90
        0
 91
        1
280
     0
281
     0
  0
ENDSEC
  0
SECTION
  2
TABLES
  0
TABLE
  2
VPORT
  5
8
330
0
100
AcDbSymbolTable
 70
    16
  0
VPORT
  5
29
330
8
100
AcDbSymbolTableRecord
100
AcDbViewportTableRecord
  2
*Active
 70
     0
 10
0.0
 20
0.0
 11
1.0
 21
1.0
 12
316.8186973382376
 22
287.0208523992163
 13
0.0
 23
0.0
 14
0.5
 24
0.5
 15
0.5
 25
0.5
 16
0.0
 26
0.0
 36
1.0
 17
0.0
 27
0.0
 37
0.0
 40
205.364896966685
 41
2.283154121863799
 42
50.0
 43
413.5126819999999
 44
-413.5126819999999
 50
0.0
 51
0.0
 71
     0
 72
   100
 73
     1
 74
     3
 75
     0
 76
     0
 77
     0
 78
     0
281
     0
 65
     1
110
274.404842
120
288.907994
130
0.0
111
1.0
121
0.0
131
0.0
112
0.0
122
1.0
132
0.0
 79
     0
146
0.0
1001
ACAD_NAV_VCDISPLAY
1070
     3
  0
VPORT
  5
2A0
330
8
100
AcDbSymbolTableRecord
100
AcDbViewportTableRecord
  2
L1
 70
     0
 10
0.0
 20
0.0
 11
1.0
 21
1.0
 12
295.384743
 22
231.8453470000001
 13
0.0
 23
0.0
 14
0.5
 24
0.5
 15
0.5
 25
0.5
 16
0.0
 26
0.0
 36
1.0
 17
0.0
 27
0.0
 37
0.0
 40
207.433333
 41
0.085602
 42
50.0
 43
413.5126819999999
 44
-413.5126819999999
 50
0.0
 51
0.0
 71
     0
 72
   100
 73
     1
 74
     3
 75
     0
 76
     0
 77
     0
 78
     0
281
     0
 65
     1
110
0.0
120
0.0
130
0.0
111
1.0
121
0.0
131
0.0
112
0.0
122
1.0
132
0.0
 79
     0
146
0.0
  0
VPORT
  5
2A1
330
8
100
AcDbSymbolTableRecord
100
AcDbViewportTableRecord
  2
L2
 70
     0
 10
0.0
 20
0.0
 11
0.5
 21
1.0
 12
0.0
 22
0.0
 13
0.0
 23
0.0
 14
0.5
 24
0.5
 15
0.5
 25
0.5
 16
0.0
 26
-1.0
 36
0.0
 17
0.0
 27
0.0
 37
0.0
 40
1319.735116
 41
0.013455
 42
50.0
 43
679.920199
 44
-679.920199
 50
0.0
 51
0.0
 71
     0
 72
   100
 73
     1
 74
     3
 75
     0
 76
     0
 77
     0
 78
     0
281
     0
 65
     1
110
0.0
120
0.0
130
0.0
111
1.0
121
0.0
131
0.0
112
0.0
122
1.0
132
0.0
 79
     0
146
0.0
  0
VPORT
  5
2A2
330
8
100
AcDbSymbolTableRecord
100
AcDbViewportTableRecord
  2
L2
 70
     0
 10
0.5
 20
0.0
 11
1.0
 21
1.0
 12
0.0
 22
0.0
 13
0.0
 23
0.0
 14
0.5
 24
0.5
 15
0.5
 25
0.5
 16
1.0
 26
0.0
 36
0.0
 17
0.0
 27
0.0
 37
0.0
 40
1319.735116
 41
0.013455
 42
50.0
 43
667.9688169999999
 44
-667.9688169999999
 50
0.0
 51
0.0
 71
     0
 72
   100
 73
     1
 74
     3
 75
     0
 76
     0
 77
     0
 78
     0
281
     0
 65
     1
110
0.0
120
0.0
130
0.0
111
1.0
121
0.0
131
0.0
112
0.0
122
1.0
132
0.0
 79
     0
146
0.0
  0
VPORT
  5
2A3
330
8
100
AcDbSymbolTableRecord
100
AcDbViewportTableRecord
  2
L3
 70
     0
 10
0.0
 20
0.5
 11
1.0
 21
1.0
 12
295.384743
 22
231.8453470000001
 13
0.0
 23
0.0
 14
0.5
 24
0.5
 15
0.5
 25
0.5
 16
0.0
 26
0.0
 36
1.0
 17
0.0
 27
0.0
 37
0.0
 40
207.433333
 41
0.085602
 42
50.0
 43
413.5126819999999
 44
-413.5126819999999
 50
0.0
 51
0.0
 71
     0
 72
   100
 73
     1
 74
     3
 75
     0
 76
     0
 77
     0
 78
     0
281
     0
 65
     1
110
0.0
120
0.0
130
0.0
111
1.0
121
0.0
131
0.0
112
0.0
122
1.0
132
0.0
 79
     0
146
0.0
  0
VPORT
  5
2A4
330
8
100
AcDbSymbolTableRecord
100
AcDbViewportTableRecord
  2
L3
 70
     0
 10
0.0
 20
0.0
 11
1.0
 21
0.5
 12
0.0
 22
0.0
 13
0.0
 23
0.0
 14
0.5
 24
0.5
 15
0.5
 25
0.5
 16
0.0
 26
-1.0
 36
0.0
 17
0.0
 27
0.0
 37
0.0
 40
1319.735116
 41
0.013455
 42
50.0
 43
679.920199
 44
-679.920199
 50
0.0
 51
0.0
 71
     0
 72
   100
 73
     1
 74
     3
 75
     0
 76
     0
 77
     0
 78
     0
281
     0
 65
     1
110
0.0
120
0.0
130
0.0
111
1.0
121
0.0
131
0.0
112
0.0
122
1.0
132
0.0
 79
     0
146
0.0
  0
VPORT
  5
2A5
330
8
100
AcDbSymbolTableRecord
100
AcDbViewportTableRecord
  2
L4
 70
     0
 10
0.0
 20
0.5
 11
0.5
 21
1.0
 12
295.384743
 22
231.8453470000001
 13
0.0
 23
0.0
 14
0.5
 24
0.5
 15
0.5
 25
0.5
 16
0.0
 26
0.0
 36
1.0
 17
0.0
 27
0.0
 37
0.0
 40
207.433333
 41
0.085602
 42
50.0
 43
413.5126819999999
 44
-413.5126819999999
 50
0.0
 51
0.0
 71
     0
 72
   100
 73
     1
 74
     3
 75
     0
 76
     0
 77
     0
 78
     0
281
     0
 65
     1
110
0.0
120
0.0
130
0.0
111
1.0
121
0.0
131
0.0
112
0.0
122
1.0
132
0.0
 79
     0
146
0.0
  0
VPORT
  5
2A6
330
8
100
AcDbSymbolTableRecord
100
AcDbViewportTableRecord
  2
L4
 70
     0
 10
0.0
 20
0.0
 11
0.5
 21
0.5
 12
0.0
 22
0.0
 13
0.0
 23
0.0
 14
0.5
 24
0.5
 15
0.5
 25
0.5
 16
0.0
 26
-1.0
 36
0.0
 17
0.0
 27
0.0
 37
0.0
 40
1319.735116
 41
0.013455
 42
50.0
 43
679.920199
 44
-679.920199
 50
0.0
 51
0.0
 71
     0
 72
   100
 73
     1
 74
     3
 75
     0
 76
     0
 77
     0
 78
     0
281
     0
 65
     1
110
0.0
120
0.0
130
0.0
111
1.0
121
0.0
131
0.0
112
0.0
122
1.0
132
0.0
 79
     0
146
0.0
  0
VPORT
  5
2A7
330
8
100
AcDbSymbolTableRecord
100
AcDbViewportTableRecord
  2
L4
 70
     0
 10
0.5
 20
0.0
 11
1.0
 21
0.5
 12
0.0
 22
0.0
 13
0.0
 23
0.0
 14
0.5
 24
0.5
 15
0.5
 25
0.5
 16
1.0
 26
0.0
 36
0.0
 17
0.0
 27
0.0
 37
0.0
 40
1319.735116
 41
0.013455
 42
50.0
 43
667.9688169999999
 44
-667.9688169999999
 50
0.0
 51
0.0
 71
     0
 72
   100
 73
     1
 74
     3
 75
     0
 76
     0
 77
     0
 78
     0
281
     0
 65
     1
110
0.0
120
0.0
130
0.0
111
1.0
121
0.0
131
0.0
112
0.0
122
1.0
132
0.0
 79
     0
146
0.0
  0
VPORT
  5
2A8
330
8
100
AcDbSymbolTableRecord
100
AcDbViewportTableRecord
  2
L4
 70
     0
 10
0.5
 20
0.5
 11
1.0
 21
1.0
 12
0.0
 22
0.0
 13
0.0
 23
0.0
 14
0.5
 24
0.5
 15
0.5
 25
0.5
 16
0.5773502691896259
 26
-0.5773502691896259
 36
0.5773502691896259
 17
0.0
 27
0.0
 37
0.0
 40
1296.074958
 41
0.0137
 42
50.0
 43
675.1032679999999
 44
-675.1032679999999
 50
0.0
 51
0.0
 71
     0
 72
   100
 73
     1
 74
     3
 75
     0
 76
     0
 77
     0
 78
     0
281
     0
 65
     1
110
0.0
120
0.0
130
0.0
111
1.0
121
0.0
131
0.0
112
0.0
122
1.0
132
0.0
 79
     0
146
0.0
  0
VPORT
  5
2A9
330
8
100
AcDbSymbolTableRecord
100
AcDbViewportTableRecord
  2
L6
 70
     0
 10
0.0
 20
0.5
 11
0.333333
 21
1.0
 12
0.0
 22
0.0
 13
0.0
 23
0.0
 14
0.5
 24
0.5
 15
0.5
 25
0.5
 16
0.7188730927569434
 26
-0.5850486126764433
 36
0.3754192287502549
 17
0.0
 27
0.0
 37
0.0
 40
1367.812327
 41
0.012982
 42
50.0
 43
708.2012429999999
 44
-708.2012429999999
 50
0.0
 51
0.0
 71
     0
 72
   100
 73
     1
 74
     3
 75
     0
 76
     0
 77
     0
 78
     0
281
     0
 65
     1
110
0.0
120
0.0
130
0.0
111
1.0
121
0.0
131
0.0
112
0.0
122
1.0
132
0.0
 79
     0
146
0.0
  0
VPORT
  5
2AA
330
8
100
AcDbSymbolTableRecord
100
AcDbViewportTableRecord
  2
L6
 70
     0
 10
0.0
 20
0.0
 11
0.333333
 21
0.5
 12
0.0
 22
0.0
 13
0.0
 23
0.0
 14
0.5
 24
0.5
 15
0.5
 25
0.5
 16
-1.0
 26
0.0
 36
0.0
 17
0.0
 27
0.0
 37
0.0
 40
1319.735116
 41
0.013455
 42
50.0
 43
667.9688169999999
 44
-667.9688169999999
 50
0.0
 51
0.0
 71
     0
 72
   100
 73
     1
 74
     3
 75
     0
 76
     0
 77
     0
 78
     0
281
     0
 65
     1
110
0.0
120
0.0
130
0.0
111
1.0
121
0.0
131
0.0
112
0.0
122
1.0
132
0.0
 79
     0
146
0.0
  0
VPORT
  5
2AB
330
8
100
AcDbSymbolTableRecord
100
AcDbViewportTableRecord
  2
L6
 70
     0
 10
0.333333
 20
0.5
 11
0.666667
 21
1.0
 12
295.384743
 22
231.8453470000001
 13
0.0
 23
0.0
 14
0.5
 24
0.5
 15
0.5
 25
0.5
 16
0.0
 26
0.0
 36
1.0
 17
0.0
 27
0.0
 37
0.0
 40
207.433333
 41
0.085602
 42
50.0
 43
413.5126819999999
 44
-413.5126819999999
 50
0.0
 51
0.0
 71
     0
 72
   100
 73
     1
 74
     3
 75
     0
 76
     0
 77
     0
 78
     0
281
     0
 65
     1
110
0.0
120
0.0
130
0.0
111
1.0
121
0.0
131
0.0
112
0.0
122
1.0
132
0.0
 79
     0
146
0.0
  0
VPORT
  5
2AC
330
8
100
AcDbSymbolTableRecord
100
AcDbViewportTableRecord
  2
L6
 70
     0
 10
0.333333
 20
0.0
 11
0.666667
 21
0.5
 12
0.0
 22
0.0
 13
0.0
 23
0.0
 14
0.5
 24
0.5
 15
0.5
 25
0.5
 16
0.0
 26
-1.0
 36
0.0
 17
0.0
 27
0.0
 37
0.0
 40
1319.735116
 41
0.013455
 42
50.0
 43
679.920199
 44
-679.920199
 50
0.0
 51
0.0
 71
     0
 72
   100
 73
     1
 74
     3
 75
     0
 76
     0
 77
     0
 78
     0
281
     0
 65
     1
110
0.0
120
0.0
130
0.0
111
1.0
121
0.0
131
0.0
112
0.0
122
1.0
132
0.0
 79
     0
146
0.0
  0
VPORT
  5
2AD
330
8
100
AcDbSymbolTableRecord
100
AcDbViewportTableRecord
  2
L6
 70
     0
 10
0.666667
 20
0.5
 11
1.0
 21
1.0
 12
0.0
 22
0.0
 13
0.0
 23
0.0
 14
0.5
 24
0.5
 15
0.5
 25
0.5
 16
0.5773502691896259
 26
-0.5773502691896259
 36
0.5773502691896259
 17
0.0
 27
0.0
 37
0.0
 40
1296.074958
 41
0.0137
 42
50.0
 43
675.1032679999999
 44
-675.1032679999999
 50
0.0
 51
0.0
 71
     0
 72
   100
 73
     1
 74
     3
 75
     0
 76
     0
 77
     0
 78
     0
281
     0
 65
     1
110
0.0
120
0.0
130
0.0
111
1.0
121
0.0
131
0.0
112
0.0
122
1.0
132
0.0
 79
     0
146
0.0
  0
VPORT
  5
2AE
330
8
100
AcDbSymbolTableRecord
100
AcDbViewportTableRecord
  2
L6
 70
     0
 10
0.666667
 20
0.0
 11
1.0
 21
0.5
 12
0.0
 22
0.0
 13
0.0
 23
0.0
 14
0.5
 24
0.5
 15
0.5
 25
0.5
 16
1.0
 26
0.0
 36
0.0
 17
0.0
 27
0.0
 37
0.0
 40
1319.735116
 41
0.013455
 42
50.0
 43
667.9688169999999
 44
-667.9688169999999
 50
0.0
 51
0.0
 71
     0
 72
   100
 73
     1
 74
     3
 75
     0
 76
     0
 77
     0
 78
     0
281
     0
 65
     1
110
0.0
120
0.0
130
0.0
111
1.0
121
0.0
131
0.0
112
0.0
122
1.0
132
0.0
 79
     0
146
0.0
  0
ENDTAB
  0
TABLE
  2
LTYPE
  5
5
330
0
100
AcDbSymbolTable
 70
     7
  0
LTYPE
  5
14
330
5
100
AcDbSymbolTableRecord
100
AcDbLinetypeTableRecord
  2
ByBlock
 70
     0
  3

 72
    65
 73
     0
 40
0.0
  0
LTYPE
  5
15
330
5
100
AcDbSymbolTableRecord
100
AcDbLinetypeTableRecord
  2
ByLayer
 70
     0
  3

 72
    65
 73
     0
 40
0.0
  0
LTYPE
  5
16
330
5
100
AcDbSymbolTableRecord
100
AcDbLinetypeTableRecord
  2
Continuous
 70
     0
  3
Solid line
 72
    65
 73
     0
 40
0.0
  0
LTYPE
  5
6E
330
5
100
AcDbSymbolTableRecord
100
AcDbLinetypeTableRecord
  2
CENTER
 70
     0
  3
____ _ ____ _ ____ _ ____
 72
    65
 73
     4
 40
47.4
 49
22.0
 74
     4
 75
     0
340
0
 46
0.0
 50
0.0
 44
0.0
 45
0.0
 49
-8.5
 74
     4
 75
     0
340
0
 46
0.0
 50
0.0
 44
0.0
 45
0.0
 49
8.5
 74
     4
 75
     0
340
0
 46
0.0
 50
0.0
 44
0.0
 45
0.0
 49
-8.5
 74
     4
 75
     0
340
0
 46
0.0
 50
0.0
 44
0.0
 45
0.0
  0
LTYPE
  5
6F
330
5
100
AcDbSymbolTableRecord
100
AcDbLinetypeTableRecord
  2
DASHDOT
 70
     0
  3
_._._._._._._._._._._._._._._._.
 72
    65
 73
     4
 40
70.0
 49
31.0
 74
     4
 75
     0
340
0
 46
0.0
 50
0.0
 44
0.0
 45
0.0
 49
-13.0
 74
     4
 75
     0
340
0
 46
0.0
 50
0.0
 44
0.0
 45
0.0
 49
13.0
 74
     4
 75
     0
340
0
 46
0.0
 50
0.0
 44
0.0
 45
0.0
 49
-13.0
 74
     4
 75
     0
340
0
 46
0.0
 50
0.0
 44
0.0
 45
0.0
  0
LTYPE
  5
70
330
5
100
AcDbSymbolTableRecord
100
AcDbLinetypeTableRecord
  2
DASHED
 70
     0
  3
__ __ __ __ __ __ __ __ __
 72
    65
 73
     2
 40
25.72
 49
12.86
 74
     4
 75
     0
340
0
 46
0.0
 50
0.0
 44
0.0
 45
0.0
 49
-12.86
 74
     4
 75
     0
340
0
 46
0.0
 50
0.0
 44
0.0
 45
0.0
  0
LTYPE
  5
71
330
5
100
AcDbSymbolTableRecord
100
AcDbLinetypeTableRecord
  2
DOT
 70
     0
  3
.........................
 72
    65
 73
     2
 40
10.0
 49
0.0
 74
     4
 75
     0
340
0
 46
0.0
 50
0.0
 44
0.0
 45
0.0
 49
-10.0
 74
     4
 75
     0
340
0
 46
0.0
 50
0.0
 44
0.0
 45
0.0
  0
LTYPE
  5
72
330
5
100
AcDbSymbolTableRecord
100
AcDbLinetypeTableRecord
  2
PHANTOM
 70
     0
  3
____ _ _ ____ _ _ _____ _ _ ____
 72
    65
 73
     6
 40
50.5
 49
18.0
 74
     4
 75
     0
340
0
 46
0.0
 50
0.0
 44
0.0
 45
0.0
 49
-6.5
 74
     4
 75
     0
340
0
 46
0.0
 50
0.0
 44
0.0
 45
0.0
 49
6.5
 74
     4
 75
     0
340
0
 46
0.0
 50
0.0
 44
0.0
 45
0.0
 49
-6.5
 74
     4
 75
     0
340
0
 46
0.0
 50
0.0
 44
0.0
 45
0.0
 49
6.5
 74
     4
 75
     0
340
0
 46
0.0
 50
0.0
 44
0.0
 45
0.0
 49
-6.5
 74
     4
 75
     0
340
0
 46
0.0
 50
0.0
 44
0.0
 45
0.0
  0
LTYPE
  5
33E
330
5
100
AcDbSymbolTableRecord
100
AcDbLinetypeTableRecord
  2
CENTER2
 70
     0
  3
Center (.5x) ___ _ ___ _ ___ _ ___ _ ___ _ ___
 72
    65
 73
     4
 40
1.125
 49
0.75
 74
     0
 49
-0.125
 74
     0
 49
0.125
 74
     0
 49
-0.125
 74
     0
  0
ENDTAB
  0
TABLE
  2
LAYER
  5
2
330
0
100
AcDbSymbolTable
 70
    22
  0
LAYER
  5
10
102
{ACAD_XDICTIONARY
360
349
102
}
330
2
100
AcDbSymbolTableRecord
100
AcDbLayerTableRecord
  2
0
 70
     0
 62
     7
  6
Continuous
370
    -3
390
F
  0
LAYER
  5
1FA
330
2
100
AcDbSymbolTableRecord
100
AcDbLayerTableRecord
  2
Defpoints
 70
     0
 62
     7
  6
Continuous
290
     0
370
    -3
390
F
  0
LAYER
  5
33B
102
{ACAD_XDICTIONARY
360
34B
102
}
330
2
100
AcDbSymbolTableRecord
100
AcDbLayerTableRecord
  2
1
 70
     0
 62
     4
  6
Continuous
370
    -3
390
F
  0
LAYER
  5
33C
102
{ACAD_XDICTIONARY
360
34D
102
}
330
2
100
AcDbSymbolTableRecord
100
AcDbLayerTableRecord
  2
2
 70
     0
 62
     7
  6
Continuous
370
    -3
390
F
  0
LAYER
  5
33D
102
{ACAD_XDICTIONARY
360
34F
102
}
330
2
100
AcDbSymbolTableRecord
100
AcDbLayerTableRecord
  2
4
 70
     0
 62
     2
  6
CENTER2
370
    -3
390
F
  0
LAYER
  5
33F
102
{ACAD_XDICTIONARY
360
351
102
}
330
2
100
AcDbSymbolTableRecord
100
AcDbLayerTableRecord
  2
SK1
 70
     0
 62
     4
  6
Continuous
370
    -3
390
F
  0
LAYER
  5
340
102
{ACAD_XDICTIONARY
360
353
102
}
330
2
100
AcDbSymbolTableRecord
100
AcDbLayerTableRecord
  2
SK2
 70
     0
 62
     7
  6
Continuous
370
    -3
390
F
  0
LAYER
  5
342
102
{ACAD_XDICTIONARY
360
355
102
}
330
2
100
AcDbSymbolTableRecord
100
AcDbLayerTableRecord
  2
SK4
 70
     0
 62
     2
  6
CENTER2
370
    -3
390
F
  0
LAYER
  5
343
102
{ACAD_XDICTIONARY
360
357
102
}
330
2
100
AcDbSymbolTableRecord
100
AcDbLayerTableRecord
  2
SK6
 70
     0
 62
     5
  6
Continuous
370
    -3
390
F
  0
LAYER
  5
344
102
{ACAD_XDICTIONARY
360
359
102
}
330
2
100
AcDbSymbolTableRecord
100
AcDbLayerTableRecord
  2
CUT
 70
     0
 62
     1
  6
Continuous
370
    -3
390
F
  0
LAYER
  5
345
102
{ACAD_XDICTIONARY
360
35B
102
}
330
2
100
AcDbSymbolTableRecord
100
AcDbLayerTableRecord
  2
NOCUT
 70
     0
 62
     7
  6
Continuous
370
    -3
390
F
  0
LAYER
  5
346
102
{ACAD_XDICTIONARY
360
35D
102
}
330
2
100
AcDbSymbolTableRecord
100
AcDbLayerTableRecord
  2
80
 70
     0
 62
     6
  6
Continuous
370
    -3
390
F
  0
LAYER
  5
347
102
{ACAD_XDICTIONARY
360
35F
102
}
330
2
100
AcDbSymbolTableRecord
100
AcDbLayerTableRecord
  2
81
 70
     0
 62
     3
  6
Continuous
370
    -3
390
F
  0
ENDTAB
  0
TABLE
  2
STYLE
  5
3
330
0
100
AcDbSymbolTable
 70
     3
  0
STYLE
  5
11
330
3
100
AcDbSymbolTableRecord
100
AcDbTextStyleTableRecord
  2
Standard
 70
     0
 40
0.0
 41
1.0
 50
0.0
 71
     0
 42
0.2
  3
txt
  4

  0
STYLE
  5
1F3
330
3
100
AcDbSymbolTableRecord
100
AcDbTextStyleTableRecord
  2
cesky
 70
     0
 40
0.0
 41
1.0
 50
0.0
 71
     0
 42
0.2
  3
simplex.shx
  4

  0
STYLE
  5
1F4
330
3
100
AcDbSymbolTableRecord
100
AcDbTextStyleTableRecord
  2
DWGDirectTextStyle
 70
     0
 40
0.0
 41
1.0
 50
0.0
 71
     0
 42
0.2
  3
simplex
  4

  0
ENDTAB
  0
TABLE
  2
VIEW
  5
6
330
0
100
AcDbSymbolTable
 70
     0
  0
ENDTAB
  0
TABLE
  2
UCS
  5
7
330
0
100
AcDbSymbolTable
 70
     0
  0
ENDTAB
  0
TABLE
  2
APPID
  5
9
330
0
100
AcDbSymbolTable
 70
     7
  0
APPID
  5
12
330
9
100
AcDbSymbolTableRecord
100
AcDbRegAppTableRecord
  2
ACAD
 70
     0
  0
APPID
  5
1F6
330
9
100
AcDbSymbolTableRecord
100
AcDbRegAppTableRecord
  2
ACAD_DSTYLE_DIMBREAK
 70
     0
  0
APPID
  5
2AF
330
9
100
AcDbSymbolTableRecord
100
AcDbRegAppTableRecord
  2
ACAD_DSTYLE_DIM_LINETYPE
 70
     0
  0
APPID
  5
2B0
330
9
100
AcDbSymbolTableRecord
100
AcDbRegAppTableRecord
  2
ACAD_DSTYLE_DIM_EXT1_LINETYPE
 70
     0
  0
APPID
  5
2B1
330
9
100
AcDbSymbolTableRecord
100
AcDbRegAppTableRecord
  2
ACAD_DSTYLE_DIM_EXT2_LINETYPE
 70
     0
  0
APPID
  5
2F1
330
9
100
AcDbSymbolTableRecord
100
AcDbRegAppTableRecord
  2
ACAD_MLEADERVER
 70
     0
  0
APPID
  5
364
330
9
100
AcDbSymbolTableRecord
100
AcDbRegAppTableRecord
  2
ACAD_NAV_VCDISPLAY
 70
     0
  0
ENDTAB
  0
TABLE
  2
DIMSTYLE
  5
A
330
0
100
AcDbSymbolTable
 70
     1
100
AcDbDimStyleTable
 71
     0
  0
DIMSTYLE
105
27
330
A
100
AcDbSymbolTableRecord
100
AcDbDimStyleTableRecord
  2
Standard
 70
     0
340
11
1001
ACAD_DSTYLE_DIMBREAK
1070
   391
1040
6.349999999999999
  0
ENDTAB
  0
TABLE
  2
BLOCK_RECORD
  5
1
330
0
100
AcDbSymbolTable
 70
    16
  0
BLOCK_RECORD
  5
1F
102
{ACAD_XDICTIONARY
360
301
102
}
330
1
100
AcDbSymbolTableRecord
100
AcDbBlockTableRecord
  2
*Model_Space
340
22
  0
BLOCK_RECORD
  5
1B
330
1
100
AcDbSymbolTableRecord
100
AcDbBlockTableRecord
  2
*Paper_Space
340
1E
  0
BLOCK_RECORD
  5
23
330
1
100
AcDbSymbolTableRecord
100
AcDbBlockTableRecord
  2
*Paper_Space0
340
26
  0
BLOCK_RECORD
  5
1ED
330
1
100
AcDbSymbolTableRecord
100
AcDbBlockTableRecord
  2
ASSORTED_DRAFT1
340
0
  0
BLOCK_RECORD
  5
1FB
330
1
100
AcDbSymbolTableRecord
100
AcDbBlockTableRecord
  2
*D2
340
0
  0
BLOCK_RECORD
  5
207
330
1
100
AcDbSymbolTableRecord
100
AcDbBlockTableRecord
  2
_U0
340
0
  0
BLOCK_RECORD
  5
213
330
1
100
AcDbSymbolTableRecord
100
AcDbBlockTableRecord
  2
*D4
340
0
  0
BLOCK_RECORD
  5
21F
330
1
100
AcDbSymbolTableRecord
100
AcDbBlockTableRecord
  2
_U1
340
0
  0
BLOCK_RECORD
  5
22B
330
1
100
AcDbSymbolTableRecord
100
AcDbBlockTableRecord
  2
*D6
340
0
  0
BLOCK_RECORD
  5
237
330
1
100
AcDbSymbolTableRecord
100
AcDbBlockTableRecord
  2
_U2
340
0
  0
BLOCK_RECORD
  5
243
330
1
100
AcDbSymbolTableRecord
100
AcDbBlockTableRecord
  2
*D8
340
0
  0
BLOCK_RECORD
  5
24F
330
1
100
AcDbSymbolTableRecord
100
AcDbBlockTableRecord
  2
_U3
340
0
  0
BLOCK_RECORD
  5
25B
330
1
100
AcDbSymbolTableRecord
100
AcDbBlockTableRecord
  2
*D10
340
0
  0
BLOCK_RECORD
  5
266
330
1
100
AcDbSymbolTableRecord
100
AcDbBlockTableRecord
  2
_U4
340
0
  0
BLOCK_RECORD
  5
271
330
1
100
AcDbSymbolTableRecord
100
AcDbBlockTableRecord
  2
*D12
340
0
  0
BLOCK_RECORD
  5
27D
330
1
100
AcDbSymbolTableRecord
100
AcDbBlockTableRecord
  2
_U5
340
0
  0
BLOCK_RECORD
  5
28A
330
1
100
AcDbSymbolTableRecord
100
AcDbBlockTableRecord
  2
*D14
340
0
  0
BLOCK_RECORD
  5
296
330
1
100
AcDbSymbolTableRecord
100
AcDbBlockTableRecord
  2
_U6
340
0
  0
ENDTAB
  0
ENDSEC
  0
SECTION
  2
BLOCKS
  0
BLOCK
  5
20
330
1F
100
AcDbEntity
  8
0
100
AcDbBlockBegin
  2
*Model_Space
 70
     0
 10
0.0
 20
0.0
 30
0.0
  3
*Model_Space
  1

  0
ENDBLK
  5
21
330
1F
100
AcDbEntity
  8
0
100
AcDbBlockEnd
  0
BLOCK
  5
1C
330
1B
100
AcDbEntity
 67
     1
  8
0
100
AcDbBlockBegin
  2
*Paper_Space
 70
     0
 10
0.0
 20
0.0
 30
0.0
  3
*Paper_Space
  1

  0
ENDBLK
  5
1D
330
1B
100
AcDbEntity
 67
     1
  8
0
100
AcDbBlockEnd
  0
BLOCK
  5
24
330
23
100
AcDbEntity
 67
     1
  8
0
100
AcDbBlockBegin
  2
*Paper_Space0
 70
     0
 10
0.0
 20
0.0
 30
0.0
  3
*Paper_Space0
  1

  0
ENDBLK
  5
25
330
23
100
AcDbEntity
 67
     1
  8
0
100
AcDbBlockEnd
  0
BLOCK
  5
1F0
330
1ED
100
AcDbEntity
  8
0
100
AcDbBlockBegin
  2
ASSORTED_DRAFT1
 70
     0
 10
0.0
 20
0.0
 30
0.0
  3
ASSORTED_DRAFT1
  1

  0
SOLID
  5
1EE
330
1ED
100
AcDbEntity
  8
0
 62
   254
370
    13
100
AcDbTrace
 10
270.185042
 20
164.534924
 30
0.0
 11
265.185046
 21
163.42645
 31
0.0
 12
265.1850379999999
 22
165.643397
 32
0.0
 13
270.185042
 23
164.534924
 33
0.0
  0
ENDBLK
  5
1F1
330
1ED
100
AcDbEntity
  8
0
100
AcDbBlockEnd
  0
BLOCK
  5
1FC
330
1FB
100
AcDbEntity
  8
0
100
AcDbBlockBegin
  2
*D2
 70
     1
 10
0.0
 20
0.0
 30
0.0
  3
*D2
  1

  0
LINE
  5
1FE
330
1FB
100
AcDbEntity
  8
0
 62
   254
370
    -2
100
AcDbLine
 10
386.404842
 20
305.407994
 30
0.0
 11
386.404842
 21
341.687968
 31
0.0
  0
LINE
  5
1FF
330
1FB
100
AcDbEntity
  8
0
 62
   254
370
    -2
100
AcDbLine
 10
214.404842
 20
302.907994
 30
0.0
 11
214.404842
 21
341.687968
 31
0.0
  0
LINE
  5
200
330
1FB
100
AcDbEntity
  8
0
 62
   254
370
    -2
100
AcDbLine
 10
382.904842
 20
340.687968
 30
0.0
 11
217.904842
 21
340.687968
 31
0.0
  0
SOLID
  5
201
330
1FB
100
AcDbEntity
  8
0
 62
   254
100
AcDbTrace
 10
382.904842
 20
340.104634
 30
0.0
 11
382.904842
 21
341.271301
 31
0.0
 12
386.404842
 22
340.687968
 32
0.0
 13
386.404842
 23
340.687968
 33
0.0
  0
SOLID
  5
202
330
1FB
100
AcDbEntity
  8
0
 62
   254
100
AcDbTrace
 10
217.904842
 20
341.271301
 30
0.0
 11
217.904842
 21
340.104634
 31
0.0
 12
214.404842
 22
340.687968
 32
0.0
 13
214.404842
 23
340.687968
 33
0.0
  0
MTEXT
  5
203
330
1FB
100
AcDbEntity
  8
0
 62
   254
370
    13
100
AcDbMText
 10
300.404842
 20
345.937968
 30
0.0
 40
3.5
 41
0.0
 71
     5
 72
     1
  1
\A1;172
  7
cesky
 73
     1
 44
1.0
  0
POINT
  5
204
330
1FB
100
AcDbEntity
  8
Defpoints
 62
     0
100
AcDbPoint
 10
386.404842
 20
305.407994
 30
0.0
  0
POINT
  5
205
330
1FB
100
AcDbEntity
  8
Defpoints
 62
     0
100
AcDbPoint
 10
214.404842
 20
302.907994
 30
0.0
  0
POINT
  5
206
330
1FB
100
AcDbEntity
  8
Defpoints
 62
     0
100
AcDbPoint
 10
214.404842
 20
340.687968
 30
0.0
  0
ENDBLK
  5
1FD
330
1FB
100
AcDbEntity
  8
0
100
AcDbBlockEnd
  0
BLOCK
  5
20E
330
207
100
AcDbEntity
  8
0
100
AcDbBlockBegin
  2
_U0
 70
     0
 10
0.0
 20
0.0
 30
0.0
  3
_U0
  1

  0
ENDBLK
  5
20F
330
207
100
AcDbEntity
  8
0
100
AcDbBlockEnd
  0
BLOCK
  5
214
330
213
100
AcDbEntity
  8
0
100
AcDbBlockBegin
  2
*D4
 70
     1
 10
0.0
 20
0.0
 30
0.0
  3
*D4
  1

  0
LINE
  5
216
330
213
100
AcDbEntity
  8
0
 62
   254
370
    -2
100
AcDbLine
 10
274.404842
 20
288.907994
 30
0.0
 11
274.404842
 21
328.5109970000001
 31
0.0
  0
LINE
  5
217
330
213
100
AcDbEntity
  8
0
 62
   254
370
    -2
100
AcDbLine
 10
214.404842
 20
295.907994
 30
0.0
 11
214.404842
 21
328.5109970000001
 31
0.0
  0
LINE
  5
218
330
213
100
AcDbEntity
  8
0
 62
   254
370
    -2
100
AcDbLine
 10
270.904842
 20
327.510997
 30
0.0
 11
217.904842
 21
327.510997
 31
0.0
  0
SOLID
  5
219
330
213
100
AcDbEntity
  8
0
 62
   254
100
AcDbTrace
 10
270.904842
 20
326.927663
 30
0.0
 11
270.904842
 21
328.09433
 31
0.0
 12
274.404842
 22
327.510997
 32
0.0
 13
274.404842
 23
327.510997
 33
0.0
  0
SOLID
  5
21A
330
213
100
AcDbEntity
  8
0
 62
   254
100
AcDbTrace
 10
217.904842
 20
328.09433
 30
0.0
 11
217.904842
 21
326.927663
 31
0.0
 12
214.404842
 22
327.510997
 32
0.0
 13
214.404842
 23
327.510997
 33
0.0
  0
MTEXT
  5
21B
330
213
100
AcDbEntity
  8
0
 62
   254
370
    13
100
AcDbMText
 10
244.404842
 20
332.7609970000001
 30
0.0
 40
3.5
 41
0.0
 71
     5
 72
     1
  1
\A1;60
  7
cesky
 73
     1
 44
1.0
  0
POINT
  5
21C
330
213
100
AcDbEntity
  8
Defpoints
 62
     0
100
AcDbPoint
 10
274.404842
 20
288.907994
 30
0.0
  0
POINT
  5
21D
330
213
100
AcDbEntity
  8
Defpoints
 62
     0
100
AcDbPoint
 10
214.404842
 20
295.907994
 30
0.0
  0
POINT
  5
21E
330
213
100
AcDbEntity
  8
Defpoints
 62
     0
100
AcDbPoint
 10
214.404842
 20
327.510997
 30
0.0
  0
ENDBLK
  5
215
330
213
100
AcDbEntity
  8
0
100
AcDbBlockEnd
  0
BLOCK
  5
226
330
21F
100
AcDbEntity
  8
0
100
AcDbBlockBegin
  2
_U1
 70
     0
 10
0.0
 20
0.0
 30
0.0
  3
_U1
  1

  0
ENDBLK
  5
227
330
21F
100
AcDbEntity
  8
0
100
AcDbBlockEnd
  0
BLOCK
  5
22C
330
22B
100
AcDbEntity
  8
0
100
AcDbBlockBegin
  2
*D6
 70
     1
 10
0.0
 20
0.0
 30
0.0
  3
*D6
  1

  0
LINE
  5
22E
330
22B
100
AcDbEntity
  8
0
 62
   254
370
    -2
100
AcDbLine
 10
386.404842
 20
303.407994
 30
0.0
 11
386.404842
 21
317.275348
 31
0.0
  0
LINE
  5
22F
330
22B
100
AcDbEntity
  8
0
 62
   254
370
    -2
100
AcDbLine
 10
290.403402
 20
303.591229
 30
0.0
 11
290.403402
 21
317.275348
 31
0.0
  0
LINE
  5
230
330
22B
100
AcDbEntity
  8
0
 62
   254
370
    -2
100
AcDbLine
 10
382.904842
 20
316.275348
 30
0.0
 11
293.903402
 21
316.275348
 31
0.0
  0
SOLID
  5
231
330
22B
100
AcDbEntity
  8
0
 62
   254
100
AcDbTrace
 10
382.904842
 20
315.692015
 30
0.0
 11
382.904842
 21
316.858681
 31
0.0
 12
386.404842
 22
316.275348
 32
0.0
 13
386.404842
 23
316.275348
 33
0.0
  0
SOLID
  5
232
330
22B
100
AcDbEntity
  8
0
 62
   254
100
AcDbTrace
 10
293.903402
 20
316.858681
 30
0.0
 11
293.903402
 21
315.692015
 31
0.0
 12
290.403402
 22
316.275348
 32
0.0
 13
290.403402
 23
316.275348
 33
0.0
  0
MTEXT
  5
233
330
22B
100
AcDbEntity
  8
0
 62
   254
370
    13
100
AcDbMText
 10
338.404122
 20
321.525348
 30
0.0
 40
3.5
 41
0.0
 71
     5
 72
     1
  1
\A1;96
  7
cesky
 73
     1
 44
1.0
  0
POINT
  5
234
330
22B
100
AcDbEntity
  8
Defpoints
 62
     0
100
AcDbPoint
 10
386.404842
 20
303.407994
 30
0.0
  0
POINT
  5
235
330
22B
100
AcDbEntity
  8
Defpoints
 62
     0
100
AcDbPoint
 10
290.403402
 20
303.591229
 30
0.0
  0
POINT
  5
236
330
22B
100
AcDbEntity
  8
Defpoints
 62
     0
100
AcDbPoint
 10
290.403402
 20
316.275348
 30
0.0
  0
ENDBLK
  5
22D
330
22B
100
AcDbEntity
  8
0
100
AcDbBlockEnd
  0
BLOCK
  5
23E
330
237
100
AcDbEntity
  8
0
100
AcDbBlockBegin
  2
_U2
 70
     0
 10
0.0
 20
0.0
 30
0.0
  3
_U2
  1

  0
ENDBLK
  5
23F
330
237
100
AcDbEntity
  8
0
100
AcDbBlockEnd
  0
BLOCK
  5
244
330
243
100
AcDbEntity
  8
0
100
AcDbBlockBegin
  2
*D8
 70
     1
 10
0.0
 20
0.0
 30
0.0
  3
*D8
  1

  0
LINE
  5
246
330
243
100
AcDbEntity
  8
0
 62
   254
370
    -2
100
AcDbLine
 10
386.404842
 20
303.407994
 30
0.0
 11
386.404842
 21
328.5109970000001
 31
0.0
  0
LINE
  5
247
330
243
100
AcDbEntity
  8
0
 62
   254
370
    -2
100
AcDbLine
 10
274.404842
 20
288.907994
 30
0.0
 11
274.404842
 21
328.5109970000001
 31
0.0
  0
LINE
  5
248
330
243
100
AcDbEntity
  8
0
 62
   254
370
    -2
100
AcDbLine
 10
382.904842
 20
327.510997
 30
0.0
 11
277.904842
 21
327.510997
 31
0.0
  0
SOLID
  5
249
330
243
100
AcDbEntity
  8
0
 62
   254
100
AcDbTrace
 10
382.904842
 20
326.927663
 30
0.0
 11
382.904842
 21
328.09433
 31
0.0
 12
386.404842
 22
327.510997
 32
0.0
 13
386.404842
 23
327.510997
 33
0.0
  0
SOLID
  5
24A
330
243
100
AcDbEntity
  8
0
 62
   254
100
AcDbTrace
 10
277.904842
 20
328.09433
 30
0.0
 11
277.904842
 21
326.927663
 31
0.0
 12
274.404842
 22
327.510997
 32
0.0
 13
274.404842
 23
327.510997
 33
0.0
  0
MTEXT
  5
24B
330
243
100
AcDbEntity
  8
0
 62
   254
370
    13
100
AcDbMText
 10
330.404842
 20
332.7609970000001
 30
0.0
 40
3.5
 41
0.0
 71
     5
 72
     1
  1
\A1;112
  7
cesky
 73
     1
 44
1.0
  0
POINT
  5
24C
330
243
100
AcDbEntity
  8
Defpoints
 62
     0
100
AcDbPoint
 10
386.404842
 20
303.407994
 30
0.0
  0
POINT
  5
24D
330
243
100
AcDbEntity
  8
Defpoints
 62
     0
100
AcDbPoint
 10
274.404842
 20
288.907994
 30
0.0
  0
POINT
  5
24E
330
243
100
AcDbEntity
  8
Defpoints
 62
     0
100
AcDbPoint
 10
274.404842
 20
327.510997
 30
0.0
  0
ENDBLK
  5
245
330
243
100
AcDbEntity
  8
0
100
AcDbBlockEnd
  0
BLOCK
  5
256
330
24F
100
AcDbEntity
  8
0
100
AcDbBlockBegin
  2
_U3
 70
     0
 10
0.0
 20
0.0
 30
0.0
  3
_U3
  1

  0
ENDBLK
  5
257
330
24F
100
AcDbEntity
  8
0
100
AcDbBlockEnd
  0
BLOCK
  5
25C
330
25B
100
AcDbEntity
  8
0
100
AcDbBlockBegin
  2
*D10
 70
     1
 10
0.0
 20
0.0
 30
0.0
  3
*D10
  1

  0
LINE
  5
25E
330
25B
100
AcDbEntity
  8
0
 62
   254
370
    -2
100
AcDbLine
 10
292.203832
 20
288.907994
 30
0.0
 11
403.112049
 21
288.907994
 31
0.0
  0
LINE
  5
25F
330
25B
100
AcDbEntity
  8
0
 62
   254
370
    -2
100
AcDbLine
 10
330.83929
 20
303.407994
 30
0.0
 11
403.112049
 21
303.407994
 31
0.0
  0
LINE
  5
260
330
25B
100
AcDbEntity
  8
0
 62
   254
370
    -2
100
AcDbLine
 10
402.112049
 20
288.907994
 30
0.0
 11
402.112049
 21
303.407994
 31
0.0
  0
SOLID
  5
261
330
25B
100
AcDbEntity
  8
0
 62
   254
100
AcDbTrace
 10
402.695383
 20
299.907994
 30
0.0
 11
401.528716
 21
299.907994
 31
0.0
 12
402.112049
 22
303.407994
 32
0.0
 13
402.112049
 23
303.407994
 33
0.0
  0
MTEXT
  5
262
330
25B
100
AcDbEntity
  8
0
 62
   254
370
    13
100
AcDbMText
 10
396.862049
 20
279.157994
 30
0.0
 40
3.5
 41
0.0
 71
     5
 72
     1
  1
\A1;29
  7
cesky
 11
0.0
 21
1.0
 31
0.0
 73
     1
 44
1.0
  0
POINT
  5
263
330
25B
100
AcDbEntity
  8
Defpoints
 62
     0
100
AcDbPoint
 10
292.203832
 20
288.907994
 30
0.0
  0
POINT
  5
264
330
25B
100
AcDbEntity
  8
Defpoints
 62
     0
100
AcDbPoint
 10
330.83929
 20
303.407994
 30
0.0
  0
POINT
  5
265
330
25B
100
AcDbEntity
  8
Defpoints
 62
     0
100
AcDbPoint
 10
402.112049
 20
303.407994
 30
0.0
  0
ENDBLK
  5
25D
330
25B
100
AcDbEntity
  8
0
100
AcDbBlockEnd
  0
BLOCK
  5
26C
330
266
100
AcDbEntity
  8
0
100
AcDbBlockBegin
  2
_U4
 70
     0
 10
0.0
 20
0.0
 30
0.0
  3
_U4
  1

  0
ENDBLK
  5
26D
330
266
100
AcDbEntity
  8
0
100
AcDbBlockEnd
  0
BLOCK
  5
272
330
271
100
AcDbEntity
  8
0
100
AcDbBlockBegin
  2
*D12
 70
     1
 10
0.0
 20
0.0
 30
0.0
  3
*D12
  1

  0
LINE
  5
274
330
271
100
AcDbEntity
  8
0
 62
    95
370
    -2
100
AcDbLine
 10
216.404842
 20
304.907994
 30
0.0
 11
204.878544
 21
304.907994
 31
0.0
  0
LINE
  5
275
330
271
100
AcDbEntity
  8
0
 62
    95
370
    -2
100
AcDbLine
 10
216.404842
 20
272.907994
 30
0.0
 11
204.878544
 21
272.907994
 31
0.0
  0
LINE
  5
276
330
271
100
AcDbEntity
  8
0
 62
    95
370
    -2
100
AcDbLine
 10
205.878544
 20
301.407994
 30
0.0
 11
205.878544
 21
276.407994
 31
0.0
  0
SOLID
  5
277
330
271
100
AcDbEntity
  8
0
 62
    95
100
AcDbTrace
 10
206.461878
 20
301.407994
 30
0.0
 11
205.295211
 21
301.407994
 31
0.0
 12
205.878544
 22
304.907994
 32
0.0
 13
205.878544
 23
304.907994
 33
0.0
  0
SOLID
  5
278
330
271
100
AcDbEntity
  8
0
 62
    95
100
AcDbTrace
 10
205.295211
 20
276.407994
 30
0.0
 11
206.461878
 21
276.407994
 31
0.0
 12
205.878544
 22
272.907994
 32
0.0
 13
205.878544
 23
272.907994
 33
0.0
  0
MTEXT
  5
279
330
271
100
AcDbEntity
  8
0
 62
    95
370
    13
100
AcDbMText
 10
200.628544
 20
288.907994
 30
0.0
 40
3.5
 41
0.0
 71
     5
 72
     1
  1
\A1;32
  7
cesky
 11
0.0
 21
1.0
 31
0.0
 73
     1
 44
1.0
  0
POINT
  5
27A
330
271
100
AcDbEntity
  8
Defpoints
 62
     0
100
AcDbPoint
 10
216.404842
 20
304.907994
 30
0.0
  0
POINT
  5
27B
330
271
100
AcDbEntity
  8
Defpoints
 62
     0
100
AcDbPoint
 10
216.404842
 20
272.907994
 30
0.0
  0
POINT
  5
27C
330
271
100
AcDbEntity
  8
Defpoints
 62
     0
100
AcDbPoint
 10
205.878544
 20
272.907994
 30
0.0
  0
ENDBLK
  5
273
330
271
100
AcDbEntity
  8
0
100
AcDbBlockEnd
  0
BLOCK
  5
285
330
27D
100
AcDbEntity
  8
0
100
AcDbBlockBegin
  2
_U5
 70
     0
 10
0.0
 20
0.0
 30
0.0
  3
_U5
  1

  0
ENDBLK
  5
286
330
27D
100
AcDbEntity
  8
0
100
AcDbBlockEnd
  0
BLOCK
  5
28B
330
28A
100
AcDbEntity
  8
0
100
AcDbBlockBegin
  2
*D14
 70
     1
 10
0.0
 20
0.0
 30
0.0
  3
*D14
  1

  0
LINE
  5
28D
330
28A
100
AcDbEntity
  8
0
 62
    95
370
    -2
100
AcDbLine
 10
277.154842
 20
309.907994
 30
0.0
 11
192.519918
 21
309.907994
 31
0.0
  0
LINE
  5
28E
330
28A
100
AcDbEntity
  8
0
 62
    95
370
    -2
100
AcDbLine
 10
277.154842
 20
267.907994
 30
0.0
 11
192.519918
 21
267.907994
 31
0.0
  0
LINE
  5
28F
330
28A
100
AcDbEntity
  8
0
 62
    95
370
    -2
100
AcDbLine
 10
193.519918
 20
306.407994
 30
0.0
 11
193.519918
 21
271.407994
 31
0.0
  0
SOLID
  5
290
330
28A
100
AcDbEntity
  8
0
 62
    95
100
AcDbTrace
 10
194.103251
 20
306.407994
 30
0.0
 11
192.936584
 21
306.407994
 31
0.0
 12
193.519918
 22
309.907994
 32
0.0
 13
193.519918
 23
309.907994
 33
0.0
  0
SOLID
  5
291
330
28A
100
AcDbEntity
  8
0
 62
    95
100
AcDbTrace
 10
192.936584
 20
271.407994
 30
0.0
 11
194.103251
 21
271.407994
 31
0.0
 12
193.519918
 22
267.907994
 32
0.0
 13
193.519918
 23
267.907994
 33
0.0
  0
MTEXT
  5
292
330
28A
100
AcDbEntity
  8
0
 62
    95
370
    13
100
AcDbMText
 10
188.269918
 20
288.907994
 30
0.0
 40
3.5
 41
0.0
 71
     5
 72
     1
  1
\A1;42
  7
cesky
 11
0.0
 21
1.0
 31
0.0
 73
     1
 44
1.0
  0
POINT
  5
293
330
28A
100
AcDbEntity
  8
Defpoints
 62
     0
100
AcDbPoint
 10
277.154842
 20
309.907994
 30
0.0
  0
POINT
  5
294
330
28A
100
AcDbEntity
  8
Defpoints
 62
     0
100
AcDbPoint
 10
277.154842
 20
267.907994
 30
0.0
  0
POINT
  5
295
330
28A
100
AcDbEntity
  8
Defpoints
 62
     0
100
AcDbPoint
 10
193.519918
 20
267.907994
 30
0.0
  0
ENDBLK
  5
28C
330
28A
100
AcDbEntity
  8
0
100
AcDbBlockEnd
  0
BLOCK
  5
29E
330
296
100
AcDbEntity
  8
0
100
AcDbBlockBegin
  2
_U6
 70
     0
 10
0.0
 20
0.0
 30
0.0
  3
_U6
  1

  0
ENDBLK
  5
29F
330
296
100
AcDbEntity
  8
0
100
AcDbBlockEnd
  0
ENDSEC
  0
SECTION
  2
ENTITIES
  0
POINT
  5
73
102
{ACAD_REACTORS
330
348
102
}
330
1F
100
AcDbEntity
  8
80
100
AcDbPoint
 10
274.404842
 20
288.907994
 30
0.0
  0
POINT
  5
76
330
1F
100
AcDbEntity
  8
4
 60
     1
100
AcDbPoint
 10
292.203832
 20
288.907994
 30
0.0
  0
POINT
  5
78
330
1F
100
AcDbEntity
  8
4
 60
     1
100
AcDbPoint
 10
385.532271
 20
288.907994
 30
0.0
  0
POINT
  5
79
330
1F
100
AcDbEntity
  8
SK4
 60
     1
100
AcDbPoint
 10
216.404842
 20
288.907994
 30
0.0
  0
POINT
  5
7A
330
1F
100
AcDbEntity
  8
SK4
 60
     1
100
AcDbPoint
 10
274.404842
 20
288.907994
 30
0.0
  0
POINT
  5
7B
330
1F
100
AcDbEntity
  8
SK6
 60
     1
100
AcDbPoint
 10
274.404842
 20
288.907994
 30
0.0
  0
POINT
  5
7C
330
1F
100
AcDbEntity
  8
SK6
 60
     1
100
AcDbPoint
 10
290.403402
 20
303.591229
 30
0.0
  0
LINE
  5
7D
330
1F
100
AcDbEntity
  8
1
100
AcDbLine
 10
383.794615
 20
284.145494
 30
0.0
 11
384.081653
 21
284.145494
 31
0.0
  0
LINE
  5
7F
330
1F
100
AcDbEntity
  8
1
100
AcDbLine
 10
376.433148
 20
302.714181
 30
0.0
 11
376.424783
 21
302.906788
 31
0.0
  0
LINE
  5
80
330
1F
100
AcDbEntity
  8
1
100
AcDbLine
 10
379.207071
 20
293.308714
 30
0.0
 11
385.449271
 21
293.580728
 31
0.0
  0
LINE
  5
81
330
1F
100
AcDbEntity
  8
1
100
AcDbLine
 10
385.450788
 20
293.4153950000001
 30
0.0
 11
385.449271
 21
293.580728
 31
0.0
  0
LINE
  5
82
330
1F
100
AcDbEntity
  8
1
100
AcDbLine
 10
385.368078
 20
292.872092
 30
0.0
 11
378.525595
 21
292.5739200000001
 31
0.0
  0
LINE
  5
83
330
1F
100
AcDbEntity
  8
1
100
AcDbLine
 10
385.368078
 20
292.872092
 30
0.0
 11
383.684013
 21
290.066074
 31
0.0
  0
LINE
  5
84
330
1F
100
AcDbEntity
  8
1
100
AcDbLine
 10
385.491232
 20
293.601913
 30
0.0
 11
379.212301
 21
293.328298
 31
0.0
  0
LINE
  5
85
330
1F
100
AcDbEntity
  8
1
100
AcDbLine
 10
379.207071
 20
293.308714
 30
0.0
 11
379.212301
 21
293.328298
 31
0.0
  0
LINE
  5
86
330
1F
100
AcDbEntity
  8
1
100
AcDbLine
 10
385.254138
 20
289.410151
 30
0.0
 11
385.361672
 21
289.408274
 31
0.0
  0
LINE
  5
87
330
1F
100
AcDbEntity
  8
1
100
AcDbLine
 10
385.361672
 20
289.408274
 30
0.0
 11
385.60268
 21
289.734866
 31
0.0
  0
LINE
  5
88
330
1F
100
AcDbEntity
  8
1
100
AcDbLine
 10
385.60268
 20
289.973477
 30
0.0
 11
385.60268
 21
289.734866
 31
0.0
  0
LINE
  5
89
330
1F
100
AcDbEntity
  8
1
100
AcDbLine
 10
385.60268
 20
289.973477
 30
0.0
 11
385.644842
 21
289.972741
 31
0.0
  0
LINE
  5
8A
330
1F
100
AcDbEntity
  8
1
100
AcDbLine
 10
385.644842
 20
293.88138
 30
0.0
 11
385.644842
 21
289.972741
 31
0.0
  0
LINE
  5
8B
330
1F
100
AcDbEntity
  8
1
100
AcDbLine
 10
380.025155
 20
297.603428
 30
0.0
 11
380.050841
 21
297.699594
 31
0.0
  0
LINE
  5
8D
330
1F
100
AcDbEntity
  8
1
100
AcDbLine
 10
381.590963
 20
297.3679259999999
 30
0.0
 11
381.565241
 21
297.271621
 31
0.0
  0
LINE
  5
8E
330
1F
100
AcDbEntity
  8
1
100
AcDbLine
 10
380.346471
 20
299.057398
 30
0.0
 11
380.372193
 21
299.153703
 31
0.0
  0
LINE
  5
8F
330
1F
100
AcDbEntity
  8
1
100
AcDbLine
 10
381.912241
 20
298.821757
 30
0.0
 11
381.886556
 21
298.725591
 31
0.0
  0
LINE
  5
90
330
1F
100
AcDbEntity
  8
1
100
AcDbLine
 10
292.203832
 20
274.907994
 30
0.0
 11
295.179455
 21
274.907994
 31
0.0
  0
LINE
  5
91
330
1F
100
AcDbEntity
  8
1
100
AcDbLine
 10
376.3987140000001
 20
302.907994
 30
0.0
 11
369.792391
 21
302.907994
 31
0.0
  0
LINE
  5
92
330
1F
100
AcDbEntity
  8
1
100
AcDbLine
 10
304.632099
 20
302.907994
 30
0.0
 11
292.203832
 21
302.907994
 31
0.0
  0
LINE
  5
93
330
1F
100
AcDbEntity
  8
1
100
AcDbLine
 10
385.700281
 20
302.540002
 30
0.0
 11
386.057361
 21
294.585554
 31
0.0
  0
LINE
  5
95
330
1F
100
AcDbEntity
  8
1
100
AcDbLine
 10
376.923766
 20
302.929652
 30
0.0
 11
384.893603
 21
303.276951
 31
0.0
  0
LINE
  5
96
330
1F
100
AcDbEntity
  8
1
100
AcDbLine
 10
376.543354
 20
294.1709649999999
 30
0.0
 11
376.186273
 21
302.125413
 31
0.0
  0
LINE
  5
97
330
1F
100
AcDbEntity
  8
1
100
AcDbLine
 10
385.319869
 20
293.781315
 30
0.0
 11
377.350031
 21
293.4340160000001
 31
0.0
  0
LINE
  5
98
330
1F
100
AcDbEntity
  8
1
100
AcDbLine
 10
377.779874
 20
294.704139
 30
0.0
 11
377.466608
 21
301.682559
 31
0.0
  0
LINE
  5
99
330
1F
100
AcDbEntity
  8
1
100
AcDbLine
 10
384.771796
 20
295.008823
 30
0.0
 11
377.779874
 21
294.704139
 31
0.0
  0
LINE
  5
9A
330
1F
100
AcDbEntity
  8
1
100
AcDbLine
 10
384.45853
 20
301.987244
 30
0.0
 11
384.771796
 21
295.008823
 31
0.0
  0
LINE
  5
9B
330
1F
100
AcDbEntity
  8
1
100
AcDbLine
 10
377.466608
 20
301.682559
 30
0.0
 11
384.45853
 21
301.987244
 31
0.0
  0
LINE
  5
9C
330
1F
100
AcDbEntity
  8
1
100
AcDbLine
 10
386.297436
 20
281.913516
 30
0.0
 11
385.671836
 21
280.872342
 31
0.0
  0
LINE
  5
9D
330
1F
100
AcDbEntity
  8
1
100
AcDbLine
 10
385.3014
 20
281.255939
 30
0.0
 11
385.671836
 21
280.872342
 31
0.0
  0
LINE
  5
9E
330
1F
100
AcDbEntity
  8
1
100
AcDbLine
 10
385.671836
 20
280.872342
 30
0.0
 11
384.968452
 21
280.48245
 31
0.0
  0
LINE
  5
9F
330
1F
100
AcDbEntity
  8
1
100
AcDbLine
 10
385.369933
 20
289.419478
 30
0.0
 11
385.797416
 21
289.16262
 31
0.0
  0
LINE
  5
A0
330
1F
100
AcDbEntity
  8
1
100
AcDbLine
 10
385.413818
 20
288.792185
 30
0.0
 11
385.797416
 21
289.16262
 31
0.0
  0
LINE
  5
A1
330
1F
100
AcDbEntity
  8
1
100
AcDbLine
 10
385.797416
 20
289.16262
 30
0.0
 11
386.404842
 21
288.066795
 31
0.0
  0
LINE
  5
A2
330
1F
100
AcDbEntity
  8
1
100
AcDbLine
 10
385.887419
 20
287.937787
 30
0.0
 11
386.404842
 21
288.066795
 31
0.0
  0
LINE
  5
A3
330
1F
100
AcDbEntity
  8
1
100
AcDbLine
 10
385.784831
 20
282.060503
 30
0.0
 11
386.297436
 21
281.913516
 31
0.0
  0
LINE
  5
A4
330
1F
100
AcDbEntity
  8
1
100
AcDbLine
 10
386.404842
 20
288.066795
 30
0.0
 11
386.297436
 21
281.913516
 31
0.0
  0
LINE
  5
A5
330
1F
100
AcDbEntity
  8
1
100
AcDbLine
 10
384.947114
 20
281.91483
 30
0.0
 11
385.144899
 21
282.244001
 31
0.0
  0
LINE
  5
A6
330
1F
100
AcDbEntity
  8
1
100
AcDbLine
 10
385.784831
 20
282.060503
 30
0.0
 11
385.3014
 21
281.255939
 31
0.0
  0
LINE
  5
A7
330
1F
100
AcDbEntity
  8
1
100
AcDbLine
 10
385.144899
 20
282.244001
 30
0.0
 11
385.176952
 21
284.08035
 31
0.0
  0
LINE
  5
A8
330
1F
100
AcDbEntity
  8
1
100
AcDbLine
 10
385.183868
 20
284.476545
 30
0.0
 11
385.241473
 21
287.776734
 31
0.0
  0
LINE
  5
A9
330
1F
100
AcDbEntity
  8
1
100
AcDbLine
 10
385.784831
 20
282.060503
 30
0.0
 11
385.144899
 21
282.244001
 31
0.0
  0
LINE
  5
AA
330
1F
100
AcDbEntity
  8
1
100
AcDbLine
 10
385.887419
 20
287.937787
 30
0.0
 11
385.784831
 21
282.060503
 31
0.0
  0
LINE
  5
AB
330
1F
100
AcDbEntity
  8
1
100
AcDbLine
 10
385.183914
 20
288.930325
 30
0.0
 11
385.413818
 21
288.792185
 31
0.0
  0
LINE
  5
AC
330
1F
100
AcDbEntity
  8
1
100
AcDbLine
 10
385.413818
 20
288.792185
 30
0.0
 11
385.183867
 21
288.570123
 31
0.0
  0
LINE
  5
AD
330
1F
100
AcDbEntity
  8
1
100
AcDbLine
 10
274.404842
 20
309.407994
 30
0.0
 11
274.404842
 21
288.907994
 31
0.0
  0
LINE
  5
AE
330
1F
100
AcDbEntity
  8
1
100
AcDbLine
 10
274.404842
 20
288.907994
 30
0.0
 11
274.404842
 21
268.407994
 31
0.0
  0
LINE
  5
AF
330
1F
100
AcDbEntity
  8
1
100
AcDbLine
 10
378.325144
 20
298.9720549999999
 30
0.0
 11
378.304699
 21
298.895508
 31
0.0
  0
LINE
  5
B0
330
1F
100
AcDbEntity
  8
1
100
AcDbLine
 10
383.61843
 20
297.476258
 30
0.0
 11
383.638875
 21
297.552805
 31
0.0
  0
LINE
  5
B1
330
1F
100
AcDbEntity
  8
SK1
100
AcDbLine
 10
214.404842
 20
274.907994
 30
0.0
 11
216.404842
 21
272.907994
 31
0.0
  0
LINE
  5
B2
330
1F
100
AcDbEntity
  8
SK1
100
AcDbLine
 10
216.404842
 20
304.907994
 30
0.0
 11
214.404842
 21
302.907994
 31
0.0
  0
LINE
  5
B3
330
1F
100
AcDbEntity
  8
1
100
AcDbLine
 10
279.404842
 20
267.907994
 30
0.0
 11
282.304337
 21
270.807488
 31
0.0
  0
LINE
  5
B4
330
1F
100
AcDbEntity
  8
1
100
AcDbLine
 10
282.304337
 20
307.008499
 30
0.0
 11
279.404842
 21
309.907994
 31
0.0
  0
LINE
  5
B5
330
1F
100
AcDbEntity
  8
SK1
100
AcDbLine
 10
274.404842
 20
304.907994
 30
0.0
 11
216.404842
 21
304.907994
 31
0.0
  0
LINE
  5
B6
330
1F
100
AcDbEntity
  8
1
100
AcDbLine
 10
274.904842
 20
267.907994
 30
0.0
 11
274.404842
 21
268.407994
 31
0.0
  0
LINE
  5
B7
330
1F
100
AcDbEntity
  8
1
100
AcDbLine
 10
274.404842
 20
309.407994
 30
0.0
 11
274.904842
 21
309.907994
 31
0.0
  0
LINE
  5
B8
330
1F
100
AcDbEntity
  8
1
100
AcDbLine
 10
279.404842
 20
309.907994
 30
0.0
 11
274.904842
 21
309.907994
 31
0.0
  0
LINE
  5
BD
330
1F
100
AcDbEntity
  8
80
100
AcDbLine
 10
275.404416
 20
288.907994
 30
0.0
 11
273.405268
 21
288.907994
 31
0.0
  0
LINE
  5
BE
330
1F
100
AcDbEntity
  8
1
100
AcDbLine
 10
380.349575
 20
299.075812
 30
0.0
 11
380.375205
 21
299.17177
 31
0.0
  0
LINE
  5
BF
330
1F
100
AcDbEntity
  8
1
100
AcDbLine
 10
379.773071
 20
298.220504
 30
0.0
 11
379.748149
 21
298.127197
 31
0.0
  0
LINE
  5
C0
330
1F
100
AcDbEntity
  8
1
100
AcDbLine
 10
379.859474
 20
298.2057240000001
 30
0.0
 11
379.834017
 21
298.110412
 31
0.0
  0
LINE
  5
C1
330
1F
100
AcDbEntity
  8
1
100
AcDbLine
 10
382.039144
 20
297.621679
 30
0.0
 11
382.064044
 21
297.714906
 31
0.0
  0
LINE
  5
C2
330
1F
100
AcDbEntity
  8
1
100
AcDbLine
 10
381.949268
 20
297.642444
 30
0.0
 11
381.974737
 21
297.737799
 31
0.0
  0
LINE
  5
C3
330
1F
100
AcDbEntity
  8
1
100
AcDbLine
 10
381.006237
 20
297.025127
 30
0.0
 11
381.031576
 21
297.12
 31
0.0
  0
LINE
  5
C4
330
1F
100
AcDbEntity
  8
1
100
AcDbLine
 10
374.868539
 20
292.936831
 30
0.0
 11
374.884986
 21
292.456143
 31
0.0
  0
LINE
  5
C5
330
1F
100
AcDbEntity
  8
1
100
AcDbLine
 10
374.932588
 20
291.064831
 30
0.0
 11
374.961769
 21
290.21194
 31
0.0
  0
LINE
  5
C6
330
1F
100
AcDbEntity
  8
1
100
AcDbLine
 10
383.907392
 20
292.848706
 30
0.0
 11
378.518145
 21
292.613861
 31
0.0
  0
LINE
  5
C7
330
1F
100
AcDbEntity
  8
1
100
AcDbLine
 10
286.4048419999999
 20
302.665364
 30
0.0
 11
286.4048419999999
 21
287.3366
 31
0.0
  0
LINE
  5
C8
330
1F
100
AcDbEntity
  8
1
100
AcDbLine
 10
385.241473
 20
287.776734
 30
0.0
 11
385.183864
 21
287.880664
 31
0.0
  0
LINE
  5
C9
330
1F
100
AcDbEntity
  8
1
100
AcDbLine
 10
385.887419
 20
287.937787
 30
0.0
 11
385.241473
 21
287.776734
 31
0.0
  0
LINE
  5
CA
330
1F
100
AcDbEntity
  8
1
100
AcDbLine
 10
385.413818
 20
288.792185
 30
0.0
 11
385.887419
 21
287.937787
 31
0.0
  0
LINE
  5
CB
330
1F
100
AcDbEntity
  8
1
100
AcDbLine
 10
385.3014
 20
281.255939
 30
0.0
 11
384.919194
 21
281.651726
 31
0.0
  0
LINE
  5
CC
330
1F
100
AcDbEntity
  8
1
100
AcDbLine
 10
385.3014
 20
281.255939
 30
0.0
 11
384.850665
 21
281.006093
 31
0.0
  0
LINE
  5
CD
330
1F
100
AcDbEntity
  8
80
100
AcDbLine
 10
274.404842
 20
287.90842
 30
0.0
 11
274.404842
 21
289.907567
 31
0.0
  0
LINE
  5
CE
330
1F
100
AcDbEntity
  8
SK1
100
AcDbLine
 10
216.404842
 20
272.907994
 30
0.0
 11
274.404842
 21
272.907994
 31
0.0
  0
LINE
  5
CF
330
1F
100
AcDbEntity
  8
81
100
AcDbLine
 10
386.404842
 20
305.407994
 30
0.0
 11
386.404842
 21
301.407994
 31
0.0
  0
LINE
  5
D0
330
1F
100
AcDbEntity
  8
81
100
AcDbLine
 10
384.404842
 20
303.407994
 30
0.0
 11
388.404842
 21
303.407994
 31
0.0
  0
LINE
  5
D1
330
1F
100
AcDbEntity
  8
1
100
AcDbLine
 10
274.904842
 20
267.907994
 30
0.0
 11
279.404842
 21
267.907994
 31
0.0
  0
LINE
  5
D2
330
1F
100
AcDbEntity
  8
1
100
AcDbLine
 10
385.491232
 20
293.601913
 30
0.0
 11
385.489178
 21
293.825831
 31
0.0
  0
LINE
  5
D3
330
1F
100
AcDbEntity
  8
1
100
AcDbLine
 10
385.491232
 20
293.601913
 30
0.0
 11
385.449271
 21
293.580728
 31
0.0
  0
LINE
  5
D4
330
1F
100
AcDbEntity
  8
1
100
AcDbLine
 10
385.368078
 20
292.872092
 30
0.0
 11
385.385432
 21
292.880853
 31
0.0
  0
LINE
  5
D5
330
1F
100
AcDbEntity
  8
1
100
AcDbLine
 10
384.6644
 20
274.907994
 30
0.0
 11
385.195237
 21
279.909422
 31
0.0
  0
LINE
  5
D6
330
1F
100
AcDbEntity
  8
1
100
AcDbLine
 10
385.195237
 20
279.909422
 30
0.0
 11
385.1531470000001
 21
279.910095
 31
0.0
  0
LINE
  5
D7
330
1F
100
AcDbEntity
  8
1
100
AcDbLine
 10
385.178429
 20
280.148296
 30
0.0
 11
385.1531470000001
 21
279.910095
 31
0.0
  0
LINE
  5
D8
330
1F
100
AcDbEntity
  8
1
100
AcDbLine
 10
385.178429
 20
280.148296
 30
0.0
 11
384.972879
 21
280.482375
 31
0.0
  0
LINE
  5
D9
330
1F
100
AcDbEntity
  8
1
100
AcDbLine
 10
384.972879
 20
280.482375
 30
0.0
 11
384.865528
 21
280.4840930000001
 31
0.0
  0
LINE
  5
DA
330
1F
100
AcDbEntity
  8
1
100
AcDbLine
 10
384.848362
 20
280.984432
 30
0.0
 11
385.183868
 21
284.145494
 31
0.0
  0
LINE
  5
DB
330
1F
100
AcDbEntity
  8
1
100
AcDbLine
 10
384.441264
 20
284.145494
 30
0.0
 11
385.183868
 21
284.145494
 31
0.0
  0
LINE
  5
DC
330
1F
100
AcDbEntity
  8
1
100
AcDbLine
 10
385.183868
 20
284.145494
 30
0.0
 11
385.183868
 21
288.911302
 31
0.0
  0
LINE
  5
DD
330
1F
100
AcDbEntity
  8
1
100
AcDbLine
 10
376.20623
 20
302.318289
 30
0.0
 11
376.184278
 21
302.8237279999999
 31
0.0
  0
LINE
  5
DE
330
1F
100
AcDbEntity
  8
SK1
100
AcDbLine
 10
216.404842
 20
304.907994
 30
0.0
 11
216.404842
 21
272.907994
 31
0.0
  0
LINE
  5
DF
330
1F
100
AcDbEntity
  8
SK1
100
AcDbLine
 10
214.404842
 20
302.907994
 30
0.0
 11
214.404842
 21
274.907994
 31
0.0
  0
LINE
  5
E0
330
1F
100
AcDbEntity
  8
1
100
AcDbLine
 10
376.255724
 20
296.011298
 30
0.0
 11
376.250493
 21
295.991713
 31
0.0
  0
LINE
  5
E1
330
1F
100
AcDbEntity
  8
1
100
AcDbLine
 10
376.255724
 20
296.011298
 30
0.0
 11
375.959833
 21
302.824157
 31
0.0
  0
LINE
  5
E2
330
1F
100
AcDbEntity
  8
1
100
AcDbLine
 10
375.955316
 20
302.788127
 30
0.0
 11
376.250493
 21
295.991713
 31
0.0
  0
LINE
  5
E3
330
1F
100
AcDbEntity
  8
1
100
AcDbLine
 10
384.6644
 20
274.907994
 30
0.0
 11
370.27907
 21
274.907994
 31
0.0
  0
LINE
  5
E4
330
1F
100
AcDbEntity
  8
1
100
AcDbLine
 10
274.904842
 20
267.907994
 30
0.0
 11
274.904842
 21
288.907994
 31
0.0
  0
LINE
  5
E5
330
1F
100
AcDbEntity
  8
1
100
AcDbLine
 10
274.904842
 20
288.907994
 30
0.0
 11
274.904842
 21
309.907994
 31
0.0
  0
LINE
  5
E6
330
1F
100
AcDbEntity
  8
1
100
AcDbLine
 10
279.404842
 20
267.907994
 30
0.0
 11
279.404842
 21
271.986153
 31
0.0
  0
LINE
  5
E7
330
1F
100
AcDbEntity
  8
1
100
AcDbLine
 10
279.404842
 20
309.907994
 30
0.0
 11
279.404842
 21
281.007715
 31
0.0
  0
LINE
  5
E8
330
1F
100
AcDbEntity
  8
1
100
AcDbLine
 10
381.563513
 20
297.258363
 30
0.0
 11
381.562136
 21
297.253206
 31
0.0
  0
LINE
  5
E9
330
1F
100
AcDbEntity
  8
1
100
AcDbLine
 10
380.451597
 20
297.241417
 30
0.0
 11
380.4263049999999
 21
297.146721
 31
0.0
  0
LINE
  5
11B
330
1F
100
AcDbEntity
  8
NOCUT
100
AcDbLine
 10
279.404842
 20
309.907994
 30
0.0
 11
282.304337
 21
307.008499
 31
0.0
  0
LINE
  5
11C
330
1F
100
AcDbEntity
  8
NOCUT
100
AcDbLine
 10
385.257901
 20
302.907994
 30
0.0
 11
385.644842
 21
294.114096
 31
0.0
  0
LINE
  5
11D
330
1F
100
AcDbEntity
  8
NOCUT
100
AcDbLine
 10
385.644842
 20
294.114096
 30
0.0
 11
385.644842
 21
288.907994
 31
0.0
  0
LINE
  5
11E
330
1F
100
AcDbEntity
  8
NOCUT
100
AcDbLine
 10
385.644842
 20
288.907994
 30
0.0
 11
214.404842
 21
288.907994
 31
0.0
  0
LINE
  5
11F
330
1F
100
AcDbEntity
  8
NOCUT
100
AcDbLine
 10
292.203832
 20
302.907994
 30
0.0
 11
385.257901
 21
302.907994
 31
0.0
  0
LINE
  5
120
330
1F
100
AcDbEntity
  8
NOCUT
100
AcDbLine
 10
274.404842
 20
304.907994
 30
0.0
 11
274.404842
 21
309.407994
 31
0.0
  0
LINE
  5
121
330
1F
100
AcDbEntity
  8
NOCUT
100
AcDbLine
 10
274.404842
 20
309.407994
 30
0.0
 11
274.904842
 21
309.907994
 31
0.0
  0
LINE
  5
122
330
1F
100
AcDbEntity
  8
NOCUT
100
AcDbLine
 10
214.404842
 20
302.907994
 30
0.0
 11
216.404842
 21
304.907994
 31
0.0
  0
LINE
  5
123
330
1F
100
AcDbEntity
  8
NOCUT
100
AcDbLine
 10
214.404842
 20
302.907994
 30
0.0
 11
214.404842
 21
288.907994
 31
0.0
  0
LINE
  5
124
330
1F
100
AcDbEntity
  8
NOCUT
100
AcDbLine
 10
279.404842
 20
309.907994
 30
0.0
 11
274.904842
 21
309.907994
 31
0.0
  0
LINE
  5
125
330
1F
100
AcDbEntity
  8
NOCUT
100
AcDbLine
 10
274.404842
 20
304.907994
 30
0.0
 11
216.404842
 21
304.907994
 31
0.0
  0
ARC
  5
12E
330
1F
100
AcDbEntity
  8
1
100
AcDbCircle
 10
292.203832
 20
316.907994
 30
0.0
 40
14.0
100
AcDbArc
 50
225.0
 51
270.0
  0
CIRCLE
  5
12F
330
1F
100
AcDbEntity
  8
1
100
AcDbCircle
 10
381.422479
 20
285.253212
 30
0.0
 40
1.099999999999998
  0
ARC
  5
130
330
1F
100
AcDbEntity
  8
1
100
AcDbCircle
 10
292.203832
 20
260.907994
 30
0.0
 40
14.0
100
AcDbArc
 50
90.0
 51
135.0
  0
ARC
  5
131
330
1F
100
AcDbEntity
  8
1
100
AcDbCircle
 10
381.402831
 20
285.273558
 30
0.0
 40
1.5
100
AcDbArc
 50
75.0
 51
345.0
  0
ARC
  5
140
330
1F
100
AcDbEntity
  8
NOCUT
100
AcDbCircle
 10
292.203832
 20
316.907994
 30
0.0
 40
14.0
100
AcDbArc
 50
225.0
 51
270.0
  0
ELLIPSE
  5
141
330
1F
100
AcDbEntity
  8
1
100
AcDbEllipse
 10
381.423138
 20
288.907994
 30
0.0
 11
24.01544727522641
 21
-13.81189850662388
 31
0.0
210
0.0
220
0.0
230
0.9999999999999998
 40
0.09524
 41
4.101855975700202
 42
4.356084549802093
  0
ELLIPSE
  5
142
330
1F
100
AcDbEntity
  8
1
100
AcDbEllipse
 10
377.010736
 20
288.907993
 30
0.0
 11
0.5899605831128087
 21
-13.99999502041244
 31
0.0
210
0.0
220
0.0
230
1.0
 40
0.020196
 41
3.016096007812521
 42
3.127620386084821
  0
ELLIPSE
  5
143
330
1F
100
AcDbEntity
  8
1
100
AcDbEllipse
 10
377.799931
 20
294.728325
 30
0.0
 11
1.932265519940236
 21
-0.5160910389166668
 31
0.0
210
0.0
220
0.0
230
1.0
 40
0.9977149999999999
 41
2.717682454066725
 42
4.285246300061741
  0
ELLIPSE
  5
144
330
1F
100
AcDbEntity
  8
1
100
AcDbEllipse
 10
376.87846
 20
288.907994
 30
0.0
 11
0.489558412513336
 21
-13.99982856327393
 31
0.0
210
0.0
220
0.0
230
0.9999999999999998
 40
0.141526
 41
3.123522474657543
 42
3.246416005026388
  0
ELLIPSE
  5
145
330
1F
100
AcDbEntity
  8
1
100
AcDbEllipse
 10
293.832686
 20
288.907993
 30
0.0
 11
297.8780486452994
 21
13.6529745120904
 31
0.0
210
0.0
220
0.0
230
1.0
 40
0.0104
 41
5.000540357079219
 42
5.018322455932369
  0
ELLIPSE
  5
146
330
1F
100
AcDbEntity
  8
1
100
AcDbEllipse
 10
377.805162
 20
294.747909
 30
0.0
 11
-1.932265519940236
 21
0.5160910389166656
 31
0.0
210
0.0
220
0.0
230
1.0
 40
0.9977149999999999
 41
2.611783922279249
 42
2.742150232711866
  0
ELLIPSE
  5
147
330
1F
100
AcDbEntity
  8
1
100
AcDbEllipse
 10
385.254138
 20
288.910075
 30
0.0
 11
0.0001758288819744
 21
-0.5000776676640002
 31
0.0
210
0.0
220
0.0
230
1.0
 40
0.140519
 41
3.139090475969325
 42
4.709886802768004
  0
ELLIPSE
  5
148
330
1F
100
AcDbEntity
  8
1
100
AcDbEllipse
 10
296.536761
 20
274.101011
 30
0.0
 11
-19.44158857530039
 21
3.999308665707298
 31
0.0
210
0.0
220
0.0
230
0.9999999999999998
 40
0.5072130000000001
 41
4.746305064554299
 42
5.769334021283137
  0
ELLIPSE
  5
149
330
1F
100
AcDbEntity
  8
1
100
AcDbEllipse
 10
381.107345
 20
297.017188
 30
0.0
 11
-0.0965221760105445
 21
0.0257802199447827
 31
0.0
210
0.0
220
0.0
230
1.0
 40
0.9977149999999999
 41
0.3052028729094329
 42
1.677736800918516
  0
ELLIPSE
  5
14A
330
1F
100
AcDbEntity
  8
1
100
AcDbEllipse
 10
380.907765
 20
297.008491
 30
0.0
 11
-0.0965221760105445
 21
0.0257802199447827
 31
0.0
210
0.0
220
0.0
230
0.9999999999999998
 40
0.9977149999999999
 41
3.4467955264992
 42
4.295730678910032
  0
ELLIPSE
  5
14B
330
1F
100
AcDbEntity
  8
1
100
AcDbEllipse
 10
380.622072
 20
296.654118
 30
0.0
 11
-0.5371411886095505
 21
0.1434656630849623
 31
0.0
210
0.0
220
0.0
230
1.0
 40
0.9977149999999999
 41
4.29573067891004
 42
5.215854252079916
  0
ELLIPSE
  5
14C
330
1F
100
AcDbEntity
  8
1
100
AcDbEllipse
 10
380.955856
 20
298.164509
 30
0.0
 11
1.739038967946214
 21
-0.4644819350250005
 31
0.0
210
0.0
220
0.0
230
1.0
 40
0.9977149999999999
 41
0.0
 42
6.283185307179585
  0
ELLIPSE
  5
14D
330
1F
100
AcDbEntity
  8
1
100
AcDbEllipse
 10
380.961565
 20
298.185883
 30
0.0
 11
2.656865089917825
 21
-0.7096251785104171
 31
0.0
210
0.0
220
0.0
230
1.0
 40
0.9977149999999998
 41
0.0
 42
6.283185307179585
  0
ELLIPSE
  5
14E
330
1F
100
AcDbEntity
  8
1
100
AcDbEllipse
 10
381.141869
 20
298.430556
 30
0.0
 11
2.990426653188629
 21
-0.7987165233357496
 31
0.0
210
0.0
220
0.0
230
1.0
 40
0.9977149999999999
 41
2.264574956292576
 42
6.283185307179585
  0
ELLIPSE
  5
14F
330
1F
100
AcDbEntity
  8
1
100
AcDbEllipse
 10
381.141869
 20
298.430556
 30
0.0
 11
2.990426653188629
 21
-0.7987165233357496
 31
0.0
210
0.0
220
0.0
230
1.0
 40
0.9977149999999999
 41
0.0
 42
0.8770710460365858
  0
ELLIPSE
  5
150
330
1F
100
AcDbEntity
  8
1
100
AcDbEllipse
 10
377.262454
 20
294.100563
 30
0.0
 11
0.9539746240358029
 21
1.042276062768864
 31
0.0
210
0.0
220
0.0
230
1.0
 40
0.022111
 41
0.9735594949946467
 42
1.528370528032291
  0
ELLIPSE
  5
151
330
1F
100
AcDbEntity
  8
1
100
AcDbEllipse
 10
381.122079
 20
298.356463
 30
0.0
 11
3.047894963411015
 21
-0.8140658009693815
 31
0.0
210
0.0
220
0.0
230
0.9999999999999998
 40
0.9977149999999999
 41
0.0
 42
6.283185307179585
  0
ELLIPSE
  5
152
330
1F
100
AcDbEntity
  8
1
100
AcDbEllipse
 10
381.119202
 20
298.345691
 30
0.0
 11
-3.139931469902891
 21
0.838647938239583
 31
0.0
210
0.0
220
0.0
230
0.9999999999999998
 40
0.9977149999999999
 41
0.0
 42
6.283185307179585
  0
ELLIPSE
  5
153
330
1F
100
AcDbEntity
  8
1
100
AcDbEllipse
 10
385.306725
 20
294.451105
 30
0.0
 11
1.042958970676987
 21
-0.9545996761155471
 31
0.0
210
0.0
220
0.0
230
1.0
 40
0.042396
 41
1.59287485699764
 42
2.147685889869475
  0
ELLIPSE
  5
154
330
1F
100
AcDbEntity
  8
1
100
AcDbEllipse
 10
376.902038
 20
302.129301
 30
0.0
 11
1.042958970432526
 21
-0.9545996758850606
 31
0.0
210
0.0
220
0.0
230
1.0
 40
0.042396
 41
1.038063823918248
 42
1.592874856918385
  0
ELLIPSE
  5
155
330
1F
100
AcDbEntity
  8
1
100
AcDbEllipse
 10
384.946309
 20
302.479843
 30
0.0
 11
0.953974624577161
 21
1.042276063353688
 31
0.0
210
0.0
220
0.0
230
1.0
 40
0.022111
 41
1.52837052819869
 42
2.083181560930623
  0
ELLIPSE
  5
156
330
1F
100
AcDbEntity
  8
1
100
AcDbEllipse
 10
377.961403
 20
305.175328
 30
0.0
 11
-12.1732727756235
 21
3.251373545174994
 31
0.0
210
0.0
220
0.0
230
1.0
 40
0.9977149999999999
 41
1.309254990164754
 42
1.875432130323185
  0
ELLIPSE
  5
157
330
1F
100
AcDbEntity
  8
1
100
AcDbEllipse
 10
380.982009
 20
298.26243
 30
0.0
 11
-2.656865089917825
 21
0.7096251785104153
 31
0.0
210
0.0
220
0.0
230
1.0
 40
0.9977149999999998
 41
3.141668256132601
 42
6.283162710081789
  0
ELLIPSE
  5
158
330
1F
100
AcDbEntity
  8
1
100
AcDbEllipse
 10
380.512336
 20
297.09596
 30
0.0
 11
-0.0965221760105445
 21
0.0257802199447827
 31
0.0
210
0.0
220
0.0
230
0.9999999999999998
 40
0.9977149999999999
 41
5.215854252080035
 42
6.064789404490692
  0
ELLIPSE
  5
159
330
1F
100
AcDbEntity
  8
1
100
AcDbEllipse
 10
380.335023
 20
297.188026
 30
0.0
 11
-0.0965221760105447
 21
0.0257802199447827
 31
0.0
210
0.0
220
0.0
230
1.0
 40
0.9977149999999999
 41
1.550662822891695
 42
2.923196750901038
  0
ELLIPSE
  5
15A
330
1F
100
AcDbEntity
  8
1
100
AcDbEllipse
 10
380.461286
 20
297.625179
 30
0.0
 11
-0.5371411886095508
 21
0.1434656630849624
 31
0.0
210
0.0
220
0.0
230
1.0
 40
0.9977149999999999
 41
0.6305392497219926
 42
1.550662822891811
  0
ELLIPSE
  5
15B
330
1F
100
AcDbEntity
  8
1
100
AcDbEllipse
 10
380.036168
 20
297.461048
 30
0.0
 11
-0.0965221760105445
 21
0.0257802199447827
 31
0.0
210
0.0
220
0.0
230
1.0
 40
0.9977149999999999
 41
5.541190628892681
 42
6.913724556901492
  0
ELLIPSE
  5
15C
330
1F
100
AcDbEntity
  8
1
100
AcDbEllipse
 10
379.928633
 20
297.629208
 30
0.0
 11
-0.0965221760105445
 21
0.0257802199447827
 31
0.0
210
0.0
220
0.0
230
0.9999999999999998
 40
0.9977149999999999
 41
2.39959797530259
 42
3.248533127713441
  0
ELLIPSE
  5
15D
330
1F
100
AcDbEntity
  8
1
100
AcDbEllipse
 10
379.477999
 20
297.699298
 30
0.0
 11
-0.5371411886095505
 21
0.1434656630849623
 31
0.0
210
0.0
220
0.0
230
1.0
 40
0.9977149999999999
 41
3.248533127713462
 42
4.168656700883314
  0
ELLIPSE
  5
15E
330
1F
100
AcDbEntity
  8
1
100
AcDbEllipse
 10
379.806429
 20
298.014629
 30
0.0
 11
-0.0965221760105445
 21
0.0257802199447827
 31
0.0
210
0.0
220
0.0
230
0.9999999999999998
 40
0.9977149999999999
 41
4.168656700883298
 42
5.01759185329428
  0
ELLIPSE
  5
15F
330
1F
100
AcDbEntity
  8
1
100
AcDbEllipse
 10
379.797487
 20
298.2138240000001
 30
0.0
 11
-0.0965221760105447
 21
0.0257802199447827
 31
0.0
210
0.0
220
0.0
230
1.0
 40
0.9977149999999999
 41
0.5034652716953115
 42
1.875999199704173
  0
ELLIPSE
  5
160
330
1F
100
AcDbEntity
  8
1
100
AcDbEllipse
 10
380.240081
 20
298.322838
 30
0.0
 11
-0.5371411886095508
 21
0.1434656630849624
 31
0.0
210
0.0
220
0.0
230
1.0
 40
0.9977149999999999
 41
5.866527005704936
 42
6.786650578874835
  0
ELLIPSE
  5
161
330
1F
100
AcDbEntity
  8
1
100
AcDbEllipse
 10
379.8846779999999
 20
298.608369
 30
0.0
 11
-0.0965221760105445
 21
0.0257802199447827
 31
0.0
210
0.0
220
0.0
230
1.0
 40
0.9977149999999999
 41
4.493993077695976
 42
5.866527005704838
  0
ELLIPSE
  5
162
330
1F
100
AcDbEntity
  8
1
100
AcDbEllipse
 10
379.976724
 20
298.785226
 30
0.0
 11
-0.0965221760105445
 21
0.0257802199447827
 31
0.0
210
0.0
220
0.0
230
0.9999999999999998
 40
0.9977149999999999
 41
1.352400424105904
 42
2.201335576516707
  0
ELLIPSE
  5
163
330
1F
100
AcDbEntity
  8
1
100
AcDbEllipse
 10
379.811783
 20
299.20969
 30
0.0
 11
-0.5371411886095505
 21
0.1434656630849623
 31
0.0
210
0.0
220
0.0
230
1.0
 40
0.9977149999999999
 41
2.201335576516849
 42
3.121459149686707
  0
ELLIPSE
  5
164
330
1F
100
AcDbEntity
  8
1
100
AcDbEllipse
 10
380.249948
 20
299.083178
 30
0.0
 11
-0.0965221760105445
 21
0.0257802199447827
 31
0.0
210
0.0
220
0.0
230
0.9999999999999998
 40
0.9977149999999999
 41
3.121459149686665
 42
3.970394302097531
  0
ELLIPSE
  5
165
330
1F
100
AcDbEntity
  8
1
100
AcDbEllipse
 10
380.418319
 20
299.190308
 30
0.0
 11
-0.0965221760105447
 21
0.0257802199447827
 31
0.0
210
0.0
220
0.0
230
1.0
 40
0.9977149999999999
 41
5.739453027678218
 42
7.111986955687277
  0
ELLIPSE
  5
166
330
1F
100
AcDbEntity
  8
1
100
AcDbEllipse
 10
380.734651
 20
298.862168
 30
0.0
 11
-0.5371411886095508
 21
0.1434656630849624
 31
0.0
210
0.0
220
0.0
230
1.0
 40
0.9977149999999999
 41
4.819329454508372
 42
5.739453027678214
  0
ELLIPSE
  5
167
330
1F
100
AcDbEntity
  8
1
100
AcDbEllipse
 10
380.804366
 20
299.31183
 30
0.0
 11
-0.0965221760105445
 21
0.0257802199447827
 31
0.0
210
0.0
220
0.0
230
1.0
 40
0.9977149999999999
 41
3.4467955264992
 42
4.819329454508308
  0
ELLIPSE
  5
168
330
1F
100
AcDbEntity
  8
1
100
AcDbEllipse
 10
381.003947
 20
299.320528
 30
0.0
 11
-0.0965221760105445
 21
0.0257802199447827
 31
0.0
210
0.0
220
0.0
230
0.9999999999999998
 40
0.9977149999999999
 41
0.3052028729094756
 42
1.154138025320397
  0
ELLIPSE
  5
169
330
1F
100
AcDbEntity
  8
1
100
AcDbEllipse
 10
381.2896399999999
 20
299.674901
 30
0.0
 11
-0.5371411886095505
 21
0.1434656630849623
 31
0.0
210
0.0
220
0.0
230
1.0
 40
0.9977149999999999
 41
1.154138025320299
 42
2.074261598490144
  0
ELLIPSE
  5
16A
330
1F
100
AcDbEntity
  8
1
100
AcDbEllipse
 10
381.399375
 20
299.233059
 30
0.0
 11
-0.0965221760105445
 21
0.0257802199447827
 31
0.0
210
0.0
220
0.0
230
0.9999999999999998
 40
0.9977149999999999
 41
2.07426159849031
 42
2.923196750901008
  0
ELLIPSE
  5
16B
330
1F
100
AcDbEntity
  8
1
100
AcDbEllipse
 10
381.576688
 20
299.1409930000001
 30
0.0
 11
-0.0965221760105447
 21
0.0257802199447827
 31
0.0
210
0.0
220
0.0
230
1.0
 40
0.9977149999999999
 41
4.692255476481488
 42
6.064789404490661
  0
ELLIPSE
  5
16C
330
1F
100
AcDbEntity
  8
1
100
AcDbEllipse
 10
381.450425
 20
298.703839
 30
0.0
 11
-0.5371411886095508
 21
0.1434656630849624
 31
0.0
210
0.0
220
0.0
230
1.0
 40
0.9977149999999999
 41
3.772131903311801
 42
4.69225547648163
  0
ELLIPSE
  5
16D
330
1F
100
AcDbEntity
  8
1
100
AcDbEllipse
 10
381.875544
 20
298.86797
 30
0.0
 11
-0.0965221760105445
 21
0.0257802199447827
 31
0.0
210
0.0
220
0.0
230
1.0
 40
0.9977149999999999
 41
2.399597975302835
 42
3.772131903311558
  0
ELLIPSE
  5
16E
330
1F
100
AcDbEntity
  8
1
100
AcDbEllipse
 10
381.983078
 20
298.699811
 30
0.0
 11
-0.0965221760105445
 21
0.0257802199447827
 31
0.0
210
0.0
220
0.0
230
0.9999999999999998
 40
0.9977149999999999
 41
5.541190628892533
 42
6.390125781303378
  0
ELLIPSE
  5
16F
330
1F
100
AcDbEntity
  8
1
100
AcDbEllipse
 10
382.433713
 20
298.62972
 30
0.0
 11
-0.5371411886095505
 21
0.1434656630849623
 31
0.0
210
0.0
220
0.0
230
1.0
 40
0.9977149999999999
 41
0.1069404741236561
 42
1.027064047293535
  0
ELLIPSE
  5
170
330
1F
100
AcDbEntity
  8
1
100
AcDbEllipse
 10
382.105283
 20
298.31439
 30
0.0
 11
-0.0965221760105445
 21
0.0257802199447827
 31
0.0
210
0.0
220
0.0
230
0.9999999999999998
 40
0.9977149999999999
 41
1.027064047293505
 42
1.875999199704486
  0
ELLIPSE
  5
171
330
1F
100
AcDbEntity
  8
1
100
AcDbEllipse
 10
382.114225
 20
298.115195
 30
0.0
 11
-0.0965221760105447
 21
0.0257802199447827
 31
0.0
210
0.0
220
0.0
230
1.0
 40
0.9977149999999999
 41
3.645057925285111
 42
5.017591853294123
  0
ELLIPSE
  5
172
330
1F
100
AcDbEntity
  8
1
100
AcDbEllipse
 10
381.67163
 20
298.00618
 30
0.0
 11
-0.5371411886095508
 21
0.1434656630849624
 31
0.0
210
0.0
220
0.0
230
1.0
 40
0.9977149999999999
 41
2.724934352115174
 42
3.645057925285029
  0
ELLIPSE
  5
173
330
1F
100
AcDbEntity
  8
1
100
AcDbEllipse
 10
382.027033
 20
297.720649
 30
0.0
 11
-0.0965221760105445
 21
0.0257802199447827
 31
0.0
210
0.0
220
0.0
230
1.0
 40
0.9977149999999999
 41
1.352400424105889
 42
2.724934352115175
  0
ELLIPSE
  5
174
330
1F
100
AcDbEntity
  8
1
100
AcDbEllipse
 10
381.934987
 20
297.543792
 30
0.0
 11
-0.0965221760105445
 21
0.0257802199447827
 31
0.0
210
0.0
220
0.0
230
0.9999999999999998
 40
0.9977149999999999
 41
4.493993077695853
 42
5.342928230106457
  0
ELLIPSE
  5
175
330
1F
100
AcDbEntity
  8
1
100
AcDbEllipse
 10
382.0999290000001
 20
297.119328
 30
0.0
 11
-0.5371411886095505
 21
0.1434656630849623
 31
0.0
210
0.0
220
0.0
230
1.0
 40
0.9977149999999999
 41
5.342928230106629
 42
6.263051803276512
  0
ELLIPSE
  5
176
330
1F
100
AcDbEntity
  8
1
100
AcDbEllipse
 10
381.661763
 20
297.24584
 30
0.0
 11
-0.0965221760105445
 21
0.0257802199447827
 31
0.0
210
0.0
220
0.0
230
0.9999999999999998
 40
0.9977149999999999
 41
6.263051803276458
 42
7.111986955687326
  0
ELLIPSE
  5
177
330
1F
100
AcDbEntity
  8
1
100
AcDbEllipse
 10
381.493392
 20
297.138711
 30
0.0
 11
-0.0965221760105447
 21
0.0257802199447827
 31
0.0
210
0.0
220
0.0
230
1.0
 40
0.9977149999999999
 41
2.597860374088365
 42
3.970394302097588
  0
ELLIPSE
  5
178
330
1F
100
AcDbEntity
  8
1
100
AcDbEllipse
 10
381.177061
 20
297.46685
 30
0.0
 11
-0.5371411886095508
 21
0.1434656630849624
 31
0.0
210
0.0
220
0.0
230
1.0
 40
0.9977149999999999
 41
1.677736800918656
 42
2.597860374088412
  0
ELLIPSE
  5
179
330
1F
100
AcDbEntity
  8
1
100
AcDbEllipse
 10
385.380853
 20
293.380088
 30
0.0
 11
0.0003729802237808
 21
0.500481119154634
 31
0.0
210
0.0
220
0.0
230
0.9999999999999998
 40
0.140033
 41
3.212303616811488
 42
4.783099943609894
  0
ELLIPSE
  5
17A
330
1F
100
AcDbEntity
  8
1
100
AcDbEllipse
 10
384.918513
 20
280.983309
 30
0.0
 11
0.0538770024347846
 21
0.4991611425064802
 31
0.0
210
0.0
220
0.0
230
1.0
 40
0.139171
 41
1.583568179242764
 42
3.154364506043243
  0
ELLIPSE
  5
17B
330
1F
100
AcDbEntity
  8
1
100
AcDbEllipse
 10
386.1503200000001
 20
288.907994
 30
0.0
 11
1.51534277188362
 21
13.99841667295148
 31
0.0
210
0.0
220
0.0
230
1.0
 40
0.138944
 41
1.932942856567647
 42
3.156632395651093
  0
ELLIPSE
  5
17C
330
1F
100
AcDbEntity
  8
1
100
AcDbEllipse
 10
385.644842
 20
288.907994
 30
0.0
 11
0.0
 21
14.00000000010473
 31
0.0
210
0.0
220
0.0
230
1.0
 40
0.140541
 41
1.487981676662974
 42
1.91790311450389
  0
ELLIPSE
  5
17D
330
1F
100
AcDbEntity
  8
1
100
AcDbEllipse
 10
377.872639
 20
295.000545
 30
0.0
 11
-1.932265519940236
 21
0.5160910389166656
 31
0.0
210
0.0
220
0.0
230
1.0
 40
0.9977149999999999
 41
0.0705650880375443
 42
1.875999251379561
  0
ELLIPSE
  5
17E
330
1F
100
AcDbEntity
  8
1
100
AcDbEllipse
 10
377.872639
 20
295.000545
 30
0.0
 11
-1.932265519940236
 21
0.5160910389166656
 31
0.0
210
0.0
220
0.0
230
1.0
 40
0.9977149999999999
 41
1.875999251379561
 42
2.563713393647951
  0
ELLIPSE
  5
17F
330
1F
100
AcDbEntity
  8
1
100
AcDbEllipse
 10
377.805162
 20
294.747909
 30
0.0
 11
-1.932265519940236
 21
0.5160910389166656
 31
0.0
210
0.0
220
0.0
230
1.0
 40
0.9977149999999999
 41
5.716445802771673
 42
5.859275107656512
  0
ELLIPSE
  5
180
330
1F
100
AcDbEntity
  8
1
100
AcDbEllipse
 10
377.799931
 20
294.728325
 30
0.0
 11
1.932265519940236
 21
-0.5160910389166668
 31
0.0
210
0.0
220
0.0
230
1.0
 40
0.9977149999999999
 41
5.619781166511159
 42
5.753376575869038
  0
ELLIPSE
  5
181
330
1F
100
AcDbEntity
  8
1
100
AcDbEllipse
 10
376.576973
 20
288.907985
 30
0.0
 11
0.5899609549846252
 21
-14.00000335001889
 31
0.0
210
0.0
220
0.0
230
1.0
 40
0.020196
 41
3.250234037830982
 42
3.271692958957856
  0
ELLIPSE
  5
182
330
1F
100
AcDbEntity
  8
1
100
AcDbEllipse
 10
316.14411
 20
288.907994
 30
0.0
 11
79.39068344690976
 21
-12.09676542953826
 31
0.0
210
0.0
220
0.0
230
0.9999999999999998
 40
0.088771
 41
4.419624944949126
 42
4.494124544464471
  0
ELLIPSE
  5
183
330
1F
100
AcDbEntity
  8
1
100
AcDbEllipse
 10
297.904842
 20
279.9716870000001
 30
0.0
 11
-2.382605310748654
 21
-7.636962218918745
 31
0.0
210
0.0
220
0.0
230
0.9999999999999998
 40
0.176153
 41
4.198387281074701
 42
5.490840416556108
  0
SPLINE
  5
189
330
1F
100
AcDbEntity
  8
1
100
AcDbSpline
210
0.0
220
0.0
230
1.0
 70
     8
 71
     3
 72
    32
 73
    28
 74
     0
 42
0.000000001
 43
0.0000000001
 40
0.0
 40
0.0
 40
0.0
 40
0.0
 40
0.125000000000011
 40
0.125000000000011
 40
0.2500000000000219
 40
0.2500000000000219
 40
0.3750000000000329
 40
0.3750000000000329
 40
0.4375000000000296
 40
0.4375000000000296
 40
0.5000000000000265
 40
0.5000000000000265
 40
0.5625000000000231
 40
0.5625000000000231
 40
0.6250000000000199
 40
0.6250000000000199
 40
0.6875000000000166
 40
0.6875000000000166
 40
0.7500000000000133
 40
0.7500000000000133
 40
0.8125000000000099
 40
0.8125000000000099
 40
0.8750000000000067
 40
0.8750000000000067
 40
0.9375000000000033
 40
0.9375000000000033
 40
1.0
 40
1.0
 40
1.0
 40
1.0
 10
371.678958030874
 20
294.2813309708088
 30
0.0
 10
371.6577310413821
 20
294.3011020880847
 30
0.0
 10
371.6375307492624
 20
294.3215914810484
 30
0.0
 10
371.599540046812
 20
294.3642575602707
 30
0.0
 10
371.5817434503076
 20
294.386430070659
 30
0.0
 10
371.5491761086251
 20
294.4328883435089
 30
0.0
 10
371.5343876811731
 20
294.4571621976859
 30
0.0
 10
371.515370795226
 20
294.4957704485487
 30
0.0
 10
371.5095648962087
 20
294.5090097790288
 30
0.0
 10
371.4993030538653
 20
294.5364209097382
 30
0.0
 10
371.4949294997095
 20
294.5503771060908
 30
0.0
 10
371.4880166193531
 20
294.5788810242979
 30
0.0
 10
371.4854716887008
 20
294.5934426376522
 30
0.0
 10
371.4827150425632
 20
294.6232571367387
 30
0.0
 10
371.4825307796062
 20
294.6382290391514
 30
0.0
 10
371.484999832408
 20
294.6683180106303
 30
0.0
 10
371.4876545675619
 20
294.683458326067
 30
0.0
 10
371.496482822185
 20
294.7138141395499
 30
0.0
 10
371.5025095026892
 20
294.7285060356363
 30
0.0
 10
371.5179491529329
 20
294.7568598119768
 30
0.0
 10
371.5274938549185
 20
294.7706250697363
 30
0.0
 10
371.5490691114558
 20
294.7958498083427
 30
0.0
 10
371.5611518949086
 20
294.8074704329553
 30
0.0
 10
371.5876369951939
 20
294.8289305598128
 30
0.0
 10
371.6016333881831
 20
294.8384509701772
 30
0.0
 10
371.630792110021
 20
294.8555862151553
 30
0.0
 10
371.6459597106691
 20
294.8631991409818
 30
0.0
 10
371.6616129273651
 20
294.8700236508685
 30
0.0
  0
SPLINE
  5
18A
330
1F
100
AcDbEntity
  8
1
100
AcDbSpline
210
0.0
220
0.0
230
1.0
 70
     8
 71
     3
 72
    23
 73
    19
 74
     0
 42
0.000000001
 43
0.0000000001
 40
0.0
 40
0.0
 40
0.0
 40
0.0
 40
0.1249999999999939
 40
0.1249999999999939
 40
0.2499999999999878
 40
0.2499999999999878
 40
0.3749999999999818
 40
0.3749999999999818
 40
0.4999999999999759
 40
0.4999999999999759
 40
0.6249999999999698
 40
0.6249999999999698
 40
0.6562499999999714
 40
0.6562499999999714
 40
0.6874999999999729
 40
0.7499999999999761
 40
0.7499999999999761
 40
1.0
 40
1.0
 40
1.0
 40
1.0
 10
371.796499549059
 20
292.076279399976
 30
0.0
 10
371.58426189991
 20
292.1820943156983
 30
0.0
 10
371.3708429697326
 20
292.2906773139143
 30
0.0
 10
370.9420849489932
 20
292.5123428004927
 30
0.0
 10
370.7267439171891
 20
292.6254298377455
 30
0.0
 10
370.2944551223508
 20
292.8553689473978
 30
0.0
 10
370.0775062939782
 20
292.9722235161935
 30
0.0
 10
369.6422358554569
 20
293.2091494778187
 30
0.0
 10
369.4239136139282
 20
293.3292223501534
 30
0.0
 10
368.9860748398305
 20
293.5721666635305
 30
0.0
 10
368.7665579082538
 20
293.6950390395639
 30
0.0
 10
368.4915014513852
 20
293.8501767653244
 30
0.0
 10
368.4364589829893
 20
293.8812808463314
 30
0.0
 10
368.326481539919
 20
293.9435422758906
 30
0.0
 10
368.161610890883
 20
294.037051410086
 30
0.0
 10
367.9970169729757
 20
294.1308994914839
 30
0.0
 10
367.4489471993619
 20
294.4444326873412
 30
0.0
 10
367.0123208881945
 20
294.6975000708095
 30
0.0
 10
366.5771759702169
 20
294.9523819016792
 30
0.0
  0
SPLINE
  5
18B
330
1F
100
AcDbEntity
  8
1
100
AcDbSpline
210
0.0
220
0.0
230
1.0
 70
     8
 71
     3
 72
    12
 73
     8
 74
     0
 42
0.000000001
 43
0.0000000001
 40
0.0
 40
0.0
 40
0.0
 40
0.0
 40
0.075037553223167
 40
0.075037553223167
 40
0.5375187766115839
 40
0.5375187766115839
 40
1.0
 40
1.0
 40
1.0
 40
1.0
 10
332.5437816648171
 20
277.7879474417973
 30
0.0
 10
332.4380633718883
 20
277.7689748304298
 30
0.0
 10
332.3323465422313
 20
277.7500766076046
 30
0.0
 10
331.5750719214475
 20
277.6152378110522
 30
0.0
 10
330.9235659413878
 20
277.5020626771771
 30
0.0
 10
329.6205171783479
 20
277.2817784374625
 30
0.0
 10
328.9689745368955
 20
277.1746711802733
 30
0.0
 10
328.3172834664168
 20
277.0708803347482
 30
0.0
  0
SPLINE
  5
18C
330
1F
100
AcDbEntity
  8
1
100
AcDbSpline
210
0.0
220
0.0
230
1.0
 70
     8
 71
     3
 72
    10
 73
     6
 74
     0
 42
0.000000001
 43
0.0000000001
 40
0.0
 40
0.0
 40
0.0
 40
0.0
 40
0.5026388955374046
 40
0.5026388955374046
 40
1.0
 40
1.0
 40
1.0
 40
1.0
 10
328.3172834664168
 20
277.0708803347482
 30
0.0
 10
328.9663743170185
 20
277.2033562219062
 30
0.0
 10
329.616141677764
 20
277.3359019416751
 30
0.0
 10
330.910688896486
 20
277.5961390518847
 30
0.0
 10
331.5554483331457
 20
277.7238556669553
 30
0.0
 10
332.2010713343513
 20
277.8493983283665
 30
0.0
  0
SPLINE
  5
18D
330
1F
100
AcDbEntity
  8
1
100
AcDbSpline
210
0.0
220
0.0
230
1.0
 70
     8
 71
     3
 72
    14
 73
    10
 74
     0
 42
0.000000001
 43
0.0000000001
 40
0.0
 40
0.0
 40
0.0
 40
0.0
 40
0.25
 40
0.25
 40
0.5
 40
0.5
 40
0.75
 40
0.75
 40
1.0
 40
1.0
 40
1.0
 40
1.0
 10
379.005280594467
 20
293.134521916772
 30
0.0
 10
378.9671707009042
 20
293.1058332428998
 30
0.0
 10
378.9283485130117
 20
293.0786300508136
 30
0.0
 10
378.8492576907972
 20
293.027071313139
 30
0.0
 10
378.808989386306
 20
293.0027163075553
 30
0.0
 10
378.7269653751158
 20
292.9568059298091
 30
0.0
 10
378.6852099651576
 20
292.9352506681989
 30
0.0
 10
378.600141871915
 20
292.8949557783342
 30
0.0
 10
378.5567977009415
 20
292.8762099496136
 30
0.0
 10
378.5129264240985
 20
292.8590196059864
 30
0.0
  0
SPLINE
  5
18E
330
1F
100
AcDbEntity
  8
1
100
AcDbSpline
210
0.0
220
0.0
230
1.0
 70
     8
 71
     3
 72
    24
 73
    20
 74
     0
 42
0.000000001
 43
0.0000000001
 40
0.0
 40
0.0
 40
0.0
 40
0.0
 40
0.2499999999999815
 40
0.2499999999999815
 40
0.3749999999999756
 40
0.3749999999999756
 40
0.4374999999999761
 40
0.4374999999999761
 40
0.4999999999999766
 40
0.4999999999999766
 40
0.7499999999999853
 40
0.7499999999999853
 40
0.8124999999999873
 40
0.8124999999999873
 40
0.8437499999999884
 40
0.8437499999999884
 40
0.8749999999999895
 40
0.8749999999999895
 40
1.0
 40
1.0
 40
1.0
 40
1.0
 10
378.5144004006572
 20
292.5734296184435
 30
0.0
 10
378.0080219241092
 20
292.5511751515085
 30
0.0
 10
377.5040262626699
 20
292.5590202214181
 30
0.0
 10
376.7515270980519
 20
292.6148463338122
 30
0.0
 10
376.5012780869616
 20
292.6408184361641
 30
0.0
 10
376.1267853021408
 20
292.6908637542506
 30
0.0
 10
376.0021012632319
 20
292.7093946068094
 30
0.0
 10
375.7530289757998
 20
292.7501763399247
 30
0.0
 10
375.6285856273748
 20
292.7724379846914
 30
0.0
 10
375.0077036081838
 20
292.8930115076323
 30
0.0
 10
374.5196746570193
 20
293.018135974733
 30
0.0
 10
373.9203842324175
 20
293.209812976797
 30
0.0
 10
373.8010653199123
 20
293.2499177178217
 30
0.0
 10
373.6228995008014
 20
293.3127354604603
 30
0.0
 10
373.5636213318622
 20
293.3341276192469
 30
0.0
 10
373.4454969152279
 20
293.3777411274584
 30
0.0
 10
373.3866461126954
 20
293.3999635714712
 30
0.0
 10
373.0934453990723
 20
293.5131439600677
 30
0.0
 10
372.8622524150456
 20
293.6103013517369
 30
0.0
 10
372.6344032689826
 20
293.7139816320524
 30
0.0
  0
SPLINE
  5
18F
330
1F
100
AcDbEntity
  8
1
100
AcDbSpline
210
0.0
220
0.0
230
1.0
 70
     8
 71
     3
 72
     8
 73
     4
 74
     0
 42
0.000000001
 43
0.0000000001
 40
0.0
 40
0.0
 40
0.0
 40
0.0
 40
1.0
 40
1.0
 40
1.0
 40
1.0
 10
378.5144004006571
 20
292.5734296184435
 30
0.0
 10
378.5181308840366
 20
292.5735935668001
 30
0.0
 10
378.5218624224498
 20
292.5737568684971
 30
0.0
 10
378.5255950176882
 20
292.5739195224365
 30
0.0
  0
SPLINE
  5
190
330
1F
100
AcDbEntity
  8
1
100
AcDbSpline
210
0.0
220
0.0
230
1.0
 70
     8
 71
     3
 72
    28
 73
    24
 74
     0
 42
0.000000001
 43
0.0000000001
 40
0.0
 40
0.0
 40
0.0
 40
0.0
 40
0.1250000000000034
 40
0.1250000000000034
 40
0.2500000000000067
 40
0.2500000000000067
 40
0.2812500000000076
 40
0.2812500000000076
 40
0.3125000000000084
 40
0.3750000000000102
 40
0.3750000000000102
 40
0.5000000000000135
 40
0.5000000000000135
 40
0.5312500000000103
 40
0.5312500000000103
 40
0.5625000000000068
 40
0.5625000000000068
 40
0.6250000000000058
 40
0.6250000000000058
 40
0.7500000000000039
 40
0.8750000000000019
 40
0.8750000000000019
 40
1.0
 40
1.0
 40
1.0
 40
1.0
 10
371.8134045853209
 20
291.5821833203599
 30
0.0
 10
372.0659169872044
 20
291.4247974715399
 30
0.0
 10
372.3239106786063
 20
291.2772975856532
 30
0.0
 10
372.8507149778553
 20
291.0021171351237
 30
0.0
 10
373.1195251674819
 20
290.8744354185277
 30
0.0
 10
373.4623052299011
 20
290.7274041331492
 30
0.0
 10
373.531237737618
 20
290.6986121090526
 30
0.0
 10
373.6695327969577
 20
290.642393735878
 30
0.0
 10
373.8776481360653
 20
290.5601002013688
 30
0.0
 10
374.0877700528991
 20
290.4838850704029
 30
0.0
 10
374.5106690023693
 20
290.339526055186
 30
0.0
 10
374.7961378590305
 20
290.2540373114563
 30
0.0
 10
375.1573848473654
 20
290.1606665532872
 30
0.0
 10
375.2298550989106
 20
290.1426677764194
 30
0.0
 10
375.3752383276953
 20
290.1080258038917
 30
0.0
 10
375.448111342359
 20
290.0913932106507
 30
0.0
 10
375.6667863230177
 20
290.0436602339502
 30
0.0
 10
375.8128293215632
 20
290.0146790770002
 30
0.0
 10
376.2517261328123
 20
289.9361470091026
 30
0.0
 10
376.8389669541516
 20
289.8538428442184
 30
0.0
 10
377.430238487456
 20
289.8157860573949
 30
0.0
 10
378.0235347517004
 20
289.7999765055199
 30
0.0
 10
378.3211951413838
 20
289.8031941913962
 30
0.0
 10
378.6198928178753
 20
289.8178075173003
 30
0.0
  0
SPLINE
  5
191
330
1F
100
AcDbEntity
  8
1
100
AcDbSpline
210
0.0
220
0.0
230
1.0
 70
     8
 71
     3
 72
    32
 73
    28
 74
     0
 42
0.000000001
 43
0.0000000001
 40
0.0
 40
0.0
 40
0.0
 40
0.0
 40
0.0312500000000019
 40
0.0312500000000019
 40
0.0625000000000037
 40
0.0625000000000037
 40
0.1250000000000075
 40
0.1250000000000075
 40
0.1875000000000112
 40
0.1875000000000112
 40
0.250000000000015
 40
0.250000000000015
 40
0.3125000000000188
 40
0.3125000000000188
 40
0.3750000000000225
 40
0.3750000000000225
 40
0.5000000000000235
 40
0.5000000000000235
 40
0.5625000000000206
 40
0.5625000000000206
 40
0.6250000000000176
 40
0.6250000000000176
 40
0.7500000000000118
 40
0.7500000000000118
 40
0.8750000000000058
 40
0.8750000000000058
 40
1.0
 40
1.0
 40
1.0
 40
1.0
 10
376.8798419452957
 20
290.9535624509616
 30
0.0
 10
376.8307349792577
 20
290.9497357360913
 30
0.0
 10
376.7809047969263
 20
290.9466378931648
 30
0.0
 10
376.6801453522219
 20
290.9417546060981
 30
0.0
 10
376.6292148172965
 20
290.9399697177471
 30
0.0
 10
376.4751517057268
 20
290.9364265416339
 30
0.0
 10
376.3707672176178
 20
290.9364716313839
 30
0.0
 10
376.1599888940746
 20
290.9408173072378
 30
0.0
 10
376.0535841552039
 20
290.9451223896361
 30
0.0
 10
375.839559083544
 20
290.9576572625852
 30
0.0
 10
375.7319334731852
 20
290.9658891559808
 30
0.0
 10
375.5159783601554
 20
290.9860663867119
 30
0.0
 10
375.4076460457843
 20
290.9980128104319
 30
0.0
 10
375.1906186188868
 20
291.0254838041854
 30
0.0
 10
375.0819218982197
 20
291.0410089767452
 30
0.0
 10
374.7556366167681
 20
291.0928272718907
 30
0.0
 10
374.5378743832302
 20
291.1343488332045
 30
0.0
 10
374.2116978082953
 20
291.2069211126487
 30
0.0
 10
374.1029822142597
 20
291.2328501790745
 30
0.0
 10
373.8867110833141
 20
291.2879048580851
 30
0.0
 10
373.7790438787172
 20
291.317053180348
 30
0.0
 10
373.4575020888156
 20
291.4093169495242
 30
0.0
 10
373.2450908302839
 20
291.4772430923953
 30
0.0
 10
372.8243278683543
 20
291.6259143401642
 30
0.0
 10
372.6160015311815
 20
291.7066239649457
 30
0.0
 10
372.2032713059467
 20
291.8813629200689
 30
0.0
 10
371.9988795490973
 20
291.9753791933734
 30
0.0
 10
371.796499549059
 20
292.0762793999759
 30
0.0
  0
SPLINE
  5
192
330
1F
100
AcDbEntity
  8
1
100
AcDbSpline
210
0.0
220
0.0
230
1.0
 70
     8
 71
     3
 72
    12
 73
     8
 74
     0
 42
0.000000001
 43
0.0000000001
 40
0.0
 40
0.0
 40
0.0
 40
0.0
 40
0.230427299265669
 40
0.230427299265669
 40
0.486951532843764
 40
0.486951532843764
 40
1.0
 40
1.0
 40
1.0
 40
1.0
 10
376.5015743179786
 20
302.7746170508322
 30
0.0
 10
376.4958139707601
 20
302.7764978822431
 30
0.0
 10
376.4906296846252
 20
302.7783945240688
 30
0.0
 10
376.480910428462
 20
302.7824323296895
 30
0.0
 10
376.476502493494
 20
302.7845863913218
 30
0.0
 10
376.4657029693483
 20
302.7909990480519
 30
0.0
 10
376.4616520117231
 20
302.7952200813315
 30
0.0
 10
376.4608053510258
 20
302.799378597568
 30
0.0
  0
SPLINE
  5
193
330
1F
100
AcDbEntity
  8
1
100
AcDbSpline
210
0.0
220
0.0
230
1.0
 70
     8
 71
     3
 72
    49
 73
    45
 74
     0
 42
0.000000001
 43
0.0000000001
 40
0.0
 40
0.0
 40
0.0
 40
0.0
 40
0.0312499999999987
 40
0.0312499999999987
 40
0.0624999999999974
 40
0.0624999999999974
 40
0.1249999999999962
 40
0.1249999999999962
 40
0.1874999999999949
 40
0.1874999999999949
 40
0.2499999999999937
 40
0.2499999999999937
 40
0.3124999999999924
 40
0.3124999999999924
 40
0.3437499999999926
 40
0.3437499999999926
 40
0.3749999999999928
 40
0.3749999999999928
 40
0.4374999999999935
 40
0.4374999999999935
 40
0.4687499999999948
 40
0.4687499999999948
 40
0.499999999999996
 40
0.499999999999996
 40
0.5624999999999984
 40
0.5624999999999984
 40
0.6250000000000007
 40
0.6250000000000007
 40
0.6875000000000031
 40
0.6875000000000031
 40
0.7187500000000036
 40
0.7187500000000036
 40
0.7500000000000039
 40
0.7812500000000043
 40
0.7812500000000043
 40
0.8125000000000046
 40
0.8125000000000046
 40
0.8750000000000042
 40
0.8750000000000042
 40
0.9062500000000028
 40
0.9062500000000028
 40
0.9375000000000014
 40
0.9375000000000014
 40
1.0
 40
1.0
 40
1.0
 40
1.0
 10
384.0816533794779
 20
284.1454935137199
 30
0.0
 10
384.0822627211862
 20
284.1237176210042
 30
0.0
 10
384.083005266114
 20
284.1024770957797
 30
0.0
 10
384.0847567534155
 20
284.0610667441654
 30
0.0
 10
384.0857670141884
 20
284.0408750765277
 30
0.0
 10
384.0891911660037
 20
283.9820756506337
 30
0.0
 10
384.0919892659012
 20
283.9453494218332
 30
0.0
 10
384.0986058028742
 20
283.8767941763231
 30
0.0
 10
384.1024346963557
 20
283.8449205111651
 30
0.0
 10
384.1110362261352
 20
283.7867425404001
 30
0.0
 10
384.1158143086289
 20
283.7603526355797
 30
0.0
 10
384.1263291237799
 20
283.7129936903738
 30
0.0
 10
384.1320335670044
 20
283.6921788636228
 30
0.0
 10
384.1412309185768
 20
283.6652951440913
 30
0.0
 10
384.1444048516578
 20
283.6570531663025
 30
0.0
 10
384.1509701840855
 20
283.6420155015848
 30
0.0
 10
384.15435977243
 20
283.6352277030508
 30
0.0
 10
384.1647882981609
 20
283.6171569060801
 30
0.0
 10
384.1721067092969
 20
283.6081111412688
 30
0.0
 10
384.1836289327355
 20
283.59900787629
 30
0.0
 10
384.1875606197827
 20
283.5967191453921
 30
0.0
 10
384.1956072865738
 20
283.5936445514459
 30
0.0
 10
384.1997290662537
 20
283.5928591985426
 30
0.0
 10
384.2123186984398
 20
283.5927897841465
 30
0.0
 10
384.220998316216
 20
283.5957744936924
 30
0.0
 10
384.2389280699144
 20
283.6077790033683
 30
0.0
 10
384.2481993158841
 20
283.6168367830384
 30
0.0
 10
384.2671226004464
 20
283.6408471394971
 30
0.0
 10
384.2767927169234
 20
283.6558000024027
 30
0.0
 10
384.2916132163772
 20
283.6826877761202
 30
0.0
 10
384.2966033356313
 20
283.6923921887101
 30
0.0
 10
384.3066332356477
 20
283.7131837910861
 30
0.0
 10
384.3167262614774
 20
283.7353818077042
 30
0.0
 10
384.3269453603245
 20
283.7603886734599
 30
0.0
 10
384.3372279082278
 20
283.7868091551576
 30
0.0
 10
384.3424071010872
 20
283.8007447837881
 30
0.0
 10
384.3579598080127
 20
283.8444670870458
 30
0.0
 10
384.3683673733512
 20
283.8762068612922
 30
0.0
 10
384.3840374670253
 20
283.9277108137249
 30
0.0
 10
384.3892774713174
 20
283.9455534796219
 30
0.0
 10
384.3997427158796
 20
283.9824331267075
 30
0.0
 10
384.4049627412737
 20
284.0014498296038
 30
0.0
 10
384.420585209541
 20
284.0602222073823
 30
0.0
 10
384.4309516423464
 20
284.1017018506751
 30
0.0
 10
384.4412642983236
 20
284.1454935137008
 30
0.0
  0
SPLINE
  5
194
330
1F
100
AcDbEntity
  8
1
100
AcDbSpline
210
0.0
220
0.0
230
1.0
 70
     8
 71
     3
 72
   119
 73
   115
 74
     0
 42
0.000000001
 43
0.0000000001
 40
0.0
 40
0.0
 40
0.0
 40
0.0
 40
0.0312500000000005
 40
0.0312500000000005
 40
0.0468750000000007
 40
0.0468750000000007
 40
0.0625000000000009
 40
0.0625000000000009
 40
0.0781250000000011
 40
0.0781250000000011
 40
0.0937500000000013
 40
0.0937500000000013
 40
0.1093750000000016
 40
0.1093750000000016
 40
0.1250000000000018
 40
0.1250000000000018
 40
0.140625000000002
 40
0.140625000000002
 40
0.1562500000000022
 40
0.1718750000000024
 40
0.1718750000000024
 40
0.1875000000000026
 40
0.1875000000000026
 40
0.2031250000000028
 40
0.2031250000000028
 40
0.2109375000000031
 40
0.2109375000000031
 40
0.2187500000000034
 40
0.2187500000000034
 40
0.2500000000000042
 40
0.2500000000000042
 40
0.2656250000000044
 40
0.2656250000000044
 40
0.2734375000000046
 40
0.2734375000000046
 40
0.2812500000000047
 40
0.2812500000000047
 40
0.3125000000000046
 40
0.3125000000000046
 40
0.3281250000000046
 40
0.3281250000000046
 40
0.3437500000000046
 40
0.3437500000000046
 40
0.3593750000000046
 40
0.3593750000000046
 40
0.3750000000000046
 40
0.3750000000000046
 40
0.3906250000000046
 40
0.3906250000000046
 40
0.4062500000000047
 40
0.4218750000000047
 40
0.4218750000000047
 40
0.4375000000000047
 40
0.4375000000000047
 40
0.4531250000000047
 40
0.4531250000000047
 40
0.4687500000000047
 40
0.4687500000000047
 40
0.4843750000000047
 40
0.4843750000000047
 40
0.5000000000000047
 40
0.5000000000000047
 40
0.531250000000004
 40
0.531250000000004
 40
0.5625000000000032
 40
0.5625000000000032
 40
0.5781250000000032
 40
0.5781250000000032
 40
0.5937500000000031
 40
0.5937500000000031
 40
0.6093750000000029
 40
0.6093750000000029
 40
0.6250000000000029
 40
0.6250000000000029
 40
0.6406250000000028
 40
0.6406250000000028
 40
0.6562500000000027
 40
0.6718750000000026
 40
0.6718750000000026
 40
0.6875000000000025
 40
0.6875000000000025
 40
0.7031250000000025
 40
0.7031250000000025
 40
0.7187500000000023
 40
0.7187500000000023
 40
0.7343750000000023
 40
0.7343750000000023
 40
0.7500000000000022
 40
0.7500000000000022
 40
0.7656250000000022
 40
0.7656250000000022
 40
0.7812500000000019
 40
0.7812500000000019
 40
0.8125000000000015
 40
0.8125000000000015
 40
0.8437500000000014
 40
0.8437500000000014
 40
0.859375000000001
 40
0.859375000000001
 40
0.8750000000000008
 40
0.8750000000000008
 40
0.8906250000000007
 40
0.8906250000000007
 40
0.9062500000000003
 40
0.9062500000000003
 40
0.9375000000000003
 40
0.9375000000000003
 40
0.9531250000000003
 40
0.9531250000000003
 40
0.9687500000000003
 40
0.9687500000000003
 40
0.9843750000000001
 40
0.9843750000000001
 40
1.0
 40
1.0
 40
1.0
 40
1.0
 10
384.4412642983236
 20
284.1454935137008
 30
0.0
 10
384.4492755303144
 20
284.2080054053984
 30
0.0
 10
384.4566010279296
 20
284.2744414553932
 30
0.0
 10
384.4665574125577
 20
284.3800004247083
 30
0.0
 10
384.4696890508719
 20
284.416026551977
 30
0.0
 10
384.4755633978508
 20
284.4895403557023
 30
0.0
 10
384.478309132895
 20
284.5270599252509
 30
0.0
 10
384.4834159756867
 20
284.6036313731269
 30
0.0
 10
384.4857755561707
 20
284.6426799726249
 30
0.0
 10
384.4900709771545
 20
284.7216695632583
 30
0.0
 10
384.4920123472449
 20
284.7616889884434
 30
0.0
 10
384.4954825831127
 20
284.8427766498161
 30
0.0
 10
384.4970133365356
 20
284.8839214866292
 30
0.0
 10
384.499638676381
 20
284.9666656161561
 30
0.0
 10
384.500736067131
 20
285.008310358602
 30
0.0
 10
384.5025025398335
 20
285.0921423495277
 30
0.0
 10
384.5031723006754
 20
285.1344040243593
 30
0.0
 10
384.5040754615607
 20
285.2191096411769
 30
0.0
 10
384.5045424128801
 20
285.3038459317188
 30
0.0
 10
384.5041453998102
 20
285.3886429751818
 30
0.0
 10
384.5033137351872
 20
285.4734705828115
 30
0.0
 10
384.5026827005247
 20
285.5156703707477
 30
0.0
 10
384.5009968829257
 20
285.5995730948249
 30
0.0
 10
384.4999419733381
 20
285.6412884302109
 30
0.0
 10
384.4980409790312
 20
285.7035066933122
 30
0.0
 10
384.4973531614525
 20
285.7242114941016
 30
0.0
 10
384.4958790125224
 20
285.765276731258
 30
0.0
 10
384.4950921550102
 20
285.7856587446459
 30
0.0
 10
384.4909128562107
 20
285.8868275961267
 30
0.0
 10
384.4867891804888
 20
285.9654022815412
 30
0.0
 10
384.4794607779936
 20
286.0798068073236
 30
0.0
 10
384.4768267475842
 20
286.1173631357095
 30
0.0
 10
384.47258560546
 20
286.1728200194928
 30
0.0
 10
384.4711234956407
 20
286.1911592390393
 30
0.0
 10
384.4681013650662
 20
286.2275414749881
 30
0.0
 10
384.4665389399843
 20
286.2456104425917
 30
0.0
 10
384.458515789453
 20
286.3347934039024
 30
0.0
 10
384.4514231816232
 20
286.40250786784
 30
0.0
 10
384.4397776973847
 20
286.4986562673623
 30
0.0
 10
384.4357389145673
 20
286.5296975731146
 30
0.0
 10
384.4273825255742
 20
286.5895349103687
 30
0.0
 10
384.4230601351908
 20
286.6183708398653
 30
0.0
 10
384.4141264778116
 20
286.673873580039
 30
0.0
 10
384.4095097127739
 20
286.7005632248255
 30
0.0
 10
384.4000556748303
 20
286.7513685089815
 30
0.0
 10
384.3952109489275
 20
286.7755348859268
 30
0.0
 10
384.3852865472834
 20
286.8213999831464
 30
0.0
 10
384.3801974426766
 20
286.8431346233634
 30
0.0
 10
384.3698298691701
 20
286.8839156117892
 30
0.0
 10
384.359285399033
 20
286.9219739556669
 30
0.0
 10
384.3483891086076
 20
286.9546173767994
 30
0.0
 10
384.3373151532143
 20
286.9845263277853
 30
0.0
 10
384.3317137076287
 20
286.9980455725226
 30
0.0
 10
384.3204055548816
 20
287.0221789847725
 30
0.0
 10
384.3146952025488
 20
287.0328030579383
 30
0.0
 10
384.3031612408324
 20
287.0511478623045
 30
0.0
 10
384.2973348663504
 20
287.0588645498771
 30
0.0
 10
384.2856585725913
 20
287.0712607988648
 30
0.0
 10
384.2797975861498
 20
287.075960446266
 30
0.0
 10
384.2680298261257
 20
287.082355699996
 30
0.0
 10
384.2621113505887
 20
287.0840498962536
 30
0.0
 10
384.2443879877013
 20
287.0845526289424
 30
0.0
 10
384.2326188853176
 20
287.0788352602033
 30
0.0
 10
384.2091801293952
 20
287.055154847874
 30
0.0
 10
384.1976488870162
 20
287.0373326246404
 30
0.0
 10
384.1806350703629
 20
287.0015994426732
 30
0.0
 10
384.1750145995782
 20
286.9881817012702
 30
0.0
 10
384.1639590854867
 20
286.9585347896489
 30
0.0
 10
384.1585126741675
 20
286.9422833679423
 30
0.0
 10
384.1477833123683
 20
286.9069110867156
 30
0.0
 10
384.1424909162319
 20
286.8877488548069
 30
0.0
 10
384.1321464274519
 20
286.8468021758699
 30
0.0
 10
384.1270883792503
 20
286.8250047988989
 30
0.0
 10
384.1172006584974
 20
286.7787621638853
 30
0.0
 10
384.1123635988095
 20
286.7542758439135
 30
0.0
 10
384.1029562281542
 20
286.7028058415562
 30
0.0
 10
384.0938378157606
 20
286.6489737554794
 30
0.0
 10
384.0852944279701
 20
286.5904411419167
 30
0.0
 10
384.07704173144
 20
286.5295322782698
 30
0.0
 10
384.0730794037545
 20
286.4980237151626
 30
0.0
 10
384.0655004361593
 20
286.4330728275207
 30
0.0
 10
384.0618804274117
 20
286.3996057684708
 30
0.0
 10
384.0549814030467
 20
286.330676465945
 30
0.0
 10
384.0517042781834
 20
286.295218737617
 30
0.0
 10
384.045545642312
 20
286.2228869942058
 30
0.0
 10
384.0426567886424
 20
286.185942802542
 30
0.0
 10
384.037260382781
 20
286.1104962552773
 30
0.0
 10
384.0347491614904
 20
286.071921458671
 30
0.0
 10
384.0301467910759
 20
285.9937752500645
 30
0.0
 10
384.0280516139362
 20
285.9541602427272
 30
0.0
 10
384.0242716254983
 20
285.8738507630704
 30
0.0
 10
384.022584272175
 20
285.833081793298
 30
0.0
 10
384.0181642593773
 20
285.7096903836891
 30
0.0
 10
384.0160766285135
 20
285.6262725346971
 30
0.0
 10
384.0136165273307
 20
285.4571269616294
 30
0.0
 10
384.0132588214436
 20
285.372386456741
 30
0.0
 10
384.0140179645747
 20
285.2451138137679
 30
0.0
 10
384.0144884687374
 20
285.2027030032593
 30
0.0
 10
384.0158543996375
 20
285.1184829389677
 30
0.0
 10
384.0167501479631
 20
285.0765931595408
 30
0.0
 10
384.0189665163103
 20
284.993253387705
 30
0.0
 10
384.0202913606736
 20
284.9517175737486
 30
0.0
 10
384.0233336927648
 20
284.8700092420906
 30
0.0
 10
384.0250529247651
 20
284.8297367212907
 30
0.0
 10
384.0307911398949
 20
284.7106239246898
 30
0.0
 10
384.0353877401972
 20
284.6334798927368
 30
0.0
 10
384.0434393646794
 20
284.5211607071433
 30
0.0
 10
384.0463167523047
 20
284.4842892527363
 30
0.0
 10
384.0524676863423
 20
284.4117097129097
 30
0.0
 10
384.055719830429
 20
284.376259341199
 30
0.0
 10
384.0625569155494
 20
284.3072011805978
 30
0.0
 10
384.0661444384681
 20
284.2735628773127
 30
0.0
 10
384.0736580892286
 20
284.2080712206906
 30
0.0
 10
384.0775862439698
 20
284.1762129353942
 30
0.0
 10
384.0816533794758
 20
284.1454935137199
 30
0.0
  0
SPLINE
  5
195
330
1F
100
AcDbEntity
  8
1
100
AcDbSpline
210
0.0
220
0.0
230
1.0
 70
     8
 71
     3
 72
    63
 73
    59
 74
     0
 42
0.000000001
 43
0.0000000001
 40
0.0
 40
0.0
 40
0.0
 40
0.0
 40
0.0625000000000018
 40
0.0625000000000018
 40
0.1250000000000036
 40
0.1250000000000036
 40
0.1406249999999995
 40
0.1406249999999995
 40
0.1562499999999954
 40
0.1562499999999954
 40
0.1874999999999873
 40
0.1874999999999873
 40
0.2499999999999634
 40
0.2499999999999634
 40
0.2812499999999554
 40
0.2812499999999554
 40
0.2968749999999545
 40
0.2968749999999545
 40
0.3124999999999536
 40
0.3124999999999536
 40
0.3749999999999603
 40
0.3749999999999603
 40
0.406249999999963
 40
0.406249999999963
 40
0.4218749999999666
 40
0.4218749999999666
 40
0.4374999999999701
 40
0.4374999999999701
 40
0.4999999999999867
 40
0.4999999999999867
 40
0.5156249999999912
 40
0.5156249999999912
 40
0.5312499999999956
 40
0.5312499999999956
 40
0.5625000000000045
 40
0.5937500000000134
 40
0.5937500000000134
 40
0.6093750000000159
 40
0.6093750000000159
 40
0.6250000000000185
 40
0.6250000000000185
 40
0.6875000000000168
 40
0.6875000000000168
 40
0.7187500000000134
 40
0.7187500000000134
 40
0.7343750000000115
 40
0.7343750000000115
 40
0.7500000000000096
 40
0.7500000000000096
 40
0.812500000000001
 40
0.812500000000001
 40
0.8749999999999925
 40
0.8749999999999925
 40
0.906249999999992
 40
0.906249999999992
 40
0.9374999999999918
 40
0.9374999999999918
 40
1.0
 40
1.0
 40
1.0
 40
1.0
 10
376.8798419452958
 20
290.9535624509621
 30
0.0
 10
376.9604283645104
 20
290.9537283022982
 30
0.0
 10
377.0393014311537
 20
290.9555479471404
 30
0.0
 10
377.1932975827661
 20
290.9624371143843
 30
0.0
 10
377.2684238085897
 20
290.9675057310844
 30
0.0
 10
377.3596517005318
 20
290.9758892820715
 30
0.0
 10
377.3777625955128
 20
290.977668636272
 30
0.0
 10
377.4137034257174
 20
290.9814342046085
 30
0.0
 10
377.4315561375102
 20
290.9834232171931
 30
0.0
 10
377.4844650917264
 20
290.9896785078139
 30
0.0
 10
377.5188778211148
 20
290.994231749247
 30
0.0
 10
377.6193963281163
 20
291.0090119925696
 30
0.0
 10
377.682802646599
 20
291.0203552199304
 30
0.0
 10
377.7716463527702
 20
291.039556635455
 30
0.0
 10
377.800212186794
 20
291.0463224994033
 30
0.0
 10
377.8413259823201
 20
291.0570247932732
 30
0.0
 10
377.8547409610131
 20
291.0606845683677
 30
0.0
 10
377.880958136374
 20
291.0681910435278
 30
0.0
 10
377.8937706902174
 20
291.0720419063923
 30
0.0
 10
377.9556696803464
 20
291.0915940306753
 30
0.0
 10
377.9987538753172
 20
291.1083027310933
 30
0.0
 10
378.0524332047709
 20
291.1347975387398
 30
0.0
 10
378.0684938389966
 20
291.1438691552715
 30
0.0
 10
378.0895769160292
 20
291.1578311660958
 30
0.0
 10
378.096109263162
 20
291.1625525964311
 30
0.0
 10
378.1079823155031
 20
291.1719980333215
 30
0.0
 10
378.1133444729036
 20
291.1767348368666
 30
0.0
 10
378.1372802575273
 20
291.2004780300409
 30
0.0
 10
378.147276980856
 20
291.2196519274016
 30
0.0
 10
378.1478150833915
 20
291.243763325599
 30
0.0
 10
378.147321721152
 20
291.2485934406618
 30
0.0
 10
378.1451069246963
 20
291.2582699721767
 30
0.0
 10
378.1433761149183
 20
291.263130195915
 30
0.0
 10
378.1363956217386
 20
291.2775600387245
 30
0.0
 10
378.1223365287885
 20
291.2964813265496
 30
0.0
 10
378.0992901499465
 20
291.3148443996902
 30
0.0
 10
378.0787633925546
 20
291.3284421122506
 30
0.0
 10
378.0713801813918
 20
291.3329456379638
 30
0.0
 10
378.0555462005602
 20
291.3419010473269
 30
0.0
 10
378.0470741995017
 20
291.3463631447816
 30
0.0
 10
378.0023433739348
 20
291.3684296857901
 30
0.0
 10
377.9592840167317
 20
291.3852097014625
 30
0.0
 10
377.8854800217339
 20
291.4096022468643
 30
0.0
 10
377.8593316220047
 20
291.4176022867579
 30
0.0
 10
377.8179202280066
 20
291.4294646007589
 30
0.0
 10
377.8037938293238
 20
291.4333832148002
 30
0.0
 10
377.7750403983541
 20
291.4411304674176
 30
0.0
 10
377.7603960603622
 20
291.4449640737413
 30
0.0
 10
377.6859060681749
 20
291.4639620842806
 30
0.0
 10
377.622283682678
 20
291.4786242922667
 30
0.0
 10
377.488244948624
 20
291.507500046181
 30
0.0
 10
377.4178191396401
 20
291.5217106130731
 30
0.0
 10
377.3076205450458
 20
291.5430456174007
 30
0.0
 10
377.2702258577436
 20
291.5501397108783
 30
0.0
 10
377.1945942360072
 20
291.5642717052863
 30
0.0
 10
377.1562968659534
 20
291.5713212505493
 30
0.0
 10
377.0400533206483
 20
291.5924935205023
 30
0.0
 10
376.960761014802
 20
291.6066421349439
 30
0.0
 10
376.8798419452958
 20
291.6209838532345
 30
0.0
  0
SPLINE
  5
196
330
1F
100
AcDbEntity
  8
1
100
AcDbSpline
210
0.0
220
0.0
230
1.0
 70
    24
 71
     3
 72
    14
 73
    10
 74
     0
 42
0.000000001
 43
0.0000000001
 40
0.0
 40
0.0
 40
0.0
 40
0.0
 40
0.25
 40
0.25
 40
0.5
 40
0.5
 40
0.75
 40
0.75
 40
1.0
 40
1.0
 40
1.0
 40
1.0
 10
376.8798419452958
 20
290.9535624509621
 30
0.0
 10
376.8798419452957
 20
290.9547935695891
 30
0.0
 10
376.8798419452958
 20
290.969861798637
 30
0.0
 10
376.8798419452957
 20
291.0274942533523
 30
0.0
 10
376.8798419452958
 20
291.0700583442408
 30
0.0
 10
376.8798419452958
 20
291.1821788128969
 30
0.0
 10
376.8798419452958
 20
291.2517349284601
 30
0.0
 10
376.8798419452958
 20
291.4170162252063
 30
0.0
 10
376.8798419452958
 20
291.5127410198633
 30
0.0
 10
376.8798419452958
 20
291.6209838532345
 30
0.0
  0
SPLINE
  5
197
330
1F
100
AcDbEntity
  8
1
100
AcDbSpline
210
0.0
220
0.0
230
1.0
 70
     8
 71
     3
 72
    28
 73
    24
 74
     0
 42
0.000000001
 43
0.0000000001
 40
0.0
 40
0.0
 40
0.0
 40
0.0
 40
0.1249999999999958
 40
0.1249999999999958
 40
0.2499999999999917
 40
0.2499999999999917
 40
0.3749999999999875
 40
0.3749999999999875
 40
0.4374999999999877
 40
0.4374999999999877
 40
0.499999999999988
 40
0.499999999999988
 40
0.6249999999999885
 40
0.6249999999999885
 40
0.7499999999999892
 40
0.7499999999999892
 40
0.8124999999999918
 40
0.8124999999999918
 40
0.8749999999999944
 40
0.8749999999999944
 40
0.9374999999999971
 40
0.9374999999999971
 40
1.0
 40
1.0
 40
1.0
 40
1.0
 10
372.6344032689826
 20
293.7139816320524
 30
0.0
 10
372.8184290140454
 20
293.5931954678149
 30
0.0
 10
373.0024307428764
 20
293.4772559417013
 30
0.0
 10
373.3702415623198
 20
293.2544783004305
 30
0.0
 10
373.5540522500789
 20
293.1476414237349
 30
0.0
 10
373.92124988057
 20
292.9425719813594
 30
0.0
 10
374.104639921312
 20
292.8443408333727
 30
0.0
 10
374.3791173729751
 20
292.7031147159746
 30
0.0
 10
374.4705071050002
 20
292.6570597393951
 30
0.0
 10
374.6530073904768
 20
292.5669358543706
 30
0.0
 10
374.7441483722959
 20
292.5228537458495
 30
0.0
 10
375.0163517474434
 20
292.3938056052774
 30
0.0
 10
375.1964215276024
 20
292.311938966619
 30
0.0
 10
375.5525288779207
 20
292.1558705460944
 30
0.0
 10
375.7286273647886
 20
292.0816797357859
 30
0.0
 10
375.9876580237726
 20
291.9754827035522
 30
0.0
 10
376.0731548271849
 20
291.9409292335819
 30
0.0
 10
376.2420224323103
 20
291.8733610321728
 30
0.0
 10
376.3253952660821
 20
291.8403468393901
 30
0.0
 10
376.4894314284555
 20
291.7756648112241
 30
0.0
 10
376.5700982345568
 20
291.7439978369245
 30
0.0
 10
376.7279058543377
 20
291.6817567707472
 30
0.0
 10
376.8050531005965
 20
291.6511841592696
 30
0.0
 10
376.8798419452958
 20
291.6209838532345
 30
0.0
  0
SPLINE
  5
198
330
1F
100
AcDbEntity
  8
1
100
AcDbSpline
210
0.0
220
0.0
230
1.0
 70
     8
 71
     3
 72
    23
 73
    19
 74
     0
 42
0.000000001
 43
0.0000000001
 40
0.0
 40
0.0
 40
0.0
 40
0.0
 40
0.1249999999999991
 40
0.2499999999999982
 40
0.2499999999999982
 40
0.3749999999999973
 40
0.3749999999999973
 40
0.4999999999999964
 40
0.4999999999999964
 40
0.5312499999999969
 40
0.5312499999999969
 40
0.5624999999999974
 40
0.6249999999999974
 40
0.6249999999999974
 40
0.7499999999999983
 40
0.8749999999999991
 40
0.8749999999999991
 40
1.0
 40
1.0
 40
1.0
 40
1.0
 10
279.4048419452957
 20
281.0077151390959
 30
0.0
 10
279.2490757469646
 20
280.8731208106262
 30
0.0
 10
278.9509412766554
 20
280.5955712609903
 30
0.0
 10
278.6788591785343
 20
280.3023800624458
 30
0.0
 10
278.4196910462261
 20
280.001736716907
 30
0.0
 10
278.2965637606229
 20
279.8476887294389
 30
0.0
 10
278.0633643603837
 20
279.5323514544419
 30
0.0
 10
277.9532911369968
 20
279.3710624476768
 30
0.0
 10
277.8241171652243
 20
279.1649588977693
 30
0.0
 10
277.7986802883856
 20
279.123472270795
 30
0.0
 10
277.7488666317509
 20
279.0403996697277
 30
0.0
 10
277.6756768188984
 20
278.9155515994909
 30
0.0
 10
277.6070406131122
 20
278.7900142697488
 30
0.0
 10
277.475766882672
 20
278.5380869043018
 30
0.0
 10
277.3167122916817
 20
278.1999155319136
 30
0.0
 10
277.1893210523016
 20
277.8577731382782
 30
0.0
 10
277.0779347152114
 20
277.5138451251934
 30
0.0
 10
277.0302427053768
 20
277.3409883002577
 30
0.0
 10
276.9908087286417
 20
277.1672991105644
 30
0.0
  0
SPLINE
  5
199
330
1F
100
AcDbEntity
  8
1
100
AcDbSpline
210
0.0
220
0.0
230
1.0
 70
    28
 71
     3
 72
     8
 73
     4
 74
     0
 42
0.000000001
 43
0.0000000001
 40
0.0
 40
0.0
 40
0.0
 40
0.0
 40
1.0
 40
1.0
 40
1.0
 40
1.0
 10
297.9048419452957
 20
284.0919912997326
 30
0.0
 41
1.0
 10
297.9048419452957
 20
284.2819903337996
 30
0.0
 41
0.9886534401713904
 10
297.9048419452957
 20
284.4681307331703
 30
0.0
 41
0.9779662217597607
 10
297.9048419452959
 20
284.6499042997327
 30
0.0
 41
0.9679383447651112
  0
SPLINE
  5
19A
330
1F
100
AcDbEntity
  8
1
100
AcDbSpline
210
0.0
220
0.0
230
1.0
 70
     8
 71
     3
 72
    25
 73
    21
 74
     0
 42
0.000000001
 43
0.0000000001
 40
0.0
 40
0.0
 40
0.0
 40
0.0
 40
0.1249999999999991
 40
0.1249999999999991
 40
0.2499999999999981
 40
0.2499999999999981
 40
0.3749999999999972
 40
0.3749999999999972
 40
0.4999999999999963
 40
0.4999999999999963
 40
0.5312499999999966
 40
0.5312499999999966
 40
0.5624999999999969
 40
0.6249999999999972
 40
0.6249999999999972
 40
0.7499999999999982
 40
0.7499999999999982
 40
0.8749999999999989
 40
0.8749999999999989
 40
1.0
 40
1.0
 40
1.0
 40
1.0
 10
282.3043368819074
 20
283.9705212238035
 30
0.0
 10
282.5273121913781
 20
284.1429065795929
 30
0.0
 10
282.7578695771011
 20
284.3055060415276
 30
0.0
 10
283.2345196247666
 20
284.6113211827505
 30
0.0
 10
283.4806106053563
 20
284.7545385381254
 30
0.0
 10
283.9890239831964
 20
285.021252467162
 30
0.0
 10
284.2513434634024
 20
285.1447531529977
 30
0.0
 10
284.7933040495092
 20
285.3710877615412
 30
0.0
 10
285.0729404140807
 20
285.4739292992217
 30
0.0
 10
285.4343096822922
 20
285.5884858394321
 30
0.0
 10
285.5069200884278
 20
285.6106132161709
 30
0.0
 10
285.652663288174
 20
285.6532517293409
 30
0.0
 10
285.8721355711996
 20
285.7148078112398
 30
0.0
 10
286.0941828226109
 20
285.7691484986016
 30
0.0
 10
286.5417279265423
 20
285.8681136404251
 30
0.0
 10
286.8446891832899
 20
285.9211605698173
 30
0.0
 10
287.4599800183996
 20
286.0002901653457
 30
0.0
 10
287.772310727043
 20
286.0263749845683
 30
0.0
 10
288.4065961015941
 20
286.0496471958262
 30
0.0
 10
288.7285524911522
 20
286.0468368489761
 30
0.0
 10
289.0554686411282
 20
286.0281602507571
 30
0.0
  0
SPLINE
  5
19B
330
1F
100
AcDbEntity
  8
1
100
AcDbSpline
210
0.0
220
0.0
230
1.0
 70
     8
 71
     3
 72
    19
 73
    15
 74
     0
 42
0.000000001
 43
0.0000000001
 40
0.0
 40
0.0
 40
0.0
 40
0.0
 40
0.2500000000000008
 40
0.2500000000000008
 40
0.5000000000000016
 40
0.5000000000000016
 40
0.7500000000000023
 40
0.7500000000000023
 40
0.8125000000000021
 40
0.8437500000000017
 40
0.8437500000000017
 40
0.8750000000000014
 40
0.8750000000000014
 40
1.0
 40
1.0
 40
1.0
 40
1.0
 10
282.3043368819074
 20
283.9705212238034
 30
0.0
 10
282.0460699369334
 20
283.7708514069807
 30
0.0
 10
281.7915677879437
 20
283.5612044105715
 30
0.0
 10
281.2905884326079
 20
283.1194680478434
 30
0.0
 10
281.0441083529486
 20
282.8873912003815
 30
0.0
 10
280.5596788571109
 20
282.3978051132316
 30
0.0
 10
280.3217247323146
 20
282.1403184452375
 30
0.0
 10
280.030007195384
 20
281.8000591383974
 30
0.0
 10
279.9429221099703
 20
281.6965958849291
 30
0.0
 10
279.8564964078212
 20
281.590964391763
 30
0.0
 10
279.7990275383928
 20
281.5200505394677
 30
0.0
 10
279.7703560560232
 20
281.4843329595421
 30
0.0
 10
279.6276191486868
 20
281.3047953008461
 30
0.0
 10
279.5152735767962
 20
281.1579607653886
 30
0.0
 10
279.4048419452957
 20
281.0077151390959
 30
0.0
  0
SPLINE
  5
19C
330
1F
100
AcDbEntity
  8
1
100
AcDbSpline
210
0.0
220
0.0
230
1.0
 70
     8
 71
     3
 72
    36
 73
    32
 74
     0
 42
0.000000001
 43
0.0000000001
 40
0.0
 40
0.0
 40
0.0
 40
0.0
 40
0.1249999999999755
 40
0.1249999999999755
 40
0.1874999999999633
 40
0.1874999999999633
 40
0.218749999999965
 40
0.218749999999965
 40
0.2499999999999667
 40
0.2499999999999667
 40
0.3749999999999216
 40
0.3749999999999216
 40
0.406249999999918
 40
0.406249999999918
 40
0.4374999999999144
 40
0.4374999999999144
 40
0.4999999999999104
 40
0.4999999999999104
 40
0.6249999999999279
 40
0.6249999999999279
 40
0.6562499999999384
 40
0.6562499999999384
 40
0.687499999999949
 40
0.7499999999999391
 40
0.8124999999999293
 40
0.8124999999999293
 40
0.843749999999941
 40
0.843749999999941
 40
0.8749999999999523
 40
0.8749999999999523
 40
1.0
 40
1.0
 40
1.0
 40
1.0
 10
385.7002807888953
 20
302.54000174282
 30
0.0
 10
385.6980001096332
 20
302.5908069180392
 30
0.0
 10
385.6905810570233
 20
302.6405049446736
 30
0.0
 10
385.6722236768534
 20
302.7134944183414
 30
0.0
 10
385.6648897136599
 20
302.7375624860362
 30
0.0
 10
385.6520404286738
 20
302.773266331731
 30
0.0
 10
385.6474351670648
 20
302.7851325094855
 30
0.0
 10
385.6376688264894
 20
302.8085581754093
 30
0.0
 10
385.6325143667967
 20
302.8201072548843
 30
0.0
 10
385.6054163050871
 20
302.8770524059178
 30
0.0
 10
385.5795347412533
 20
302.9200714772459
 30
0.0
 10
385.5420074502183
 20
302.9707214223686
 30
0.0
 10
385.5342407909601
 20
302.9806937473559
 30
0.0
 10
385.5181771434329
 20
303.0003182844803
 30
0.0
 10
385.5098647848935
 20
303.0099853830344
 30
0.0
 10
385.4843861250608
 20
303.0382068217926
 30
0.0
 10
385.4666088052675
 20
303.0560764461079
 30
0.0
 10
385.4109677095332
 20
303.1069294892156
 30
0.0
 10
385.3708178219902
 20
303.1371845569705
 30
0.0
 10
385.3166789355226
 20
303.1702874570242
 30
0.0
 10
385.3056378149442
 20
303.1766755948948
 30
0.0
 10
385.2833936493922
 20
303.1888349116527
 30
0.0
 10
385.2497002330411
 20
303.2062017163156
 30
0.0
 10
385.1919365104478
 20
303.2308596786265
 30
0.0
 10
385.144021061529
 20
303.2460422390567
 30
0.0
 10
385.1074297292697
 20
303.2556837267137
 30
0.0
 10
385.095123289841
 20
303.2586061055586
 30
0.0
 10
385.0702865049862
 20
303.263853970562
 30
0.0
 10
385.0577399073893
 20
303.2661805749054
 30
0.0
 10
384.995028711401
 20
303.276192313592
 30
0.0
 10
384.9445010750756
 20
303.2791690266224
 30
0.0
 10
384.8936032139827
 20
303.2769510691187
 30
0.0
  0
SPLINE
  5
19D
330
1F
100
AcDbEntity
  8
1
100
AcDbSpline
210
0.0
220
0.0
230
1.0
 70
     8
 71
     3
 72
    36
 73
    32
 74
     0
 42
0.000000001
 43
0.0000000001
 40
0.0
 40
0.0
 40
0.0
 40
0.0
 40
0.1249999999999228
 40
0.1249999999999228
 40
0.1874999999998837
 40
0.1874999999998837
 40
0.2187499999998648
 40
0.2187499999998648
 40
0.249999999999846
 40
0.249999999999846
 40
0.3749999999998016
 40
0.3749999999998016
 40
0.4062499999998101
 40
0.4062499999998101
 40
0.4374999999998183
 40
0.4374999999998183
 40
0.499999999999835
 40
0.499999999999835
 40
0.6249999999998483
 40
0.6249999999998483
 40
0.656249999999857
 40
0.656249999999857
 40
0.6874999999998657
 40
0.749999999999898
 40
0.8124999999999303
 40
0.8124999999999303
 40
0.8437499999999445
 40
0.8437499999999445
 40
0.8749999999999586
 40
0.8749999999999586
 40
1.0
 40
1.0
 40
1.0
 40
1.0
 10
376.9237657281859
 20
302.929652371768
 30
0.0
 10
376.8728622597089
 20
302.9274341699133
 30
0.0
 10
376.8230740005408
 20
302.9200865091524
 30
0.0
 10
376.7499605181155
 20
302.9018487578311
 30
0.0
 10
376.7258530199194
 20
302.8945567785113
 30
0.0
 10
376.6900929280208
 20
302.8817736759771
 30
0.0
 10
376.6782084387831
 20
302.8771910732489
 30
0.0
 10
376.6547473930485
 20
302.8674708014544
 30
0.0
 10
376.6431812583648
 20
302.8623397266767
 30
0.0
 10
376.586153932987
 20
302.8353603025189
 30
0.0
 10
376.5430789556075
 20
302.8095790794381
 30
0.0
 10
376.4923712359129
 20
302.7721839012333
 30
0.0
 10
376.4823879671059
 20
302.7644440020307
 30
0.0
 10
376.4627427830767
 20
302.7484345598361
 30
0.0
 10
376.4530659694092
 20
302.7401496940005
 30
0.0
 10
376.4248175519016
 20
302.714753695303
 30
0.0
 10
376.4069327208115
 20
302.6970319730329
 30
0.0
 10
376.3560421645765
 20
302.6415590996109
 30
0.0
 10
376.3257728168278
 20
302.6015232523426
 30
0.0
 10
376.2926659402841
 20
302.5475293628753
 30
0.0
 10
376.2862777121161
 20
302.5365173990862
 30
0.0
 10
376.2741196247241
 20
302.5143311639887
 30
0.0
 10
376.256756769416
 20
302.4807242963384
 30
0.0
 10
376.2321157369282
 20
302.4231031161691
 30
0.0
 10
376.2169576885209
 20
302.3752998934967
 30
0.0
 10
376.2073387981284
 20
302.3387920365254
 30
0.0
 10
376.2044246552284
 20
302.3265133062433
 30
0.0
 10
376.1991947029357
 20
302.3017317022158
 30
0.0
 10
376.1968777916787
 20
302.2892126097657
 30
0.0
 10
376.1869177133048
 20
302.2266370467399
 30
0.0
 10
376.1839927322239
 20
302.1762128857838
 30
0.0
 10
376.1862731602528
 20
302.1254133071211
 30
0.0
  0
SPLINE
  5
19E
330
1F
100
AcDbEntity
  8
1
100
AcDbSpline
210
0.0
220
0.0
230
1.0
 70
     8
 71
     3
 72
    36
 73
    32
 74
     0
 42
0.000000001
 43
0.0000000001
 40
0.0
 40
0.0
 40
0.0
 40
0.0
 40
0.1249999999999725
 40
0.1249999999999725
 40
0.1874999999999577
 40
0.1874999999999577
 40
0.218749999999956
 40
0.218749999999956
 40
0.2499999999999544
 40
0.2499999999999544
 40
0.374999999999946
 40
0.374999999999946
 40
0.4062499999999483
 40
0.4062499999999483
 40
0.4374999999999504
 40
0.4374999999999504
 40
0.4999999999999563
 40
0.4999999999999563
 40
0.6249999999999427
 40
0.6249999999999427
 40
0.6562499999999389
 40
0.6562499999999389
 40
0.6874999999999353
 40
0.7499999999999279
 40
0.8124999999999204
 40
0.8124999999999204
 40
0.8437499999999335
 40
0.8437499999999335
 40
0.8749999999999468
 40
0.8749999999999468
 40
1.0
 40
1.0
 40
1.0
 40
1.0
 10
376.5433537997369
 20
294.1709653677264
 30
0.0
 10
376.545634478999
 20
294.1201601925072
 30
0.0
 10
376.5530535316088
 20
294.0704621658728
 30
0.0
 10
376.5714109117788
 20
293.997472692205
 30
0.0
 10
376.5787448749721
 20
293.9734046245102
 30
0.0
 10
376.5915941599583
 20
293.9377007788154
 30
0.0
 10
376.5961994215673
 20
293.9258346010608
 30
0.0
 10
376.6059657621428
 20
293.9024089351372
 30
0.0
 10
376.6111202218356
 20
293.890859855662
 30
0.0
 10
376.6382182835451
 20
293.8339147046286
 30
0.0
 10
376.6640998473789
 20
293.7908956333005
 30
0.0
 10
376.7016271384139
 20
293.7402456881778
 30
0.0
 10
376.7093937976721
 20
293.7302733631906
 30
0.0
 10
376.7254574451992
 20
293.7106488260662
 30
0.0
 10
376.7337698037387
 20
293.7009817275121
 30
0.0
 10
376.7592484635713
 20
293.6727602887538
 30
0.0
 10
376.7770257833647
 20
293.6548906644386
 30
0.0
 10
376.832666879099
 20
293.6040376213308
 30
0.0
 10
376.872816766642
 20
293.5737825535759
 30
0.0
 10
376.9269556531095
 20
293.5406796535222
 30
0.0
 10
376.9379967736879
 20
293.5342915156516
 30
0.0
 10
376.9602409392399
 20
293.5221321988937
 30
0.0
 10
376.993934355591
 20
293.5047653942307
 30
0.0
 10
377.0516980781843
 20
293.4801074319199
 30
0.0
 10
377.0996135271031
 20
293.4649248714896
 30
0.0
 10
377.1362048593626
 20
293.4552833838327
 30
0.0
 10
377.1485112987912
 20
293.4523610049879
 30
0.0
 10
377.173348083646
 20
293.4471131399844
 30
0.0
 10
377.185894681243
 20
293.4447865356411
 30
0.0
 10
377.2486058772313
 20
293.4347747969544
 30
0.0
 10
377.2991335135567
 20
293.431798083924
 30
0.0
 10
377.3500313746495
 20
293.4340160414278
 30
0.0
  0
SPLINE
  5
19F
330
1F
100
AcDbEntity
  8
1
100
AcDbSpline
210
0.0
220
0.0
230
1.0
 70
     8
 71
     3
 72
    36
 73
    32
 74
     0
 42
0.000000001
 43
0.0000000001
 40
0.0
 40
0.0
 40
0.0
 40
0.0
 40
0.1250000000000748
 40
0.1250000000000748
 40
0.1875000000000955
 40
0.1875000000000955
 40
0.2187500000001219
 40
0.2187500000001219
 40
0.2500000000001483
 40
0.2500000000001483
 40
0.375000000000192
 40
0.375000000000192
 40
0.4062500000001887
 40
0.4062500000001887
 40
0.4375000000001856
 40
0.4375000000001856
 40
0.5000000000001777
 40
0.5000000000001777
 40
0.6250000000001386
 40
0.6250000000001386
 40
0.6562500000001342
 40
0.6562500000001342
 40
0.6875000000001298
 40
0.7500000000001079
 40
0.8125000000000859
 40
0.8125000000000859
 40
0.8437500000000749
 40
0.8437500000000749
 40
0.8750000000000641
 40
0.8750000000000641
 40
1.0
 40
1.0
 40
1.0
 40
1.0
 10
385.3198688604463
 20
293.7813147387784
 30
0.0
 10
385.3707723289233
 20
293.7835329406331
 30
0.0
 10
385.4205605880912
 20
293.790880601394
 30
0.0
 10
385.4936740705166
 20
293.8091183527154
 30
0.0
 10
385.5177815687128
 20
293.8164103320352
 30
0.0
 10
385.5535416606114
 20
293.8291934345693
 30
0.0
 10
385.565426149849
 20
293.8337760372975
 30
0.0
 10
385.5888871955837
 20
293.8434963090919
 30
0.0
 10
385.6004533302673
 20
293.8486273838697
 30
0.0
 10
385.6574806556452
 20
293.8756068080275
 30
0.0
 10
385.7005556330247
 20
293.9013880311082
 30
0.0
 10
385.7512633527193
 20
293.9387832093132
 30
0.0
 10
385.7612466215263
 20
293.9465231085157
 30
0.0
 10
385.7808918055555
 20
293.9625325507102
 30
0.0
 10
385.7905686192229
 20
293.9708174165458
 30
0.0
 10
385.8188170367305
 20
293.9962134152434
 30
0.0
 10
385.8367018678206
 20
294.0139351375134
 30
0.0
 10
385.8875924240556
 20
294.0694080109355
 30
0.0
 10
385.9178617718043
 20
294.1094438582039
 30
0.0
 10
385.9509686483482
 20
294.1634377476711
 30
0.0
 10
385.9573568765161
 20
294.1744497114602
 30
0.0
 10
385.9695149639082
 20
294.1966359465578
 30
0.0
 10
385.9868778192161
 20
294.2302428142081
 30
0.0
 10
386.011518851704
 20
294.2878639943773
 30
0.0
 10
386.0266769001112
 20
294.3356672170497
 30
0.0
 10
386.0362957905037
 20
294.372175074021
 30
0.0
 10
386.0392099334039
 20
294.3844538043031
 30
0.0
 10
386.0444398856965
 20
294.4092354083306
 30
0.0
 10
386.0467567969537
 20
294.4217545007806
 30
0.0
 10
386.0567168753274
 20
294.4843300638065
 30
0.0
 10
386.0596418564082
 20
294.5347542247627
 30
0.0
 10
386.0573614283794
 20
294.5855538034253
 30
0.0
  0
SPLINE
  5
1A6
330
1F
100
AcDbEntity
  8
1
100
AcDbSpline
210
0.0
220
0.0
230
1.0
 70
     8
 71
     3
 72
     8
 73
     4
 74
     0
 42
0.000000001
 43
0.0000000001
 40
0.0
 40
0.0
 40
0.0
 40
0.0
 40
1.0
 40
1.0
 40
1.0
 40
1.0
 10
371.6616138326414
 20
294.8700238747381
 30
0.0
 10
371.6611728319577
 20
294.8698315978527
 30
0.0
 10
371.6607318189866
 20
294.869639348373
 30
0.0
 10
371.6602907937312
 20
294.8694471262913
 30
0.0
  0
SPLINE
  5
1A7
330
1F
100
AcDbEntity
  8
1
100
AcDbSpline
210
0.0
220
0.0
230
1.0
 70
     8
 71
     3
 72
    22
 73
    18
 74
     0
 42
0.000000001
 43
0.0000000001
 40
0.0
 40
0.0
 40
0.0
 40
0.0
 40
0.125
 40
0.125
 40
0.25
 40
0.25
 40
0.375
 40
0.375
 40
0.5
 40
0.5
 40
0.625
 40
0.625
 40
0.75
 40
0.75
 40
0.875
 40
0.875
 40
1.0
 40
1.0
 40
1.0
 40
1.0
 10
380.448939081796
 20
297.2365649805687
 30
0.0
 10
380.4463152837668
 20
297.2314586612006
 30
0.0
 10
380.4432782706098
 20
297.2265896759514
 30
0.0
 10
380.4365080041643
 20
297.217480517549
 30
0.0
 10
380.4327628288677
 20
297.2132151641489
 30
0.0
 10
380.4245320338335
 20
297.2052804064085
 30
0.0
 10
380.4200405682384
 20
297.2016204359839
 30
0.0
 10
380.4106048629631
 20
297.1951695281296
 30
0.0
 10
380.4056260793669
 20
297.1923415883845
 30
0.0
 10
380.3951248521785
 20
297.1875167873498
 30
0.0
 10
380.3896196067906
 20
297.1855394600183
 30
0.0
 10
380.3784447274625
 20
297.1825902632438
 30
0.0
 10
380.3727293988726
 20
297.1815950778208
 30
0.0
 10
380.3610293747818
 20
297.1806199019767
 30
0.0
 10
380.3551336110651
 20
297.1806547718234
 30
0.0
 10
380.3434983426662
 20
297.1817619669127
 30
0.0
 10
380.3377205104835
 20
297.1828302375108
 30
0.0
 10
380.3319853838086
 20
297.1844466135609
 30
0.0
  0
SPLINE
  5
1A8
330
1F
100
AcDbEntity
  8
1
100
AcDbSpline
210
0.0
220
0.0
230
1.0
 70
     8
 71
     3
 72
    20
 73
    16
 74
     0
 42
0.000000001
 43
0.0000000001
 40
0.0
 40
0.0
 40
0.0
 40
0.0
 40
0.1249999999999999
 40
0.1249999999999999
 40
0.2499999999999999
 40
0.2499999999999999
 40
0.3749999999999998
 40
0.3749999999999998
 40
0.4999999999999999
 40
0.4999999999999999
 40
0.6249999999999999
 40
0.6249999999999999
 40
0.7499999999999999
 40
0.7499999999999999
 40
1.0
 40
1.0
 40
1.0
 40
1.0
 10
381.1166950232399
 20
297.0108691474138
 30
0.0
 10
381.1108099381968
 20
297.0118227648236
 30
0.0
 10
381.1051110645851
 20
297.0132936114441
 30
0.0
 10
381.0940661488625
 20
297.0172135307322
 30
0.0
 10
381.0886702036882
 20
297.019694375084
 30
0.0
 10
381.0785220025227
 20
297.025502121376
 30
0.0
 10
381.073778355189
 20
297.0288091857537
 30
0.0
 10
381.0649198653512
 20
297.0361884147139
 30
0.0
 10
381.0607722441302
 20
297.0403017999286
 30
0.0
 10
381.0532972123418
 20
297.049116750121
 30
0.0
 10
381.0499895283052
 20
297.0537787974777
 30
0.0
 10
381.0441896426348
 20
297.0635841036944
 30
0.0
 10
381.0416878546391
 20
297.068753497168
 30
0.0
 10
381.0355101783398
 20
297.0848348916034
 30
0.0
 10
381.0332461868002
 20
297.0959365905728
 30
0.0
 10
381.0328143891719
 20
297.1074119903329
 30
0.0
  0
SPLINE
  5
1A9
330
1F
100
AcDbEntity
  8
1
100
AcDbSpline
210
0.0
220
0.0
230
1.0
 70
     8
 71
     3
 72
    14
 73
    10
 74
     0
 42
0.000000001
 43
0.0000000001
 40
0.0
 40
0.0
 40
0.0
 40
0.0
 40
0.25
 40
0.25
 40
0.5
 40
0.5
 40
0.75
 40
0.75
 40
1.0
 40
1.0
 40
1.0
 40
1.0
 10
380.4489390817964
 20
297.2365649805696
 30
0.0
 10
380.4522214785927
 20
297.2429530356518
 30
0.0
 10
380.4561615228987
 20
297.2489913032804
 30
0.0
 10
380.4651644664057
 20
297.2600968010959
 30
0.0
 10
380.4701857014217
 20
297.2651308450368
 30
0.0
 10
380.4812809391137
 20
297.2741516255819
 30
0.0
 10
380.4873950426989
 20
297.2781394879203
 30
0.0
 10
380.5001877653736
 20
297.2846536310722
 30
0.0
 10
380.5069232633944
 20
297.2872378706061
 30
0.0
 10
380.5140293725382
 20
297.2890912511776
 30
0.0
  0
SPLINE
  5
1AA
330
1F
100
AcDbEntity
  8
1
100
AcDbSpline
210
0.0
220
0.0
230
1.0
 70
     8
 71
     3
 72
    14
 73
    10
 74
     0
 42
0.000000001
 43
0.0000000001
 40
0.0
 40
0.0
 40
0.0
 40
0.0
 40
0.25
 40
0.25
 40
0.5
 40
0.5
 40
0.75
 40
0.75
 40
1.0
 40
1.0
 40
1.0
 40
1.0
 10
380.996080429191
 20
297.1824617454819
 30
0.0
 10
381.0017381483177
 20
297.1777821893564
 30
0.0
 10
381.0068481308514
 20
297.1724884121067
 30
0.0
 10
381.0156901777511
 20
297.1611357537701
 30
0.0
 10
381.0194482506178
 20
297.155073729925
 30
0.0
 10
381.02568231684
 20
297.1421998647753
 30
0.0
 10
381.0281350273888
 20
297.1353847077078
 30
0.0
 10
381.0315455072774
 20
297.1216164877172
 30
0.0
 10
381.0325443464789
 20
297.1145886111655
 30
0.0
 10
381.0328143891719
 20
297.1074119903329
 30
0.0
  0
SPLINE
  5
1AB
330
1F
100
AcDbEntity
  8
1
100
AcDbSpline
210
0.0
220
0.0
230
1.0
 70
     8
 71
     3
 72
    21
 73
    17
 74
     0
 42
0.000000001
 43
0.0000000001
 40
0.0
 40
0.0
 40
0.0
 40
0.0
 40
0.2499999999999132
 40
0.2499999999999132
 40
0.312499999999908
 40
0.312499999999908
 40
0.3749999999999026
 40
0.3749999999999026
 40
0.4999999999998921
 40
0.6249999999998816
 40
0.6249999999998816
 40
0.6874999999999028
 40
0.6874999999999028
 40
0.7499999999999238
 40
0.7499999999999238
 40
1.0
 40
1.0
 40
1.0
 40
1.0
 10
380.3319853838086
 20
297.1844466135609
 30
0.0
 10
380.2907324409762
 20
297.1960732562783
 30
0.0
 10
380.2513932984402
 20
297.2123003802391
 30
0.0
 10
380.2046150782624
 20
297.2383283372257
 30
0.0
 10
380.1953622486227
 20
297.2438382057111
 30
0.0
 10
380.1773079730043
 20
297.2553182875453
 30
0.0
 10
380.1684836028846
 20
297.261299744564
 30
0.0
 10
380.1426077416238
 20
297.2799551387505
 30
0.0
 10
380.1096954123027
 20
297.306720465062
 30
0.0
 10
380.0799392444501
 20
297.3372428871481
 30
0.0
 10
380.0588452131932
 20
297.3615907819096
 30
0.0
 10
380.0520338315278
 20
297.3699357039517
 30
0.0
 10
380.0389964445212
 20
297.3868919540937
 30
0.0
 10
380.0327479805842
 20
297.3955286456927
 30
0.0
 10
380.0028325416657
 20
297.4394906549999
 30
0.0
 10
379.9830939649337
 20
297.4771210251835
 30
0.0
 10
379.9676625853447
 20
297.5172777833281
 30
0.0
  0
SPLINE
  5
1AC
330
1F
100
AcDbEntity
  8
1
100
AcDbSpline
210
0.0
220
0.0
230
1.0
 70
     8
 71
     3
 72
    21
 73
    17
 74
     0
 42
0.000000001
 43
0.0000000001
 40
0.0
 40
0.0
 40
0.0
 40
0.0
 40
0.2499999999997338
 40
0.2499999999997338
 40
0.3124999999996874
 40
0.3124999999996874
 40
0.3749999999996409
 40
0.3749999999996409
 40
0.4999999999996281
 40
0.624999999999615
 40
0.624999999999615
 40
0.6874999999996448
 40
0.6874999999996448
 40
0.7499999999996745
 40
0.7499999999996745
 40
1.0
 40
1.0
 40
1.0
 40
1.0
 10
380.5140293725382
 20
297.2890912511776
 30
0.0
 10
380.555260553211
 20
297.2998449657144
 30
0.0
 10
380.597189420656
 20
297.3057546802721
 30
0.0
 10
380.6505622758733
 20
297.3069329411266
 30
0.0
 10
380.6612854868854
 20
297.3068541014082
 30
0.0
 10
380.6828337274819
 20
297.3060464352757
 30
0.0
 10
380.6936846525265
 20
297.3053128383935
 30
0.0
 10
380.7259086813707
 20
297.3021548510029
 30
0.0
 10
380.7682881991651
 20
297.2953997916542
 30
0.0
 10
380.8095214368634
 20
297.2836675420203
 30
0.0
 10
380.8400092848203
 20
297.2729700819144
 30
0.0
 10
380.8501347175708
 20
297.2690715410108
 30
0.0
 10
380.8700473359764
 20
297.2607066190093
 30
0.0
 10
380.8798167408966
 20
297.2562508382546
 30
0.0
 10
380.9277636700794
 20
297.2326498862713
 30
0.0
 10
380.9632770231667
 20
297.2095937709782
 30
0.0
 10
380.996080429191
 20
297.1824617454819
 30
0.0
  0
SPLINE
  5
1AD
330
1F
100
AcDbEntity
  8
1
100
AcDbSpline
210
0.0
220
0.0
230
1.0
 70
     8
 71
     3
 72
     8
 73
     4
 74
     0
 42
0.000000001
 43
0.0000000001
 40
0.0
 40
0.0
 40
0.0
 40
0.0
 40
1.0
 40
1.0
 40
1.0
 40
1.0
 10
379.9676625853447
 20
297.5172777833281
 30
0.0
 10
379.9661475652115
 20
297.5212202887096
 30
0.0
 10
379.9648983733789
 20
297.5252150632514
 30
0.0
 10
379.9639048644395
 20
297.5292600466734
 30
0.0
  0
SPLINE
  5
1AE
330
1F
100
AcDbEntity
  8
1
100
AcDbSpline
210
0.0
220
0.0
230
1.0
 70
     8
 71
     3
 72
    21
 73
    17
 74
     0
 42
0.000000001
 43
0.0000000001
 40
0.0
 40
0.0
 40
0.0
 40
0.0
 40
0.2500000000000845
 40
0.2500000000000845
 40
0.3125000000000883
 40
0.3125000000000883
 40
0.3750000000000921
 40
0.3750000000000921
 40
0.5000000000000254
 40
0.6249999999999585
 40
0.6249999999999585
 40
0.6874999999999656
 40
0.6874999999999656
 40
0.7499999999999729
 40
0.7499999999999729
 40
1.0
 40
1.0
 40
1.0
 40
1.0
 10
381.5873091467409
 20
297.1590125957298
 30
0.0
 10
381.5563699045647
 20
297.1291111187786
 30
0.0
 10
381.5224613612405
 20
297.103186823533
 30
0.0
 10
381.47636673453
 20
297.0757512198047
 30
0.0
 10
381.4669390602808
 20
297.0705064538612
 30
0.0
 10
381.447918147191
 20
297.060639990372
 30
0.0
 10
381.4383036569093
 20
297.0560041075898
 30
0.0
 10
381.4091537391547
 20
297.0429722390051
 30
0.0
 10
381.3694718873117
 20
297.0279263791714
 30
0.0
 10
381.3281706879986
 20
297.0175078707009
 30
0.0
 10
381.2965671785303
 20
297.0114875861407
 30
0.0
 10
381.285947902921
 20
297.0097867636219
 30
0.0
 10
381.2647783749634
 20
297.0070266972773
 30
0.0
 10
381.2541949259518
 20
297.0059607548122
 30
0.0
 10
381.2012843464001
 20
297.0021733069188
 30
0.0
 10
381.1589766856898
 20
297.0040178395514
 30
0.0
 10
381.1166950232399
 20
297.0108691474138
 30
0.0
  0
SPLINE
  5
1AF
330
1F
100
AcDbEntity
  8
1
100
AcDbSpline
210
0.0
220
0.0
230
1.0
 70
     8
 71
     3
 72
     8
 73
     4
 74
     0
 42
0.000000001
 43
0.0000000001
 40
0.0
 40
0.0
 40
0.0
 40
0.0
 40
1.0
 40
1.0
 40
1.0
 40
1.0
 10
380.0530813955219
 20
297.710195434169
 30
0.0
 10
380.0525194536415
 20
297.7066101026876
 30
0.0
 10
380.0517657283505
 20
297.7030622403291
 30
0.0
 10
380.0508351248674
 20
297.6995805516946
 30
0.0
  0
SPLINE
  5
1B0
330
1F
100
AcDbEntity
  8
1
100
AcDbSpline
210
0.0
220
0.0
230
1.0
 70
     8
 71
     3
 72
    21
 73
    17
 74
     0
 42
0.000000001
 43
0.0000000001
 40
0.0
 40
0.0
 40
0.0
 40
0.0
 40
0.2500000000000188
 40
0.2500000000000188
 40
0.3125000000000256
 40
0.3125000000000256
 40
0.3750000000000325
 40
0.3750000000000325
 40
0.5000000000000372
 40
0.6250000000000418
 40
0.6250000000000418
 40
0.6875000000000365
 40
0.6875000000000365
 40
0.7500000000000312
 40
0.7500000000000312
 40
1.0
 40
1.0
 40
1.0
 40
1.0
 10
379.9041068548796
 20
298.1800464248527
 30
0.0
 10
379.9336247763581
 20
298.1502443371407
 30
0.0
 10
379.9593828878378
 20
298.1173281616227
 30
0.0
 10
379.9868185937643
 20
298.0721101740054
 30
0.0
 10
379.9920644700192
 20
298.0628603741992
 30
0.0
 10
380.0020586771418
 20
298.0439330484162
 30
0.0
 10
380.0068158943588
 20
298.0342306360201
 30
0.0
 10
380.0201183048372
 20
298.0049037777991
 30
0.0
 10
380.0354209284675
 20
297.964970773278
 30
0.0
 10
380.0459647239512
 20
297.9234112133088
 30
0.0
 10
380.0520568353211
 20
297.8916219585672
 30
0.0
 10
380.0537887950994
 20
297.8808831676159
 30
0.0
 10
380.0566064717024
 20
297.8593981188213
 30
0.0
 10
380.0576922552052
 20
297.8486730385703
 30
0.0
 10
380.0615594482892
 20
297.7951297010883
 30
0.0
 10
380.05972057258
 20
297.7525550648497
 30
0.0
 10
380.0530813955219
 20
297.710195434169
 30
0.0
  0
SPLINE
  5
1B1
330
1F
100
AcDbEntity
  8
1
100
AcDbSpline
210
0.0
220
0.0
230
1.0
 70
     8
 71
     3
 72
    14
 73
    10
 74
     0
 42
0.000000001
 43
0.0000000001
 40
0.0
 40
0.0
 40
0.0
 40
0.0
 40
0.25
 40
0.25
 40
0.5
 40
0.5
 40
0.75
 40
0.75
 40
1.0
 40
1.0
 40
1.0
 40
1.0
 10
379.8272173004427
 20
298.2087987028902
 30
0.0
 10
379.8342819202494
 20
298.2092716013257
 30
0.0
 10
379.8413732873151
 20
298.2090014579001
 30
0.0
 10
379.8552806828404
 20
298.2070002679353
 30
0.0
 10
379.8620488022369
 20
298.2052878043733
 30
0.0
 10
379.8752123265688
 20
298.2004219306634
 30
0.0
 10
379.8816277941857
 20
298.1972350353428
 30
0.0
 10
379.893492431292
 20
298.1896251213532
 30
0.0
 10
379.8990191990874
 20
298.1851830590251
 30
0.0
 10
379.9041068548796
 20
298.1800464248527
 30
0.0
  0
SPLINE
  5
1B2
330
1F
100
AcDbEntity
  8
1
100
AcDbSpline
210
0.0
220
0.0
230
1.0
 70
     8
 71
     3
 72
    22
 73
    18
 74
     0
 42
0.000000001
 43
0.0000000001
 40
0.0
 40
0.0
 40
0.0
 40
0.0
 40
0.125
 40
0.125
 40
0.25
 40
0.25
 40
0.375
 40
0.375
 40
0.5
 40
0.5
 40
0.625
 40
0.625
 40
0.75
 40
0.75
 40
0.875
 40
0.875
 40
1.0
 40
1.0
 40
1.0
 40
1.0
 10
379.8272173004427
 20
298.2087987028902
 30
0.0
 10
379.8215699581878
 20
298.2084206755667
 30
0.0
 10
379.8159208767791
 20
298.2085185669144
 30
0.0
 10
379.8048159102414
 20
298.2096339283669
 30
0.0
 10
379.799332578394
 20
298.2106486464303
 30
0.0
 10
379.7885092495235
 20
298.2136183485977
 30
0.0
 10
379.7831740966562
 20
298.2155832934198
 30
0.0
 10
379.7730220777767
 20
298.220347285409
 30
0.0
 10
379.7681566135511
 20
298.2231568819034
 30
0.0
 10
379.7588670566024
 20
298.2296680717476
 30
0.0
 10
379.7544677923136
 20
298.233365223883
 30
0.0
 10
379.7464467372649
 20
298.2414160463002
 30
0.0
 10
379.7427824737939
 20
298.2457968890881
 30
0.0
 10
379.7361881687057
 20
298.2553095823537
 30
0.0
 10
379.7333143288038
 20
298.2603734324116
 30
0.0
 10
379.7285300432603
 20
298.2708986903414
 30
0.0
 10
379.726597132671
 20
298.2763909914662
 30
0.0
 10
379.7251535057389
 20
298.2821274738276
 30
0.0
  0
SPLINE
  5
1B3
330
1F
100
AcDbEntity
  8
1
100
AcDbSpline
210
0.0
220
0.0
230
1.0
 70
     8
 71
     3
 72
    21
 73
    17
 74
     0
 42
0.000000001
 43
0.0000000001
 40
0.0
 40
0.0
 40
0.0
 40
0.0
 40
0.2500000000001115
 40
0.2500000000001115
 40
0.3125000000001437
 40
0.3125000000001437
 40
0.3750000000001761
 40
0.3750000000001761
 40
0.5000000000001936
 40
0.6250000000002112
 40
0.6250000000002112
 40
0.6875000000001897
 40
0.6875000000001897
 40
0.7500000000001683
 40
0.7500000000001683
 40
1.0
 40
1.0
 40
1.0
 40
1.0
 10
381.5915101664949
 20
297.3698955901314
 30
0.0
 10
381.6033948910278
 20
297.4110915366539
 30
0.0
 10
381.6197024336569
 20
297.4504290556357
 30
0.0
 10
381.6457577751847
 20
297.4972688076567
 30
0.0
 10
381.6512560838767
 20
297.506518574494
 30
0.0
 10
381.6628463996705
 20
297.5247748032152
 30
0.0
 10
381.6689555549441
 20
297.5338013481162
 30
0.0
 10
381.6879142194796
 20
297.5601079045621
 30
0.0
 10
381.7150156994111
 20
297.5933774519533
 30
0.0
 10
381.7456805849019
 20
297.6231133966423
 30
0.0
 10
381.7700394552489
 20
297.6440681260639
 30
0.0
 10
381.7784174614372
 20
297.6508510388431
 30
0.0
 10
381.795476080259
 20
297.6638344640917
 30
0.0
 10
381.8041386948572
 20
297.6700248548264
 30
0.0
 10
381.8481000585319
 20
297.6995231580004
 30
0.0
 10
381.8853153147951
 20
297.718529396349
 30
0.0
 10
381.9245866825053
 20
297.7331170751192
 30
0.0
  0
SPLINE
  5
1B4
330
1F
100
AcDbEntity
  8
1
100
AcDbSpline
210
0.0
220
0.0
230
1.0
 70
     8
 71
     3
 72
    14
 73
    10
 74
     0
 42
0.000000001
 43
0.0000000001
 40
0.0
 40
0.0
 40
0.0
 40
0.0
 40
0.2499999999999997
 40
0.2499999999999997
 40
0.4999999999999999
 40
0.4999999999999999
 40
0.75
 40
0.75
 40
1.0
 40
1.0
 40
1.0
 40
1.0
 10
381.9245866825053
 20
297.7331170751192
 30
0.0
 10
381.9313598865557
 20
297.7356330385473
 30
0.0
 10
381.9383777258992
 20
297.7373638376717
 30
0.0
 10
381.9523704689233
 20
297.7392462904095
 30
0.0
 10
381.959362075919
 20
297.7394190202473
 30
0.0
 10
381.9733402877442
 20
297.7382758857898
 30
0.0
 10
381.9803163553661
 20
297.7369384925308
 30
0.0
 10
381.9936414380927
 20
297.7329020160797
 30
0.0
 10
382.0000739889057
 20
297.7302003742762
 30
0.0
 10
382.0062696128529
 20
297.7267931813776
 30
0.0
  0
SPLINE
  5
1B5
330
1F
100
AcDbEntity
  8
1
100
AcDbSpline
210
0.0
220
0.0
230
1.0
 70
     8
 71
     3
 72
    20
 73
    16
 74
     0
 42
0.000000001
 43
0.0000000001
 40
0.0
 40
0.0
 40
0.0
 40
0.0
 40
0.1250000000000331
 40
0.1250000000000331
 40
0.2500000000000661
 40
0.2500000000000661
 40
0.3750000000000991
 40
0.3750000000000991
 40
0.5000000000001322
 40
0.5000000000001322
 40
0.6250000000001652
 40
0.6250000000001652
 40
0.7500000000001982
 40
0.7500000000001982
 40
1.0
 40
1.0
 40
1.0
 40
1.0
 10
382.1295097065666
 20
297.7502848200824
 30
0.0
 10
382.1257821105478
 20
297.7456856755687
 30
0.0
 10
382.1217091263872
 20
297.7415094079147
 30
0.0
 10
382.1129104920272
 20
297.7339573661396
 30
0.0
 10
382.1081330665057
 20
297.7305546060446
 30
0.0
 10
382.0981846342148
 20
297.7247351410863
 30
0.0
 10
382.0930332485092
 20
297.7223148792277
 30
0.0
 10
382.0823954395402
 20
297.7184051541234
 30
0.0
 10
382.0768574085541
 20
297.7169082493133
 30
0.0
 10
382.0656951800199
 20
297.7149217871375
 30
0.0
 10
382.060112277852
 20
297.7144287521963
 30
0.0
 10
382.0489449714499
 20
297.7143912135083
 30
0.0
 10
382.0433327890476
 20
297.7148518609019
 30
0.0
 10
382.02667882037
 20
297.7176708007487
 30
0.0
 10
382.016176236152
 20
297.7213451785871
 30
0.0
 10
382.0062696128529
 20
297.7267931813776
 30
0.0
  0
SPLINE
  5
1B6
330
1F
100
AcDbEntity
  8
1
100
AcDbSpline
210
0.0
220
0.0
230
1.0
 70
     8
 71
     3
 72
    14
 73
    10
 74
     0
 42
0.000000001
 43
0.0000000001
 40
0.0
 40
0.0
 40
0.0
 40
0.0
 40
0.6053509729437206
 40
0.6053509729437206
 40
0.756688716179656
 40
0.756688716179656
 40
0.9080264594155915
 40
0.9080264594155915
 40
1.0
 40
1.0
 40
1.0
 40
1.0
 10
379.7251535057389
 20
298.2821274738276
 30
0.0
 10
379.7147691759085
 20
298.3233912682226
 30
0.0
 10
379.7092859985069
 20
298.3653462320963
 30
0.0
 10
379.7085582108284
 20
298.4186441384372
 30
0.0
 10
379.7087252556333
 20
298.4293695665615
 30
0.0
 10
379.7096785397018
 20
298.4506662807808
 30
0.0
 10
379.7104631247835
 20
298.4612629817694
 30
0.0
 10
379.712210629003
 20
298.4782181023321
 30
0.0
 10
379.7129826003232
 20
298.4846085698156
 30
0.0
 10
379.7138657445655
 20
298.4909803742854
 30
0.0
  0
SPLINE
  5
1B7
330
1F
100
AcDbEntity
  8
1
100
AcDbSpline
210
0.0
220
0.0
230
1.0
 70
     8
 71
     3
 72
    12
 73
     8
 74
     0
 42
0.000000001
 43
0.0000000001
 40
0.0
 40
0.0
 40
0.0
 40
0.0
 40
0.0713656558167435
 40
0.0713656558167435
 40
0.2570925246533785
 40
0.2570925246533785
 40
1.0
 40
1.0
 40
1.0
 40
1.0
 10
382.2147070781751
 20
297.8974216153144
 30
0.0
 10
382.2132258400448
 20
297.8935929274014
 30
0.0
 10
382.2117040088471
 20
297.8897862719226
 30
0.0
 10
382.2060848767906
 20
297.8761747859138
 30
0.0
 10
382.2017576993586
 20
297.866501230523
 30
0.0
 10
382.1788068809015
 20
297.8189171358368
 30
0.0
 10
382.1562898983759
 20
297.7833264832926
 30
0.0
 10
382.1295097065666
 20
297.7502848200824
 30
0.0
  0
SPLINE
  5
1B8
330
1F
100
AcDbEntity
  8
1
100
AcDbSpline
210
0.0
220
0.0
230
1.0
 70
     8
 71
     3
 72
    14
 73
    10
 74
     0
 42
0.000000001
 43
0.0000000001
 40
0.0
 40
0.0
 40
0.0
 40
0.0
 40
0.25
 40
0.25
 40
0.5
 40
0.5
 40
0.75
 40
0.75
 40
1.0
 40
1.0
 40
1.0
 40
1.0
 10
380.3593933629203
 20
299.2313154101214
 30
0.0
 10
380.3632205581576
 20
299.2255672819248
 30
0.0
 10
380.3664161842295
 20
299.2194255677122
 30
0.0
 10
380.3714081028097
 20
299.2066445380166
 30
0.0
 10
380.3731971043693
 20
299.2000555140022
 30
0.0
 10
380.3753461528917
 20
299.1864727837427
 30
0.0
 10
380.3756869302737
 20
299.1794449218262
 30
0.0
 10
380.3748306005598
 20
299.1655888127632
 30
0.0
 10
380.3736545362319
 20
299.1586854266054
 30
0.0
 10
380.3716651311776
 20
299.1518059374813
 30
0.0
  0
SPLINE
  5
1B9
330
1F
100
AcDbEntity
  8
1
100
AcDbSpline
210
0.0
220
0.0
230
1.0
 70
     8
 71
     3
 72
    12
 73
     8
 74
     0
 42
0.000000001
 43
0.0000000001
 40
0.0
 40
0.0
 40
0.0
 40
0.0
 40
0.4717321844570356
 40
0.4717321844570356
 40
0.9434643689140711
 40
0.9434643689140711
 40
1.0
 40
1.0
 40
1.0
 40
1.0
 10
380.3593933629197
 20
299.2313154101227
 30
0.0
 10
380.3563340735735
 20
299.2359102076865
 30
0.0
 10
380.3536868144598
 20
299.2407438729709
 30
0.0
 10
380.3492826373945
 20
299.2507076561353
 30
0.0
 10
380.3475101653025
 20
299.2558595264927
 30
0.0
 10
380.3460206373333
 20
299.2618240778804
 30
0.0
 10
380.3458677403428
 20
299.2624649147607
 30
0.0
 10
380.3457214146028
 20
299.2631079381712
 30
0.0
  0
SPLINE
  5
1BA
330
1F
100
AcDbEntity
  8
1
100
AcDbSpline
210
0.0
220
0.0
230
1.0
 70
     8
 71
     3
 72
    14
 73
    10
 74
     0
 42
0.000000001
 43
0.0000000001
 40
0.0
 40
0.0
 40
0.0
 40
0.0
 40
0.1451158453619591
 40
0.1451158453619591
 40
0.4300772302413061
 40
0.4300772302413061
 40
0.715038615120653
 40
0.715038615120653
 40
1.0
 40
1.0
 40
1.0
 40
1.0
 10
381.9122478606474
 20
298.8217753554806
 30
0.0
 10
381.9131798494336
 20
298.8252621310963
 30
0.0
 10
381.9143006158636
 20
298.8286713431821
 30
0.0
 10
381.9181336034962
 20
298.8384550066936
 30
0.0
 10
381.9213285929033
 20
298.8445459047614
 30
0.0
 10
381.9289908825446
 20
298.8559730784498
 30
0.0
 10
381.9334715861938
 20
298.8612894575911
 30
0.0
 10
381.9432998014611
 20
298.8706975488033
 30
0.0
 10
381.9486894397137
 20
298.874859703936
 30
0.0
 10
381.9545703679551
 20
298.8784628788454
 30
0.0
  0
SPLINE
  5
1BB
330
1F
100
AcDbEntity
  8
1
100
AcDbSpline
210
0.0
220
0.0
230
1.0
 70
     8
 71
     3
 72
     8
 73
     4
 74
     0
 42
0.000000001
 43
0.0000000001
 40
0.0
 40
0.0
 40
0.0
 40
0.0
 40
1.0
 40
1.0
 40
1.0
 40
1.0
 10
381.9715955073445
 20
298.8917355035965
 30
0.0
 10
381.9664633064647
 20
298.8866943455555
 30
0.0
 10
381.9607866192614
 20
298.8822715022156
 30
0.0
 10
381.9545703679551
 20
298.8784628788454
 30
0.0
  0
SPLINE
  5
1BC
330
1F
100
AcDbEntity
  8
1
100
AcDbSpline
210
0.0
220
0.0
230
1.0
 70
     9
 71
     3
 72
   125
 73
   121
 74
     0
 42
0.000000001
 43
0.0000000001
 40
0.0
 40
0.0
 40
0.0
 40
0.0
 40
0.0312500000000299
 40
0.0312500000000299
 40
0.0468750000000473
 40
0.0468750000000473
 40
0.0546875000000536
 40
0.0546875000000536
 40
0.0625000000000599
 40
0.0625000000000599
 40
0.093750000000085
 40
0.093750000000085
 40
0.1015625000000891
 40
0.1015625000000891
 40
0.1093750000000932
 40
0.1093750000000932
 40
0.1250000000000978
 40
0.1250000000000978
 40
0.1562500000001033
 40
0.1562500000001033
 40
0.1875000000001088
 40
0.1875000000001088
 40
0.2031250000001115
 40
0.2031250000001115
 40
0.2109375000001129
 40
0.2109375000001129
 40
0.2187500000001143
 40
0.2187500000001143
 40
0.2500000000001169
 40
0.2500000000001169
 40
0.2578125000001174
 40
0.2578125000001174
 40
0.2656250000001179
 40
0.2656250000001179
 40
0.2812500000001184
 40
0.2812500000001184
 40
0.3125000000001205
 40
0.3125000000001205
 40
0.3203125000001227
 40
0.3203125000001227
 40
0.3281250000001248
 40
0.3437500000001315
 40
0.3437500000001315
 40
0.3750000000001452
 40
0.3750000000001452
 40
0.3828125000001458
 40
0.3828125000001458
 40
0.3906250000001464
 40
0.4062500000001476
 40
0.4218750000001485
 40
0.4218750000001485
 40
0.4296875000001491
 40
0.4296875000001491
 40
0.4375000000001495
 40
0.4375000000001495
 40
0.4687500000001613
 40
0.4687500000001613
 40
0.4843750000001671
 40
0.4843750000001671
 40
0.4921875000001675
 40
0.4921875000001675
 40
0.5000000000001679
 40
0.5000000000001679
 40
0.5312500000001692
 40
0.5312500000001692
 40
0.5390625000001683
 40
0.5390625000001683
 40
0.5468750000001675
 40
0.5468750000001675
 40
0.562500000000166
 40
0.5781250000001643
 40
0.5781250000001643
 40
0.5937500000001627
 40
0.5937500000001627
 40
0.6250000000001595
 40
0.6250000000001595
 40
0.632812500000158
 40
0.632812500000158
 40
0.6406250000001564
 40
0.6406250000001564
 40
0.6562500000001502
 40
0.6562500000001502
 40
0.6875000000001377
 40
0.6875000000001377
 40
0.6953125000001342
 40
0.6953125000001342
 40
0.703125000000131
 40
0.7187500000001244
 40
0.734375000000118
 40
0.734375000000118
 40
0.7421875000001148
 40
0.7421875000001148
 40
0.7500000000001118
 40
0.7500000000001118
 40
0.7812500000000994
 40
0.7812500000000994
 40
0.7968750000000933
 40
0.7968750000000933
 40
0.8125000000000872
 40
0.8125000000000872
 40
0.8437500000000749
 40
0.8437500000000749
 40
0.8593750000000691
 40
0.8593750000000691
 40
0.8671875000000659
 40
0.8671875000000659
 40
0.8750000000000627
 40
0.8750000000000627
 40
0.9062500000000504
 40
0.9062500000000504
 40
0.9218750000000419
 40
0.9218750000000419
 40
0.9375000000000335
 40
0.9531250000000252
 40
0.9531250000000252
 40
0.9609375000000236
 40
0.9609375000000236
 40
0.9687500000000218
 40
0.9687500000000218
 40
1.0
 40
1.0
 40
1.0
 40
1.0
 10
381.4246469271759
 20
286.5233679557893
 30
0.0
 10
381.5087618250938
 20
286.5218997247847
 30
0.0
 10
381.591270440029
 20
286.5120518086833
 30
0.0
 10
381.7127238891708
 20
286.4852453810545
 30
0.0
 10
381.7528204512332
 20
286.4742886777354
 30
0.0
 10
381.8123690330818
 20
286.4547506841313
 30
0.0
 10
381.8321753772422
 20
286.447697107216
 30
0.0
 10
381.8712441950765
 20
286.4326646985675
 30
0.0
 10
381.8905086564637
 20
286.4246894688638
 30
0.0
 10
381.9855082970296
 20
286.3825665382009
 30
0.0
 10
382.0573139955035
 20
286.3417431741182
 30
0.0
 10
382.141860450362
 20
286.2819061112153
 30
0.0
 10
382.1585068151307
 20
286.2694942922142
 30
0.0
 10
382.1912647146082
 20
286.2437679378589
 30
0.0
 10
382.2073724665529
 20
286.2304514013241
 30
0.0
 10
382.2543515329625
 20
286.1896020208993
 30
0.0
 10
382.2840710755743
 20
286.1610279253997
 30
0.0
 10
382.3685743880152
 20
286.0714198090676
 30
0.0
 10
382.418746145631
 20
286.0065359963566
 30
0.0
 10
382.5064544515857
 20
285.8663105473835
 30
0.0
 10
382.5425785589616
 20
285.7932210732152
 30
0.0
 10
382.5857621252134
 20
285.6795363783503
 30
0.0
 10
382.5983129326644
 20
285.6409551462247
 30
0.0
 10
382.614338404795
 20
285.5820464887553
 30
0.0
 10
382.619221958361
 20
285.5621934581151
 30
0.0
 10
382.6279928873553
 20
285.5223465076594
 30
0.0
 10
382.6318708763393
 20
285.5024068817365
 30
0.0
 10
382.6487826112991
 20
285.4026316834205
 30
0.0
 10
382.6544497823862
 20
285.3225686006756
 30
0.0
 10
382.6519375388437
 20
285.222206024171
 30
0.0
 10
382.6509510791816
 20
285.2021190953126
 30
0.0
 10
382.6479989735838
 20
285.161915995533
 30
0.0
 10
382.6460270523741
 20
285.1417519845457
 30
0.0
 10
382.6386624139442
 20
285.0815819311162
 30
0.0
 10
382.6318519594449
 20
285.0420306145563
 30
0.0
 10
382.6059081435977
 20
284.9250003160431
 30
0.0
 10
382.5813138403965
 20
284.8491312365113
 30
0.0
 10
382.5412789213165
 20
284.7569918033179
 30
0.0
 10
382.5327937922918
 20
284.7386809454705
 30
0.0
 10
382.5149048541231
 20
284.7024159547652
 30
0.0
 10
382.4868456323175
 20
284.6488666129962
 30
0.0
 10
382.4551870120534
 20
284.5978003835372
 30
0.0
 10
382.387126514815
 20
284.4989180420808
 30
0.0
 10
382.3354788274751
 20
284.4372967303493
 30
0.0
 10
382.2625470734838
 20
284.3659210000831
 30
0.0
 10
382.2475684086743
 20
284.3519649874867
 30
0.0
 10
382.217093814757
 20
284.3249309651648
 30
0.0
 10
382.1704928050905
 20
284.28559126012
 30
0.0
 10
382.0884318729901
 20
284.2259914074043
 30
0.0
 10
382.0180712903475
 20
284.1846751353744
 30
0.0
 10
381.9634697893683
 20
284.1561478038657
 30
0.0
 10
381.9449635399728
 20
284.1470494476678
 30
0.0
 10
381.9073213127989
 20
284.1296966926629
 30
0.0
 10
381.8881606802562
 20
284.1214360897862
 30
0.0
 10
381.7919372341261
 20
284.0827689823926
 30
0.0
 10
381.7127461086695
 20
284.0597592167227
 30
0.0
 10
381.5906428458537
 20
284.0370549107703
 30
0.0
 10
381.5493851400906
 20
284.0314694126023
 30
0.0
 10
381.4866263617008
 20
284.0261934624738
 30
0.0
 10
381.4656182620549
 20
284.0249611145696
 30
0.0
 10
381.4238225624118
 20
284.023559703637
 30
0.0
 10
381.4029772414962
 20
284.0233853599689
 30
0.0
 10
381.2990090533822
 20
284.0251029670642
 30
0.0
 10
381.2166540374347
 20
284.0346860588868
 30
0.0
 10
381.1147425711723
 20
284.0570303986763
 30
0.0
 10
381.0943526388814
 20
284.0620398894255
 30
0.0
 10
381.0540555536207
 20
284.0730203316408
 30
0.0
 10
381.0341391087303
 20
284.0789893300989
 30
0.0
 10
380.9750685963266
 20
284.098298781403
 30
0.0
 10
380.8981142459062
 20
284.1277765884205
 30
0.0
 10
380.8246723683216
 20
284.1645383732179
 30
0.0
 10
380.7529885269562
 20
284.204962349932
 30
0.0
 10
380.7179033490866
 20
284.227112067083
 30
0.0
 10
380.6173906289995
 20
284.2977059957005
 30
0.0
 10
380.5560076140611
 20
284.350551259511
 30
0.0
 10
380.486024412193
 20
284.4236321924727
 30
0.0
 10
380.4723682696372
 20
284.4386029201981
 30
0.0
 10
380.4457426048635
 20
284.4692616117752
 30
0.0
 10
380.4327469864303
 20
284.4849854043774
 30
0.0
 10
380.3951505386459
 20
284.5327995713595
 30
0.0
 10
380.3718427366833
 20
284.5656257309706
 30
0.0
 10
380.3069950651797
 20
284.6668725561298
 30
0.0
 10
380.2704830884929
 20
284.7380361033558
 30
0.0
 10
380.2333582001297
 20
284.8317003955079
 30
0.0
 10
380.2263539246237
 20
284.8507035778084
 30
0.0
 10
380.2133439336548
 20
284.8888155213594
 30
0.0
 10
380.195278987424
 20
284.9462623117688
 30
0.0
 10
380.1722687520337
 20
285.0433802351314
 30
0.0
 10
380.1613403540821
 20
285.1225333613921
 30
0.0
 10
380.1559943745794
 20
285.1824565460327
 30
0.0
 10
380.1546882588627
 20
285.202524138254
 30
0.0
 10
380.1530457709608
 20
285.2428493882861
 30
0.0
 10
380.1527105237379
 20
285.2631614389624
 30
0.0
 10
380.153509424556
 20
285.3644436004734
 30
0.0
 10
380.161946189268
 20
285.4444014425734
 30
0.0
 10
380.1860771595075
 20
285.5627467733493
 30
0.0
 10
380.1960465346363
 20
285.6019278948847
 30
0.0
 10
380.219962036196
 20
285.6797311412115
 30
0.0
 10
380.2339903980093
 20
285.7185050894099
 30
0.0
 10
380.2812802075183
 20
285.8314926168628
 30
0.0
 10
380.3198493224854
 20
285.9031114377708
 30
0.0
 10
380.3882878475007
 20
286.0049085767441
 30
0.0
 10
380.4128765363877
 20
286.0378961187375
 30
0.0
 10
380.4525415487921
 20
286.0858882519697
 30
0.0
 10
380.4661538278406
 20
286.1015449919881
 30
0.0
 10
380.4940270800157
 20
286.132046242599
 30
0.0
 10
380.5083068541765
 20
286.1469135994493
 30
0.0
 10
380.5814006414295
 20
286.2193539119212
 30
0.0
 10
380.6452504955682
 20
286.2712921898647
 30
0.0
 10
380.7492762837122
 20
286.3399030790693
 30
0.0
 10
380.7855080366326
 20
286.3612822456479
 30
0.0
 10
380.8592122674856
 20
286.3999284355152
 30
0.0
 10
380.9344526963554
 20
286.4346998013904
 30
0.0
 10
381.0127094873696
 20
286.4618477556915
 30
0.0
 10
381.0725461355468
 20
286.4793126018561
 30
0.0
 10
381.0926827108945
 20
286.4846506562511
 30
0.0
 10
381.1333444906542
 20
286.4943423565328
 30
0.0
 10
381.1539173593189
 20
286.4987043450894
 30
0.0
 10
381.2571459667474
 20
286.5178778135159
 30
0.0
 10
381.3405320292576
 20
286.5248361867939
 30
0.0
 10
381.4246469271757
 20
286.5233679557893
 30
0.0
  0
SPLINE
  5
1BD
330
1F
100
AcDbEntity
  8
1
100
AcDbSpline
210
0.0
220
0.0
230
1.0
 70
     8
 71
     3
 72
    10
 73
     6
 74
     0
 42
0.000000001
 43
0.0000000001
 40
0.0
 40
0.0
 40
0.0
 40
0.0
 40
0.5
 40
0.5
 40
1.0
 40
1.0
 40
1.0
 40
1.0
 10
371.8721819346808
 20
294.1379298905985
 30
0.0
 10
371.8372744056848
 20
294.1588779602969
 30
0.0
 10
371.8036038553604
 20
294.1811659865775
 30
0.0
 10
371.7390502227049
 20
294.2287962970784
 30
0.0
 10
371.7081605392456
 20
294.2541313428077
 30
0.0
 10
371.6789580308741
 20
294.2813309708089
 30
0.0
  0
SPLINE
  5
1BE
330
1F
100
AcDbEntity
  8
1
100
AcDbSpline
210
0.0
220
0.0
230
1.0
 70
     8
 71
     3
 72
    18
 73
    14
 74
     0
 42
0.000000001
 43
0.0000000001
 40
0.0
 40
0.0
 40
0.0
 40
0.0
 40
0.2500000000000057
 40
0.2500000000000057
 40
0.5000000000000114
 40
0.5000000000000114
 40
0.6250000000000142
 40
0.6250000000000142
 40
0.6875000000000137
 40
0.6875000000000137
 40
0.7500000000000133
 40
0.7500000000000133
 40
1.0
 40
1.0
 40
1.0
 40
1.0
 10
295.2739902031443
 20
274.908012274879
 30
0.0
 10
295.4803454151563
 20
274.9081710233884
 30
0.0
 10
295.690146949293
 20
274.9093054906044
 30
0.0
 10
296.1167379047588
 20
274.9122646934016
 30
0.0
 10
296.3335266466022
 20
274.9140900911488
 30
0.0
 10
296.6641507239353
 20
274.9166234363028
 30
0.0
 10
296.7752669803898
 20
274.9174360007211
 30
0.0
 10
296.9433428087877
 20
274.9185371732543
 30
0.0
 10
296.9996017632037
 20
274.9188847638092
 30
0.0
 10
297.1125948785328
 20
274.9195311656403
 30
0.0
 10
297.1694055754255
 20
274.9198302724669
 30
0.0
 10
297.4529612204863
 20
274.9211749347725
 30
0.0
 10
297.6791973642347
 20
274.9217585205664
 30
0.0
 10
297.9048419453499
 20
274.9217585205664
 30
0.0
  0
SPLINE
  5
1BF
330
1F
100
AcDbEntity
  8
1
100
AcDbSpline
210
0.0
220
0.0
230
1.0
 70
     8
 71
     3
 72
    24
 73
    20
 74
     0
 42
0.000000001
 43
0.0000000001
 40
0.0
 40
0.0
 40
0.0
 40
0.0
 40
0.1249999999999996
 40
0.1249999999999996
 40
0.2499999999999992
 40
0.2499999999999992
 40
0.3124999999999989
 40
0.3124999999999989
 40
0.3749999999999988
 40
0.3749999999999988
 40
0.499999999999999
 40
0.499999999999999
 40
0.6249999999999992
 40
0.6249999999999992
 40
0.7499999999999995
 40
0.7499999999999995
 40
0.8749999999999998
 40
0.8749999999999998
 40
1.0
 40
1.0
 40
1.0
 40
1.0
 10
328.3172834664168
 20
277.0708803347482
 30
0.0
 10
327.0617333536558
 20
276.8841883798835
 30
0.0
 10
325.8050541277036
 20
276.7111924448559
 30
0.0
 10
323.2890571670167
 20
276.3914477769388
 30
0.0
 10
322.0297379886186
 20
276.2447115973781
 30
0.0
 10
320.1383420363996
 20
276.0436645461446
 30
0.0
 10
319.5074724105101
 20
275.9798260494542
 30
0.0
 10
318.2448383052604
 20
275.8583921777156
 30
0.0
 10
317.6129982862053
 20
275.8007911093925
 30
0.0
 10
315.7169171352267
 20
275.6372391332349
 30
0.0
 10
314.4519180632778
 20
275.5405324199621
 30
0.0
 10
311.9192661496419
 20
275.3703379713899
 30
0.0
 10
310.6516106565845
 20
275.2968519698309
 30
0.0
 10
308.1129175642629
 20
275.1711715994953
 30
0.0
 10
306.8418780599678
 20
275.118974483642
 30
0.0
 10
304.2957999189417
 20
275.033459810803
 30
0.0
 10
303.0207603040515
 20
275.0001368076278
 30
0.0
 10
300.4662198805676
 20
274.9496037337749
 30
0.0
 10
299.1867189372113
 20
274.9323873377568
 30
0.0
 10
297.9048419452957
 20
274.9217585205664
 30
0.0
  0
SPLINE
  5
1C0
330
1F
100
AcDbEntity
  8
1
100
AcDbSpline
210
0.0
220
0.0
230
1.0
 70
     8
 71
     3
 72
    12
 73
     8
 74
     0
 42
0.000000001
 43
0.0000000001
 40
0.0
 40
0.0
 40
0.0
 40
0.0
 40
0.2499999999999992
 40
0.2499999999999992
 40
0.4999999999999984
 40
0.4999999999999984
 40
1.0
 40
1.0
 40
1.0
 40
1.0
 10
292.2038318185191
 20
274.9313760177798
 30
0.0
 10
292.4575155365779
 20
274.9269072460532
 30
0.0
 10
292.7116570571308
 20
274.9231777530896
 30
0.0
 10
293.2209484341914
 20
274.9170405408053
 30
0.0
 10
293.4760985589964
 20
274.9146333236507
 30
0.0
 10
294.2432890427731
 20
274.9091467487823
 30
0.0
 10
294.7570537020768
 20
274.9078168346952
 30
0.0
 10
295.2739902031446
 20
274.908012274879
 30
0.0
  0
SPLINE
  5
1C1
330
1F
100
AcDbEntity
  8
1
100
AcDbSpline
210
0.0
220
0.0
230
1.0
 70
     8
 71
     3
 72
    36
 73
    32
 74
     0
 42
0.000000001
 43
0.0000000001
 40
0.0
 40
0.0
 40
0.0
 40
0.0
 40
0.1250000000000414
 40
0.1250000000000414
 40
0.2500000000000828
 40
0.2500000000000828
 40
0.2812500000000785
 40
0.2812500000000785
 40
0.3125000000000744
 40
0.3125000000000744
 40
0.3750000000000659
 40
0.3750000000000659
 40
0.4375000000000577
 40
0.4375000000000577
 40
0.5000000000000492
 40
0.5000000000000492
 40
0.5625000000000408
 40
0.5625000000000408
 40
0.5937500000000366
 40
0.5937500000000366
 40
0.6250000000000325
 40
0.6250000000000325
 40
0.7500000000000159
 40
0.7500000000000159
 40
0.8749999999999994
 40
0.8749999999999994
 40
0.9062499999999996
 40
0.9062499999999996
 40
0.9374999999999998
 40
0.9374999999999998
 40
1.0
 40
1.0
 40
1.0
 40
1.0
 10
378.5129264240986
 20
292.8590196059864
 30
0.0
 10
378.4305966614822
 20
292.8267598448859
 30
0.0
 10
378.3471676488846
 20
292.8001835508963
 30
0.0
 10
378.1776071197531
 20
292.7581359950372
 30
0.0
 10
378.0914744506307
 20
292.7426640895649
 30
0.0
 10
377.9816503653122
 20
292.7307002245748
 30
0.0
 10
377.9595771810535
 20
292.7286786435197
 30
0.0
 10
377.9152013133602
 20
292.7253983026741
 30
0.0
 10
377.8928625294972
 20
292.72413823851
 30
0.0
 10
377.8257208054882
 20
292.7215471237757
 30
0.0
 10
377.7812753840458
 20
292.721417893832
 30
0.0
 10
377.6930013324999
 20
292.7242381952404
 30
0.0
 10
377.6491724834094
 20
292.7271875147414
 30
0.0
 10
377.5620923586506
 20
292.7360733761501
 30
0.0
 10
377.518840687898
 20
292.7420096030968
 30
0.0
 10
377.4328609381374
 20
292.756812328961
 30
0.0
 10
377.3901325266935
 20
292.7656785620685
 30
0.0
 10
377.3263898626906
 20
292.7811657187971
 30
0.0
 10
377.3052006422375
 20
292.7866931050084
 30
0.0
 10
377.2629321777739
 20
292.7984809622041
 30
0.0
 10
377.2418204005723
 20
292.8047526102338
 30
0.0
 10
377.1372255629919
 20
292.8377281610783
 30
0.0
 10
377.0561974805416
 20
292.8693443529432
 30
0.0
 10
376.8985268982061
 20
292.9426775659941
 30
0.0
 10
376.8218940761257
 20
292.9843944571156
 30
0.0
 10
376.7285403757905
 20
293.0431615114698
 30
0.0
 10
376.709992100463
 20
293.0552481962152
 30
0.0
 10
376.6731343744242
 20
293.0801055119647
 30
0.0
 10
376.6547847984435
 20
293.0929056516516
 30
0.0
 10
376.600435246464
 20
293.1321094628545
 30
0.0
 10
376.5651500256372
 20
293.1592948307935
 30
0.0
 10
376.5307997314995
 20
293.1874886023028
 30
0.0
  0
SPLINE
  5
1C2
330
1F
100
AcDbEntity
  8
1
100
AcDbSpline
210
0.0
220
0.0
230
1.0
 70
    12
 71
     2
 72
     6
 73
     3
 74
     0
 42
0.000000001
 43
0.0000000001
 40
0.0
 40
0.0
 40
0.0
 40
1.0
 40
1.0
 40
1.0
 10
375.9598325735083
 20
302.8241570991288
 30
0.0
 41
0.5000000747953133
 10
376.0720561690903
 20
302.8239430401815
 30
0.0
 41
0.4999999252046868
 10
376.1842783721669
 20
302.8237284363296
 30
0.0
 41
0.5000000747953133
  0
SPLINE
  5
1C3
330
1F
100
AcDbEntity
  8
1
100
AcDbSpline
210
0.0
220
0.0
230
1.0
 70
     8
 71
     3
 72
    10
 73
     6
 74
     0
 42
0.000000001
 43
0.0000000001
 40
0.0
 40
0.0
 40
0.0
 40
0.0
 40
0.5
 40
0.5
 40
1.0
 40
1.0
 40
1.0
 40
1.0
 10
374.9364801492252
 20
298.3413119329441
 30
0.0
 10
374.9295165984691
 20
299.0828358951995
 30
0.0
 10
374.9234660424932
 20
299.8243668513167
 30
0.0
 10
374.9126161082655
 20
301.3074363532929
 30
0.0
 10
374.9078209413055
 20
302.0489745734638
 30
0.0
 10
374.9034760688298
 20
302.790515274031
 30
0.0
  0
SPLINE
  5
1C4
330
1F
100
AcDbEntity
  8
1
100
AcDbSpline
210
0.0
220
0.0
230
1.0
 70
    12
 71
     2
 72
     6
 73
     3
 74
     0
 42
0.000000001
 43
0.0000000001
 40
0.0
 40
0.0
 40
0.0
 40
1.0
 40
1.0
 40
1.0
 10
374.9034760687576
 20
302.7905152740116
 30
0.0
 41
0.5000000351264078
 10
375.4294185324702
 20
302.7893271468905
 30
0.0
 41
0.4999999648735923
 10
375.9553160789758
 20
302.7881270551929
 30
0.0
 41
0.5000000351264078
  0
SPLINE
  5
1C5
330
1F
100
AcDbEntity
  8
1
100
AcDbSpline
210
0.0
220
0.0
230
1.0
 70
    28
 71
     4
 72
    13
 73
     8
 74
     0
 42
0.000000001
 43
0.0000000001
 40
0.0
 40
0.0
 40
0.0
 40
0.0
 40
0.0
 40
0.4289701960038397
 40
0.4289701960038397
 40
0.4289701960038397
 40
1.0
 40
1.0
 40
1.0
 40
1.0
 40
1.0
 10
297.9048419452957
 20
284.0919912997326
 30
0.0
 41
0.9970689264163359
 10
297.9048419452957
 20
283.1732821557266
 30
0.0
 41
0.9970689264163359
 10
297.9048419452957
 20
282.1588693565295
 30
0.0
 41
0.9985670306924308
 10
297.9048419452957
 20
281.1111536471068
 30
0.0
 41
1.00156323924462
 10
297.9048419452957
 20
278.7803444103097
 30
0.0
 41
1.00156323924462
 10
297.9048419452959
 20
277.35047123711
 30
0.0
 41
0.9962539626276354
 10
297.9048419452959
 20
276.0216163431549
 30
0.0
 41
0.9962366885065316
 10
297.9048419452957
 20
274.9217585205664
 30
0.0
 41
0.9980006518700783
  0
SPLINE
  5
1C6
330
1F
100
AcDbEntity
  8
1
100
AcDbSpline
210
0.0
220
0.0
230
1.0
 70
     8
 71
     3
 72
     8
 73
     4
 74
     0
 42
0.000000001
 43
0.0000000001
 40
0.0
 40
0.0
 40
0.0
 40
0.0
 40
1.0
 40
1.0
 40
1.0
 40
1.0
 10
372.6344032689826
 20
293.7139816320524
 30
0.0
 10
372.3775076349036
 20
293.8459507261347
 30
0.0
 10
372.1235200768847
 20
293.9871014283104
 30
0.0
 10
371.8721819346808
 20
294.1379298905985
 30
0.0
  0
SPLINE
  5
1C7
330
1F
100
AcDbEntity
  8
1
100
AcDbSpline
210
0.0
220
0.0
230
1.0
 70
     8
 71
     3
 72
    37
 73
    33
 74
     0
 42
0.000000001
 43
0.0000000001
 40
0.0
 40
0.0
 40
0.0
 40
0.0
 40
0.1250000000000109
 40
0.1250000000000109
 40
0.2500000000000218
 40
0.2500000000000218
 40
0.3750000000000328
 40
0.3750000000000328
 40
0.406250000000034
 40
0.406250000000034
 40
0.4375000000000352
 40
0.4375000000000352
 40
0.5000000000000309
 40
0.5000000000000309
 40
0.5625000000000266
 40
0.5625000000000266
 40
0.6250000000000222
 40
0.6250000000000222
 40
0.6875000000000179
 40
0.6875000000000179
 40
0.7500000000000135
 40
0.7500000000000135
 40
0.8125000000000092
 40
0.8125000000000092
 40
0.8437500000000071
 40
0.8437500000000071
 40
0.8593750000000069
 40
0.8593750000000069
 40
0.8750000000000067
 40
0.9375000000000033
 40
0.9375000000000033
 40
1.0
 40
1.0
 40
1.0
 40
1.0
 10
371.661612927365
 20
294.8700236508684
 30
0.0
 10
371.8527412430213
 20
294.953352023888
 30
0.0
 10
372.0412729874015
 20
295.0417369765117
 30
0.0
 10
372.4122746082593
 20
295.2303118023017
 30
0.0
 10
372.5947511338502
 20
295.330488726942
 30
0.0
 10
372.9524142075982
 20
295.5450391251659
 30
0.0
 10
373.1276147010204
 20
295.6593854416503
 30
0.0
 10
373.3408825655701
 20
295.8134823358172
 30
0.0
 10
373.383290844265
 20
295.8448978942042
 30
0.0
 10
373.4672697874824
 20
295.9087657763629
 30
0.0
 10
373.5088035265583
 20
295.9411881876395
 30
0.0
 10
373.6319662974121
 20
296.0399971990108
 30
0.0
 10
373.7121605692871
 20
296.1079216253568
 30
0.0
 10
373.8682640444022
 20
296.2483633656979
 30
0.0
 10
373.9441749804068
 20
296.3208788224542
 30
0.0
 10
374.0911194955876
 20
296.4711374589851
 30
0.0
 10
374.1621559658237
 20
296.5488775400193
 30
0.0
 10
374.2985544475071
 20
296.7104397870914
 30
0.0
 10
374.3631381890871
 20
296.7933497520832
 30
0.0
 10
374.4842483888917
 20
296.963874927927
 30
0.0
 10
374.5407817835129
 20
297.0514921048399
 30
0.0
 10
374.6447252471588
 20
297.2320678948258
 30
0.0
 10
374.6921413379504
 20
297.3250229823331
 30
0.0
 10
374.7553113746505
 20
297.4691125025944
 30
0.0
 10
374.7750386418534
 20
297.5179206737445
 30
0.0
 10
374.8024524740745
 20
297.592407539463
 30
0.0
 10
374.8112429516127
 20
297.6174978626407
 30
0.0
 10
374.8279736830088
 20
297.6678521709142
 30
0.0
 10
374.8676607110362
 20
297.7941080869929
 30
0.0
 10
374.8965354974396
 20
297.9222343183254
 30
0.0
 10
374.9279374274936
 20
298.1297960182271
 30
0.0
 10
374.936243080322
 20
298.234856118651
 30
0.0
 10
374.9364801492252
 20
298.3413119329441
 30
0.0
  0
SPLINE
  5
1C8
330
1F
100
AcDbEntity
  8
1
100
AcDbSpline
210
0.0
220
0.0
230
1.0
 70
    12
 71
     3
 72
     9
 73
     5
 74
     0
 42
0.000000001
 43
0.0000000001
 40
0.0
 40
0.0
 40
0.0
 40
0.0
 40
0.218575129953303
 40
1.0
 40
1.0
 40
1.0
 40
1.0
 10
352.635289990589
 20
297.997602169488
 30
0.0
 41
1.001651080967427
 10
354.2599243251761
 20
297.9554245888576
 30
0.0
 41
1.001842822938338
 10
361.6926138669448
 20
297.7105404917672
 30
0.0
 41
1.002541463324078
 10
369.2566933927051
 20
297.4682562529967
 30
0.0
 41
1.000233414201271
 10
374.9364801492255
 20
298.3413119329441
 30
0.0
 41
1.001090676531247
  0
SPLINE
  5
1C9
330
1F
100
AcDbEntity
  8
1
100
AcDbSpline
210
0.0
220
0.0
230
1.0
 70
     8
 71
     3
 72
    10
 73
     6
 74
     0
 42
0.000000001
 43
0.0000000001
 40
0.0
 40
0.0
 40
0.0
 40
0.0
 40
0.5
 40
0.5
 40
1.0
 40
1.0
 40
1.0
 40
1.0
 10
289.0554686411282
 20
286.0281602507571
 30
0.0
 10
289.5695344380237
 20
285.998791862724
 30
0.0
 10
290.0907173078272
 20
285.952511669151
 30
0.0
 10
291.1471706967745
 20
285.8259195069137
 30
0.0
 10
291.6754675098662
 20
285.7464528959492
 30
0.0
 10
292.2038318185191
 20
285.6514206759131
 30
0.0
  0
SPLINE
  5
1CA
330
1F
100
AcDbEntity
  8
1
100
AcDbSpline
210
0.0
220
0.0
230
1.0
 70
     8
 71
     3
 72
    16
 73
    12
 74
     0
 42
0.000000001
 43
0.0000000001
 40
0.0
 40
0.0
 40
0.0
 40
0.0
 40
0.1250000000000002
 40
0.1250000000000002
 40
0.2500000000000003
 40
0.2500000000000003
 40
0.5000000000000002
 40
0.5000000000000002
 40
0.7500000000000001
 40
0.7500000000000001
 40
1.0
 40
1.0
 40
1.0
 40
1.0
 10
279.4048419452957
 20
271.9861532710333
 30
0.0
 10
279.5175353786863
 20
271.9880816783339
 30
0.0
 10
279.6316390722539
 20
271.9951652814835
 30
0.0
 10
279.8623373594452
 20
272.018428519228
 30
0.0
 10
279.9789324395779
 20
272.0346102435595
 30
0.0
 10
280.3320063692251
 20
272.0952786522973
 30
0.0
 10
280.5717690919029
 20
272.1518365217869
 30
0.0
 10
281.0578566445112
 20
272.2906589872934
 30
0.0
 10
281.3041832725048
 20
272.3729397582972
 30
0.0
 10
281.8013494901571
 20
272.5582448453838
 30
0.0
 10
282.0521851767764
 20
272.6612708454456
 30
0.0
 10
282.3043368819074
 20
272.7728081097622
 30
0.0
  0
SPLINE
  5
1CB
330
1F
100
AcDbEntity
  8
1
100
AcDbSpline
210
0.0
220
0.0
230
1.0
 70
     8
 71
     3
 72
    30
 73
    26
 74
     0
 42
0.000000001
 43
0.0000000001
 40
0.0
 40
0.0
 40
0.0
 40
0.0
 40
0.125000000000001
 40
0.125000000000001
 40
0.2500000000000019
 40
0.2500000000000019
 40
0.3125000000000024
 40
0.3125000000000024
 40
0.3281250000000024
 40
0.3281250000000024
 40
0.3437500000000024
 40
0.375000000000002
 40
0.375000000000002
 40
0.5000000000000023
 40
0.5000000000000023
 40
0.6250000000000027
 40
0.6250000000000027
 40
0.6562500000000026
 40
0.6562500000000026
 40
0.6875000000000025
 40
0.7500000000000017
 40
0.7500000000000017
 40
0.8750000000000008
 40
0.8750000000000008
 40
1.0
 40
1.0
 40
1.0
 40
1.0
 10
276.9908087286417
 20
277.1672991105644
 30
0.0
 10
276.9373782392609
 20
276.8952303822479
 30
0.0
 10
276.905379723063
 20
276.6278412021192
 30
0.0
 10
276.8820872366914
 20
276.102374390392
 30
0.0
 10
276.8908023124741
 20
275.8442967748944
 30
0.0
 10
276.9343301830053
 20
275.4641742295719
 30
0.0
 10
276.9539303395674
 20
275.3386328362645
 30
0.0
 10
276.9849001420487
 20
275.1831684050041
 30
0.0
 10
276.9914242789702
 20
275.1521210748375
 30
0.0
 10
277.0050811359848
 20
275.0903616522454
 30
0.0
 10
277.0264829393374
 20
274.9981972838063
 30
0.0
 10
277.0506067476791
 20
274.9074388849142
 30
0.0
 10
277.1369658872525
 20
274.6079609225997
 30
0.0
 10
277.2250099081496
 20
274.378114918609
 30
0.0
 10
277.4376063681199
 20
273.9364061910484
 30
0.0
 10
277.5621643134775
 20
273.7245483591264
 30
0.0
 10
277.7408744263764
 20
273.4703608843764
 30
0.0
 10
277.7778317582381
 20
273.4199804449277
 30
0.0
 10
277.853636363513
 20
273.320835952309
 30
0.0
 10
277.9702486346417
 20
273.1744245878866
 30
0.0
 10
278.0954199265553
 20
273.0346977544528
 30
0.0
 10
278.3568919723721
 20
272.7636369397792
 30
0.0
 10
278.5460061247599
 20
272.5940958304119
 30
0.0
 10
278.9533674856949
 20
272.2752653224688
 30
0.0
 10
279.1716140572347
 20
272.125980697368
 30
0.0
 10
279.4048419452957
 20
271.9861532710333
 30
0.0
  0
SPLINE
  5
1CC
330
1F
100
AcDbEntity
  8
1
100
AcDbSpline
210
0.0
220
0.0
230
1.0
 70
     8
 71
     3
 72
    64
 73
    60
 74
     0
 42
0.000000001
 43
0.0000000001
 40
0.0
 40
0.0
 40
0.0
 40
0.0
 40
0.0625000000000001
 40
0.0625000000000001
 40
0.1250000000000002
 40
0.1250000000000002
 40
0.1875000000000002
 40
0.1875000000000002
 40
0.2187500000000003
 40
0.2187500000000003
 40
0.2500000000000003
 40
0.2500000000000003
 40
0.3125000000000005
 40
0.3125000000000005
 40
0.3750000000000008
 40
0.3750000000000008
 40
0.4062500000000008
 40
0.4062500000000008
 40
0.4218750000000008
 40
0.4218750000000008
 40
0.4375000000000008
 40
0.4375000000000008
 40
0.4687500000000011
 40
0.4687500000000011
 40
0.4843750000000011
 40
0.4843750000000011
 40
0.5000000000000011
 40
0.5000000000000011
 40
0.5312500000000011
 40
0.5312500000000011
 40
0.5468750000000011
 40
0.5468750000000011
 40
0.5625000000000011
 40
0.5625000000000011
 40
0.5937500000000011
 40
0.5937500000000011
 40
0.625000000000001
 40
0.625000000000001
 40
0.656250000000001
 40
0.656250000000001
 40
0.6875000000000009
 40
0.6875000000000009
 40
0.703125000000001
 40
0.703125000000001
 40
0.718750000000001
 40
0.718750000000001
 40
0.7500000000000009
 40
0.7500000000000009
 40
0.8125000000000003
 40
0.8125000000000003
 40
0.8437500000000003
 40
0.8437500000000003
 40
0.8750000000000003
 40
0.9062500000000001
 40
0.9375000000000001
 40
0.9375000000000001
 40
0.96875
 40
0.96875
 40
1.0
 40
1.0
 40
1.0
 40
1.0
 10
297.9048419452957
 20
284.6470073036186
 30
0.0
 10
299.4288481590793
 20
284.3591138130458
 30
0.0
 10
300.9511205685614
 20
284.0678190135006
 30
0.0
 10
303.9920108176883
 20
283.4788437440177
 30
0.0
 10
305.5106266134874
 20
283.1811527010799
 30
0.0
 10
308.5440267247745
 20
282.5801082594313
 30
0.0
 10
310.0588074082815
 20
282.2767390873877
 30
0.0
 10
312.3280440579502
 20
281.8185168521362
 30
0.0
 10
313.0839683164276
 20
281.6652551723497
 30
0.0
 10
314.5948510742333
 20
281.3579825512915
 30
0.0
 10
315.3499213415724
 20
281.2039481191694
 30
0.0
 10
317.6123523039706
 20
280.7415818621024
 30
0.0
 10
319.1172023980166
 20
280.432869084015
 30
0.0
 10
322.1203206387932
 20
279.8190090287463
 30
0.0
 10
323.6185824431643
 20
279.5138599617009
 30
0.0
 10
325.861727955506
 20
279.0636405244551
 30
0.0
 10
326.6087408931674
 20
278.9148336024027
 30
0.0
 10
327.7283488565583
 20
278.6942550443912
 30
0.0
 10
328.1013989178583
 20
278.6211656188224
 30
0.0
 10
328.8472292353026
 20
278.4760085055022
 30
0.0
 10
329.2200166716096
 20
278.4039598415088
 30
0.0
 10
330.3382180416769
 20
278.1900175100914
 30
0.0
 10
331.0834775902363
 20
278.0503566617244
 30
0.0
 10
332.2018296291104
 20
277.8472318241814
 30
0.0
 10
332.5746567800822
 20
277.7805833047958
 30
0.0
 10
333.3203031081397
 20
277.6496734021927
 30
0.0
 10
333.6931520251809
 20
277.5854064333373
 30
0.0
 10
334.8119256784114
 20
277.3964356958487
 30
0.0
 10
335.5580822287222
 20
277.2755823716165
 30
0.0
 10
336.678283560167
 20
277.1026456612203
 30
0.0
 10
337.051843809651
 20
277.0463852573566
 30
0.0
 10
337.7993546577794
 20
276.9366880270486
 30
0.0
 10
338.1733117295415
 20
276.8832631513787
 30
0.0
 10
339.2958037898123
 20
276.7271478463659
 30
0.0
 10
340.0449299221426
 20
276.628552928035
 30
0.0
 10
341.5445541410625
 20
276.4412766645817
 30
0.0
 10
342.2950530939543
 20
276.3525999447264
 30
0.0
 10
343.7973103332184
 20
276.1844606206274
 30
0.0
 10
344.5490694602688
 20
276.1050016059291
 30
0.0
 10
346.0538183450498
 20
275.9548144867117
 30
0.0
 10
346.8068087991333
 20
275.8840889809365
 30
0.0
 10
347.9372412736012
 20
275.7842793087373
 30
0.0
 10
348.3142103043484
 20
275.7520565810119
 30
0.0
 10
349.0684727874585
 20
275.6896662621458
 30
0.0
 10
349.4457624613373
 20
275.6594992662813
 30
0.0
 10
350.5777274573144
 20
275.5720554989145
 30
0.0
 10
351.3326341673445
 20
275.5178244485131
 30
0.0
 10
353.5983266217662
 20
275.3668565872455
 30
0.0
 10
355.1100707075273
 20
275.2818613229708
 30
0.0
 10
357.380572388087
 20
275.1758409810445
 30
0.0
 10
358.1379228030651
 20
275.1440984912665
 30
0.0
 10
359.6535495566778
 20
275.0871880868215
 30
0.0
 10
361.1700722857739
 20
275.0368223955566
 30
0.0
 10
363.4467938208923
 20
274.9792125797385
 30
0.0
 10
364.9653229492679
 20
274.9519771970649
 30
0.0
 10
366.483885547808
 20
274.9301260838357
 30
0.0
 10
367.2431834008602
 20
274.9218921515268
 30
0.0
 10
368.7614597150542
 20
274.9108263607634
 30
0.0
 10
369.5204378342381
 20
274.9079935137005
 30
0.0
 10
370.279069716033
 20
274.9079935137005
 30
0.0
  0
SPLINE
  5
1CD
330
1F
100
AcDbEntity
  8
1
100
AcDbSpline
210
0.0
220
0.0
230
1.0
 70
     8
 71
     3
 72
    62
 73
    58
 74
     0
 42
0.000000001
 43
0.0000000001
 40
0.0
 40
0.0
 40
0.0
 40
0.0
 40
0.0311586271127933
 40
0.0311586271127933
 40
0.0657601047159077
 40
0.0657601047159077
 40
0.1003615823190221
 40
0.1003615823190221
 40
0.1695645375252512
 40
0.1695645375252512
 40
0.2387674927314805
 40
0.2387674927314805
 40
0.2733689703345951
 40
0.2733689703345951
 40
0.3079704479377096
 40
0.3079704479377096
 40
0.3425719255408242
 40
0.3425719255408242
 40
0.3771734031439388
 40
0.3771734031439388
 40
0.4117748807470534
 40
0.4117748807470534
 40
0.446376358350168
 40
0.446376358350168
 40
0.4809778359532827
 40
0.4809778359532827
 40
0.5155793135563972
 40
0.5155793135563972
 40
0.5501807911595117
 40
0.5501807911595117
 40
0.5847822687626263
 40
0.5847822687626263
 40
0.6193837463657408
 40
0.6193837463657408
 40
0.6539852239688554
 40
0.6539852239688554
 40
0.6885867015719699
 40
0.6885867015719699
 40
0.7231881791750843
 40
0.7231881791750843
 40
0.7577896567781989
 40
0.7577896567781989
 40
0.7923911343813134
 40
0.7923911343813134
 40
0.8269926119844278
 40
0.8269926119844278
 40
0.8615940895875425
 40
0.8615940895875425
 40
0.8961955671906569
 40
0.8961955671906569
 40
0.9307970447937716
 40
0.9307970447937716
 40
0.9653985223968859
 40
0.9653985223968859
 40
0.9826992611984431
 40
0.9826992611984431
 40
1.0
 40
1.0
 40
1.0
 40
1.0
 10
304.6339666865409
 20
302.907984493856
 30
0.0
 10
305.2832028921073
 20
302.9080639960413
 30
0.0
 10
305.9317987839812
 20
302.90611359765
 30
0.0
 10
307.2994392283927
 20
302.897125422536
 30
0.0
 10
308.0183524132053
 20
302.8895553554703
 30
0.0
 10
309.4549768046963
 20
302.8680818650712
 30
0.0
 10
310.1727016652085
 20
302.8541761285075
 30
0.0
 10
312.3234668999098
 20
302.8021764005865
 30
0.0
 10
313.7544166322616
 20
302.7537105069013
 30
0.0
 10
316.6130460388516
 20
302.6267743201332
 30
0.0
 10
318.0407420509278
 20
302.5483018576887
 30
0.0
 10
320.181894858062
 20
302.4083490423217
 30
0.0
 10
320.8956059448527
 20
302.3580083128084
 30
0.0
 10
322.3228963953988
 20
302.2502525470184
 30
0.0
 10
323.0364508837715
 20
302.1928417760662
 30
0.0
 10
324.4636603122131
 20
302.0713391843493
 30
0.0
 10
325.1773156659269
 20
302.0072491348561
 30
0.0
 10
326.6049597284012
 20
301.8728271512281
 30
0.0
 10
327.3189486255118
 20
301.8024968861547
 30
0.0
 10
328.7474332657124
 20
301.6560321664701
 30
0.0
 10
329.461956159634
 20
301.5799558530568
 30
0.0
 10
330.8910689599734
 20
301.4214056841417
 30
0.0
 10
331.6056526090395
 20
301.3389158590514
 30
0.0
 10
333.0346095389828
 20
301.1669392469605
 30
0.0
 10
333.7488648534003
 20
301.0774634419058
 30
0.0
 10
335.1767097032573
 20
300.8913418104993
 30
0.0
 10
335.8903306921095
 20
300.7946914876746
 30
0.0
 10
337.3171372586261
 20
300.5943900915146
 30
0.0
 10
338.0303197519856
 20
300.4907287785798
 30
0.0
 10
339.4565918603236
 20
300.2770401120005
 30
0.0
 10
340.1697004298811
 20
300.1670542127218
 30
0.0
 10
341.5962311815809
 20
299.9416657789968
 30
0.0
 10
342.3096524491282
 20
299.8262639357159
 30
0.0
 10
343.7370406642202
 20
299.5907203185471
 30
0.0
 10
344.451044749464
 20
299.4705722105634
 30
0.0
 10
345.8792381568118
 20
299.2260868792912
 30
0.0
 10
346.5934812153692
 20
299.101740933658
 30
0.0
 10
348.0223029411728
 20
298.8490958051187
 30
0.0
 10
348.736881068548
 20
298.7207963015665
 30
0.0
 10
350.1663451050959
 20
298.4602837896066
 30
0.0
 10
350.8812306234877
 20
298.3280705748692
 30
0.0
 10
352.3112264743452
 20
298.0595665532628
 30
0.0
 10
353.0263366902978
 20
297.9232762110158
 30
0.0
 10
354.4566519110369
 20
297.646248381471
 30
0.0
 10
355.1719028965387
 20
297.5055033918825
 30
0.0
 10
356.6021047559522
 20
297.2190044295236
 30
0.0
 10
357.3169948578537
 20
297.0732863239988
 30
0.0
 10
358.7460516990623
 20
296.7758802303865
 30
0.0
 10
359.4601852794115
 20
296.6240910655472
 30
0.0
 10
360.8871925190026
 20
296.3126269968391
 30
0.0
 10
361.6000632056442
 20
296.1529392905558
 30
0.0
 10
363.0243425163648
 20
295.8246846203367
 30
0.0
 10
363.7357471109398
 20
295.6560994585888
 30
0.0
 10
364.8018895579554
 20
295.3967187352395
 30
0.0
 10
365.1571129889247
 20
295.3091858373976
 30
0.0
 10
365.8673137862574
 20
295.1321662608192
 30
0.0
 10
366.2223071351941
 20
295.0426747813131
 30
0.0
 10
366.5771759702169
 20
294.9523819016792
 30
0.0
  0
SPLINE
  5
1CE
330
1F
100
AcDbEntity
  8
1
100
AcDbSpline
210
0.0
220
0.0
230
1.0
 70
     8
 71
     3
 72
    41
 73
    37
 74
     0
 42
0.000000001
 43
0.0000000001
 40
0.0
 40
0.0
 40
0.0
 40
0.0
 40
0.061344047836165
 40
0.061344047836165
 40
0.1226880956723301
 40
0.1226880956723301
 40
0.1840321435084951
 40
0.1840321435084951
 40
0.2453761913446602
 40
0.2453761913446602
 40
0.3067202391808252
 40
0.3067202391808252
 40
0.3680642870169903
 40
0.3680642870169903
 40
0.4294083348531554
 40
0.4294083348531554
 40
0.4600803587712383
 40
0.4600803587712383
 40
0.4907523826893215
 40
0.4907523826893215
 40
0.6134404783616524
 40
0.6134404783616524
 40
0.6747845261978175
 40
0.6747845261978175
 40
0.7361285740339826
 40
0.7361285740339826
 40
0.7974726218701476
 40
0.7974726218701476
 40
0.8588166697063126
 40
0.8588166697063126
 40
0.9201607175424776
 40
0.9201607175424776
 40
0.9508327414605599
 40
0.9508327414605599
 40
0.9815047653786418
 40
1.0
 40
1.0
 40
1.0
 40
1.0
 10
374.9034760688299
 20
302.7905152740115
 30
0.0
 10
374.137365767187
 20
302.8302971902054
 30
0.0
 10
373.3669768884817
 20
302.8581778480826
 30
0.0
 10
371.8172558313152
 20
302.8954228735087
 30
0.0
 10
371.0379267002871
 20
302.9048001675567
 30
0.0
 10
369.4705384582032
 20
302.9098020332357
 30
0.0
 10
368.6824817928042
 20
302.9054343456845
 30
0.0
 10
367.0983623021143
 20
302.8868446233078
 30
0.0
 10
366.3023016267426
 20
302.8726266804978
 30
0.0
 10
364.7033405912763
 20
302.8371976270855
 30
0.0
 10
363.9004423042975
 20
302.815988127784
 30
0.0
 10
362.2893526518224
 20
302.7683189042594
 30
0.0
 10
361.4821660128982
 20
302.7418898396912
 30
0.0
 10
359.8658832766088
 20
302.6844573646163
 30
0.0
 10
359.0567577019041
 20
302.6534525498415
 30
0.0
 10
357.8426322285849
 20
302.6031043910064
 30
0.0
 10
357.4378603440229
 20
302.5856639889513
 30
0.0
 10
356.6283194581765
 20
302.5493541052559
 30
0.0
 10
356.2235385147604
 20
302.5304956931066
 30
0.0
 10
354.1996388396547
 20
302.4326302652311
 30
0.0
 10
352.580548028765
 20
302.342975395599
 30
0.0
 10
350.1530037472177
 20
302.1893727685657
 30
0.0
 10
349.3439595203189
 20
302.1349680808068
 30
0.0
 10
347.7265526562298
 20
302.0192942090844
 30
0.0
 10
346.9182600218844
 20
301.9580310187135
 30
0.0
 10
345.3026275690123
 20
301.8281103086033
 30
0.0
 10
344.4952865383513
 20
301.7594552304532
 30
0.0
 10
342.8816932758932
 20
301.6140945224227
 30
0.0
 10
342.0754393812314
 20
301.5373935707756
 30
0.0
 10
340.4642060718274
 20
301.3750639835313
 30
0.0
 10
339.6592247381102
 20
301.2894425221453
 30
0.0
 10
338.4529260801607
 20
301.1533582765248
 30
0.0
 10
338.0510264062546
 20
301.1067103963683
 30
0.0
 10
337.2476549298714
 20
301.0106740780118
 30
0.0
 10
336.6040850001966
 20
300.9315261147715
 30
0.0
 10
335.9609963948464
 20
300.8488688430035
 30
0.0
 10
335.7191493411003
 20
300.8172787682811
 30
0.0
  0
SPLINE
  5
1CF
330
1F
100
AcDbEntity
  8
1
100
AcDbSpline
210
0.0
220
0.0
230
1.0
 70
     8
 71
     3
 72
    37
 73
    33
 74
     0
 42
0.000000001
 43
0.0000000001
 40
0.0
 40
0.0
 40
0.0
 40
0.0
 40
0.0624999999999994
 40
0.0624999999999994
 40
0.1249999999999989
 40
0.1249999999999989
 40
0.1874999999999983
 40
0.1874999999999983
 40
0.2499999999999978
 40
0.2499999999999978
 40
0.2812499999999975
 40
0.2968749999999975
 40
0.2968749999999975
 40
0.3124999999999976
 40
0.3124999999999976
 40
0.3749999999999977
 40
0.3749999999999977
 40
0.4374999999999979
 40
0.4374999999999979
 40
0.4999999999999982
 40
0.4999999999999982
 40
0.6249999999999979
 40
0.6249999999999979
 40
0.7499999999999979
 40
0.7499999999999979
 40
0.812499999999998
 40
0.812499999999998
 40
0.8437499999999982
 40
0.8437499999999982
 40
0.8749999999999984
 40
0.8749999999999984
 40
1.0
 40
1.0
 40
1.0
 40
1.0
 10
292.2038318185191
 20
274.9313760177798
 30
0.0
 10
291.9464977591338
 20
274.935909092183
 30
0.0
 10
291.6930746813288
 20
274.9344497147307
 30
0.0
 10
291.1931742976267
 20
274.9212990517141
 30
0.0
 10
290.946698541769
 20
274.9096060624568
 30
0.0
 10
290.4599914467507
 20
274.8774346287457
 30
0.0
 10
290.2197610393291
 20
274.8569549172072
 30
0.0
 10
289.7449771326158
 20
274.8083981699543
 30
0.0
 10
289.5104241864943
 20
274.7803200596856
 30
0.0
 10
289.1625111306662
 20
274.7332279825011
 30
0.0
 10
288.9895349403452
 20
274.708435737217
 30
0.0
 10
288.8179758641422
 20
274.6818891030532
 30
0.0
 10
288.7039128351556
 20
274.66381291967
 30
0.0
 10
288.6470134535248
 20
274.6545817180888
 30
0.0
 10
288.3638994506123
 20
274.607612599299
 30
0.0
 10
288.1413932808047
 20
274.5673780787538
 30
0.0
 10
287.7036060040699
 20
274.4823475255022
 30
0.0
 10
287.4883264072046
 20
274.4375495945836
 30
0.0
 10
287.0644512817449
 20
274.3439677149018
 30
0.0
 10
286.8558568892301
 20
274.2951823000634
 30
0.0
 10
286.2395296388791
 20
274.1435204203041
 30
0.0
 10
285.8412018337672
 20
274.0353639010652
 30
0.0
 10
285.0680907438404
 20
273.807615604921
 30
0.0
 10
284.6933258346655
 20
273.6880022009386
 30
0.0
 10
284.1487554592432
 20
273.5015313575364
 30
0.0
 10
283.9701708451889
 20
273.4381967886803
 30
0.0
 10
283.7067612376067
 20
273.3416139536848
 30
0.0
 10
283.6197030317434
 20
273.3091561826405
 30
0.0
 10
283.4470914609765
 20
273.2437450380988
 30
0.0
 10
283.3615071532967
 20
273.2107790804042
 30
0.0
 10
282.9382573660604
 20
273.0451335597828
 30
0.0
 10
282.6139738910589
 20
272.909773532677
 30
0.0
 10
282.3043368819074
 20
272.7728081097622
 30
0.0
  0
LINE
  5
1EB
330
1F
100
AcDbEntity
  8
4
100
AcDbLine
 10
269.203832
 20
288.907994
 30
0.0
 11
390.332271
 21
288.907994
 31
0.0
  0
LINE
  5
1EC
330
1F
100
AcDbEntity
  8
SK4
100
AcDbLine
 10
210.904842
 20
288.907994
 30
0.0
 11
277.404842
 21
288.907994
 31
0.0
  0
MTEXT
  5
1F2
330
1F
100
AcDbEntity
  8
SK6
100
AcDbMText
 10
258.520787
 20
241.27662
 30
0.0
 40
3.5
 41
0.0
 71
     7
 72
     5
  1
\W0.7022;803D-29-87-S32
  7
cesky
 73
     2
 44
0.8433729999999998
  0
MTEXT
  5
303
330
1F
100
AcDbEntity
  8
2
100
AcDbMText
 10
297.327842
 20
340.562135
 30
0.0
 40
3.5
 41
0.0
 71
     7
 72
     5
  1
\W0.7809;172
  7
cesky
 73
     2
 44
0.8433729999999998
  0
LINE
  5
304
330
1F
100
AcDbEntity
  8
2
100
AcDbLine
 10
386.404842
 20
305.407994
 30
0.0
 11
386.404842
 21
341.687968
 31
0.0
  0
LINE
  5
305
330
1F
100
AcDbEntity
  8
2
100
AcDbLine
 10
214.404842
 20
302.907994
 30
0.0
 11
214.404842
 21
341.687968
 31
0.0
  0
LINE
  5
306
330
1F
100
AcDbEntity
  8
2
100
AcDbLine
 10
386.404842
 20
340.687968
 30
0.0
 11
214.404842
 21
340.687968
 31
0.0
  0
SOLID
  5
307
330
1F
100
AcDbEntity
  8
2
100
AcDbTrace
 10
386.404842
 20
340.687968
 30
0.0
 11
382.904844
 21
340.070823
 31
0.0
 12
382.90484
 22
341.305112
 32
0.0
 13
382.90484
 23
341.305112
 33
0.0
  0
SOLID
  5
308
330
1F
100
AcDbEntity
  8
2
100
AcDbTrace
 10
214.404842
 20
340.687968
 30
0.0
 11
217.90484
 21
341.305112
 31
0.0
 12
217.904844
 22
340.070823
 32
0.0
 13
217.904844
 23
340.070823
 33
0.0
  0
MTEXT
  5
309
330
1F
100
AcDbEntity
  8
2
100
AcDbMText
 10
242.590342
 20
327.385163
 30
0.0
 40
3.5
 41
0.0
 71
     7
 72
     5
  1
\W0.7045;60
  7
cesky
 73
     2
 44
0.8433729999999998
  0
LINE
  5
30A
330
1F
100
AcDbEntity
  8
2
100
AcDbLine
 10
274.404842
 20
288.907994
 30
0.0
 11
274.404842
 21
328.5109970000001
 31
0.0
  0
LINE
  5
30B
330
1F
100
AcDbEntity
  8
2
100
AcDbLine
 10
214.404842
 20
302.907994
 30
0.0
 11
214.404842
 21
328.5109970000001
 31
0.0
  0
LINE
  5
30C
330
1F
100
AcDbEntity
  8
2
100
AcDbLine
 10
274.404842
 20
327.510997
 30
0.0
 11
214.404842
 21
327.510997
 31
0.0
  0
SOLID
  5
30D
330
1F
100
AcDbEntity
  8
2
100
AcDbTrace
 10
274.404842
 20
327.510997
 30
0.0
 11
270.904844
 21
326.893852
 31
0.0
 12
270.90484
 22
328.128141
 32
0.0
 13
270.90484
 23
328.128141
 33
0.0
  0
SOLID
  5
30E
330
1F
100
AcDbEntity
  8
2
100
AcDbTrace
 10
214.404842
 20
327.510997
 30
0.0
 11
217.90484
 21
328.128141
 31
0.0
 12
217.904844
 22
326.893852
 32
0.0
 13
217.904844
 23
326.893852
 33
0.0
  0
MTEXT
  5
30F
330
1F
100
AcDbEntity
  8
2
100
AcDbMText
 10
336.589622
 20
316.149515
 30
0.0
 40
3.5
 41
0.0
 71
     7
 72
     5
  1
\W0.7259;96
  7
cesky
 73
     2
 44
0.8433729999999998
  0
LINE
  5
310
330
1F
100
AcDbEntity
  8
2
100
AcDbLine
 10
386.404842
 20
305.407994
 30
0.0
 11
386.404842
 21
317.275348
 31
0.0
  0
LINE
  5
311
330
1F
100
AcDbEntity
  8
2
100
AcDbLine
 10
290.403402
 20
303.591229
 30
0.0
 11
290.403402
 21
317.275348
 31
0.0
  0
LINE
  5
312
330
1F
100
AcDbEntity
  8
2
100
AcDbLine
 10
386.404842
 20
316.275348
 30
0.0
 11
290.403402
 21
316.275348
 31
0.0
  0
SOLID
  5
313
330
1F
100
AcDbEntity
  8
2
100
AcDbTrace
 10
386.404842
 20
316.275348
 30
0.0
 11
382.904844
 21
315.658204
 31
0.0
 12
382.90484
 22
316.892492
 32
0.0
 13
382.90484
 23
316.892492
 33
0.0
  0
SOLID
  5
314
330
1F
100
AcDbEntity
  8
2
100
AcDbTrace
 10
290.403402
 20
316.275348
 30
0.0
 11
293.9034
 21
316.892492
 31
0.0
 12
293.903404
 22
315.658204
 32
0.0
 13
293.903404
 23
315.658204
 33
0.0
  0
MTEXT
  5
315
330
1F
100
AcDbEntity
  8
2
100
AcDbMText
 10
327.327842
 20
327.385163
 30
0.0
 40
3.5
 41
0.0
 71
     7
 72
     5
  1
\W0.8488;112
  7
cesky
 73
     2
 44
0.8433729999999998
  0
LINE
  5
316
330
1F
100
AcDbEntity
  8
2
100
AcDbLine
 10
386.404842
 20
303.407994
 30
0.0
 11
386.404842
 21
328.5109970000001
 31
0.0
  0
LINE
  5
317
330
1F
100
AcDbEntity
  8
2
100
AcDbLine
 10
274.404842
 20
289.907567
 30
0.0
 11
274.404842
 21
328.5109970000001
 31
0.0
  0
LINE
  5
318
330
1F
100
AcDbEntity
  8
2
100
AcDbLine
 10
386.404842
 20
327.510997
 30
0.0
 11
274.404842
 21
327.510997
 31
0.0
  0
SOLID
  5
319
330
1F
100
AcDbEntity
  8
2
100
AcDbTrace
 10
386.404842
 20
327.510997
 30
0.0
 11
382.904844
 21
326.893852
 31
0.0
 12
382.90484
 22
328.128141
 32
0.0
 13
382.90484
 23
328.128141
 33
0.0
  0
SOLID
  5
31A
330
1F
100
AcDbEntity
  8
2
100
AcDbTrace
 10
274.404842
 20
327.510997
 30
0.0
 11
277.90484
 21
328.128141
 31
0.0
 12
277.904844
 22
326.893852
 32
0.0
 13
277.904844
 23
326.893852
 33
0.0
  0
MTEXT
  5
31B
330
1F
100
AcDbEntity
  8
2
100
AcDbMText
 10
401.924633
 20
286.512996
 30
0.0
 40
3.5
 41
0.0
 71
     7
 72
     5
  1
\W0.7259;29
  7
cesky
 11
0.0000000000000001
 21
1.0
 31
0.0
 73
     2
 44
0.8433729999999998
  0
MTEXT
  5
31C
330
1F
100
AcDbEntity
  8
2
100
AcDbMText
 10
401.924633
 20
279.775496
 30
0.0
 40
3.5
 41
0.0
 71
     7
 72
     5
  1
\W3.0115;\H2.63;%%c\H3.50;
  7
cesky
 11
0.0000000000000001
 21
1.0
 31
0.0
 73
     2
 44
0.8433729999999998
  0
LINE
  5
31D
330
1F
100
AcDbEntity
  8
2
100
AcDbLine
 10
388.404842
 20
303.407994
 30
0.0
 11
403.112049
 21
303.407994
 31
0.0
  0
LINE
  5
31E
330
1F
100
AcDbEntity
  8
2
100
AcDbLine
 10
402.112049
 20
303.407994
 30
0.0
 11
402.112049
 21
279.617996
 31
0.0
  0
SOLID
  5
31F
330
1F
100
AcDbEntity
  8
2
100
AcDbTrace
 10
402.112049
 20
303.407994
 30
0.0
 11
402.729194
 21
299.9079959999999
 31
0.0
 12
401.4949049999999
 22
299.907991
 32
0.0
 13
401.4949049999999
 23
299.907991
 33
0.0
  0
MTEXT
  5
320
330
1F
100
AcDbEntity
  8
SK2
100
AcDbMText
 10
205.691127
 20
290.434244
 30
0.0
 40
3.5
 41
0.0
 71
     7
 72
     5
  1
\W0.7045;32
  7
cesky
 11
0.0000000000000001
 21
1.0
 31
0.0
 73
     2
 44
0.8433729999999998
  0
MTEXT
  5
321
330
1F
100
AcDbEntity
  8
SK2
100
AcDbMText
 10
205.691127
 20
283.696744
 30
0.0
 40
3.5
 41
0.0
 71
     7
 72
     5
  1
\W3.0115;\H2.63;%%c\H3.50;
  7
cesky
 11
0.0000000000000001
 21
1.0
 31
0.0
 73
     2
 44
0.8433729999999998
  0
LINE
  5
322
330
1F
100
AcDbEntity
  8
SK2
100
AcDbLine
 10
216.404842
 20
304.907994
 30
0.0
 11
204.878544
 21
304.907994
 31
0.0
  0
LINE
  5
323
330
1F
100
AcDbEntity
  8
SK2
100
AcDbLine
 10
216.404842
 20
272.907994
 30
0.0
 11
204.878544
 21
272.907994
 31
0.0
  0
LINE
  5
324
330
1F
100
AcDbEntity
  8
SK2
100
AcDbLine
 10
205.878544
 20
304.907994
 30
0.0
 11
205.878544
 21
272.907994
 31
0.0
  0
SOLID
  5
325
330
1F
100
AcDbEntity
  8
SK2
100
AcDbTrace
 10
205.878544
 20
304.907994
 30
0.0
 11
206.495689
 21
301.407996
 31
0.0
 12
205.2614
 22
301.407991
 32
0.0
 13
205.2614
 23
301.407991
 33
0.0
  0
SOLID
  5
326
330
1F
100
AcDbEntity
  8
SK2
100
AcDbTrace
 10
205.878544
 20
272.907994
 30
0.0
 11
205.2614
 21
276.407991
 31
0.0
 12
206.495689
 22
276.407996
 32
0.0
 13
206.495689
 23
276.407996
 33
0.0
  0
MTEXT
  5
327
330
1F
100
AcDbEntity
  8
SK2
100
AcDbMText
 10
193.332501
 20
290.434244
 30
0.0
 40
3.5
 41
0.0
 71
     7
 72
     5
  1
\W0.7045;42
  7
cesky
 11
0.0000000000000001
 21
1.0
 31
0.0
 73
     2
 44
0.8433729999999998
  0
MTEXT
  5
328
330
1F
100
AcDbEntity
  8
SK2
100
AcDbMText
 10
193.332501
 20
283.696744
 30
0.0
 40
3.5
 41
0.0
 71
     7
 72
     5
  1
\W3.0115;\H2.63;%%c\H3.50;
  7
cesky
 11
0.0000000000000001
 21
1.0
 31
0.0
 73
     2
 44
0.8433729999999998
  0
LINE
  5
329
330
1F
100
AcDbEntity
  8
SK2
100
AcDbLine
 10
274.904842
 20
309.907994
 30
0.0
 11
192.519918
 21
309.907994
 31
0.0
  0
LINE
  5
32A
330
1F
100
AcDbEntity
  8
SK2
100
AcDbLine
 10
274.904842
 20
267.907994
 30
0.0
 11
192.519918
 21
267.907994
 31
0.0
  0
LINE
  5
32B
330
1F
100
AcDbEntity
  8
SK2
100
AcDbLine
 10
193.519918
 20
309.907994
 30
0.0
 11
193.519918
 21
267.907994
 31
0.0
  0
SOLID
  5
32C
330
1F
100
AcDbEntity
  8
SK2
100
AcDbTrace
 10
193.519918
 20
309.907994
 30
0.0
 11
194.137062
 21
306.407996
 31
0.0
 12
192.902773
 22
306.407991
 32
0.0
 13
192.902773
 23
306.407991
 33
0.0
  0
SOLID
  5
32D
330
1F
100
AcDbEntity
  8
SK2
100
AcDbTrace
 10
193.519918
 20
267.907994
 30
0.0
 11
192.902773
 21
271.4079910000001
 31
0.0
 12
194.137062
 22
271.407996
 32
0.0
 13
194.137062
 23
271.407996
 33
0.0
  0
LINE
  5
32E
330
1F
100
AcDbEntity
  8
CUT
100
AcDbLine
 10
376.9237657281859
 20
303.0389373251474
 30
0.0
 11
384.8936032139827
 21
303.4041365154391
 31
0.0
  0
LINE
  5
32F
330
1F
100
AcDbEntity
  8
CUT
100
AcDbLine
 10
386.2974360653503
 20
295.9031859130247
 30
0.0
 11
386.4048419452958
 21
289.7551154040705
 31
0.0
  0
LINE
  5
331
330
1F
100
AcDbEntity
  8
CUT
100
AcDbLine
 10
385.9811632148159
 20
296.4295023054688
 30
0.0
 11
386.2974360653503
 21
295.9031859130247
 31
0.0
  0
LINE
  5
333
330
1F
100
AcDbEntity
  8
CUT
100
AcDbLine
 10
385.7002807888953
 20
302.6692898708586
 30
0.0
 11
385.9811632148159
 21
296.4295023054688
 31
0.0
  0
LINE
  5
334
330
1F
100
AcDbEntity
  8
CUT
100
AcDbLine
 10
386.404842
 20
289.755115
 30
0.0
 11
386.404842
 21
288.907994
 31
0.0
  0
LINE
  5
335
330
1F
100
AcDbEntity
  8
CUT
100
AcDbLine
 10
386.404842
 20
288.907994
 30
0.0
 11
376.186273
 21
288.907994
 31
0.0
  0
LINE
  5
336
330
1F
100
AcDbEntity
  8
CUT
100
AcDbLine
 10
376.186273
 20
288.907994
 30
0.0
 11
376.186273
 21
302.232832
 31
0.0
  0
ARC
  5
337
330
1F
100
AcDbEntity
  8
CUT
100
AcDbCircle
 10
384.9213021358859
 20
302.6237226790128
 30
0.0
 40
0.7809052351984284
100
AcDbArc
 50
7.499287090530401
 51
92.0327233366974
  0
ARC
  5
338
330
1F
100
AcDbEntity
  8
CUT
100
AcDbCircle
 10
384.979445249785
 20
302.6368684313685
 30
0.0
 40
0.7215642897089526
100
AcDbArc
 50
2.575289961716683
 51
7.066936670542327
  0
ARC
  5
339
330
1F
100
AcDbEntity
  8
CUT
100
AcDbCircle
 10
376.9682473845742
 20
302.25816944962
 30
0.0
 40
0.7823846081475026
100
AcDbArc
 50
96.02551198510461
 51
181.8558445015595
  0
ARC
  5
33A
330
1F
100
AcDbEntity
  8
CUT
100
AcDbCircle
 10
376.9569127114789
 20
302.3145003931376
 30
0.0
 40
0.7251948641303838
100
AcDbArc
 50
92.61977056898329
 51
95.60211361287288
  0
ENDSEC
  0
SECTION
  2
OBJECTS
  0
DICTIONARY
  5
C
330
0
100
AcDbDictionary
281
     1
  3
ACAD_CIP_PREVIOUS_PRODUCT_INFO
350
300
  3
ACAD_COLOR
350
2FB
  3
ACAD_DETAILVIEWSTYLE
350
2F7
  3
ACAD_GROUP
350
D
  3
ACAD_LAYOUT
350
1A
  3
ACAD_MATERIAL
350
43
  3
ACAD_MLEADERSTYLE
350
6B
  3
ACAD_MLINESTYLE
350
17
  3
ACAD_PLOTSETTINGS
350
19
  3
ACAD_PLOTSTYLENAME
350
E
  3
ACAD_SCALELIST
350
47
  3
ACAD_SECTIONVIEWSTYLE
350
2F8
  3
ACAD_TABLESTYLE
350
69
  3
ACAD_VISUALSTYLE
350
2A
  3
ACDB_RECOMPOSE_DATA
350
366
  3
AcDbVariableDictionary
350
2B4
  0
DICTIONARY
  5
349
330
10
100
AcDbDictionary
280
     1
281
     1
  3
ADSK_XREC_LAYER_RECONCILED
360
34A
  0
DICTIONARY
  5
34B
330
33B
100
AcDbDictionary
280
     1
281
     1
  3
ADSK_XREC_LAYER_RECONCILED
360
34C
  0
DICTIONARY
  5
34D
330
33C
100
AcDbDictionary
280
     1
281
     1
  3
ADSK_XREC_LAYER_RECONCILED
360
34E
  0
DICTIONARY
  5
34F
330
33D
100
AcDbDictionary
280
     1
281
     1
  3
ADSK_XREC_LAYER_RECONCILED
360
350
  0
DICTIONARY
  5
351
330
33F
100
AcDbDictionary
280
     1
281
     1
  3
ADSK_XREC_LAYER_RECONCILED
360
352
  0
DICTIONARY
  5
353
330
340
100
AcDbDictionary
280
     1
281
     1
  3
ADSK_XREC_LAYER_RECONCILED
360
354
  0
DICTIONARY
  5
355
330
342
100
AcDbDictionary
280
     1
281
     1
  3
ADSK_XREC_LAYER_RECONCILED
360
356
  0
DICTIONARY
  5
357
330
343
100
AcDbDictionary
280
     1
281
     1
  3
ADSK_XREC_LAYER_RECONCILED
360
358
  0
DICTIONARY
  5
359
330
344
100
AcDbDictionary
280
     1
281
     1
  3
ADSK_XREC_LAYER_RECONCILED
360
35A
  0
DICTIONARY
  5
35B
330
345
100
AcDbDictionary
280
     1
281
     1
  3
ADSK_XREC_LAYER_RECONCILED
360
35C
  0
DICTIONARY
  5
35D
330
346
100
AcDbDictionary
280
     1
281
     1
  3
ADSK_XREC_LAYER_RECONCILED
360
35E
  0
DICTIONARY
  5
35F
330
347
100
AcDbDictionary
280
     1
281
     1
  3
ADSK_XREC_LAYER_RECONCILED
360
360
  0
DICTIONARY
  5
301
330
1F
100
AcDbDictionary
280
     1
281
     1
  3
ACAD_SORTENTS
360
302
  0
XRECORD
  5
300
102
{ACAD_REACTORS
330
C
102
}
330
C
100
AcDbXrecord
280
     1
300
ACD
300
2019
300
87084ACD_2019_0F
  0
DICTIONARY
  5
2FB
102
{ACAD_REACTORS
330
C
102
}
330
C
100
AcDbDictionary
281
     1
  0
DICTIONARY
  5
2F7
102
{ACAD_REACTORS
330
C
102
}
330
C
100
AcDbDictionary
281
     1
  3
Metric50
350
2FD
  0
DICTIONARY
  5
D
102
{ACAD_REACTORS
330
C
102
}
330
C
100
AcDbDictionary
281
     1
  3
NULOVY_BOD
350
348
  0
DICTIONARY
  5
1A
102
{ACAD_REACTORS
330
C
102
}
330
C
100
AcDbDictionary
281
     1
  3
Layout1
350
1E
  3
Layout2
350
26
  3
Model
350
22
  0
DICTIONARY
  5
43
102
{ACAD_REACTORS
330
C
102
}
330
C
100
AcDbDictionary
281
     1
  3
ByBlock
350
45
  3
ByLayer
350
44
  3
Global
350
46
  0
DICTIONARY
  5
6B
102
{ACAD_REACTORS
330
C
102
}
330
C
100
AcDbDictionary
281
     1
  3
Standard
350
6C
  0
DICTIONARY
  5
17
102
{ACAD_REACTORS
330
C
102
}
330
C
100
AcDbDictionary
281
     1
  3
Standard
350
18
  0
DICTIONARY
  5
19
102
{ACAD_REACTORS
330
C
102
}
330
C
100
AcDbDictionary
281
     1
  0
ACDBDICTIONARYWDFLT
  5
E
102
{ACAD_REACTORS
330
C
102
}
330
C
100
AcDbDictionary
281
     1
  3
Normal
350
F
100
AcDbDictionaryWithDefault
340
F
  0
DICTIONARY
  5
47
102
{ACAD_REACTORS
330
C
102
}
330
C
100
AcDbDictionary
281
     1
  3
A0
350
48
  3
A1
350
49
  3
A2
350
4A
  3
A3
350
4B
  3
A4
350
4C
  3
A5
350
4D
  3
A6
350
4E
  3
A7
350
4F
  3
A8
350
50
  3
A9
350
51
  3
B0
350
52
  3
B1
350
53
  3
B2
350
54
  3
B3
350
55
  3
B4
350
56
  3
B5
350
57
  3
B6
350
58
  3
B7
350
59
  3
B8
350
5A
  3
B9
350
5B
  3
C0
350
5C
  3
C1
350
5D
  3
C2
350
5E
  3
C3
350
5F
  3
C4
350
60
  3
C5
350
61
  3
C6
350
62
  3
C7
350
63
  3
C8
350
64
  3
C9
350
65
  3
D0
350
66
  3
D1
350
67
  3
D2
350
68
  0
DICTIONARY
  5
2F8
102
{ACAD_REACTORS
330
C
102
}
330
C
100
AcDbDictionary
281
     1
  3
Metric50
350
2FC
  0
DICTIONARY
  5
69
102
{ACAD_REACTORS
330
C
102
}
330
C
100
AcDbDictionary
281
     1
  3
Standard
350
6A
  0
DICTIONARY
  5
2A
102
{ACAD_REACTORS
330
C
102
}
330
C
100
AcDbDictionary
281
     1
  3
2dWireframe
350
2F
  3
Basic
350
32
  3
Brighten
350
36
  3
ColorChange
350
3A
  3
Conceptual
350
34
  3
Dim
350
35
  3
EdgeColorOff
350
3D
  3
Facepattern
350
39
  3
Flat
350
2B
  3
FlatWithEdges
350
2C
  3
Gouraud
350
2D
  3
GouraudWithEdges
350
2E
  3
Hidden
350
31
  3
JitterOff
350
3B
  3
Linepattern
350
38
  3
OverhangOff
350
3C
  3
Realistic
350
33
  3
Shaded
350
42
  3
Shaded with edges
350
41
  3
Shades of Gray
350
3E
  3
Sketchy
350
3F
  3
Thicken
350
37
  3
Wireframe
350
30
  3
X-Ray
350
40
  0
XRECORD
  5
366
102
{ACAD_REACTORS
330
C
102
}
330
C
100
AcDbXrecord
280
     1
 90
        1
330
6A
  0
DICTIONARY
  5
2B4
102
{ACAD_REACTORS
330
C
102
}
330
C
100
AcDbDictionary
281
     1
  3
CANNOSCALE
350
2B5
  3
CMLEADERSTYLE
350
2F6
  3
CTABLESTYLE
350
2F5
  3
CVIEWDETAILSTYLE
350
361
  3
CVIEWSECTIONSTYLE
350
362
  3
MSLTSCALE
350
2B6
  3
XCLIPFRAME
350
363
  0
XRECORD
  5
34A
102
{ACAD_REACTORS
330
349
102
}
330
349
100
AcDbXrecord
280
     1
290
     1
  0
XRECORD
  5
34C
102
{ACAD_REACTORS
330
34B
102
}
330
34B
100
AcDbXrecord
280
     1
290
     1
  0
XRECORD
  5
34E
102
{ACAD_REACTORS
330
34D
102
}
330
34D
100
AcDbXrecord
280
     1
290
     1
  0
XRECORD
  5
350
102
{ACAD_REACTORS
330
34F
102
}
330
34F
100
AcDbXrecord
280
     1
290
     1
  0
XRECORD
  5
352
102
{ACAD_REACTORS
330
351
102
}
330
351
100
AcDbXrecord
280
     1
290
     1
  0
XRECORD
  5
354
102
{ACAD_REACTORS
330
353
102
}
330
353
100
AcDbXrecord
280
     1
290
     1
  0
XRECORD
  5
356
102
{ACAD_REACTORS
330
355
102
}
330
355
100
AcDbXrecord
280
     1
290
     1
  0
XRECORD
  5
358
102
{ACAD_REACTORS
330
357
102
}
330
357
100
AcDbXrecord
280
     1
290
     1
  0
XRECORD
  5
35A
102
{ACAD_REACTORS
330
359
102
}
330
359
100
AcDbXrecord
280
     1
290
     1
  0
XRECORD
  5
35C
102
{ACAD_REACTORS
330
35B
102
}
330
35B
100
AcDbXrecord
280
     1
290
     1
  0
XRECORD
  5
35E
102
{ACAD_REACTORS
330
35D
102
}
330
35D
100
AcDbXrecord
280
     1
290
     1
  0
XRECORD
  5
360
102
{ACAD_REACTORS
330
35F
102
}
330
35F
100
AcDbXrecord
280
     1
290
     1
  0
SORTENTSTABLE
  5
302
102
{ACAD_REACTORS
330
301
102
}
330
301
100
AcDbSortentsTable
330
1F
331
303
  5
26E
331
304
  5
287
331
305
  5
303
331
306
  5
304
331
307
  5
305
331
308
  5
306
331
309
  5
307
331
30A
  5
308
331
30B
  5
309
331
30C
  5
30A
331
30D
  5
30B
331
30E
  5
30C
331
30F
  5
30D
331
310
  5
30E
331
311
  5
30F
331
312
  5
310
331
313
  5
311
331
314
  5
312
331
315
  5
313
331
316
  5
314
331
317
  5
315
331
318
  5
316
331
319
  5
317
331
31A
  5
318
331
31B
  5
319
331
31C
  5
31A
331
31D
  5
31B
331
31E
  5
31C
331
31F
  5
31D
331
331
  5
334
331
333
  5
337
331
334
  5
338
331
335
  5
339
331
336
  5
33A
331
337
  5
331
331
338
  5
333
331
339
  5
335
331
33A
  5
336
  0
ACDBDETAILVIEWSTYLE
  5
2FD
102
{ACAD_XDICTIONARY
360
39A
102
}
102
{ACAD_REACTORS
330
2F7
102
}
330
2F7
100
AcDbModelDocViewStyle
 70
     0
  3
Metric50
290
     0
100
AcDbDetailViewStyle
 70
     0
 71
     0
 90
        3
 71
     1
340
11
 62
   256
 40
5.0
340
0
 62
   256
 40
5.0
300

 40
0.0
280
     1
 71
     2
340
16
 90
       25
 62
   256
 71
     3
340
11
 62
   256
 40
5.0
 90
        0
 40
15.0
 90
        1
300
%<\AcVar ViewDetailId>% (%<\AcVar ViewScale \f "%sn">%)
 71
     4
340
16
 90
       25
 62
   256
340
16
 90
       25
 62
   256
280
     0
  0
GROUP
  5
348
102
{ACAD_REACTORS
330
D
102
}
330
D
100
AcDbGroup
300

 70
     0
 71
     1
340
73
  0
LAYOUT
  5
1E
102
{ACAD_REACTORS
330
1A
102
}
330
1A
100
AcDbPlotSettings
  1

  2
none_device
  4

  6

 40
0.0
 41
0.0
 42
0.0
 43
0.0
 44
0.0
 45
0.0
 46
0.0
 47
0.0
 48
0.0
 49
0.0
140
0.0
141
0.0
142
1.0
143
1.0
 70
   688
 72
     0
 73
     0
 74
     5
  7

 75
    16
147
1.0
 76
     0
 77
     2
 78
   300
148
0.0
149
0.0
100
AcDbLayout
  1
Layout1
 70
     1
 71
     1
 10
-0.5
 20
-0.5
 11
5.0
 21
5.0
 12
0.0
 22
0.0
 32
0.0
 14
-0.5
 24
-0.5
 34
-0.5
 15
5.0
 25
5.0
 35
5.0
146
0.0
 13
0.0
 23
0.0
 33
0.0
 16
1.0
 26
0.0
 36
0.0
 17
0.0
 27
1.0
 37
0.0
 76
     0
330
1B
  0
LAYOUT
  5
26
102
{ACAD_REACTORS
330
1A
102
}
330
1A
100
AcDbPlotSettings
  1

  2
none_device
  4

  6

 40
0.0
 41
0.0
 42
0.0
 43
0.0
 44
0.0
 45
0.0
 46
0.0
 47
0.0
 48
0.0
 49
0.0
140
0.0
141
0.0
142
1.0
143
1.0
 70
   688
 72
     0
 73
     0
 74
     5
  7

 75
    16
147
1.0
 76
     0
 77
     2
 78
   300
148
0.0
149
0.0
100
AcDbLayout
  1
Layout2
 70
     1
 71
     2
 10
0.0
 20
0.0
 11
0.0
 21
0.0
 12
0.0
 22
0.0
 32
0.0
 14
0.0
 24
0.0
 34
0.0
 15
0.0
 25
0.0
 35
0.0
146
0.0
 13
0.0
 23
0.0
 33
0.0
 16
1.0
 26
0.0
 36
0.0
 17
0.0
 27
1.0
 37
0.0
 76
     0
330
23
  0
LAYOUT
  5
22
102
{ACAD_REACTORS
330
1A
102
}
330
1A
100
AcDbPlotSettings
  1

  2
none_device
  4
Letter_(8.50_x_11.00_Inches)
  6

 40
6.349999999999999
 41
6.349999999999999
 42
6.350005
 43
6.350005
 44
215.9
 45
279.4
 46
0.0
 47
0.0
 48
0.0
 49
0.0
140
0.0
141
0.0
142
1.0
143
1.0
 70
  1712
 72
     0
 73
     0
 74
     0
  7

 75
     0
147
1.0
 76
     0
 77
     2
 78
   300
148
0.0
149
0.0
100
AcDbLayout
  1
Model
 70
     1
 71
     0
 10
-0.5
 20
-0.5
 11
5.0
 21
5.0
 12
0.0
 22
0.0
 32
0.0
 14
-0.5
 24
-0.5
 34
-0.5
 15
5.0
 25
5.0
 35
5.0
146
0.0
 13
0.0
 23
0.0
 33
0.0
 16
1.0
 26
0.0
 36
0.0
 17
0.0
 27
1.0
 37
0.0
 76
     0
330
1F
331
29
  0
MATERIAL
  5
45
102
{ACAD_XDICTIONARY
360
2EA
102
}
102
{ACAD_REACTORS
330
43
102
}
330
43
100
AcDbMaterial
  1
ByBlock
  0
MATERIAL
  5
44
102
{ACAD_XDICTIONARY
360
2E8
102
}
102
{ACAD_REACTORS
330
43
102
}
330
43
100
AcDbMaterial
  1
ByLayer
  0
MATERIAL
  5
46
102
{ACAD_XDICTIONARY
360
2EC
102
}
102
{ACAD_REACTORS
330
43
102
}
330
43
100
AcDbMaterial
  1
Global
  0
MLEADERSTYLE
  5
6C
102
{ACAD_REACTORS
330
6B
102
}
330
6B
100
AcDbMLeaderStyle
170
     2
171
     1
172
     0
 90
        2
 40
0.0
 41
0.0
173
     1
 91
-1056964608
340
14
 92
       -2
290
     1
 42
0.09
291
     1
 43
0.36
  3
Standard
 44
0.18
300

342
11
174
     1
178
     6
175
     1
176
     0
 93
-1056964608
 45
0.18
292
     0
297
     0
 46
0.18
 94
-1056964608
 47
1.0
 49
1.0
140
1.0
293
     1
141
0.0
294
     1
177
     0
142
1.0
295
     0
296
     0
143
0.125
1001
ACAD_MLEADERVER
1070
     2
  0
MLINESTYLE
  5
18
102
{ACAD_REACTORS
330
17
102
}
330
17
100
AcDbMlineStyle
  2
STANDARD
 70
     0
  3

 62
   256
 51
90.0
 52
90.0
 71
     2
 49
0.5
 62
   256
  6
BYLAYER
 49
-0.5
 62
   256
  6
BYLAYER
  0
ACDBPLACEHOLDER
  5
F
102
{ACAD_REACTORS
330
E
102
}
330
E
  0
SCALE
  5
48
102
{ACAD_REACTORS
330
47
102
}
330
47
100
AcDbScale
 70
     0
300
1:1
140
1.0
141
1.0
290
     1
  0
SCALE
  5
49
102
{ACAD_REACTORS
330
47
102
}
330
47
100
AcDbScale
 70
     0
300
1:2
140
1.0
141
2.0
290
     0
  0
SCALE
  5
4A
102
{ACAD_REACTORS
330
47
102
}
330
47
100
AcDbScale
 70
     0
300
1:4
140
1.0
141
4.0
290
     0
  0
SCALE
  5
4B
102
{ACAD_REACTORS
330
47
102
}
330
47
100
AcDbScale
 70
     0
300
1:5
140
1.0
141
5.0
290
     0
  0
SCALE
  5
4C
102
{ACAD_REACTORS
330
47
102
}
330
47
100
AcDbScale
 70
     0
300
1:8
140
1.0
141
8.0
290
     0
  0
SCALE
  5
4D
102
{ACAD_REACTORS
330
47
102
}
330
47
100
AcDbScale
 70
     0
300
1:10
140
1.0
141
10.0
290
     0
  0
SCALE
  5
4E
102
{ACAD_REACTORS
330
47
102
}
330
47
100
AcDbScale
 70
     0
300
1:16
140
1.0
141
16.0
290
     0
  0
SCALE
  5
4F
102
{ACAD_REACTORS
330
47
102
}
330
47
100
AcDbScale
 70
     0
300
1:20
140
1.0
141
20.0
290
     0
  0
SCALE
  5
50
102
{ACAD_REACTORS
330
47
102
}
330
47
100
AcDbScale
 70
     0
300
1:30
140
1.0
141
30.0
290
     0
  0
SCALE
  5
51
102
{ACAD_REACTORS
330
47
102
}
330
47
100
AcDbScale
 70
     0
300
1:40
140
1.0
141
40.0
290
     0
  0
SCALE
  5
52
102
{ACAD_REACTORS
330
47
102
}
330
47
100
AcDbScale
 70
     0
300
1:50
140
1.0
141
50.0
290
     0
  0
SCALE
  5
53
102
{ACAD_REACTORS
330
47
102
}
330
47
100
AcDbScale
 70
     0
300
1:100
140
1.0
141
100.0
290
     0
  0
SCALE
  5
54
102
{ACAD_REACTORS
330
47
102
}
330
47
100
AcDbScale
 70
     0
300
2:1
140
2.0
141
1.0
290
     0
  0
SCALE
  5
55
102
{ACAD_REACTORS
330
47
102
}
330
47
100
AcDbScale
 70
     0
300
4:1
140
4.0
141
1.0
290
     0
  0
SCALE
  5
56
102
{ACAD_REACTORS
330
47
102
}
330
47
100
AcDbScale
 70
     0
300
8:1
140
8.0
141
1.0
290
     0
  0
SCALE
  5
57
102
{ACAD_REACTORS
330
47
102
}
330
47
100
AcDbScale
 70
     0
300
10:1
140
10.0
141
1.0
290
     0
  0
SCALE
  5
58
102
{ACAD_REACTORS
330
47
102
}
330
47
100
AcDbScale
 70
     0
300
100:1
140
100.0
141
1.0
290
     0
  0
SCALE
  5
59
102
{ACAD_REACTORS
330
47
102
}
330
47
100
AcDbScale
 70
     0
300
1/128" = 1'-0"
140
0.007812
141
12.0
290
     0
  0
SCALE
  5
5A
102
{ACAD_REACTORS
330
47
102
}
330
47
100
AcDbScale
 70
     0
300
1/64" = 1'-0"
140
0.015625
141
12.0
290
     0
  0
SCALE
  5
5B
102
{ACAD_REACTORS
330
47
102
}
330
47
100
AcDbScale
 70
     0
300
1/32" = 1'-0"
140
0.03125
141
12.0
290
     0
  0
SCALE
  5
5C
102
{ACAD_REACTORS
330
47
102
}
330
47
100
AcDbScale
 70
     0
300
1/16" = 1'-0"
140
0.0625
141
12.0
290
     0
  0
SCALE
  5
5D
102
{ACAD_REACTORS
330
47
102
}
330
47
100
AcDbScale
 70
     0
300
3/32" = 1'-0"
140
0.09375
141
12.0
290
     0
  0
SCALE
  5
5E
102
{ACAD_REACTORS
330
47
102
}
330
47
100
AcDbScale
 70
     0
300
1/8" = 1'-0"
140
0.125
141
12.0
290
     0
  0
SCALE
  5
5F
102
{ACAD_REACTORS
330
47
102
}
330
47
100
AcDbScale
 70
     0
300
3/16" = 1'-0"
140
0.1875
141
12.0
290
     0
  0
SCALE
  5
60
102
{ACAD_REACTORS
330
47
102
}
330
47
100
AcDbScale
 70
     0
300
1/4" = 1'-0"
140
0.25
141
12.0
290
     0
  0
SCALE
  5
61
102
{ACAD_REACTORS
330
47
102
}
330
47
100
AcDbScale
 70
     0
300
3/8" = 1'-0"
140
0.375
141
12.0
290
     0
  0
SCALE
  5
62
102
{ACAD_REACTORS
330
47
102
}
330
47
100
AcDbScale
 70
     0
300
1/2" = 1'-0"
140
0.5
141
12.0
290
     0
  0
SCALE
  5
63
102
{ACAD_REACTORS
330
47
102
}
330
47
100
AcDbScale
 70
     0
300
3/4" = 1'-0"
140
0.75
141
12.0
290
     0
  0
SCALE
  5
64
102
{ACAD_REACTORS
330
47
102
}
330
47
100
AcDbScale
 70
     0
300
1" = 1'-0"
140
1.0
141
12.0
290
     0
  0
SCALE
  5
65
102
{ACAD_REACTORS
330
47
102
}
330
47
100
AcDbScale
 70
     0
300
1-1/2" = 1'-0"
140
1.5
141
12.0
290
     0
  0
SCALE
  5
66
102
{ACAD_REACTORS
330
47
102
}
330
47
100
AcDbScale
 70
     0
300
3" = 1'-0"
140
3.0
141
12.0
290
     0
  0
SCALE
  5
67
102
{ACAD_REACTORS
330
47
102
}
330
47
100
AcDbScale
 70
     0
300
6" = 1'-0"
140
6.0
141
12.0
290
     0
  0
SCALE
  5
68
102
{ACAD_REACTORS
330
47
102
}
330
47
100
AcDbScale
 70
     0
300
1'-0" = 1'-0"
140
12.0
141
12.0
290
     0
  0
ACDBSECTIONVIEWSTYLE
  5
2FC
102
{ACAD_XDICTIONARY
360
398
102
}
102
{ACAD_REACTORS
330
2F8
102
}
330
2F8
100
AcDbModelDocViewStyle
 70
     0
  3
Metric50
290
     0
100
AcDbSectionViewStyle
 70
     0
 71
     0
 90
      102
 71
     1
340
11
 62
   256
 40
5.0
340
0
340
0
 62
   256
 40
5.0
300
I, O, Q, S, X, Z
 40
10.0
 90
        0
 40
2.5
 90
        0
 71
     2
340
16
 90
       25
 62
   256
340
16
 90
       50
 62
   256
 40
5.0
 40
2.5
 40
5.0
 71
     3
340
11
 62
   256
 40
5.0
 90
        0
 40
15.0
 90
        1
300
%<\AcVar ViewSectionStartId>%-%<\AcVar ViewSectionEndId>% (%<\AcVar ViewScale \f "%sn">%)
 71
     4
 62
   256
 62
   257
300
ANSI31
 40
1.0
 90
        0
290
     0
290
     0
 90
        6
 40
0.0
 40
1.570796326794896
 40
0.2617993877991494
 40
1.308996938995747
 40
-0.2617993877991494
 40
1.832595714594046
  0
TABLESTYLE
  5
6A
102
{ACAD_XDICTIONARY
360
2EE
102
}
102
{ACAD_REACTORS
330
69
102
}
330
69
100
AcDbTableStyle
  3
Standard
 70
     0
 71
     0
 40
0.06
 41
0.06
280
     0
281
     0
  7
Standard
140
0.18
170
     2
 62
     0
 63
     7
283
     0
274
    -2
284
     1
 64
     0
275
    -2
285
     1
 65
     0
276
    -2
286
     1
 66
     0
277
    -2
287
     1
 67
     0
278
    -2
288
     1
 68
     0
279
    -2
289
     1
 69
     0
  7
Standard
140
0.25
170
     5
 62
     0
 63
     7
283
     0
274
    -2
284
     1
 64
     0
275
    -2
285
     1
 65
     0
276
    -2
286
     1
 66
     0
277
    -2
287
     1
 67
     0
278
    -2
288
     1
 68
     0
279
    -2
289
     1
 69
     0
  7
Standard
140
0.18
170
     5
 62
     0
 63
     7
283
     0
274
    -2
284
     1
 64
     0
275
    -2
285
     1
 65
     0
276
    -2
286
     1
 66
     0
277
    -2
287
     1
 67
     0
278
    -2
288
     1
 68
     0
279
    -2
289
     1
 69
     0
  0
VISUALSTYLE
  5
2F
102
{ACAD_XDICTIONARY
360
36F
102
}
102
{ACAD_REACTORS
330
2A
102
}
330
2A
100
AcDbVisualStyle
  2

 70
     4
 71
     0
 72
     2
 73
     0
 90
        0
 40
-0.6
 41
-30.0
 62
     5
 63
     7
421
 16777215
 74
     1
 91
        4
 64
     7
 65
   257
 75
     1
175
     1
 42
1.0
 92
        0
 66
   257
 43
1.0
 76
     1
 77
     6
 78
     2
 67
     7
 79
     5
170
     0
171
     0
290
     0
174
     0
 93
        1
 44
0.0
173
     0
291
     0
 45
0.0
1001
ACAD
1000
AcDbSavedByObjectVersion
1070
     0
  0
VISUALSTYLE
  5
32
102
{ACAD_XDICTIONARY
360
375
102
}
102
{ACAD_REACTORS
330
2A
102
}
330
2A
100
AcDbVisualStyle
  2

 70
     7
 71
     1
 72
     0
 73
     1
 90
        0
 40
-0.6
 41
-30.0
 62
     5
 63
     7
421
 16777215
 74
     0
 91
        4
 64
     7
 65
   257
 75
     1
175
     1
 42
1.0
 92
        8
 66
     7
 43
1.0
 76
     1
 77
     6
 78
     2
 67
     7
 79
     5
170
     0
171
     0
290
     0
174
     0
 93
        1
 44
0.0
173
     0
291
     1
 45
0.0
1001
ACAD
1000
AcDbSavedByObjectVersion
1070
     0
  0
VISUALSTYLE
  5
36
102
{ACAD_XDICTIONARY
360
37D
102
}
102
{ACAD_REACTORS
330
2A
102
}
330
2A
100
AcDbVisualStyle
  2

 70
    12
 71
     2
 72
     2
 73
     0
 90
        0
 40
-0.6
 41
-30.0
 62
     5
 63
     7
421
 16777215
 74
     1
 91
        4
 64
     7
 65
   257
 75
     1
175
     1
 42
1.0
 92
        8
 66
     7
 43
1.0
 76
     1
 77
     6
 78
     2
 67
     7
 79
     5
170
     0
171
     0
290
     0
174
     0
 93
        1
 44
50.0
173
     0
291
     1
 45
0.0
1001
ACAD
1000
AcDbSavedByObjectVersion
1070
     0
  0
VISUALSTYLE
  5
3A
102
{ACAD_XDICTIONARY
360
385
102
}
102
{ACAD_REACTORS
330
2A
102
}
330
2A
100
AcDbVisualStyle
  2

 70
    16
 71
     2
 72
     2
 73
     3
 90
        0
 40
-0.6
 41
-30.0
 62
     5
 63
     8
421
  8421504
 74
     1
 91
        4
 64
     7
 65
   257
 75
     1
175
     1
 42
1.0
 92
        8
 66
     8
424
  8421504
 43
1.0
 76
     1
 77
     6
 78
     2
 67
     7
 79
     5
170
     0
171
     0
290
     0
174
     0
 93
        1
 44
0.0
173
     0
291
     1
 45
0.0
1001
ACAD
1000
AcDbSavedByObjectVersion
1070
     0
  0
VISUALSTYLE
  5
34
102
{ACAD_XDICTIONARY
360
379
102
}
102
{ACAD_REACTORS
330
2A
102
}
330
2A
100
AcDbVisualStyle
  2

 70
     9
 71
     3
 72
     2
 73
     0
 90
        0
 40
-0.6
 41
-30.0
 62
     5
 63
     7
421
 16777215
 74
     2
 91
        2
 64
     7
 65
   257
 75
     1
175
     1
 42
179.0
 92
        8
 66
     7
 43
1.0
 76
     1
 77
     6
 78
     2
 67
     7
 79
     3
170
     0
171
     0
290
     0
174
     0
 93
        1
 44
0.0
173
     0
291
     0
 45
0.0
1001
ACAD
1000
AcDbSavedByObjectVersion
1070
     0
  0
VISUALSTYLE
  5
35
102
{ACAD_XDICTIONARY
360
37B
102
}
102
{ACAD_REACTORS
330
2A
102
}
330
2A
100
AcDbVisualStyle
  2

 70
    11
 71
     2
 72
     2
 73
     0
 90
        0
 40
-0.6
 41
-30.0
 62
     5
 63
     7
421
 16777215
 74
     1
 91
        4
 64
     7
 65
   257
 75
     1
175
     1
 42
1.0
 92
        8
 66
     7
 43
1.0
 76
     1
 77
     6
 78
     2
 67
     7
 79
     5
170
     0
171
     0
290
     0
174
     0
 93
        1
 44
-50.0
173
     0
291
     1
 45
0.0
1001
ACAD
1000
AcDbSavedByObjectVersion
1070
     0
  0
VISUALSTYLE
  5
3D
102
{ACAD_XDICTIONARY
360
38B
102
}
102
{ACAD_REACTORS
330
2A
102
}
330
2A
100
AcDbVisualStyle
  2

 70
    22
 71
     2
 72
     2
 73
     0
 90
        0
 40
-0.6
 41
-30.0
 62
     5
 63
     7
421
 16777215
 74
     1
 91
        4
 64
     7
 65
   257
 75
     1
175
     1
 42
1.0
 92
        8
 66
     7
 43
1.0
 76
     1
 77
     6
 78
     2
 67
     7
 79
     5
170
     0
171
     0
290
     0
174
     0
 93
        1
 44
0.0
173
     0
291
     1
 45
0.0
1001
ACAD
1000
AcDbSavedByObjectVersion
1070
     0
  0
VISUALSTYLE
  5
39
102
{ACAD_XDICTIONARY
360
383
102
}
102
{ACAD_REACTORS
330
2A
102
}
330
2A
100
AcDbVisualStyle
  2

 70
    15
 71
     2
 72
     2
 73
     0
 90
        0
 40
-0.6
 41
-30.0
 62
     5
 63
     7
421
 16777215
 74
     1
 91
        4
 64
     7
 65
   257
 75
     1
175
     1
 42
1.0
 92
        8
 66
     7
 43
1.0
 76
     1
 77
     6
 78
     2
 67
     7
 79
     5
170
     0
171
     0
290
     0
174
     0
 93
        1
 44
0.0
173
     0
291
     1
 45
0.0
1001
ACAD
1000
AcDbSavedByObjectVersion
1070
     0
  0
VISUALSTYLE
  5
2B
102
{ACAD_XDICTIONARY
360
367
102
}
102
{ACAD_REACTORS
330
2A
102
}
330
2A
100
AcDbVisualStyle
  2

 70
     0
 71
     2
 72
     1
 73
     1
 90
        2
 40
-0.6
 41
30.0
 62
     5
 63
     7
421
 16777215
 74
     0
 91
        0
 64
     7
 65
   257
 75
     1
175
     1
 42
1.0
 92
        8
 66
     7
 43
1.0
 76
     1
 77
     6
 78
     2
 67
     7
 79
     5
170
     0
171
     0
290
     0
174
     0
 93
       13
 44
0.0
173
     0
291
     1
 45
0.0
1001
ACAD
1000
AcDbSavedByObjectVersion
1070
     0
  0
VISUALSTYLE
  5
2C
102
{ACAD_XDICTIONARY
360
369
102
}
102
{ACAD_REACTORS
330
2A
102
}
330
2A
100
AcDbVisualStyle
  2

 70
     1
 71
     2
 72
     1
 73
     1
 90
        2
 40
-0.6
 41
30.0
 62
     5
 63
     7
421
 16777215
 74
     1
 91
        0
 64
     7
 65
   257
 75
     1
175
     1
 42
1.0
 92
        0
 66
   257
 43
1.0
 76
     1
 77
     6
 78
     2
 67
     7
 79
     5
170
     0
171
     0
290
     0
174
     0
 93
       13
 44
0.0
173
     0
291
     1
 45
0.0
1001
ACAD
1000
AcDbSavedByObjectVersion
1070
     0
  0
VISUALSTYLE
  5
2D
102
{ACAD_XDICTIONARY
360
36B
102
}
102
{ACAD_REACTORS
330
2A
102
}
330
2A
100
AcDbVisualStyle
  2

 70
     2
 71
     2
 72
     2
 73
     1
 90
        2
 40
-0.6
 41
30.0
 62
     5
 63
     7
421
 16777215
 74
     0
 91
        0
 64
     7
 65
   257
 75
     1
175
     1
 42
1.0
 92
        0
 66
     7
 43
1.0
 76
     1
 77
     6
 78
     2
 67
     7
 79
     5
170
     0
171
     0
290
     0
174
     0
 93
       13
 44
0.0
173
     0
291
     1
 45
0.0
1001
ACAD
1000
AcDbSavedByObjectVersion
1070
     0
  0
VISUALSTYLE
  5
2E
102
{ACAD_XDICTIONARY
360
36D
102
}
102
{ACAD_REACTORS
330
2A
102
}
330
2A
100
AcDbVisualStyle
  2

 70
     3
 71
     2
 72
     2
 73
     1
 90
        2
 40
-0.6
 41
30.0
 62
     5
 63
     7
421
 16777215
 74
     1
 91
        0
 64
     7
 65
   257
 75
     1
175
     1
 42
1.0
 92
        0
 66
   257
 43
1.0
 76
     1
 77
     6
 78
     2
 67
     7
 79
     5
170
     0
171
     0
290
     0
174
     0
 93
       13
 44
0.0
173
     0
291
     1
 45
0.0
1001
ACAD
1000
AcDbSavedByObjectVersion
1070
     0
  0
VISUALSTYLE
  5
31
102
{ACAD_XDICTIONARY
360
373
102
}
102
{ACAD_REACTORS
330
2A
102
}
330
2A
100
AcDbVisualStyle
  2

 70
     6
 71
     1
 72
     2
 73
     2
 90
        0
 40
-0.6
 41
-30.0
 62
     5
 63
     7
421
 16777215
 74
     2
 91
        2
 64
     7
 65
   257
 75
     2
175
     1
 42
40.0
 92
        0
 66
   257
 43
1.0
 76
     1
 77
     6
 78
     2
 67
     7
 79
     3
170
     0
171
     0
290
     0
174
     0
 93
        1
 44
0.0
173
     0
291
     0
 45
0.0
1001
ACAD
1000
AcDbSavedByObjectVersion
1070
     0
  0
VISUALSTYLE
  5
3B
102
{ACAD_XDICTIONARY
360
387
102
}
102
{ACAD_REACTORS
330
2A
102
}
330
2A
100
AcDbVisualStyle
  2

 70
    20
 71
     2
 72
     2
 73
     0
 90
        0
 40
-0.6
 41
-30.0
 62
     5
 63
     7
421
 16777215
 74
     1
 91
        4
 64
     7
 65
   257
 75
     1
175
     1
 42
1.0
 92
       10
 66
     7
 43
1.0
 76
     1
 77
     6
 78
     2
 67
     7
 79
     5
170
     0
171
     0
290
     0
174
     0
 93
        1
 44
0.0
173
     0
291
     1
 45
0.0
1001
ACAD
1000
AcDbSavedByObjectVersion
1070
     0
  0
VISUALSTYLE
  5
38
102
{ACAD_XDICTIONARY
360
381
102
}
102
{ACAD_REACTORS
330
2A
102
}
330
2A
100
AcDbVisualStyle
  2

 70
    14
 71
     2
 72
     2
 73
     0
 90
        0
 40
-0.6
 41
-30.0
 62
     5
 63
     7
421
 16777215
 74
     1
 91
        4
 64
     7
 65
   257
 75
     7
175
     7
 42
1.0
 92
        8
 66
     7
 43
1.0
 76
     1
 77
     6
 78
     2
 67
     7
 79
     5
170
     0
171
     0
290
     0
174
     0
 93
        1
 44
0.0
173
     0
291
     1
 45
0.0
1001
ACAD
1000
AcDbSavedByObjectVersion
1070
     0
  0
VISUALSTYLE
  5
3C
102
{ACAD_XDICTIONARY
360
389
102
}
102
{ACAD_REACTORS
330
2A
102
}
330
2A
100
AcDbVisualStyle
  2

 70
    21
 71
     2
 72
     2
 73
     0
 90
        0
 40
-0.6
 41
-30.0
 62
     5
 63
     7
421
 16777215
 74
     1
 91
        4
 64
     7
 65
   257
 75
     1
175
     1
 42
1.0
 92
        9
 66
     7
 43
1.0
 76
     1
 77
     6
 78
     2
 67
     7
 79
     5
170
     0
171
     0
290
     0
174
     0
 93
        1
 44
0.0
173
     0
291
     1
 45
0.0
1001
ACAD
1000
AcDbSavedByObjectVersion
1070
     0
  0
VISUALSTYLE
  5
33
102
{ACAD_XDICTIONARY
360
377
102
}
102
{ACAD_REACTORS
330
2A
102
}
330
2A
100
AcDbVisualStyle
  2

 70
     8
 71
     2
 72
     3
 73
     0
 90
        2
 40
-0.6
 41
30.0
 62
     5
 63
     7
421
 16777215
 74
     0
 91
        0
 64
     7
 65
   257
 75
     1
175
     1
 42
1.0
 92
        8
 66
   257
 43
1.0
 76
     1
 77
     6
 78
     2
 67
     7
 79
     3
170
     0
171
     0
290
     0
174
     0
 93
       13
 44
0.0
173
     0
291
     0
 45
0.0
1001
ACAD
1000
AcDbSavedByObjectVersion
1070
     0
  0
VISUALSTYLE
  5
42
102
{ACAD_XDICTIONARY
360
395
102
}
102
{ACAD_REACTORS
330
2A
102
}
330
2A
100
AcDbVisualStyle
  2

 70
    27
 71
     2
 72
     2
 73
     1
 90
        2
 40
-0.6
 41
30.0
 62
     5
 63
     7
421
 16777215
 74
     0
 91
        4
 64
     7
 65
   257
 75
     1
175
     1
 42
1.0
 92
        8
 66
   257
 43
1.0
 76
     1
 77
     6
 78
     2
 67
     8
425
  7895160
 79
     3
170
     0
171
     0
290
     0
174
     0
 93
        5
 44
0.0
173
     0
291
     0
 45
0.0
1001
ACAD
1000
AcDbSavedByObjectVersion
1070
     0
  0
VISUALSTYLE
  5
41
102
{ACAD_XDICTIONARY
360
393
102
}
102
{ACAD_REACTORS
330
2A
102
}
330
2A
100
AcDbVisualStyle
  2

 70
    26
 71
     2
 72
     2
 73
     1
 90
        2
 40
-0.6
 41
30.0
 62
     5
 63
     7
421
 16777215
 74
     1
 91
       10
 64
     7
 65
   257
 75
     2
175
     1
 42
1.0
 92
        8
 66
   257
 43
1.0
 76
     1
 77
     6
 78
     2
 67
     7
 79
     3
170
     0
171
     0
290
     0
174
     0
 93
        5
 44
0.0
173
     0
291
     0
 45
0.0
1001
ACAD
1000
AcDbSavedByObjectVersion
1070
     0
  0
VISUALSTYLE
  5
3E
102
{ACAD_XDICTIONARY
360
38D
102
}
102
{ACAD_REACTORS
330
2A
102
}
330
2A
100
AcDbVisualStyle
  2

 70
    23
 71
     2
 72
     2
 73
     3
 90
        0
 40
-0.6
 41
-30.0
 62
     5
 63
     7
421
 16777215
 74
     2
 91
        2
 64
     7
 65
     7
 75
     1
175
     1
 42
40.0
 92
        8
 66
     7
 43
1.0
 76
     1
 77
     6
 78
     2
 67
     7
 79
     3
170
     0
171
     0
290
     0
174
     0
 93
        1
 44
0.0
173
     0
291
     0
 45
0.0
1001
ACAD
1000
AcDbSavedByObjectVersion
1070
     0
  0
VISUALSTYLE
  5
3F
102
{ACAD_XDICTIONARY
360
38F
102
}
102
{ACAD_REACTORS
330
2A
102
}
330
2A
100
AcDbVisualStyle
  2

 70
    24
 71
     1
 72
     2
 73
     2
 90
        0
 40
-0.6
 41
-30.0
 62
     5
 63
     7
421
 16777215
 74
     2
 91
        2
 64
     7
 65
     7
 75
     1
175
     1
 42
40.0
 92
       11
 66
     7
 43
1.0
 76
     1
 77
     6
 78
     2
 67
     7
 79
     6
170
     0
171
     0
290
     0
174
     0
 93
        1
 44
0.0
173
     0
291
     0
 45
0.0
1001
ACAD
1000
AcDbSavedByObjectVersion
1070
     0
  0
VISUALSTYLE
  5
37
102
{ACAD_XDICTIONARY
360
37F
102
}
102
{ACAD_REACTORS
330
2A
102
}
330
2A
100
AcDbVisualStyle
  2

 70
    13
 71
     2
 72
     2
 73
     0
 90
        0
 40
-0.6
 41
-30.0
 62
     5
 63
     7
421
 16777215
 74
     1
 91
        4
 64
     7
 65
   257
 75
     1
175
     1
 42
1.0
 92
       12
 66
     7
 43
1.0
 76
     1
 77
     6
 78
     2
 67
     7
 79
     5
170
     0
171
     0
290
     0
174
     0
 93
        1
 44
0.0
173
     0
291
     1
 45
0.0
1001
ACAD
1000
AcDbSavedByObjectVersion
1070
     0
  0
VISUALSTYLE
  5
30
102
{ACAD_XDICTIONARY
360
371
102
}
102
{ACAD_REACTORS
330
2A
102
}
330
2A
100
AcDbVisualStyle
  2

 70
     5
 71
     0
 72
     2
 73
     0
 90
        0
 40
-0.6
 41
-30.0
 62
     5
 63
     7
421
 16777215
 74
     1
 91
        4
 64
     7
 65
   257
 75
     1
175
     1
 42
1.0
 92
        0
 66
   257
 43
1.0
 76
     1
 77
     6
 78
     2
 67
     7
 79
     3
170
     0
171
     0
290
     0
174
     0
 93
        1
 44
0.0
173
     0
291
     0
 45
0.0
1001
ACAD
1000
AcDbSavedByObjectVersion
1070
     0
  0
VISUALSTYLE
  5
40
102
{ACAD_XDICTIONARY
360
391
102
}
102
{ACAD_REACTORS
330
2A
102
}
330
2A
100
AcDbVisualStyle
  2

 70
    25
 71
     2
 72
     2
 73
     1
 90
        1
 40
0.5
 41
-30.0
 62
     5
 63
     7
421
 16777215
 74
     1
 91
        0
 64
     7
 65
   257
 75
     1
175
     1
 42
1.0
 92
        8
 66
     7
 43
1.0
 76
     1
 77
     6
 78
     2
 67
     7
 79
     3
170
     0
171
     0
290
     0
174
     0
 93
       13
 44
0.0
173
     0
291
     0
 45
0.0
1001
ACAD
1000
AcDbSavedByObjectVersion
1070
     0
  0
DICTIONARYVAR
  5
2B5
102
{ACAD_REACTORS
330
2B4
102
}
330
2B4
100
DictionaryVariables
280
     0
  1
1:1
  0
DICTIONARYVAR
  5
2F6
102
{ACAD_REACTORS
330
2B4
102
}
330
2B4
100
DictionaryVariables
280
     0
  1
STANDARD
  0
DICTIONARYVAR
  5
2F5
102
{ACAD_REACTORS
330
2B4
102
}
330
2B4
100
DictionaryVariables
280
     0
  1
STANDARD
  0
DICTIONARYVAR
  5
361
102
{ACAD_REACTORS
330
2B4
102
}
330
2B4
100
DictionaryVariables
280
     0
  1
Metric50
  0
DICTIONARYVAR
  5
362
102
{ACAD_REACTORS
330
2B4
102
}
330
2B4
100
DictionaryVariables
280
     0
  1
Metric50
  0
DICTIONARYVAR
  5
2B6
102
{ACAD_REACTORS
330
2B4
102
}
330
2B4
100
DictionaryVariables
280
     0
  1
1
  0
DICTIONARYVAR
  5
363
102
{ACAD_REACTORS
330
2B4
102
}
330
2B4
100
DictionaryVariables
280
     0
  1
2
  0
DICTIONARY
  5
39A
330
2FD
100
AcDbDictionary
280
     1
281
     1
  3
ACAD_XREC_ROUNDTRIP
360
39B
  0
DICTIONARY
  5
2EA
330
45
100
AcDbDictionary
280
     1
281
     1
  3
ACAD_XREC_ROUNDTRIP
360
2EB
  0
DICTIONARY
  5
2E8
330
44
100
AcDbDictionary
280
     1
281
     1
  3
ACAD_XREC_ROUNDTRIP
360
2E9
  0
DICTIONARY
  5
2EC
330
46
100
AcDbDictionary
280
     1
281
     1
  3
ACAD_XREC_ROUNDTRIP
360
2ED
  0
DICTIONARY
  5
398
330
2FC
100
AcDbDictionary
280
     1
281
     1
  3
ACAD_XREC_ROUNDTRIP
360
399
  0
DICTIONARY
  5
2EE
330
6A
100
AcDbDictionary
280
     1
281
     1
  3
ACAD_ROUNDTRIP_2008_TABLESTYLE_CELLSTYLEMAP
360
365
  3
ACAD_XREC_ROUNDTRIP
360
397
  0
DICTIONARY
  5
36F
330
2F
100
AcDbDictionary
280
     1
281
     1
  3
ACAD_XREC_ROUNDTRIP
360
370
  0
DICTIONARY
  5
375
330
32
100
AcDbDictionary
280
     1
281
     1
  3
ACAD_XREC_ROUNDTRIP
360
376
  0
DICTIONARY
  5
37D
330
36
100
AcDbDictionary
280
     1
281
     1
  3
ACAD_XREC_ROUNDTRIP
360
37E
  0
DICTIONARY
  5
385
330
3A
100
AcDbDictionary
280
     1
281
     1
  3
ACAD_XREC_ROUNDTRIP
360
386
  0
DICTIONARY
  5
379
330
34
100
AcDbDictionary
280
     1
281
     1
  3
ACAD_XREC_ROUNDTRIP
360
37A
  0
DICTIONARY
  5
37B
330
35
100
AcDbDictionary
280
     1
281
     1
  3
ACAD_XREC_ROUNDTRIP
360
37C
  0
DICTIONARY
  5
38B
330
3D
100
AcDbDictionary
280
     1
281
     1
  3
ACAD_XREC_ROUNDTRIP
360
38C
  0
DICTIONARY
  5
383
330
39
100
AcDbDictionary
280
     1
281
     1
  3
ACAD_XREC_ROUNDTRIP
360
384
  0
DICTIONARY
  5
367
330
2B
100
AcDbDictionary
280
     1
281
     1
  3
ACAD_XREC_ROUNDTRIP
360
368
  0
DICTIONARY
  5
369
330
2C
100
AcDbDictionary
280
     1
281
     1
  3
ACAD_XREC_ROUNDTRIP
360
36A
  0
DICTIONARY
  5
36B
330
2D
100
AcDbDictionary
280
     1
281
     1
  3
ACAD_XREC_ROUNDTRIP
360
36C
  0
DICTIONARY
  5
36D
330
2E
100
AcDbDictionary
280
     1
281
     1
  3
ACAD_XREC_ROUNDTRIP
360
36E
  0
DICTIONARY
  5
373
330
31
100
AcDbDictionary
280
     1
281
     1
  3
ACAD_XREC_ROUNDTRIP
360
374
  0
DICTIONARY
  5
387
330
3B
100
AcDbDictionary
280
     1
281
     1
  3
ACAD_XREC_ROUNDTRIP
360
388
  0
DICTIONARY
  5
381
330
38
100
AcDbDictionary
280
     1
281
     1
  3
ACAD_XREC_ROUNDTRIP
360
382
  0
DICTIONARY
  5
389
330
3C
100
AcDbDictionary
280
     1
281
     1
  3
ACAD_XREC_ROUNDTRIP
360
38A
  0
DICTIONARY
  5
377
330
33
100
AcDbDictionary
280
     1
281
     1
  3
ACAD_XREC_ROUNDTRIP
360
378
  0
DICTIONARY
  5
395
330
42
100
AcDbDictionary
280
     1
281
     1
  3
ACAD_XREC_ROUNDTRIP
360
396
  0
DICTIONARY
  5
393
330
41
100
AcDbDictionary
280
     1
281
     1
  3
ACAD_XREC_ROUNDTRIP
360
394
  0
DICTIONARY
  5
38D
330
3E
100
AcDbDictionary
280
     1
281
     1
  3
ACAD_XREC_ROUNDTRIP
360
38E
  0
DICTIONARY
  5
38F
330
3F
100
AcDbDictionary
280
     1
281
     1
  3
ACAD_XREC_ROUNDTRIP
360
390
  0
DICTIONARY
  5
37F
330
37
100
AcDbDictionary
280
     1
281
     1
  3
ACAD_XREC_ROUNDTRIP
360
380
  0
DICTIONARY
  5
371
330
30
100
AcDbDictionary
280
     1
281
     1
  3
ACAD_XREC_ROUNDTRIP
360
372
  0
DICTIONARY
  5
391
330
40
100
AcDbDictionary
280
     1
281
     1
  3
ACAD_XREC_ROUNDTRIP
360
392
  0
XRECORD
  5
39B
102
{ACAD_REACTORS
330
39A
102
}
330
39A
100
AcDbXrecord
280
     1
102
DISPLAYNAME
  1
Metric50
102
FLAGS
 90
        0
  0
XRECORD
  5
2EB
102
{ACAD_REACTORS
330
2EA
102
}
330
2EA
100
AcDbXrecord
280
     1
102
MATERIAL
148
0.0
149
0.0
149
0.0
 93
        0
 94
      127
282
     0
 72
     1
 77
     1
171
     1
175
     1
179
     1
273
     0
  0
XRECORD
  5
2E9
102
{ACAD_REACTORS
330
2E8
102
}
330
2E8
100
AcDbXrecord
280
     1
102
MATERIAL
148
0.0
149
0.0
149
0.0
 93
        0
 94
      127
282
     0
 72
     1
 77
     1
171
     1
175
     1
179
     1
273
     0
  0
XRECORD
  5
2ED
102
{ACAD_REACTORS
330
2EC
102
}
330
2EC
100
AcDbXrecord
280
     1
102
MATERIAL
148
0.0
149
0.0
149
0.0
 93
        0
 94
      127
282
     0
 72
     1
 77
     1
171
     1
175
     1
179
     1
273
     0
  0
XRECORD
  5
399
102
{ACAD_REACTORS
330
398
102
}
330
398
100
AcDbXrecord
280
     1
102
DISPLAYNAME
  1
Metric50
102
FLAGS
 90
        0
  0
CELLSTYLEMAP
  5
365
102
{ACAD_REACTORS
330
2EE
102
}
330
2EE
100
AcDbCellStyleMap
 90
        3
300
CELLSTYLE
  1
TABLEFORMAT_BEGIN
 90
        5
170
     1
 91
        0
 92
    32768
 62
   257
 93
        1
300
CONTENTFORMAT
  1
CONTENTFORMAT_BEGIN
 90
        0
 91
        0
 92
        4
 93
        0
300

 40
0.0
140
1.0
 94
        5
 62
     0
340
11
144
0.25
309
CONTENTFORMAT_END
171
     1
301
MARGIN
  1
CELLMARGIN_BEGIN
 40
0.06
 40
0.06
 40
0.06
 40
0.06
 40
0.18
 40
0.18
309
CELLMARGIN_END
 94
        6
 95
        1
302
GRIDFORMAT
  1
GRIDFORMAT_BEGIN
 90
        0
 91
        1
 62
     0
 92
       -2
340
14
 93
        0
 40
0.045
309
GRIDFORMAT_END
 95
        2
302
GRIDFORMAT
  1
GRIDFORMAT_BEGIN
 90
        0
 91
        1
 62
     0
 92
       -2
340
14
 93
        0
 40
0.045
309
GRIDFORMAT_END
 95
        4
302
GRIDFORMAT
  1
GRIDFORMAT_BEGIN
 90
        0
 91
        1
 62
     0
 92
       -2
340
14
 93
        0
 40
0.045
309
GRIDFORMAT_END
 95
        8
302
GRIDFORMAT
  1
GRIDFORMAT_BEGIN
 90
        0
 91
        1
 62
     0
 92
       -2
340
14
 93
        0
 40
0.045
309
GRIDFORMAT_END
 95
       16
302
GRIDFORMAT
  1
GRIDFORMAT_BEGIN
 90
        0
 91
        1
 62
     0
 92
       -2
340
14
 93
        0
 40
0.045
309
GRIDFORMAT_END
 95
       32
302
GRIDFORMAT
  1
GRIDFORMAT_BEGIN
 90
        0
 91
        1
 62
     0
 92
       -2
340
14
 93
        0
 40
0.045
309
GRIDFORMAT_END
309
TABLEFORMAT_END
  1
CELLSTYLE_BEGIN
 90
        1
 91
        1
300
_TITLE
309
CELLSTYLE_END
300
CELLSTYLE
  1
TABLEFORMAT_BEGIN
 90
        5
170
     1
 91
        0
 92
        0
 62
   257
 93
        1
300
CONTENTFORMAT
  1
CONTENTFORMAT_BEGIN
 90
        0
 91
        0
 92
        4
 93
        0
300

 40
0.0
140
1.0
 94
        5
 62
     0
340
11
144
0.18
309
CONTENTFORMAT_END
171
     1
301
MARGIN
  1
CELLMARGIN_BEGIN
 40
0.06
 40
0.06
 40
0.06
 40
0.06
 40
0.18
 40
0.18
309
CELLMARGIN_END
 94
        6
 95
        1
302
GRIDFORMAT
  1
GRIDFORMAT_BEGIN
 90
        0
 91
        1
 62
     0
 92
       -2
340
14
 93
        0
 40
0.045
309
GRIDFORMAT_END
 95
        2
302
GRIDFORMAT
  1
GRIDFORMAT_BEGIN
 90
        0
 91
        1
 62
     0
 92
       -2
340
14
 93
        0
 40
0.045
309
GRIDFORMAT_END
 95
        4
302
GRIDFORMAT
  1
GRIDFORMAT_BEGIN
 90
        0
 91
        1
 62
     0
 92
       -2
340
14
 93
        0
 40
0.045
309
GRIDFORMAT_END
 95
        8
302
GRIDFORMAT
  1
GRIDFORMAT_BEGIN
 90
        0
 91
        1
 62
     0
 92
       -2
340
14
 93
        0
 40
0.045
309
GRIDFORMAT_END
 95
       16
302
GRIDFORMAT
  1
GRIDFORMAT_BEGIN
 90
        0
 91
        1
 62
     0
 92
       -2
340
14
 93
        0
 40
0.045
309
GRIDFORMAT_END
 95
       32
302
GRIDFORMAT
  1
GRIDFORMAT_BEGIN
 90
        0
 91
        1
 62
     0
 92
       -2
340
14
 93
        0
 40
0.045
309
GRIDFORMAT_END
309
TABLEFORMAT_END
  1
CELLSTYLE_BEGIN
 90
        2
 91
        1
300
_HEADER
309
CELLSTYLE_END
300
CELLSTYLE
  1
TABLEFORMAT_BEGIN
 90
        5
170
     1
 91
        0
 92
        0
 62
   257
 93
        1
300
CONTENTFORMAT
  1
CONTENTFORMAT_BEGIN
 90
        0
 91
        0
 92
        4
 93
        0
300

 40
0.0
140
1.0
 94
        2
 62
     0
340
11
144
0.18
309
CONTENTFORMAT_END
171
     1
301
MARGIN
  1
CELLMARGIN_BEGIN
 40
0.06
 40
0.06
 40
0.06
 40
0.06
 40
0.18
 40
0.18
309
CELLMARGIN_END
 94
        6
 95
        1
302
GRIDFORMAT
  1
GRIDFORMAT_BEGIN
 90
        0
 91
        1
 62
     0
 92
       -2
340
14
 93
        0
 40
0.045
309
GRIDFORMAT_END
 95
        2
302
GRIDFORMAT
  1
GRIDFORMAT_BEGIN
 90
        0
 91
        1
 62
     0
 92
       -2
340
14
 93
        0
 40
0.045
309
GRIDFORMAT_END
 95
        4
302
GRIDFORMAT
  1
GRIDFORMAT_BEGIN
 90
        0
 91
        1
 62
     0
 92
       -2
340
14
 93
        0
 40
0.045
309
GRIDFORMAT_END
 95
        8
302
GRIDFORMAT
  1
GRIDFORMAT_BEGIN
 90
        0
 91
        1
 62
     0
 92
       -2
340
14
 93
        0
 40
0.045
309
GRIDFORMAT_END
 95
       16
302
GRIDFORMAT
  1
GRIDFORMAT_BEGIN
 90
        0
 91
        1
 62
     0
 92
       -2
340
14
 93
        0
 40
0.045
309
GRIDFORMAT_END
 95
       32
302
GRIDFORMAT
  1
GRIDFORMAT_BEGIN
 90
        0
 91
        1
 62
     0
 92
       -2
340
14
 93
        0
 40
0.045
309
GRIDFORMAT_END
309
TABLEFORMAT_END
  1
CELLSTYLE_BEGIN
 90
        3
 91
        2
300
_DATA
309
CELLSTYLE_END
  0
XRECORD
  5
397
102
{ACAD_REACTORS
330
2EE
102
}
330
2EE
100
AcDbXrecord
280
     1
102
ACAD_ROUNDTRIP_PRE2007_TABLESTYLE
 90
        4
 91
        0
  1

 92
        4
 93
        0
  2

 94
        4
 95
        0
  3

  0
XRECORD
  5
370
102
{ACAD_REACTORS
330
36F
102
}
330
36F
100
AcDbXrecord
280
     1
102
RTVSPost2010Prop28
280
     1
102
RTVSPost2010PropOp28
 70
     1
102
RTVSPost2010Prop29
280
     1
102
RTVSPost2010PropOp29
 70
     1
102
RTVSPost2010Prop30
280
     0
102
RTVSPost2010PropOp30
 70
     1
102
RTVSPost2010Prop31
280
     0
102
RTVSPost2010PropOp31
 70
     1
102
RTVSPost2010Prop32
280
     0
102
RTVSPost2010PropOp32
 70
     1
102
RTVSPost2010Prop33
280
     0
102
RTVSPost2010PropOp33
 70
     1
102
RTVSPost2010Prop34
280
     0
102
RTVSPost2010PropOp34
 70
     1
102
RTVSPost2010Prop35
280
     0
102
RTVSPost2010PropOp35
 70
     1
102
RTVSPost2010Prop36
280
     0
102
RTVSPost2010PropOp36
 70
     1
102
RTVSPost2010Prop37
 90
       50
102
RTVSPost2010PropOp37
 70
     1
102
RTVSPost2010Prop38
140
0.0
102
RTVSPost2010PropOp38
 70
     1
102
RTVSPost2010Prop39
140
1.0
102
RTVSPost2010PropOp39
 70
     1
102
RTVSPost2010Prop40
 90
        0
102
RTVSPost2010PropOp40
 70
     1
102
RTVSPost2010Prop41ColorIndex
 90
       18
102
RTVSPost2010Prop41ColorRGB
 90
        0
102
RTVSPost2010PropOp41
 70
     1
102
RTVSPost2010Prop42
 90
       50
102
RTVSPost2010PropOp42
 70
     1
102
RTVSPost2010Prop43
 90
        3
102
RTVSPost2010PropOp43
 70
     1
102
RTVSPost2010Prop44ColorIndex
 90
        5
102
RTVSPost2010Prop44ColorRGB
 90
      255
102
RTVSPost2010PropOp44
 70
     1
102
RTVSPost2010Prop45
280
     0
102
RTVSPost2010PropOp45
 70
     1
102
RTVSPost2010Prop46
 90
       50
102
RTVSPost2010PropOp46
 70
     1
102
RTVSPost2010Prop47
 90
       50
102
RTVSPost2010PropOp47
 70
     1
102
RTVSPost2010Prop48
 90
       50
102
RTVSPost2010PropOp48
 70
     1
102
RTVSPost2010Prop49
280
     0
102
RTVSPost2010PropOp49
 70
     1
102
RTVSPost2010Prop50
 90
       50
102
RTVSPost2010PropOp50
 70
     1
102
RTVSPost2010Prop51ColorIndex
 90
      256
102
RTVSPost2010Prop51ColorRGB
 90
-16777216
102
RTVSPost2010PropOp51
 70
     0
102
RTVSPost2010Prop52
140
1.0
102
RTVSPost2010PropOp52
 70
     0
102
RTVSPost2010Prop53
 90
        2
102
RTVSPost2010PropOp53
 70
     1
102
RTVSPost2010Prop54
  1
strokes_ogs.tif
102
RTVSPost2010PropOp54
 70
     1
102
RTVSPost2010Prop55
280
     0
102
RTVSPost2010PropOp55
 70
     1
102
RTVSPost2010Prop56
140
1.0
102
RTVSPost2010PropOp56
 70
     1
102
RTVSPost2010Prop57
140
1.0
102
RTVSPost2010PropOp57
 70
     1
102
RTVSPropertyOp0
 70
     1
102
RTVSPropertyOp1
 70
     1
102
RTVSPropertyOp2
 70
     1
102
RTVSPropertyOp3
 70
     1
102
RTVSPropertyOp4
 70
     1
102
RTVSPropertyOp5
 70
     1
102
RTVSPropertyOp6
 70
     1
102
RTVSPropertyOp7
 70
     1
102
RTVSPropertyOp8
 70
     1
102
RTVSPropertyOp9
 70
     1
102
RTVSPropertyOp10
 70
     1
102
RTVSPropertyOp11
 70
     1
102
RTVSPropertyOp12
 70
     1
102
RTVSPropertyOp13
 70
     1
102
RTVSPropertyOp14
 70
     1
102
RTVSPropertyOp15
 70
     1
102
RTVSPropertyOp16
 70
     1
102
RTVSPropertyOp17
 70
     1
102
RTVSPropertyOp18
 70
     1
102
RTVSPropertyOp19
 70
     1
102
RTVSPropertyOp20
 70
     1
102
RTVSPropertyOp21
 70
     1
102
RTVSPropertyOp22
 70
     1
102
RTVSPropertyOp23
 70
     1
102
RTVSPropertyOp24
 70
     1
102
RTVSPropertyOp25
 70
     1
102
RTVSPropertyOp26
 70
     1
102
RTVSPropertyOp27
 70
     1
102
RTVSPropertyOp28
 70
     1
102
RTVSPropertyOp29
 70
     1
102
RTVSPropertyOp30
 70
     1
102
RTVSPropertyOp31
 70
     1
102
RTVSPropertyOp32
 70
     1
102
RTVSPropertyOp33
 70
     1
102
RTVSPropertyOp34
 70
     1
102
RTVSPropertyOp35
 70
     1
102
RTVSPropertyOp36
 70
     1
102
RTVSPropertyOp37
 70
     1
102
RTVSPropertyOp38
 70
     1
102
RTVSPropertyOp39
 70
     1
102
RTVSPropertyOp40
 70
     1
102
RTVSPropertyOp41
 70
     1
102
RTVSPropertyOp42
 70
     1
102
RTVSPropertyOp43
 70
     1
102
RTVSPropertyOp44
 70
     1
102
RTVSPropertyOp45
 70
     1
102
RTVSPropertyOp46
 70
     1
102
RTVSPropertyOp47
 70
     1
102
RTVSPropertyOp48
 70
     1
102
RTVSPropertyOp49
 70
     1
102
RTVSPropertyOp50
 70
     1
102
RTVSPropertyOp51
 70
     0
102
RTVSPropertyOp52
 70
     0
102
RTVSPropertyOp53
 70
     1
102
RTVSPropertyOp54
 70
     1
102
RTVSPropertyOp55
 70
     1
102
RTVSPropertyOp56
 70
     1
102
RTVSPropertyOp57
 70
     1
102
RTVSPropertyOp58
 70
     1
102
RTVSPropertyOp59
 70
     1
102
RTVSPropertyOp60
 70
     1
102
RTVSPropertyOp61
 70
     1
102
RTVSPropertyOp62
 70
     1
  0
XRECORD
  5
376
102
{ACAD_REACTORS
330
375
102
}
330
375
100
AcDbXrecord
280
     1
102
RTVSPost2010Prop28
280
     0
102
RTVSPost2010PropOp28
 70
     1
102
RTVSPost2010Prop29
280
     1
102
RTVSPost2010PropOp29
 70
     1
102
RTVSPost2010Prop30
280
     1
102
RTVSPost2010PropOp30
 70
     1
102
RTVSPost2010Prop31
280
     0
102
RTVSPost2010PropOp31
 70
     1
102
RTVSPost2010Prop32
280
     0
102
RTVSPost2010PropOp32
 70
     1
102
RTVSPost2010Prop33
280
     0
102
RTVSPost2010PropOp33
 70
     1
102
RTVSPost2010Prop34
280
     0
102
RTVSPost2010PropOp34
 70
     1
102
RTVSPost2010Prop35
280
     0
102
RTVSPost2010PropOp35
 70
     1
102
RTVSPost2010Prop36
280
     0
102
RTVSPost2010PropOp36
 70
     1
102
RTVSPost2010Prop37
 90
       50
102
RTVSPost2010PropOp37
 70
     1
102
RTVSPost2010Prop38
140
0.0
102
RTVSPost2010PropOp38
 70
     1
102
RTVSPost2010Prop39
140
1.0
102
RTVSPost2010PropOp39
 70
     1
102
RTVSPost2010Prop40
 90
        0
102
RTVSPost2010PropOp40
 70
     1
102
RTVSPost2010Prop41ColorIndex
 90
       18
102
RTVSPost2010Prop41ColorRGB
 90
        0
102
RTVSPost2010PropOp41
 70
     1
102
RTVSPost2010Prop42
 90
       50
102
RTVSPost2010PropOp42
 70
     1
102
RTVSPost2010Prop43
 90
        3
102
RTVSPost2010PropOp43
 70
     1
102
RTVSPost2010Prop44ColorIndex
 90
        5
102
RTVSPost2010Prop44ColorRGB
 90
      255
102
RTVSPost2010PropOp44
 70
     1
102
RTVSPost2010Prop45
280
     0
102
RTVSPost2010PropOp45
 70
     1
102
RTVSPost2010Prop46
 90
       50
102
RTVSPost2010PropOp46
 70
     1
102
RTVSPost2010Prop47
 90
       50
102
RTVSPost2010PropOp47
 70
     1
102
RTVSPost2010Prop48
 90
       50
102
RTVSPost2010PropOp48
 70
     1
102
RTVSPost2010Prop49
280
     0
102
RTVSPost2010PropOp49
 70
     1
102
RTVSPost2010Prop50
 90
       50
102
RTVSPost2010PropOp50
 70
     1
102
RTVSPost2010Prop51ColorIndex
 90
      256
102
RTVSPost2010Prop51ColorRGB
 90
-16777216
102
RTVSPost2010PropOp51
 70
     0
102
RTVSPost2010Prop52
140
1.0
102
RTVSPost2010PropOp52
 70
     0
102
RTVSPost2010Prop53
 90
        2
102
RTVSPost2010PropOp53
 70
     1
102
RTVSPost2010Prop54
  1
strokes_ogs.tif
102
RTVSPost2010PropOp54
 70
     1
102
RTVSPost2010Prop55
280
     0
102
RTVSPost2010PropOp55
 70
     1
102
RTVSPost2010Prop56
140
1.0
102
RTVSPost2010PropOp56
 70
     1
102
RTVSPost2010Prop57
140
1.0
102
RTVSPost2010PropOp57
 70
     1
102
RTVSPropertyOp0
 70
     1
102
RTVSPropertyOp1
 70
     1
102
RTVSPropertyOp2
 70
     1
102
RTVSPropertyOp3
 70
     1
102
RTVSPropertyOp4
 70
     1
102
RTVSPropertyOp5
 70
     1
102
RTVSPropertyOp6
 70
     1
102
RTVSPropertyOp7
 70
     1
102
RTVSPropertyOp8
 70
     1
102
RTVSPropertyOp9
 70
     1
102
RTVSPropertyOp10
 70
     1
102
RTVSPropertyOp11
 70
     1
102
RTVSPropertyOp12
 70
     1
102
RTVSPropertyOp13
 70
     1
102
RTVSPropertyOp14
 70
     1
102
RTVSPropertyOp15
 70
     1
102
RTVSPropertyOp16
 70
     1
102
RTVSPropertyOp17
 70
     1
102
RTVSPropertyOp18
 70
     1
102
RTVSPropertyOp19
 70
     1
102
RTVSPropertyOp20
 70
     1
102
RTVSPropertyOp21
 70
     1
102
RTVSPropertyOp22
 70
     1
102
RTVSPropertyOp23
 70
     1
102
RTVSPropertyOp24
 70
     1
102
RTVSPropertyOp25
 70
     1
102
RTVSPropertyOp26
 70
     1
102
RTVSPropertyOp27
 70
     1
102
RTVSPropertyOp28
 70
     1
102
RTVSPropertyOp29
 70
     1
102
RTVSPropertyOp30
 70
     1
102
RTVSPropertyOp31
 70
     1
102
RTVSPropertyOp32
 70
     1
102
RTVSPropertyOp33
 70
     1
102
RTVSPropertyOp34
 70
     1
102
RTVSPropertyOp35
 70
     1
102
RTVSPropertyOp36
 70
     1
102
RTVSPropertyOp37
 70
     1
102
RTVSPropertyOp38
 70
     1
102
RTVSPropertyOp39
 70
     1
102
RTVSPropertyOp40
 70
     1
102
RTVSPropertyOp41
 70
     1
102
RTVSPropertyOp42
 70
     1
102
RTVSPropertyOp43
 70
     1
102
RTVSPropertyOp44
 70
     1
102
RTVSPropertyOp45
 70
     1
102
RTVSPropertyOp46
 70
     1
102
RTVSPropertyOp47
 70
     1
102
RTVSPropertyOp48
 70
     1
102
RTVSPropertyOp49
 70
     1
102
RTVSPropertyOp50
 70
     1
102
RTVSPropertyOp51
 70
     0
102
RTVSPropertyOp52
 70
     0
102
RTVSPropertyOp53
 70
     1
102
RTVSPropertyOp54
 70
     1
102
RTVSPropertyOp55
 70
     1
102
RTVSPropertyOp56
 70
     1
102
RTVSPropertyOp57
 70
     1
102
RTVSPropertyOp58
 70
     1
102
RTVSPropertyOp59
 70
     1
102
RTVSPropertyOp60
 70
     1
102
RTVSPropertyOp61
 70
     1
102
RTVSPropertyOp62
 70
     1
  0
XRECORD
  5
37E
102
{ACAD_REACTORS
330
37D
102
}
330
37D
100
AcDbXrecord
280
     1
102
RTVSPost2010Prop28
280
     0
102
RTVSPost2010PropOp28
 70
     1
102
RTVSPost2010Prop29
280
     1
102
RTVSPost2010PropOp29
 70
     1
102
RTVSPost2010Prop30
280
     1
102
RTVSPost2010PropOp30
 70
     1
102
RTVSPost2010Prop31
280
     0
102
RTVSPost2010PropOp31
 70
     1
102
RTVSPost2010Prop32
280
     0
102
RTVSPost2010PropOp32
 70
     1
102
RTVSPost2010Prop33
280
     0
102
RTVSPost2010PropOp33
 70
     1
102
RTVSPost2010Prop34
280
     0
102
RTVSPost2010PropOp34
 70
     1
102
RTVSPost2010Prop35
280
     0
102
RTVSPost2010PropOp35
 70
     1
102
RTVSPost2010Prop36
280
     0
102
RTVSPost2010PropOp36
 70
     1
102
RTVSPost2010Prop37
 90
       50
102
RTVSPost2010PropOp37
 70
     1
102
RTVSPost2010Prop38
140
0.0
102
RTVSPost2010PropOp38
 70
     1
102
RTVSPost2010Prop39
140
1.0
102
RTVSPost2010PropOp39
 70
     1
102
RTVSPost2010Prop40
 90
        0
102
RTVSPost2010PropOp40
 70
     1
102
RTVSPost2010Prop41ColorIndex
 90
       18
102
RTVSPost2010Prop41ColorRGB
 90
        0
102
RTVSPost2010PropOp41
 70
     1
102
RTVSPost2010Prop42
 90
       50
102
RTVSPost2010PropOp42
 70
     1
102
RTVSPost2010Prop43
 90
        3
102
RTVSPost2010PropOp43
 70
     1
102
RTVSPost2010Prop44ColorIndex
 90
        5
102
RTVSPost2010Prop44ColorRGB
 90
      255
102
RTVSPost2010PropOp44
 70
     1
102
RTVSPost2010Prop45
280
     0
102
RTVSPost2010PropOp45
 70
     1
102
RTVSPost2010Prop46
 90
       50
102
RTVSPost2010PropOp46
 70
     1
102
RTVSPost2010Prop47
 90
       50
102
RTVSPost2010PropOp47
 70
     1
102
RTVSPost2010Prop48
 90
       50
102
RTVSPost2010PropOp48
 70
     1
102
RTVSPost2010Prop49
280
     0
102
RTVSPost2010PropOp49
 70
     1
102
RTVSPost2010Prop50
 90
       50
102
RTVSPost2010PropOp50
 70
     1
102
RTVSPost2010Prop51ColorIndex
 90
      256
102
RTVSPost2010Prop51ColorRGB
 90
-16777216
102
RTVSPost2010PropOp51
 70
     0
102
RTVSPost2010Prop52
140
1.0
102
RTVSPost2010PropOp52
 70
     0
102
RTVSPost2010Prop53
 90
        2
102
RTVSPost2010PropOp53
 70
     1
102
RTVSPost2010Prop54
  1
strokes_ogs.tif
102
RTVSPost2010PropOp54
 70
     1
102
RTVSPost2010Prop55
280
     0
102
RTVSPost2010PropOp55
 70
     1
102
RTVSPost2010Prop56
140
1.0
102
RTVSPost2010PropOp56
 70
     1
102
RTVSPost2010Prop57
140
1.0
102
RTVSPost2010PropOp57
 70
     1
102
RTVSPropertyOp0
 70
     1
102
RTVSPropertyOp1
 70
     1
102
RTVSPropertyOp2
 70
     1
102
RTVSPropertyOp3
 70
     1
102
RTVSPropertyOp4
 70
     1
102
RTVSPropertyOp5
 70
     1
102
RTVSPropertyOp6
 70
     1
102
RTVSPropertyOp7
 70
     1
102
RTVSPropertyOp8
 70
     1
102
RTVSPropertyOp9
 70
     1
102
RTVSPropertyOp10
 70
     1
102
RTVSPropertyOp11
 70
     1
102
RTVSPropertyOp12
 70
     1
102
RTVSPropertyOp13
 70
     1
102
RTVSPropertyOp14
 70
     1
102
RTVSPropertyOp15
 70
     1
102
RTVSPropertyOp16
 70
     1
102
RTVSPropertyOp17
 70
     1
102
RTVSPropertyOp18
 70
     1
102
RTVSPropertyOp19
 70
     1
102
RTVSPropertyOp20
 70
     1
102
RTVSPropertyOp21
 70
     1
102
RTVSPropertyOp22
 70
     1
102
RTVSPropertyOp23
 70
     1
102
RTVSPropertyOp24
 70
     1
102
RTVSPropertyOp25
 70
     1
102
RTVSPropertyOp26
 70
     1
102
RTVSPropertyOp27
 70
     1
102
RTVSPropertyOp28
 70
     1
102
RTVSPropertyOp29
 70
     1
102
RTVSPropertyOp30
 70
     1
102
RTVSPropertyOp31
 70
     1
102
RTVSPropertyOp32
 70
     1
102
RTVSPropertyOp33
 70
     1
102
RTVSPropertyOp34
 70
     1
102
RTVSPropertyOp35
 70
     1
102
RTVSPropertyOp36
 70
     1
102
RTVSPropertyOp37
 70
     1
102
RTVSPropertyOp38
 70
     1
102
RTVSPropertyOp39
 70
     1
102
RTVSPropertyOp40
 70
     1
102
RTVSPropertyOp41
 70
     1
102
RTVSPropertyOp42
 70
     1
102
RTVSPropertyOp43
 70
     1
102
RTVSPropertyOp44
 70
     1
102
RTVSPropertyOp45
 70
     1
102
RTVSPropertyOp46
 70
     1
102
RTVSPropertyOp47
 70
     1
102
RTVSPropertyOp48
 70
     1
102
RTVSPropertyOp49
 70
     1
102
RTVSPropertyOp50
 70
     1
102
RTVSPropertyOp51
 70
     0
102
RTVSPropertyOp52
 70
     0
102
RTVSPropertyOp53
 70
     1
102
RTVSPropertyOp54
 70
     1
102
RTVSPropertyOp55
 70
     1
102
RTVSPropertyOp56
 70
     1
102
RTVSPropertyOp57
 70
     1
102
RTVSPropertyOp58
 70
     1
102
RTVSPropertyOp59
 70
     1
102
RTVSPropertyOp60
 70
     1
102
RTVSPropertyOp61
 70
     1
102
RTVSPropertyOp62
 70
     1
  0
XRECORD
  5
386
102
{ACAD_REACTORS
330
385
102
}
330
385
100
AcDbXrecord
280
     1
102
RTVSPost2010Prop28
280
     0
102
RTVSPost2010PropOp28
 70
     1
102
RTVSPost2010Prop29
280
     1
102
RTVSPost2010PropOp29
 70
     1
102
RTVSPost2010Prop30
280
     1
102
RTVSPost2010PropOp30
 70
     1
102
RTVSPost2010Prop31
280
     0
102
RTVSPost2010PropOp31
 70
     1
102
RTVSPost2010Prop32
280
     0
102
RTVSPost2010PropOp32
 70
     1
102
RTVSPost2010Prop33
280
     0
102
RTVSPost2010PropOp33
 70
     1
102
RTVSPost2010Prop34
280
     0
102
RTVSPost2010PropOp34
 70
     1
102
RTVSPost2010Prop35
280
     0
102
RTVSPost2010PropOp35
 70
     1
102
RTVSPost2010Prop36
280
     0
102
RTVSPost2010PropOp36
 70
     1
102
RTVSPost2010Prop37
 90
       50
102
RTVSPost2010PropOp37
 70
     1
102
RTVSPost2010Prop38
140
0.0
102
RTVSPost2010PropOp38
 70
     1
102
RTVSPost2010Prop39
140
1.0
102
RTVSPost2010PropOp39
 70
     1
102
RTVSPost2010Prop40
 90
        0
102
RTVSPost2010PropOp40
 70
     1
102
RTVSPost2010Prop41ColorIndex
 90
       18
102
RTVSPost2010Prop41ColorRGB
 90
        0
102
RTVSPost2010PropOp41
 70
     1
102
RTVSPost2010Prop42
 90
       50
102
RTVSPost2010PropOp42
 70
     1
102
RTVSPost2010Prop43
 90
        3
102
RTVSPost2010PropOp43
 70
     1
102
RTVSPost2010Prop44ColorIndex
 90
        5
102
RTVSPost2010Prop44ColorRGB
 90
      255
102
RTVSPost2010PropOp44
 70
     1
102
RTVSPost2010Prop45
280
     0
102
RTVSPost2010PropOp45
 70
     1
102
RTVSPost2010Prop46
 90
       50
102
RTVSPost2010PropOp46
 70
     1
102
RTVSPost2010Prop47
 90
       50
102
RTVSPost2010PropOp47
 70
     1
102
RTVSPost2010Prop48
 90
       50
102
RTVSPost2010PropOp48
 70
     1
102
RTVSPost2010Prop49
280
     0
102
RTVSPost2010PropOp49
 70
     1
102
RTVSPost2010Prop50
 90
       50
102
RTVSPost2010PropOp50
 70
     1
102
RTVSPost2010Prop51ColorIndex
 90
      256
102
RTVSPost2010Prop51ColorRGB
 90
-16777216
102
RTVSPost2010PropOp51
 70
     0
102
RTVSPost2010Prop52
140
1.0
102
RTVSPost2010PropOp52
 70
     0
102
RTVSPost2010Prop53
 90
        2
102
RTVSPost2010PropOp53
 70
     1
102
RTVSPost2010Prop54
  1
strokes_ogs.tif
102
RTVSPost2010PropOp54
 70
     1
102
RTVSPost2010Prop55
280
     0
102
RTVSPost2010PropOp55
 70
     1
102
RTVSPost2010Prop56
140
1.0
102
RTVSPost2010PropOp56
 70
     1
102
RTVSPost2010Prop57
140
1.0
102
RTVSPost2010PropOp57
 70
     1
102
RTVSPropertyOp0
 70
     1
102
RTVSPropertyOp1
 70
     1
102
RTVSPropertyOp2
 70
     1
102
RTVSPropertyOp3
 70
     1
102
RTVSPropertyOp4
 70
     1
102
RTVSPropertyOp5
 70
     1
102
RTVSPropertyOp6
 70
     1
102
RTVSPropertyOp7
 70
     1
102
RTVSPropertyOp8
 70
     1
102
RTVSPropertyOp9
 70
     1
102
RTVSPropertyOp10
 70
     1
102
RTVSPropertyOp11
 70
     1
102
RTVSPropertyOp12
 70
     1
102
RTVSPropertyOp13
 70
     1
102
RTVSPropertyOp14
 70
     1
102
RTVSPropertyOp15
 70
     1
102
RTVSPropertyOp16
 70
     1
102
RTVSPropertyOp17
 70
     1
102
RTVSPropertyOp18
 70
     1
102
RTVSPropertyOp19
 70
     1
102
RTVSPropertyOp20
 70
     1
102
RTVSPropertyOp21
 70
     1
102
RTVSPropertyOp22
 70
     1
102
RTVSPropertyOp23
 70
     1
102
RTVSPropertyOp24
 70
     1
102
RTVSPropertyOp25
 70
     1
102
RTVSPropertyOp26
 70
     1
102
RTVSPropertyOp27
 70
     1
102
RTVSPropertyOp28
 70
     1
102
RTVSPropertyOp29
 70
     1
102
RTVSPropertyOp30
 70
     1
102
RTVSPropertyOp31
 70
     1
102
RTVSPropertyOp32
 70
     1
102
RTVSPropertyOp33
 70
     1
102
RTVSPropertyOp34
 70
     1
102
RTVSPropertyOp35
 70
     1
102
RTVSPropertyOp36
 70
     1
102
RTVSPropertyOp37
 70
     1
102
RTVSPropertyOp38
 70
     1
102
RTVSPropertyOp39
 70
     1
102
RTVSPropertyOp40
 70
     1
102
RTVSPropertyOp41
 70
     1
102
RTVSPropertyOp42
 70
     1
102
RTVSPropertyOp43
 70
     1
102
RTVSPropertyOp44
 70
     1
102
RTVSPropertyOp45
 70
     1
102
RTVSPropertyOp46
 70
     1
102
RTVSPropertyOp47
 70
     1
102
RTVSPropertyOp48
 70
     1
102
RTVSPropertyOp49
 70
     1
102
RTVSPropertyOp50
 70
     1
102
RTVSPropertyOp51
 70
     0
102
RTVSPropertyOp52
 70
     0
102
RTVSPropertyOp53
 70
     1
102
RTVSPropertyOp54
 70
     1
102
RTVSPropertyOp55
 70
     1
102
RTVSPropertyOp56
 70
     1
102
RTVSPropertyOp57
 70
     1
102
RTVSPropertyOp58
 70
     1
102
RTVSPropertyOp59
 70
     1
102
RTVSPropertyOp60
 70
     1
102
RTVSPropertyOp61
 70
     1
102
RTVSPropertyOp62
 70
     1
  0
XRECORD
  5
37A
102
{ACAD_REACTORS
330
379
102
}
330
379
100
AcDbXrecord
280
     1
102
RTVSPost2010Prop28
280
     0
102
RTVSPost2010PropOp28
 70
     1
102
RTVSPost2010Prop29
280
     1
102
RTVSPost2010PropOp29
 70
     1
102
RTVSPost2010Prop30
280
     1
102
RTVSPost2010PropOp30
 70
     1
102
RTVSPost2010Prop31
280
     0
102
RTVSPost2010PropOp31
 70
     1
102
RTVSPost2010Prop32
280
     0
102
RTVSPost2010PropOp32
 70
     1
102
RTVSPost2010Prop33
280
     0
102
RTVSPost2010PropOp33
 70
     1
102
RTVSPost2010Prop34
280
     0
102
RTVSPost2010PropOp34
 70
     1
102
RTVSPost2010Prop35
280
     0
102
RTVSPost2010PropOp35
 70
     1
102
RTVSPost2010Prop36
280
     0
102
RTVSPost2010PropOp36
 70
     1
102
RTVSPost2010Prop37
 90
       50
102
RTVSPost2010PropOp37
 70
     1
102
RTVSPost2010Prop38
140
0.0
102
RTVSPost2010PropOp38
 70
     1
102
RTVSPost2010Prop39
140
1.0
102
RTVSPost2010PropOp39
 70
     1
102
RTVSPost2010Prop40
 90
        0
102
RTVSPost2010PropOp40
 70
     1
102
RTVSPost2010Prop41ColorIndex
 90
       18
102
RTVSPost2010Prop41ColorRGB
 90
        0
102
RTVSPost2010PropOp41
 70
     1
102
RTVSPost2010Prop42
 90
       50
102
RTVSPost2010PropOp42
 70
     1
102
RTVSPost2010Prop43
 90
        3
102
RTVSPost2010PropOp43
 70
     1
102
RTVSPost2010Prop44ColorIndex
 90
        5
102
RTVSPost2010Prop44ColorRGB
 90
      255
102
RTVSPost2010PropOp44
 70
     1
102
RTVSPost2010Prop45
280
     0
102
RTVSPost2010PropOp45
 70
     1
102
RTVSPost2010Prop46
 90
       50
102
RTVSPost2010PropOp46
 70
     1
102
RTVSPost2010Prop47
 90
       50
102
RTVSPost2010PropOp47
 70
     1
102
RTVSPost2010Prop48
 90
       50
102
RTVSPost2010PropOp48
 70
     1
102
RTVSPost2010Prop49
280
     0
102
RTVSPost2010PropOp49
 70
     1
102
RTVSPost2010Prop50
 90
       50
102
RTVSPost2010PropOp50
 70
     1
102
RTVSPost2010Prop51ColorIndex
 90
      256
102
RTVSPost2010Prop51ColorRGB
 90
-16777216
102
RTVSPost2010PropOp51
 70
     0
102
RTVSPost2010Prop52
140
1.0
102
RTVSPost2010PropOp52
 70
     0
102
RTVSPost2010Prop53
 90
        2
102
RTVSPost2010PropOp53
 70
     1
102
RTVSPost2010Prop54
  1
strokes_ogs.tif
102
RTVSPost2010PropOp54
 70
     1
102
RTVSPost2010Prop55
280
     0
102
RTVSPost2010PropOp55
 70
     1
102
RTVSPost2010Prop56
140
1.0
102
RTVSPost2010PropOp56
 70
     1
102
RTVSPost2010Prop57
140
1.0
102
RTVSPost2010PropOp57
 70
     1
102
RTVSPropertyOp0
 70
     1
102
RTVSPropertyOp1
 70
     1
102
RTVSPropertyOp2
 70
     1
102
RTVSPropertyOp3
 70
     1
102
RTVSPropertyOp4
 70
     1
102
RTVSPropertyOp5
 70
     1
102
RTVSPropertyOp6
 70
     1
102
RTVSPropertyOp7
 70
     1
102
RTVSPropertyOp8
 70
     1
102
RTVSPropertyOp9
 70
     1
102
RTVSPropertyOp10
 70
     1
102
RTVSPropertyOp11
 70
     1
102
RTVSPropertyOp12
 70
     1
102
RTVSPropertyOp13
 70
     1
102
RTVSPropertyOp14
 70
     1
102
RTVSPropertyOp15
 70
     1
102
RTVSPropertyOp16
 70
     1
102
RTVSPropertyOp17
 70
     1
102
RTVSPropertyOp18
 70
     1
102
RTVSPropertyOp19
 70
     1
102
RTVSPropertyOp20
 70
     1
102
RTVSPropertyOp21
 70
     1
102
RTVSPropertyOp22
 70
     1
102
RTVSPropertyOp23
 70
     1
102
RTVSPropertyOp24
 70
     1
102
RTVSPropertyOp25
 70
     1
102
RTVSPropertyOp26
 70
     1
102
RTVSPropertyOp27
 70
     1
102
RTVSPropertyOp28
 70
     1
102
RTVSPropertyOp29
 70
     1
102
RTVSPropertyOp30
 70
     1
102
RTVSPropertyOp31
 70
     1
102
RTVSPropertyOp32
 70
     1
102
RTVSPropertyOp33
 70
     1
102
RTVSPropertyOp34
 70
     1
102
RTVSPropertyOp35
 70
     1
102
RTVSPropertyOp36
 70
     1
102
RTVSPropertyOp37
 70
     1
102
RTVSPropertyOp38
 70
     1
102
RTVSPropertyOp39
 70
     1
102
RTVSPropertyOp40
 70
     1
102
RTVSPropertyOp41
 70
     1
102
RTVSPropertyOp42
 70
     1
102
RTVSPropertyOp43
 70
     1
102
RTVSPropertyOp44
 70
     1
102
RTVSPropertyOp45
 70
     1
102
RTVSPropertyOp46
 70
     1
102
RTVSPropertyOp47
 70
     1
102
RTVSPropertyOp48
 70
     1
102
RTVSPropertyOp49
 70
     1
102
RTVSPropertyOp50
 70
     1
102
RTVSPropertyOp51
 70
     0
102
RTVSPropertyOp52
 70
     0
102
RTVSPropertyOp53
 70
     1
102
RTVSPropertyOp54
 70
     1
102
RTVSPropertyOp55
 70
     1
102
RTVSPropertyOp56
 70
     1
102
RTVSPropertyOp57
 70
     1
102
RTVSPropertyOp58
 70
     1
102
RTVSPropertyOp59
 70
     1
102
RTVSPropertyOp60
 70
     1
102
RTVSPropertyOp61
 70
     1
102
RTVSPropertyOp62
 70
     1
  0
XRECORD
  5
37C
102
{ACAD_REACTORS
330
37B
102
}
330
37B
100
AcDbXrecord
280
     1
102
RTVSPost2010Prop28
280
     0
102
RTVSPost2010PropOp28
 70
     1
102
RTVSPost2010Prop29
280
     1
102
RTVSPost2010PropOp29
 70
     1
102
RTVSPost2010Prop30
280
     1
102
RTVSPost2010PropOp30
 70
     1
102
RTVSPost2010Prop31
280
     0
102
RTVSPost2010PropOp31
 70
     1
102
RTVSPost2010Prop32
280
     0
102
RTVSPost2010PropOp32
 70
     1
102
RTVSPost2010Prop33
280
     0
102
RTVSPost2010PropOp33
 70
     1
102
RTVSPost2010Prop34
280
     0
102
RTVSPost2010PropOp34
 70
     1
102
RTVSPost2010Prop35
280
     0
102
RTVSPost2010PropOp35
 70
     1
102
RTVSPost2010Prop36
280
     0
102
RTVSPost2010PropOp36
 70
     1
102
RTVSPost2010Prop37
 90
       50
102
RTVSPost2010PropOp37
 70
     1
102
RTVSPost2010Prop38
140
0.0
102
RTVSPost2010PropOp38
 70
     1
102
RTVSPost2010Prop39
140
1.0
102
RTVSPost2010PropOp39
 70
     1
102
RTVSPost2010Prop40
 90
        0
102
RTVSPost2010PropOp40
 70
     1
102
RTVSPost2010Prop41ColorIndex
 90
       18
102
RTVSPost2010Prop41ColorRGB
 90
        0
102
RTVSPost2010PropOp41
 70
     1
102
RTVSPost2010Prop42
 90
       50
102
RTVSPost2010PropOp42
 70
     1
102
RTVSPost2010Prop43
 90
        3
102
RTVSPost2010PropOp43
 70
     1
102
RTVSPost2010Prop44ColorIndex
 90
        5
102
RTVSPost2010Prop44ColorRGB
 90
      255
102
RTVSPost2010PropOp44
 70
     1
102
RTVSPost2010Prop45
280
     0
102
RTVSPost2010PropOp45
 70
     1
102
RTVSPost2010Prop46
 90
       50
102
RTVSPost2010PropOp46
 70
     1
102
RTVSPost2010Prop47
 90
       50
102
RTVSPost2010PropOp47
 70
     1
102
RTVSPost2010Prop48
 90
       50
102
RTVSPost2010PropOp48
 70
     1
102
RTVSPost2010Prop49
280
     0
102
RTVSPost2010PropOp49
 70
     1
102
RTVSPost2010Prop50
 90
       50
102
RTVSPost2010PropOp50
 70
     1
102
RTVSPost2010Prop51ColorIndex
 90
      256
102
RTVSPost2010Prop51ColorRGB
 90
-16777216
102
RTVSPost2010PropOp51
 70
     0
102
RTVSPost2010Prop52
140
1.0
102
RTVSPost2010PropOp52
 70
     0
102
RTVSPost2010Prop53
 90
        2
102
RTVSPost2010PropOp53
 70
     1
102
RTVSPost2010Prop54
  1
strokes_ogs.tif
102
RTVSPost2010PropOp54
 70
     1
102
RTVSPost2010Prop55
280
     0
102
RTVSPost2010PropOp55
 70
     1
102
RTVSPost2010Prop56
140
1.0
102
RTVSPost2010PropOp56
 70
     1
102
RTVSPost2010Prop57
140
1.0
102
RTVSPost2010PropOp57
 70
     1
102
RTVSPropertyOp0
 70
     1
102
RTVSPropertyOp1
 70
     1
102
RTVSPropertyOp2
 70
     1
102
RTVSPropertyOp3
 70
     1
102
RTVSPropertyOp4
 70
     1
102
RTVSPropertyOp5
 70
     1
102
RTVSPropertyOp6
 70
     1
102
RTVSPropertyOp7
 70
     1
102
RTVSPropertyOp8
 70
     1
102
RTVSPropertyOp9
 70
     1
102
RTVSPropertyOp10
 70
     1
102
RTVSPropertyOp11
 70
     1
102
RTVSPropertyOp12
 70
     1
102
RTVSPropertyOp13
 70
     1
102
RTVSPropertyOp14
 70
     1
102
RTVSPropertyOp15
 70
     1
102
RTVSPropertyOp16
 70
     1
102
RTVSPropertyOp17
 70
     1
102
RTVSPropertyOp18
 70
     1
102
RTVSPropertyOp19
 70
     1
102
RTVSPropertyOp20
 70
     1
102
RTVSPropertyOp21
 70
     1
102
RTVSPropertyOp22
 70
     1
102
RTVSPropertyOp23
 70
     1
102
RTVSPropertyOp24
 70
     1
102
RTVSPropertyOp25
 70
     1
102
RTVSPropertyOp26
 70
     1
102
RTVSPropertyOp27
 70
     1
102
RTVSPropertyOp28
 70
     1
102
RTVSPropertyOp29
 70
     1
102
RTVSPropertyOp30
 70
     1
102
RTVSPropertyOp31
 70
     1
102
RTVSPropertyOp32
 70
     1
102
RTVSPropertyOp33
 70
     1
102
RTVSPropertyOp34
 70
     1
102
RTVSPropertyOp35
 70
     1
102
RTVSPropertyOp36
 70
     1
102
RTVSPropertyOp37
 70
     1
102
RTVSPropertyOp38
 70
     1
102
RTVSPropertyOp39
 70
     1
102
RTVSPropertyOp40
 70
     1
102
RTVSPropertyOp41
 70
     1
102
RTVSPropertyOp42
 70
     1
102
RTVSPropertyOp43
 70
     1
102
RTVSPropertyOp44
 70
     1
102
RTVSPropertyOp45
 70
     1
102
RTVSPropertyOp46
 70
     1
102
RTVSPropertyOp47
 70
     1
102
RTVSPropertyOp48
 70
     1
102
RTVSPropertyOp49
 70
     1
102
RTVSPropertyOp50
 70
     1
102
RTVSPropertyOp51
 70
     0
102
RTVSPropertyOp52
 70
     0
102
RTVSPropertyOp53
 70
     1
102
RTVSPropertyOp54
 70
     1
102
RTVSPropertyOp55
 70
     1
102
RTVSPropertyOp56
 70
     1
102
RTVSPropertyOp57
 70
     1
102
RTVSPropertyOp58
 70
     1
102
RTVSPropertyOp59
 70
     1
102
RTVSPropertyOp60
 70
     1
102
RTVSPropertyOp61
 70
     1
102
RTVSPropertyOp62
 70
     1
  0
XRECORD
  5
38C
102
{ACAD_REACTORS
330
38B
102
}
330
38B
100
AcDbXrecord
280
     1
102
RTVSPost2010Prop28
280
     0
102
RTVSPost2010PropOp28
 70
     0
102
RTVSPost2010Prop29
280
     1
102
RTVSPost2010PropOp29
 70
     0
102
RTVSPost2010Prop30
280
     1
102
RTVSPost2010PropOp30
 70
     0
102
RTVSPost2010Prop31
280
     0
102
RTVSPost2010PropOp31
 70
     0
102
RTVSPost2010Prop32
280
     0
102
RTVSPost2010PropOp32
 70
     0
102
RTVSPost2010Prop33
280
     0
102
RTVSPost2010PropOp33
 70
     0
102
RTVSPost2010Prop34
280
     0
102
RTVSPost2010PropOp34
 70
     0
102
RTVSPost2010Prop35
280
     0
102
RTVSPost2010PropOp35
 70
     0
102
RTVSPost2010Prop36
280
     0
102
RTVSPost2010PropOp36
 70
     0
102
RTVSPost2010Prop37
 90
       50
102
RTVSPost2010PropOp37
 70
     0
102
RTVSPost2010Prop38
140
0.0
102
RTVSPost2010PropOp38
 70
     0
102
RTVSPost2010Prop39
140
1.0
102
RTVSPost2010PropOp39
 70
     0
102
RTVSPost2010Prop40
 90
        0
102
RTVSPost2010PropOp40
 70
     0
102
RTVSPost2010Prop41ColorIndex
 90
       18
102
RTVSPost2010Prop41ColorRGB
 90
        0
102
RTVSPost2010PropOp41
 70
     0
102
RTVSPost2010Prop42
 90
       50
102
RTVSPost2010PropOp42
 70
     0
102
RTVSPost2010Prop43
 90
        3
102
RTVSPost2010PropOp43
 70
     0
102
RTVSPost2010Prop44ColorIndex
 90
        5
102
RTVSPost2010Prop44ColorRGB
 90
      255
102
RTVSPost2010PropOp44
 70
     0
102
RTVSPost2010Prop45
280
     0
102
RTVSPost2010PropOp45
 70
     0
102
RTVSPost2010Prop46
 90
       50
102
RTVSPost2010PropOp46
 70
     0
102
RTVSPost2010Prop47
 90
       50
102
RTVSPost2010PropOp47
 70
     0
102
RTVSPost2010Prop48
 90
       50
102
RTVSPost2010PropOp48
 70
     0
102
RTVSPost2010Prop49
280
     0
102
RTVSPost2010PropOp49
 70
     0
102
RTVSPost2010Prop50
 90
       50
102
RTVSPost2010PropOp50
 70
     0
102
RTVSPost2010Prop51ColorIndex
 90
      256
102
RTVSPost2010Prop51ColorRGB
 90
-16777216
102
RTVSPost2010PropOp51
 70
     0
102
RTVSPost2010Prop52
140
1.0
102
RTVSPost2010PropOp52
 70
     0
102
RTVSPost2010Prop53
 90
        2
102
RTVSPost2010PropOp53
 70
     0
102
RTVSPost2010Prop54
  1
strokes_ogs.tif
102
RTVSPost2010PropOp54
 70
     0
102
RTVSPost2010Prop55
280
     0
102
RTVSPost2010PropOp55
 70
     0
102
RTVSPost2010Prop56
140
1.0
102
RTVSPost2010PropOp56
 70
     0
102
RTVSPost2010Prop57
140
1.0
102
RTVSPost2010PropOp57
 70
     0
102
RTVSPropertyOp0
 70
     0
102
RTVSPropertyOp1
 70
     0
102
RTVSPropertyOp2
 70
     0
102
RTVSPropertyOp3
 70
     0
102
RTVSPropertyOp4
 70
     0
102
RTVSPropertyOp5
 70
     0
102
RTVSPropertyOp6
 70
     0
102
RTVSPropertyOp7
 70
     0
102
RTVSPropertyOp8
 70
     0
102
RTVSPropertyOp9
 70
     0
102
RTVSPropertyOp10
 70
     0
102
RTVSPropertyOp11
 70
     0
102
RTVSPropertyOp12
 70
     0
102
RTVSPropertyOp13
 70
     0
102
RTVSPropertyOp14
 70
     2
102
RTVSPropertyOp15
 70
     0
102
RTVSPropertyOp16
 70
     0
102
RTVSPropertyOp17
 70
     0
102
RTVSPropertyOp18
 70
     0
102
RTVSPropertyOp19
 70
     0
102
RTVSPropertyOp20
 70
     0
102
RTVSPropertyOp21
 70
     0
102
RTVSPropertyOp22
 70
     0
102
RTVSPropertyOp23
 70
     0
102
RTVSPropertyOp24
 70
     0
102
RTVSPropertyOp25
 70
     0
102
RTVSPropertyOp26
 70
     0
102
RTVSPropertyOp27
 70
     0
102
RTVSPropertyOp28
 70
     0
102
RTVSPropertyOp29
 70
     0
102
RTVSPropertyOp30
 70
     0
102
RTVSPropertyOp31
 70
     0
102
RTVSPropertyOp32
 70
     0
102
RTVSPropertyOp33
 70
     0
102
RTVSPropertyOp34
 70
     0
102
RTVSPropertyOp35
 70
     0
102
RTVSPropertyOp36
 70
     0
102
RTVSPropertyOp37
 70
     0
102
RTVSPropertyOp38
 70
     0
102
RTVSPropertyOp39
 70
     0
102
RTVSPropertyOp40
 70
     0
102
RTVSPropertyOp41
 70
     0
102
RTVSPropertyOp42
 70
     0
102
RTVSPropertyOp43
 70
     0
102
RTVSPropertyOp44
 70
     0
102
RTVSPropertyOp45
 70
     0
102
RTVSPropertyOp46
 70
     0
102
RTVSPropertyOp47
 70
     0
102
RTVSPropertyOp48
 70
     0
102
RTVSPropertyOp49
 70
     0
102
RTVSPropertyOp50
 70
     0
102
RTVSPropertyOp51
 70
     0
102
RTVSPropertyOp52
 70
     0
102
RTVSPropertyOp53
 70
     0
102
RTVSPropertyOp54
 70
     0
102
RTVSPropertyOp55
 70
     0
102
RTVSPropertyOp56
 70
     0
102
RTVSPropertyOp57
 70
     0
102
RTVSPropertyOp58
 70
     1
102
RTVSPropertyOp59
 70
     1
102
RTVSPropertyOp60
 70
     1
102
RTVSPropertyOp61
 70
     1
102
RTVSPropertyOp62
 70
     1
  0
XRECORD
  5
384
102
{ACAD_REACTORS
330
383
102
}
330
383
100
AcDbXrecord
280
     1
102
RTVSPost2010Prop28
280
     0
102
RTVSPost2010PropOp28
 70
     1
102
RTVSPost2010Prop29
280
     1
102
RTVSPost2010PropOp29
 70
     1
102
RTVSPost2010Prop30
280
     1
102
RTVSPost2010PropOp30
 70
     1
102
RTVSPost2010Prop31
280
     0
102
RTVSPost2010PropOp31
 70
     1
102
RTVSPost2010Prop32
280
     0
102
RTVSPost2010PropOp32
 70
     1
102
RTVSPost2010Prop33
280
     0
102
RTVSPost2010PropOp33
 70
     1
102
RTVSPost2010Prop34
280
     0
102
RTVSPost2010PropOp34
 70
     1
102
RTVSPost2010Prop35
280
     0
102
RTVSPost2010PropOp35
 70
     1
102
RTVSPost2010Prop36
280
     0
102
RTVSPost2010PropOp36
 70
     1
102
RTVSPost2010Prop37
 90
       50
102
RTVSPost2010PropOp37
 70
     1
102
RTVSPost2010Prop38
140
0.0
102
RTVSPost2010PropOp38
 70
     1
102
RTVSPost2010Prop39
140
1.0
102
RTVSPost2010PropOp39
 70
     1
102
RTVSPost2010Prop40
 90
        0
102
RTVSPost2010PropOp40
 70
     1
102
RTVSPost2010Prop41ColorIndex
 90
       18
102
RTVSPost2010Prop41ColorRGB
 90
        0
102
RTVSPost2010PropOp41
 70
     1
102
RTVSPost2010Prop42
 90
       50
102
RTVSPost2010PropOp42
 70
     1
102
RTVSPost2010Prop43
 90
        3
102
RTVSPost2010PropOp43
 70
     1
102
RTVSPost2010Prop44ColorIndex
 90
        5
102
RTVSPost2010Prop44ColorRGB
 90
      255
102
RTVSPost2010PropOp44
 70
     1
102
RTVSPost2010Prop45
280
     0
102
RTVSPost2010PropOp45
 70
     1
102
RTVSPost2010Prop46
 90
       50
102
RTVSPost2010PropOp46
 70
     1
102
RTVSPost2010Prop47
 90
       50
102
RTVSPost2010PropOp47
 70
     1
102
RTVSPost2010Prop48
 90
       50
102
RTVSPost2010PropOp48
 70
     1
102
RTVSPost2010Prop49
280
     0
102
RTVSPost2010PropOp49
 70
     1
102
RTVSPost2010Prop50
 90
       50
102
RTVSPost2010PropOp50
 70
     1
102
RTVSPost2010Prop51ColorIndex
 90
      256
102
RTVSPost2010Prop51ColorRGB
 90
-16777216
102
RTVSPost2010PropOp51
 70
     0
102
RTVSPost2010Prop52
140
1.0
102
RTVSPost2010PropOp52
 70
     0
102
RTVSPost2010Prop53
 90
        2
102
RTVSPost2010PropOp53
 70
     1
102
RTVSPost2010Prop54
  1
strokes_ogs.tif
102
RTVSPost2010PropOp54
 70
     1
102
RTVSPost2010Prop55
280
     0
102
RTVSPost2010PropOp55
 70
     1
102
RTVSPost2010Prop56
140
1.0
102
RTVSPost2010PropOp56
 70
     1
102
RTVSPost2010Prop57
140
1.0
102
RTVSPost2010PropOp57
 70
     1
102
RTVSPropertyOp0
 70
     1
102
RTVSPropertyOp1
 70
     1
102
RTVSPropertyOp2
 70
     1
102
RTVSPropertyOp3
 70
     1
102
RTVSPropertyOp4
 70
     1
102
RTVSPropertyOp5
 70
     1
102
RTVSPropertyOp6
 70
     1
102
RTVSPropertyOp7
 70
     1
102
RTVSPropertyOp8
 70
     1
102
RTVSPropertyOp9
 70
     1
102
RTVSPropertyOp10
 70
     1
102
RTVSPropertyOp11
 70
     1
102
RTVSPropertyOp12
 70
     1
102
RTVSPropertyOp13
 70
     1
102
RTVSPropertyOp14
 70
     1
102
RTVSPropertyOp15
 70
     1
102
RTVSPropertyOp16
 70
     1
102
RTVSPropertyOp17
 70
     1
102
RTVSPropertyOp18
 70
     1
102
RTVSPropertyOp19
 70
     1
102
RTVSPropertyOp20
 70
     1
102
RTVSPropertyOp21
 70
     1
102
RTVSPropertyOp22
 70
     1
102
RTVSPropertyOp23
 70
     1
102
RTVSPropertyOp24
 70
     1
102
RTVSPropertyOp25
 70
     1
102
RTVSPropertyOp26
 70
     1
102
RTVSPropertyOp27
 70
     1
102
RTVSPropertyOp28
 70
     1
102
RTVSPropertyOp29
 70
     1
102
RTVSPropertyOp30
 70
     1
102
RTVSPropertyOp31
 70
     1
102
RTVSPropertyOp32
 70
     1
102
RTVSPropertyOp33
 70
     1
102
RTVSPropertyOp34
 70
     1
102
RTVSPropertyOp35
 70
     1
102
RTVSPropertyOp36
 70
     1
102
RTVSPropertyOp37
 70
     1
102
RTVSPropertyOp38
 70
     1
102
RTVSPropertyOp39
 70
     1
102
RTVSPropertyOp40
 70
     1
102
RTVSPropertyOp41
 70
     1
102
RTVSPropertyOp42
 70
     1
102
RTVSPropertyOp43
 70
     1
102
RTVSPropertyOp44
 70
     1
102
RTVSPropertyOp45
 70
     1
102
RTVSPropertyOp46
 70
     1
102
RTVSPropertyOp47
 70
     1
102
RTVSPropertyOp48
 70
     1
102
RTVSPropertyOp49
 70
     1
102
RTVSPropertyOp50
 70
     1
102
RTVSPropertyOp51
 70
     0
102
RTVSPropertyOp52
 70
     0
102
RTVSPropertyOp53
 70
     1
102
RTVSPropertyOp54
 70
     1
102
RTVSPropertyOp55
 70
     1
102
RTVSPropertyOp56
 70
     1
102
RTVSPropertyOp57
 70
     1
102
RTVSPropertyOp58
 70
     1
102
RTVSPropertyOp59
 70
     1
102
RTVSPropertyOp60
 70
     1
102
RTVSPropertyOp61
 70
     1
102
RTVSPropertyOp62
 70
     1
  0
XRECORD
  5
368
102
{ACAD_REACTORS
330
367
102
}
330
367
100
AcDbXrecord
280
     1
102
RTVSPost2010Prop28
280
     0
102
RTVSPost2010PropOp28
 70
     1
102
RTVSPost2010Prop29
280
     1
102
RTVSPost2010PropOp29
 70
     1
102
RTVSPost2010Prop30
280
     1
102
RTVSPost2010PropOp30
 70
     1
102
RTVSPost2010Prop31
280
     0
102
RTVSPost2010PropOp31
 70
     1
102
RTVSPost2010Prop32
280
     0
102
RTVSPost2010PropOp32
 70
     1
102
RTVSPost2010Prop33
280
     0
102
RTVSPost2010PropOp33
 70
     1
102
RTVSPost2010Prop34
280
     0
102
RTVSPost2010PropOp34
 70
     1
102
RTVSPost2010Prop35
280
     0
102
RTVSPost2010PropOp35
 70
     1
102
RTVSPost2010Prop36
280
     0
102
RTVSPost2010PropOp36
 70
     1
102
RTVSPost2010Prop37
 90
       50
102
RTVSPost2010PropOp37
 70
     1
102
RTVSPost2010Prop38
140
0.0
102
RTVSPost2010PropOp38
 70
     1
102
RTVSPost2010Prop39
140
1.0
102
RTVSPost2010PropOp39
 70
     1
102
RTVSPost2010Prop40
 90
        0
102
RTVSPost2010PropOp40
 70
     1
102
RTVSPost2010Prop41ColorIndex
 90
       18
102
RTVSPost2010Prop41ColorRGB
 90
        0
102
RTVSPost2010PropOp41
 70
     1
102
RTVSPost2010Prop42
 90
       50
102
RTVSPost2010PropOp42
 70
     1
102
RTVSPost2010Prop43
 90
        3
102
RTVSPost2010PropOp43
 70
     1
102
RTVSPost2010Prop44ColorIndex
 90
        5
102
RTVSPost2010Prop44ColorRGB
 90
      255
102
RTVSPost2010PropOp44
 70
     1
102
RTVSPost2010Prop45
280
     0
102
RTVSPost2010PropOp45
 70
     1
102
RTVSPost2010Prop46
 90
       50
102
RTVSPost2010PropOp46
 70
     1
102
RTVSPost2010Prop47
 90
       50
102
RTVSPost2010PropOp47
 70
     1
102
RTVSPost2010Prop48
 90
       50
102
RTVSPost2010PropOp48
 70
     1
102
RTVSPost2010Prop49
280
     0
102
RTVSPost2010PropOp49
 70
     1
102
RTVSPost2010Prop50
 90
       50
102
RTVSPost2010PropOp50
 70
     1
102
RTVSPost2010Prop51ColorIndex
 90
      256
102
RTVSPost2010Prop51ColorRGB
 90
-16777216
102
RTVSPost2010PropOp51
 70
     0
102
RTVSPost2010Prop52
140
1.0
102
RTVSPost2010PropOp52
 70
     0
102
RTVSPost2010Prop53
 90
        2
102
RTVSPost2010PropOp53
 70
     1
102
RTVSPost2010Prop54
  1
strokes_ogs.tif
102
RTVSPost2010PropOp54
 70
     1
102
RTVSPost2010Prop55
280
     0
102
RTVSPost2010PropOp55
 70
     1
102
RTVSPost2010Prop56
140
1.0
102
RTVSPost2010PropOp56
 70
     1
102
RTVSPost2010Prop57
140
1.0
102
RTVSPost2010PropOp57
 70
     1
102
RTVSPropertyOp0
 70
     1
102
RTVSPropertyOp1
 70
     1
102
RTVSPropertyOp2
 70
     1
102
RTVSPropertyOp3
 70
     1
102
RTVSPropertyOp4
 70
     1
102
RTVSPropertyOp5
 70
     1
102
RTVSPropertyOp6
 70
     1
102
RTVSPropertyOp7
 70
     1
102
RTVSPropertyOp8
 70
     1
102
RTVSPropertyOp9
 70
     1
102
RTVSPropertyOp10
 70
     1
102
RTVSPropertyOp11
 70
     1
102
RTVSPropertyOp12
 70
     1
102
RTVSPropertyOp13
 70
     1
102
RTVSPropertyOp14
 70
     1
102
RTVSPropertyOp15
 70
     1
102
RTVSPropertyOp16
 70
     1
102
RTVSPropertyOp17
 70
     1
102
RTVSPropertyOp18
 70
     1
102
RTVSPropertyOp19
 70
     1
102
RTVSPropertyOp20
 70
     1
102
RTVSPropertyOp21
 70
     1
102
RTVSPropertyOp22
 70
     1
102
RTVSPropertyOp23
 70
     1
102
RTVSPropertyOp24
 70
     1
102
RTVSPropertyOp25
 70
     1
102
RTVSPropertyOp26
 70
     1
102
RTVSPropertyOp27
 70
     1
102
RTVSPropertyOp28
 70
     1
102
RTVSPropertyOp29
 70
     1
102
RTVSPropertyOp30
 70
     1
102
RTVSPropertyOp31
 70
     1
102
RTVSPropertyOp32
 70
     1
102
RTVSPropertyOp33
 70
     1
102
RTVSPropertyOp34
 70
     1
102
RTVSPropertyOp35
 70
     1
102
RTVSPropertyOp36
 70
     1
102
RTVSPropertyOp37
 70
     1
102
RTVSPropertyOp38
 70
     1
102
RTVSPropertyOp39
 70
     1
102
RTVSPropertyOp40
 70
     1
102
RTVSPropertyOp41
 70
     1
102
RTVSPropertyOp42
 70
     1
102
RTVSPropertyOp43
 70
     1
102
RTVSPropertyOp44
 70
     1
102
RTVSPropertyOp45
 70
     1
102
RTVSPropertyOp46
 70
     1
102
RTVSPropertyOp47
 70
     1
102
RTVSPropertyOp48
 70
     1
102
RTVSPropertyOp49
 70
     1
102
RTVSPropertyOp50
 70
     1
102
RTVSPropertyOp51
 70
     0
102
RTVSPropertyOp52
 70
     0
102
RTVSPropertyOp53
 70
     1
102
RTVSPropertyOp54
 70
     1
102
RTVSPropertyOp55
 70
     1
102
RTVSPropertyOp56
 70
     1
102
RTVSPropertyOp57
 70
     1
102
RTVSPropertyOp58
 70
     1
102
RTVSPropertyOp59
 70
     1
102
RTVSPropertyOp60
 70
     1
102
RTVSPropertyOp61
 70
     1
102
RTVSPropertyOp62
 70
     1
  0
XRECORD
  5
36A
102
{ACAD_REACTORS
330
369
102
}
330
369
100
AcDbXrecord
280
     1
102
RTVSPost2010Prop28
280
     0
102
RTVSPost2010PropOp28
 70
     1
102
RTVSPost2010Prop29
280
     1
102
RTVSPost2010PropOp29
 70
     1
102
RTVSPost2010Prop30
280
     1
102
RTVSPost2010PropOp30
 70
     1
102
RTVSPost2010Prop31
280
     0
102
RTVSPost2010PropOp31
 70
     1
102
RTVSPost2010Prop32
280
     0
102
RTVSPost2010PropOp32
 70
     1
102
RTVSPost2010Prop33
280
     0
102
RTVSPost2010PropOp33
 70
     1
102
RTVSPost2010Prop34
280
     0
102
RTVSPost2010PropOp34
 70
     1
102
RTVSPost2010Prop35
280
     0
102
RTVSPost2010PropOp35
 70
     1
102
RTVSPost2010Prop36
280
     0
102
RTVSPost2010PropOp36
 70
     1
102
RTVSPost2010Prop37
 90
       50
102
RTVSPost2010PropOp37
 70
     1
102
RTVSPost2010Prop38
140
0.0
102
RTVSPost2010PropOp38
 70
     1
102
RTVSPost2010Prop39
140
1.0
102
RTVSPost2010PropOp39
 70
     1
102
RTVSPost2010Prop40
 90
        0
102
RTVSPost2010PropOp40
 70
     1
102
RTVSPost2010Prop41ColorIndex
 90
       18
102
RTVSPost2010Prop41ColorRGB
 90
        0
102
RTVSPost2010PropOp41
 70
     1
102
RTVSPost2010Prop42
 90
       50
102
RTVSPost2010PropOp42
 70
     1
102
RTVSPost2010Prop43
 90
        3
102
RTVSPost2010PropOp43
 70
     1
102
RTVSPost2010Prop44ColorIndex
 90
        5
102
RTVSPost2010Prop44ColorRGB
 90
      255
102
RTVSPost2010PropOp44
 70
     1
102
RTVSPost2010Prop45
280
     0
102
RTVSPost2010PropOp45
 70
     1
102
RTVSPost2010Prop46
 90
       50
102
RTVSPost2010PropOp46
 70
     1
102
RTVSPost2010Prop47
 90
       50
102
RTVSPost2010PropOp47
 70
     1
102
RTVSPost2010Prop48
 90
       50
102
RTVSPost2010PropOp48
 70
     1
102
RTVSPost2010Prop49
280
     0
102
RTVSPost2010PropOp49
 70
     1
102
RTVSPost2010Prop50
 90
       50
102
RTVSPost2010PropOp50
 70
     1
102
RTVSPost2010Prop51ColorIndex
 90
      256
102
RTVSPost2010Prop51ColorRGB
 90
-16777216
102
RTVSPost2010PropOp51
 70
     0
102
RTVSPost2010Prop52
140
1.0
102
RTVSPost2010PropOp52
 70
     0
102
RTVSPost2010Prop53
 90
        2
102
RTVSPost2010PropOp53
 70
     1
102
RTVSPost2010Prop54
  1
strokes_ogs.tif
102
RTVSPost2010PropOp54
 70
     1
102
RTVSPost2010Prop55
280
     0
102
RTVSPost2010PropOp55
 70
     1
102
RTVSPost2010Prop56
140
1.0
102
RTVSPost2010PropOp56
 70
     1
102
RTVSPost2010Prop57
140
1.0
102
RTVSPost2010PropOp57
 70
     1
102
RTVSPropertyOp0
 70
     1
102
RTVSPropertyOp1
 70
     1
102
RTVSPropertyOp2
 70
     1
102
RTVSPropertyOp3
 70
     1
102
RTVSPropertyOp4
 70
     1
102
RTVSPropertyOp5
 70
     1
102
RTVSPropertyOp6
 70
     1
102
RTVSPropertyOp7
 70
     1
102
RTVSPropertyOp8
 70
     1
102
RTVSPropertyOp9
 70
     1
102
RTVSPropertyOp10
 70
     1
102
RTVSPropertyOp11
 70
     1
102
RTVSPropertyOp12
 70
     1
102
RTVSPropertyOp13
 70
     1
102
RTVSPropertyOp14
 70
     1
102
RTVSPropertyOp15
 70
     1
102
RTVSPropertyOp16
 70
     1
102
RTVSPropertyOp17
 70
     1
102
RTVSPropertyOp18
 70
     1
102
RTVSPropertyOp19
 70
     1
102
RTVSPropertyOp20
 70
     1
102
RTVSPropertyOp21
 70
     1
102
RTVSPropertyOp22
 70
     1
102
RTVSPropertyOp23
 70
     1
102
RTVSPropertyOp24
 70
     1
102
RTVSPropertyOp25
 70
     1
102
RTVSPropertyOp26
 70
     1
102
RTVSPropertyOp27
 70
     1
102
RTVSPropertyOp28
 70
     1
102
RTVSPropertyOp29
 70
     1
102
RTVSPropertyOp30
 70
     1
102
RTVSPropertyOp31
 70
     1
102
RTVSPropertyOp32
 70
     1
102
RTVSPropertyOp33
 70
     1
102
RTVSPropertyOp34
 70
     1
102
RTVSPropertyOp35
 70
     1
102
RTVSPropertyOp36
 70
     1
102
RTVSPropertyOp37
 70
     1
102
RTVSPropertyOp38
 70
     1
102
RTVSPropertyOp39
 70
     1
102
RTVSPropertyOp40
 70
     1
102
RTVSPropertyOp41
 70
     1
102
RTVSPropertyOp42
 70
     1
102
RTVSPropertyOp43
 70
     1
102
RTVSPropertyOp44
 70
     1
102
RTVSPropertyOp45
 70
     1
102
RTVSPropertyOp46
 70
     1
102
RTVSPropertyOp47
 70
     1
102
RTVSPropertyOp48
 70
     1
102
RTVSPropertyOp49
 70
     1
102
RTVSPropertyOp50
 70
     1
102
RTVSPropertyOp51
 70
     0
102
RTVSPropertyOp52
 70
     0
102
RTVSPropertyOp53
 70
     1
102
RTVSPropertyOp54
 70
     1
102
RTVSPropertyOp55
 70
     1
102
RTVSPropertyOp56
 70
     1
102
RTVSPropertyOp57
 70
     1
102
RTVSPropertyOp58
 70
     1
102
RTVSPropertyOp59
 70
     1
102
RTVSPropertyOp60
 70
     1
102
RTVSPropertyOp61
 70
     1
102
RTVSPropertyOp62
 70
     1
  0
XRECORD
  5
36C
102
{ACAD_REACTORS
330
36B
102
}
330
36B
100
AcDbXrecord
280
     1
102
RTVSPost2010Prop28
280
     0
102
RTVSPost2010PropOp28
 70
     1
102
RTVSPost2010Prop29
280
     1
102
RTVSPost2010PropOp29
 70
     1
102
RTVSPost2010Prop30
280
     1
102
RTVSPost2010PropOp30
 70
     1
102
RTVSPost2010Prop31
280
     0
102
RTVSPost2010PropOp31
 70
     1
102
RTVSPost2010Prop32
280
     0
102
RTVSPost2010PropOp32
 70
     1
102
RTVSPost2010Prop33
280
     0
102
RTVSPost2010PropOp33
 70
     1
102
RTVSPost2010Prop34
280
     0
102
RTVSPost2010PropOp34
 70
     1
102
RTVSPost2010Prop35
280
     0
102
RTVSPost2010PropOp35
 70
     1
102
RTVSPost2010Prop36
280
     0
102
RTVSPost2010PropOp36
 70
     1
102
RTVSPost2010Prop37
 90
       50
102
RTVSPost2010PropOp37
 70
     1
102
RTVSPost2010Prop38
140
0.0
102
RTVSPost2010PropOp38
 70
     1
102
RTVSPost2010Prop39
140
1.0
102
RTVSPost2010PropOp39
 70
     1
102
RTVSPost2010Prop40
 90
        0
102
RTVSPost2010PropOp40
 70
     1
102
RTVSPost2010Prop41ColorIndex
 90
       18
102
RTVSPost2010Prop41ColorRGB
 90
        0
102
RTVSPost2010PropOp41
 70
     1
102
RTVSPost2010Prop42
 90
       50
102
RTVSPost2010PropOp42
 70
     1
102
RTVSPost2010Prop43
 90
        3
102
RTVSPost2010PropOp43
 70
     1
102
RTVSPost2010Prop44ColorIndex
 90
        5
102
RTVSPost2010Prop44ColorRGB
 90
      255
102
RTVSPost2010PropOp44
 70
     1
102
RTVSPost2010Prop45
280
     0
102
RTVSPost2010PropOp45
 70
     1
102
RTVSPost2010Prop46
 90
       50
102
RTVSPost2010PropOp46
 70
     1
102
RTVSPost2010Prop47
 90
       50
102
RTVSPost2010PropOp47
 70
     1
102
RTVSPost2010Prop48
 90
       50
102
RTVSPost2010PropOp48
 70
     1
102
RTVSPost2010Prop49
280
     0
102
RTVSPost2010PropOp49
 70
     1
102
RTVSPost2010Prop50
 90
       50
102
RTVSPost2010PropOp50
 70
     1
102
RTVSPost2010Prop51ColorIndex
 90
      256
102
RTVSPost2010Prop51ColorRGB
 90
-16777216
102
RTVSPost2010PropOp51
 70
     0
102
RTVSPost2010Prop52
140
1.0
102
RTVSPost2010PropOp52
 70
     0
102
RTVSPost2010Prop53
 90
        2
102
RTVSPost2010PropOp53
 70
     1
102
RTVSPost2010Prop54
  1
strokes_ogs.tif
102
RTVSPost2010PropOp54
 70
     1
102
RTVSPost2010Prop55
280
     0
102
RTVSPost2010PropOp55
 70
     1
102
RTVSPost2010Prop56
140
1.0
102
RTVSPost2010PropOp56
 70
     1
102
RTVSPost2010Prop57
140
1.0
102
RTVSPost2010PropOp57
 70
     1
102
RTVSPropertyOp0
 70
     1
102
RTVSPropertyOp1
 70
     1
102
RTVSPropertyOp2
 70
     1
102
RTVSPropertyOp3
 70
     1
102
RTVSPropertyOp4
 70
     1
102
RTVSPropertyOp5
 70
     1
102
RTVSPropertyOp6
 70
     1
102
RTVSPropertyOp7
 70
     1
102
RTVSPropertyOp8
 70
     1
102
RTVSPropertyOp9
 70
     1
102
RTVSPropertyOp10
 70
     1
102
RTVSPropertyOp11
 70
     1
102
RTVSPropertyOp12
 70
     1
102
RTVSPropertyOp13
 70
     1
102
RTVSPropertyOp14
 70
     1
102
RTVSPropertyOp15
 70
     1
102
RTVSPropertyOp16
 70
     1
102
RTVSPropertyOp17
 70
     1
102
RTVSPropertyOp18
 70
     1
102
RTVSPropertyOp19
 70
     1
102
RTVSPropertyOp20
 70
     1
102
RTVSPropertyOp21
 70
     1
102
RTVSPropertyOp22
 70
     1
102
RTVSPropertyOp23
 70
     1
102
RTVSPropertyOp24
 70
     1
102
RTVSPropertyOp25
 70
     1
102
RTVSPropertyOp26
 70
     1
102
RTVSPropertyOp27
 70
     1
102
RTVSPropertyOp28
 70
     1
102
RTVSPropertyOp29
 70
     1
102
RTVSPropertyOp30
 70
     1
102
RTVSPropertyOp31
 70
     1
102
RTVSPropertyOp32
 70
     1
102
RTVSPropertyOp33
 70
     1
102
RTVSPropertyOp34
 70
     1
102
RTVSPropertyOp35
 70
     1
102
RTVSPropertyOp36
 70
     1
102
RTVSPropertyOp37
 70
     1
102
RTVSPropertyOp38
 70
     1
102
RTVSPropertyOp39
 70
     1
102
RTVSPropertyOp40
 70
     1
102
RTVSPropertyOp41
 70
     1
102
RTVSPropertyOp42
 70
     1
102
RTVSPropertyOp43
 70
     1
102
RTVSPropertyOp44
 70
     1
102
RTVSPropertyOp45
 70
     1
102
RTVSPropertyOp46
 70
     1
102
RTVSPropertyOp47
 70
     1
102
RTVSPropertyOp48
 70
     1
102
RTVSPropertyOp49
 70
     1
102
RTVSPropertyOp50
 70
     1
102
RTVSPropertyOp51
 70
     0
102
RTVSPropertyOp52
 70
     0
102
RTVSPropertyOp53
 70
     1
102
RTVSPropertyOp54
 70
     1
102
RTVSPropertyOp55
 70
     1
102
RTVSPropertyOp56
 70
     1
102
RTVSPropertyOp57
 70
     1
102
RTVSPropertyOp58
 70
     1
102
RTVSPropertyOp59
 70
     1
102
RTVSPropertyOp60
 70
     1
102
RTVSPropertyOp61
 70
     1
102
RTVSPropertyOp62
 70
     1
  0
XRECORD
  5
36E
102
{ACAD_REACTORS
330
36D
102
}
330
36D
100
AcDbXrecord
280
     1
102
RTVSPost2010Prop28
280
     0
102
RTVSPost2010PropOp28
 70
     1
102
RTVSPost2010Prop29
280
     1
102
RTVSPost2010PropOp29
 70
     1
102
RTVSPost2010Prop30
280
     1
102
RTVSPost2010PropOp30
 70
     1
102
RTVSPost2010Prop31
280
     0
102
RTVSPost2010PropOp31
 70
     1
102
RTVSPost2010Prop32
280
     0
102
RTVSPost2010PropOp32
 70
     1
102
RTVSPost2010Prop33
280
     0
102
RTVSPost2010PropOp33
 70
     1
102
RTVSPost2010Prop34
280
     0
102
RTVSPost2010PropOp34
 70
     1
102
RTVSPost2010Prop35
280
     0
102
RTVSPost2010PropOp35
 70
     1
102
RTVSPost2010Prop36
280
     0
102
RTVSPost2010PropOp36
 70
     1
102
RTVSPost2010Prop37
 90
       50
102
RTVSPost2010PropOp37
 70
     1
102
RTVSPost2010Prop38
140
0.0
102
RTVSPost2010PropOp38
 70
     1
102
RTVSPost2010Prop39
140
1.0
102
RTVSPost2010PropOp39
 70
     1
102
RTVSPost2010Prop40
 90
        0
102
RTVSPost2010PropOp40
 70
     1
102
RTVSPost2010Prop41ColorIndex
 90
       18
102
RTVSPost2010Prop41ColorRGB
 90
        0
102
RTVSPost2010PropOp41
 70
     1
102
RTVSPost2010Prop42
 90
       50
102
RTVSPost2010PropOp42
 70
     1
102
RTVSPost2010Prop43
 90
        3
102
RTVSPost2010PropOp43
 70
     1
102
RTVSPost2010Prop44ColorIndex
 90
        5
102
RTVSPost2010Prop44ColorRGB
 90
      255
102
RTVSPost2010PropOp44
 70
     1
102
RTVSPost2010Prop45
280
     0
102
RTVSPost2010PropOp45
 70
     1
102
RTVSPost2010Prop46
 90
       50
102
RTVSPost2010PropOp46
 70
     1
102
RTVSPost2010Prop47
 90
       50
102
RTVSPost2010PropOp47
 70
     1
102
RTVSPost2010Prop48
 90
       50
102
RTVSPost2010PropOp48
 70
     1
102
RTVSPost2010Prop49
280
     0
102
RTVSPost2010PropOp49
 70
     1
102
RTVSPost2010Prop50
 90
       50
102
RTVSPost2010PropOp50
 70
     1
102
RTVSPost2010Prop51ColorIndex
 90
      256
102
RTVSPost2010Prop51ColorRGB
 90
-16777216
102
RTVSPost2010PropOp51
 70
     0
102
RTVSPost2010Prop52
140
1.0
102
RTVSPost2010PropOp52
 70
     0
102
RTVSPost2010Prop53
 90
        2
102
RTVSPost2010PropOp53
 70
     1
102
RTVSPost2010Prop54
  1
strokes_ogs.tif
102
RTVSPost2010PropOp54
 70
     1
102
RTVSPost2010Prop55
280
     0
102
RTVSPost2010PropOp55
 70
     1
102
RTVSPost2010Prop56
140
1.0
102
RTVSPost2010PropOp56
 70
     1
102
RTVSPost2010Prop57
140
1.0
102
RTVSPost2010PropOp57
 70
     1
102
RTVSPropertyOp0
 70
     1
102
RTVSPropertyOp1
 70
     1
102
RTVSPropertyOp2
 70
     1
102
RTVSPropertyOp3
 70
     1
102
RTVSPropertyOp4
 70
     1
102
RTVSPropertyOp5
 70
     1
102
RTVSPropertyOp6
 70
     1
102
RTVSPropertyOp7
 70
     1
102
RTVSPropertyOp8
 70
     1
102
RTVSPropertyOp9
 70
     1
102
RTVSPropertyOp10
 70
     1
102
RTVSPropertyOp11
 70
     1
102
RTVSPropertyOp12
 70
     1
102
RTVSPropertyOp13
 70
     1
102
RTVSPropertyOp14
 70
     1
102
RTVSPropertyOp15
 70
     1
102
RTVSPropertyOp16
 70
     1
102
RTVSPropertyOp17
 70
     1
102
RTVSPropertyOp18
 70
     1
102
RTVSPropertyOp19
 70
     1
102
RTVSPropertyOp20
 70
     1
102
RTVSPropertyOp21
 70
     1
102
RTVSPropertyOp22
 70
     1
102
RTVSPropertyOp23
 70
     1
102
RTVSPropertyOp24
 70
     1
102
RTVSPropertyOp25
 70
     1
102
RTVSPropertyOp26
 70
     1
102
RTVSPropertyOp27
 70
     1
102
RTVSPropertyOp28
 70
     1
102
RTVSPropertyOp29
 70
     1
102
RTVSPropertyOp30
 70
     1
102
RTVSPropertyOp31
 70
     1
102
RTVSPropertyOp32
 70
     1
102
RTVSPropertyOp33
 70
     1
102
RTVSPropertyOp34
 70
     1
102
RTVSPropertyOp35
 70
     1
102
RTVSPropertyOp36
 70
     1
102
RTVSPropertyOp37
 70
     1
102
RTVSPropertyOp38
 70
     1
102
RTVSPropertyOp39
 70
     1
102
RTVSPropertyOp40
 70
     1
102
RTVSPropertyOp41
 70
     1
102
RTVSPropertyOp42
 70
     1
102
RTVSPropertyOp43
 70
     1
102
RTVSPropertyOp44
 70
     1
102
RTVSPropertyOp45
 70
     1
102
RTVSPropertyOp46
 70
     1
102
RTVSPropertyOp47
 70
     1
102
RTVSPropertyOp48
 70
     1
102
RTVSPropertyOp49
 70
     1
102
RTVSPropertyOp50
 70
     1
102
RTVSPropertyOp51
 70
     0
102
RTVSPropertyOp52
 70
     0
102
RTVSPropertyOp53
 70
     1
102
RTVSPropertyOp54
 70
     1
102
RTVSPropertyOp55
 70
     1
102
RTVSPropertyOp56
 70
     1
102
RTVSPropertyOp57
 70
     1
102
RTVSPropertyOp58
 70
     1
102
RTVSPropertyOp59
 70
     1
102
RTVSPropertyOp60
 70
     1
102
RTVSPropertyOp61
 70
     1
102
RTVSPropertyOp62
 70
     1
  0
XRECORD
  5
374
102
{ACAD_REACTORS
330
373
102
}
330
373
100
AcDbXrecord
280
     1
102
RTVSPost2010Prop28
280
     0
102
RTVSPost2010PropOp28
 70
     1
102
RTVSPost2010Prop29
280
     1
102
RTVSPost2010PropOp29
 70
     1
102
RTVSPost2010Prop30
280
     1
102
RTVSPost2010PropOp30
 70
     1
102
RTVSPost2010Prop31
280
     0
102
RTVSPost2010PropOp31
 70
     1
102
RTVSPost2010Prop32
280
     0
102
RTVSPost2010PropOp32
 70
     1
102
RTVSPost2010Prop33
280
     0
102
RTVSPost2010PropOp33
 70
     1
102
RTVSPost2010Prop34
280
     0
102
RTVSPost2010PropOp34
 70
     1
102
RTVSPost2010Prop35
280
     0
102
RTVSPost2010PropOp35
 70
     1
102
RTVSPost2010Prop36
280
     0
102
RTVSPost2010PropOp36
 70
     1
102
RTVSPost2010Prop37
 90
       50
102
RTVSPost2010PropOp37
 70
     1
102
RTVSPost2010Prop38
140
0.0
102
RTVSPost2010PropOp38
 70
     1
102
RTVSPost2010Prop39
140
1.0
102
RTVSPost2010PropOp39
 70
     1
102
RTVSPost2010Prop40
 90
        0
102
RTVSPost2010PropOp40
 70
     1
102
RTVSPost2010Prop41ColorIndex
 90
       18
102
RTVSPost2010Prop41ColorRGB
 90
        0
102
RTVSPost2010PropOp41
 70
     1
102
RTVSPost2010Prop42
 90
       50
102
RTVSPost2010PropOp42
 70
     1
102
RTVSPost2010Prop43
 90
        3
102
RTVSPost2010PropOp43
 70
     1
102
RTVSPost2010Prop44ColorIndex
 90
        5
102
RTVSPost2010Prop44ColorRGB
 90
      255
102
RTVSPost2010PropOp44
 70
     1
102
RTVSPost2010Prop45
280
     0
102
RTVSPost2010PropOp45
 70
     1
102
RTVSPost2010Prop46
 90
       50
102
RTVSPost2010PropOp46
 70
     1
102
RTVSPost2010Prop47
 90
       50
102
RTVSPost2010PropOp47
 70
     1
102
RTVSPost2010Prop48
 90
       50
102
RTVSPost2010PropOp48
 70
     1
102
RTVSPost2010Prop49
280
     0
102
RTVSPost2010PropOp49
 70
     1
102
RTVSPost2010Prop50
 90
       50
102
RTVSPost2010PropOp50
 70
     1
102
RTVSPost2010Prop51ColorIndex
 90
      256
102
RTVSPost2010Prop51ColorRGB
 90
-16777216
102
RTVSPost2010PropOp51
 70
     0
102
RTVSPost2010Prop52
140
1.0
102
RTVSPost2010PropOp52
 70
     0
102
RTVSPost2010Prop53
 90
        2
102
RTVSPost2010PropOp53
 70
     1
102
RTVSPost2010Prop54
  1
strokes_ogs.tif
102
RTVSPost2010PropOp54
 70
     1
102
RTVSPost2010Prop55
280
     0
102
RTVSPost2010PropOp55
 70
     1
102
RTVSPost2010Prop56
140
1.0
102
RTVSPost2010PropOp56
 70
     1
102
RTVSPost2010Prop57
140
1.0
102
RTVSPost2010PropOp57
 70
     1
102
RTVSPropertyOp0
 70
     1
102
RTVSPropertyOp1
 70
     1
102
RTVSPropertyOp2
 70
     1
102
RTVSPropertyOp3
 70
     1
102
RTVSPropertyOp4
 70
     1
102
RTVSPropertyOp5
 70
     1
102
RTVSPropertyOp6
 70
     1
102
RTVSPropertyOp7
 70
     1
102
RTVSPropertyOp8
 70
     1
102
RTVSPropertyOp9
 70
     1
102
RTVSPropertyOp10
 70
     1
102
RTVSPropertyOp11
 70
     1
102
RTVSPropertyOp12
 70
     1
102
RTVSPropertyOp13
 70
     1
102
RTVSPropertyOp14
 70
     1
102
RTVSPropertyOp15
 70
     1
102
RTVSPropertyOp16
 70
     1
102
RTVSPropertyOp17
 70
     1
102
RTVSPropertyOp18
 70
     1
102
RTVSPropertyOp19
 70
     1
102
RTVSPropertyOp20
 70
     1
102
RTVSPropertyOp21
 70
     1
102
RTVSPropertyOp22
 70
     1
102
RTVSPropertyOp23
 70
     1
102
RTVSPropertyOp24
 70
     1
102
RTVSPropertyOp25
 70
     1
102
RTVSPropertyOp26
 70
     1
102
RTVSPropertyOp27
 70
     1
102
RTVSPropertyOp28
 70
     1
102
RTVSPropertyOp29
 70
     1
102
RTVSPropertyOp30
 70
     1
102
RTVSPropertyOp31
 70
     1
102
RTVSPropertyOp32
 70
     1
102
RTVSPropertyOp33
 70
     1
102
RTVSPropertyOp34
 70
     1
102
RTVSPropertyOp35
 70
     1
102
RTVSPropertyOp36
 70
     1
102
RTVSPropertyOp37
 70
     1
102
RTVSPropertyOp38
 70
     1
102
RTVSPropertyOp39
 70
     1
102
RTVSPropertyOp40
 70
     1
102
RTVSPropertyOp41
 70
     1
102
RTVSPropertyOp42
 70
     1
102
RTVSPropertyOp43
 70
     1
102
RTVSPropertyOp44
 70
     1
102
RTVSPropertyOp45
 70
     1
102
RTVSPropertyOp46
 70
     1
102
RTVSPropertyOp47
 70
     1
102
RTVSPropertyOp48
 70
     1
102
RTVSPropertyOp49
 70
     1
102
RTVSPropertyOp50
 70
     1
102
RTVSPropertyOp51
 70
     0
102
RTVSPropertyOp52
 70
     0
102
RTVSPropertyOp53
 70
     1
102
RTVSPropertyOp54
 70
     1
102
RTVSPropertyOp55
 70
     1
102
RTVSPropertyOp56
 70
     1
102
RTVSPropertyOp57
 70
     1
102
RTVSPropertyOp58
 70
     1
102
RTVSPropertyOp59
 70
     1
102
RTVSPropertyOp60
 70
     1
102
RTVSPropertyOp61
 70
     1
102
RTVSPropertyOp62
 70
     1
  0
XRECORD
  5
388
102
{ACAD_REACTORS
330
387
102
}
330
387
100
AcDbXrecord
280
     1
102
RTVSPost2010Prop28
280
     0
102
RTVSPost2010PropOp28
 70
     0
102
RTVSPost2010Prop29
280
     1
102
RTVSPost2010PropOp29
 70
     0
102
RTVSPost2010Prop30
280
     1
102
RTVSPost2010PropOp30
 70
     0
102
RTVSPost2010Prop31
280
     0
102
RTVSPost2010PropOp31
 70
     0
102
RTVSPost2010Prop32
280
     0
102
RTVSPost2010PropOp32
 70
     0
102
RTVSPost2010Prop33
280
     0
102
RTVSPost2010PropOp33
 70
     0
102
RTVSPost2010Prop34
280
     0
102
RTVSPost2010PropOp34
 70
     0
102
RTVSPost2010Prop35
280
     0
102
RTVSPost2010PropOp35
 70
     0
102
RTVSPost2010Prop36
280
     0
102
RTVSPost2010PropOp36
 70
     0
102
RTVSPost2010Prop37
 90
       50
102
RTVSPost2010PropOp37
 70
     0
102
RTVSPost2010Prop38
140
0.0
102
RTVSPost2010PropOp38
 70
     0
102
RTVSPost2010Prop39
140
1.0
102
RTVSPost2010PropOp39
 70
     0
102
RTVSPost2010Prop40
 90
        0
102
RTVSPost2010PropOp40
 70
     0
102
RTVSPost2010Prop41ColorIndex
 90
       18
102
RTVSPost2010Prop41ColorRGB
 90
        0
102
RTVSPost2010PropOp41
 70
     0
102
RTVSPost2010Prop42
 90
       50
102
RTVSPost2010PropOp42
 70
     0
102
RTVSPost2010Prop43
 90
        3
102
RTVSPost2010PropOp43
 70
     0
102
RTVSPost2010Prop44ColorIndex
 90
        5
102
RTVSPost2010Prop44ColorRGB
 90
      255
102
RTVSPost2010PropOp44
 70
     0
102
RTVSPost2010Prop45
280
     0
102
RTVSPost2010PropOp45
 70
     0
102
RTVSPost2010Prop46
 90
       50
102
RTVSPost2010PropOp46
 70
     0
102
RTVSPost2010Prop47
 90
       50
102
RTVSPost2010PropOp47
 70
     0
102
RTVSPost2010Prop48
 90
       50
102
RTVSPost2010PropOp48
 70
     0
102
RTVSPost2010Prop49
280
     0
102
RTVSPost2010PropOp49
 70
     0
102
RTVSPost2010Prop50
 90
       50
102
RTVSPost2010PropOp50
 70
     0
102
RTVSPost2010Prop51ColorIndex
 90
      256
102
RTVSPost2010Prop51ColorRGB
 90
-16777216
102
RTVSPost2010PropOp51
 70
     0
102
RTVSPost2010Prop52
140
1.0
102
RTVSPost2010PropOp52
 70
     0
102
RTVSPost2010Prop53
 90
        2
102
RTVSPost2010PropOp53
 70
     0
102
RTVSPost2010Prop54
  1
strokes_ogs.tif
102
RTVSPost2010PropOp54
 70
     0
102
RTVSPost2010Prop55
280
     0
102
RTVSPost2010PropOp55
 70
     0
102
RTVSPost2010Prop56
140
1.0
102
RTVSPost2010PropOp56
 70
     0
102
RTVSPost2010Prop57
140
1.0
102
RTVSPost2010PropOp57
 70
     0
102
RTVSPropertyOp0
 70
     0
102
RTVSPropertyOp1
 70
     0
102
RTVSPropertyOp2
 70
     0
102
RTVSPropertyOp3
 70
     0
102
RTVSPropertyOp4
 70
     0
102
RTVSPropertyOp5
 70
     0
102
RTVSPropertyOp6
 70
     0
102
RTVSPropertyOp7
 70
     0
102
RTVSPropertyOp8
 70
     0
102
RTVSPropertyOp9
 70
     0
102
RTVSPropertyOp10
 70
     0
102
RTVSPropertyOp11
 70
     0
102
RTVSPropertyOp12
 70
     0
102
RTVSPropertyOp13
 70
     0
102
RTVSPropertyOp14
 70
     2
102
RTVSPropertyOp15
 70
     0
102
RTVSPropertyOp16
 70
     0
102
RTVSPropertyOp17
 70
     0
102
RTVSPropertyOp18
 70
     0
102
RTVSPropertyOp19
 70
     0
102
RTVSPropertyOp20
 70
     0
102
RTVSPropertyOp21
 70
     0
102
RTVSPropertyOp22
 70
     0
102
RTVSPropertyOp23
 70
     0
102
RTVSPropertyOp24
 70
     0
102
RTVSPropertyOp25
 70
     0
102
RTVSPropertyOp26
 70
     0
102
RTVSPropertyOp27
 70
     0
102
RTVSPropertyOp28
 70
     0
102
RTVSPropertyOp29
 70
     0
102
RTVSPropertyOp30
 70
     0
102
RTVSPropertyOp31
 70
     0
102
RTVSPropertyOp32
 70
     0
102
RTVSPropertyOp33
 70
     0
102
RTVSPropertyOp34
 70
     0
102
RTVSPropertyOp35
 70
     0
102
RTVSPropertyOp36
 70
     0
102
RTVSPropertyOp37
 70
     0
102
RTVSPropertyOp38
 70
     0
102
RTVSPropertyOp39
 70
     0
102
RTVSPropertyOp40
 70
     0
102
RTVSPropertyOp41
 70
     0
102
RTVSPropertyOp42
 70
     0
102
RTVSPropertyOp43
 70
     0
102
RTVSPropertyOp44
 70
     0
102
RTVSPropertyOp45
 70
     0
102
RTVSPropertyOp46
 70
     0
102
RTVSPropertyOp47
 70
     0
102
RTVSPropertyOp48
 70
     0
102
RTVSPropertyOp49
 70
     0
102
RTVSPropertyOp50
 70
     0
102
RTVSPropertyOp51
 70
     0
102
RTVSPropertyOp52
 70
     0
102
RTVSPropertyOp53
 70
     0
102
RTVSPropertyOp54
 70
     0
102
RTVSPropertyOp55
 70
     0
102
RTVSPropertyOp56
 70
     0
102
RTVSPropertyOp57
 70
     0
102
RTVSPropertyOp58
 70
     1
102
RTVSPropertyOp59
 70
     1
102
RTVSPropertyOp60
 70
     1
102
RTVSPropertyOp61
 70
     1
102
RTVSPropertyOp62
 70
     1
  0
XRECORD
  5
382
102
{ACAD_REACTORS
330
381
102
}
330
381
100
AcDbXrecord
280
     1
102
RTVSPost2010Prop28
280
     0
102
RTVSPost2010PropOp28
 70
     1
102
RTVSPost2010Prop29
280
     1
102
RTVSPost2010PropOp29
 70
     1
102
RTVSPost2010Prop30
280
     1
102
RTVSPost2010PropOp30
 70
     1
102
RTVSPost2010Prop31
280
     0
102
RTVSPost2010PropOp31
 70
     1
102
RTVSPost2010Prop32
280
     0
102
RTVSPost2010PropOp32
 70
     1
102
RTVSPost2010Prop33
280
     0
102
RTVSPost2010PropOp33
 70
     1
102
RTVSPost2010Prop34
280
     0
102
RTVSPost2010PropOp34
 70
     1
102
RTVSPost2010Prop35
280
     0
102
RTVSPost2010PropOp35
 70
     1
102
RTVSPost2010Prop36
280
     0
102
RTVSPost2010PropOp36
 70
     1
102
RTVSPost2010Prop37
 90
       50
102
RTVSPost2010PropOp37
 70
     1
102
RTVSPost2010Prop38
140
0.0
102
RTVSPost2010PropOp38
 70
     1
102
RTVSPost2010Prop39
140
1.0
102
RTVSPost2010PropOp39
 70
     1
102
RTVSPost2010Prop40
 90
        0
102
RTVSPost2010PropOp40
 70
     1
102
RTVSPost2010Prop41ColorIndex
 90
       18
102
RTVSPost2010Prop41ColorRGB
 90
        0
102
RTVSPost2010PropOp41
 70
     1
102
RTVSPost2010Prop42
 90
       50
102
RTVSPost2010PropOp42
 70
     1
102
RTVSPost2010Prop43
 90
        3
102
RTVSPost2010PropOp43
 70
     1
102
RTVSPost2010Prop44ColorIndex
 90
        5
102
RTVSPost2010Prop44ColorRGB
 90
      255
102
RTVSPost2010PropOp44
 70
     1
102
RTVSPost2010Prop45
280
     0
102
RTVSPost2010PropOp45
 70
     1
102
RTVSPost2010Prop46
 90
       50
102
RTVSPost2010PropOp46
 70
     1
102
RTVSPost2010Prop47
 90
       50
102
RTVSPost2010PropOp47
 70
     1
102
RTVSPost2010Prop48
 90
       50
102
RTVSPost2010PropOp48
 70
     1
102
RTVSPost2010Prop49
280
     0
102
RTVSPost2010PropOp49
 70
     1
102
RTVSPost2010Prop50
 90
       50
102
RTVSPost2010PropOp50
 70
     1
102
RTVSPost2010Prop51ColorIndex
 90
      256
102
RTVSPost2010Prop51ColorRGB
 90
-16777216
102
RTVSPost2010PropOp51
 70
     0
102
RTVSPost2010Prop52
140
1.0
102
RTVSPost2010PropOp52
 70
     0
102
RTVSPost2010Prop53
 90
        2
102
RTVSPost2010PropOp53
 70
     1
102
RTVSPost2010Prop54
  1
strokes_ogs.tif
102
RTVSPost2010PropOp54
 70
     1
102
RTVSPost2010Prop55
280
     0
102
RTVSPost2010PropOp55
 70
     1
102
RTVSPost2010Prop56
140
1.0
102
RTVSPost2010PropOp56
 70
     1
102
RTVSPost2010Prop57
140
1.0
102
RTVSPost2010PropOp57
 70
     1
102
RTVSPropertyOp0
 70
     1
102
RTVSPropertyOp1
 70
     1
102
RTVSPropertyOp2
 70
     1
102
RTVSPropertyOp3
 70
     1
102
RTVSPropertyOp4
 70
     1
102
RTVSPropertyOp5
 70
     1
102
RTVSPropertyOp6
 70
     1
102
RTVSPropertyOp7
 70
     1
102
RTVSPropertyOp8
 70
     1
102
RTVSPropertyOp9
 70
     1
102
RTVSPropertyOp10
 70
     1
102
RTVSPropertyOp11
 70
     1
102
RTVSPropertyOp12
 70
     1
102
RTVSPropertyOp13
 70
     1
102
RTVSPropertyOp14
 70
     1
102
RTVSPropertyOp15
 70
     1
102
RTVSPropertyOp16
 70
     1
102
RTVSPropertyOp17
 70
     1
102
RTVSPropertyOp18
 70
     1
102
RTVSPropertyOp19
 70
     1
102
RTVSPropertyOp20
 70
     1
102
RTVSPropertyOp21
 70
     1
102
RTVSPropertyOp22
 70
     1
102
RTVSPropertyOp23
 70
     1
102
RTVSPropertyOp24
 70
     1
102
RTVSPropertyOp25
 70
     1
102
RTVSPropertyOp26
 70
     1
102
RTVSPropertyOp27
 70
     1
102
RTVSPropertyOp28
 70
     1
102
RTVSPropertyOp29
 70
     1
102
RTVSPropertyOp30
 70
     1
102
RTVSPropertyOp31
 70
     1
102
RTVSPropertyOp32
 70
     1
102
RTVSPropertyOp33
 70
     1
102
RTVSPropertyOp34
 70
     1
102
RTVSPropertyOp35
 70
     1
102
RTVSPropertyOp36
 70
     1
102
RTVSPropertyOp37
 70
     1
102
RTVSPropertyOp38
 70
     1
102
RTVSPropertyOp39
 70
     1
102
RTVSPropertyOp40
 70
     1
102
RTVSPropertyOp41
 70
     1
102
RTVSPropertyOp42
 70
     1
102
RTVSPropertyOp43
 70
     1
102
RTVSPropertyOp44
 70
     1
102
RTVSPropertyOp45
 70
     1
102
RTVSPropertyOp46
 70
     1
102
RTVSPropertyOp47
 70
     1
102
RTVSPropertyOp48
 70
     1
102
RTVSPropertyOp49
 70
     1
102
RTVSPropertyOp50
 70
     1
102
RTVSPropertyOp51
 70
     0
102
RTVSPropertyOp52
 70
     0
102
RTVSPropertyOp53
 70
     1
102
RTVSPropertyOp54
 70
     1
102
RTVSPropertyOp55
 70
     1
102
RTVSPropertyOp56
 70
     1
102
RTVSPropertyOp57
 70
     1
102
RTVSPropertyOp58
 70
     1
102
RTVSPropertyOp59
 70
     1
102
RTVSPropertyOp60
 70
     1
102
RTVSPropertyOp61
 70
     1
102
RTVSPropertyOp62
 70
     1
  0
XRECORD
  5
38A
102
{ACAD_REACTORS
330
389
102
}
330
389
100
AcDbXrecord
280
     1
102
RTVSPost2010Prop28
280
     0
102
RTVSPost2010PropOp28
 70
     0
102
RTVSPost2010Prop29
280
     1
102
RTVSPost2010PropOp29
 70
     0
102
RTVSPost2010Prop30
280
     1
102
RTVSPost2010PropOp30
 70
     0
102
RTVSPost2010Prop31
280
     0
102
RTVSPost2010PropOp31
 70
     0
102
RTVSPost2010Prop32
280
     0
102
RTVSPost2010PropOp32
 70
     0
102
RTVSPost2010Prop33
280
     0
102
RTVSPost2010PropOp33
 70
     0
102
RTVSPost2010Prop34
280
     0
102
RTVSPost2010PropOp34
 70
     0
102
RTVSPost2010Prop35
280
     0
102
RTVSPost2010PropOp35
 70
     0
102
RTVSPost2010Prop36
280
     0
102
RTVSPost2010PropOp36
 70
     0
102
RTVSPost2010Prop37
 90
       50
102
RTVSPost2010PropOp37
 70
     0
102
RTVSPost2010Prop38
140
0.0
102
RTVSPost2010PropOp38
 70
     0
102
RTVSPost2010Prop39
140
1.0
102
RTVSPost2010PropOp39
 70
     0
102
RTVSPost2010Prop40
 90
        0
102
RTVSPost2010PropOp40
 70
     0
102
RTVSPost2010Prop41ColorIndex
 90
       18
102
RTVSPost2010Prop41ColorRGB
 90
        0
102
RTVSPost2010PropOp41
 70
     0
102
RTVSPost2010Prop42
 90
       50
102
RTVSPost2010PropOp42
 70
     0
102
RTVSPost2010Prop43
 90
        3
102
RTVSPost2010PropOp43
 70
     0
102
RTVSPost2010Prop44ColorIndex
 90
        5
102
RTVSPost2010Prop44ColorRGB
 90
      255
102
RTVSPost2010PropOp44
 70
     0
102
RTVSPost2010Prop45
280
     0
102
RTVSPost2010PropOp45
 70
     0
102
RTVSPost2010Prop46
 90
       50
102
RTVSPost2010PropOp46
 70
     0
102
RTVSPost2010Prop47
 90
       50
102
RTVSPost2010PropOp47
 70
     0
102
RTVSPost2010Prop48
 90
       50
102
RTVSPost2010PropOp48
 70
     0
102
RTVSPost2010Prop49
280
     0
102
RTVSPost2010PropOp49
 70
     0
102
RTVSPost2010Prop50
 90
       50
102
RTVSPost2010PropOp50
 70
     0
102
RTVSPost2010Prop51ColorIndex
 90
      256
102
RTVSPost2010Prop51ColorRGB
 90
-16777216
102
RTVSPost2010PropOp51
 70
     0
102
RTVSPost2010Prop52
140
1.0
102
RTVSPost2010PropOp52
 70
     0
102
RTVSPost2010Prop53
 90
        2
102
RTVSPost2010PropOp53
 70
     0
102
RTVSPost2010Prop54
  1
strokes_ogs.tif
102
RTVSPost2010PropOp54
 70
     0
102
RTVSPost2010Prop55
280
     0
102
RTVSPost2010PropOp55
 70
     0
102
RTVSPost2010Prop56
140
1.0
102
RTVSPost2010PropOp56
 70
     0
102
RTVSPost2010Prop57
140
1.0
102
RTVSPost2010PropOp57
 70
     0
102
RTVSPropertyOp0
 70
     0
102
RTVSPropertyOp1
 70
     0
102
RTVSPropertyOp2
 70
     0
102
RTVSPropertyOp3
 70
     0
102
RTVSPropertyOp4
 70
     0
102
RTVSPropertyOp5
 70
     0
102
RTVSPropertyOp6
 70
     0
102
RTVSPropertyOp7
 70
     0
102
RTVSPropertyOp8
 70
     0
102
RTVSPropertyOp9
 70
     0
102
RTVSPropertyOp10
 70
     0
102
RTVSPropertyOp11
 70
     0
102
RTVSPropertyOp12
 70
     0
102
RTVSPropertyOp13
 70
     0
102
RTVSPropertyOp14
 70
     2
102
RTVSPropertyOp15
 70
     0
102
RTVSPropertyOp16
 70
     0
102
RTVSPropertyOp17
 70
     0
102
RTVSPropertyOp18
 70
     0
102
RTVSPropertyOp19
 70
     0
102
RTVSPropertyOp20
 70
     0
102
RTVSPropertyOp21
 70
     0
102
RTVSPropertyOp22
 70
     0
102
RTVSPropertyOp23
 70
     0
102
RTVSPropertyOp24
 70
     0
102
RTVSPropertyOp25
 70
     0
102
RTVSPropertyOp26
 70
     0
102
RTVSPropertyOp27
 70
     0
102
RTVSPropertyOp28
 70
     0
102
RTVSPropertyOp29
 70
     0
102
RTVSPropertyOp30
 70
     0
102
RTVSPropertyOp31
 70
     0
102
RTVSPropertyOp32
 70
     0
102
RTVSPropertyOp33
 70
     0
102
RTVSPropertyOp34
 70
     0
102
RTVSPropertyOp35
 70
     0
102
RTVSPropertyOp36
 70
     0
102
RTVSPropertyOp37
 70
     0
102
RTVSPropertyOp38
 70
     0
102
RTVSPropertyOp39
 70
     0
102
RTVSPropertyOp40
 70
     0
102
RTVSPropertyOp41
 70
     0
102
RTVSPropertyOp42
 70
     0
102
RTVSPropertyOp43
 70
     0
102
RTVSPropertyOp44
 70
     0
102
RTVSPropertyOp45
 70
     0
102
RTVSPropertyOp46
 70
     0
102
RTVSPropertyOp47
 70
     0
102
RTVSPropertyOp48
 70
     0
102
RTVSPropertyOp49
 70
     0
102
RTVSPropertyOp50
 70
     0
102
RTVSPropertyOp51
 70
     0
102
RTVSPropertyOp52
 70
     0
102
RTVSPropertyOp53
 70
     0
102
RTVSPropertyOp54
 70
     0
102
RTVSPropertyOp55
 70
     0
102
RTVSPropertyOp56
 70
     0
102
RTVSPropertyOp57
 70
     0
102
RTVSPropertyOp58
 70
     1
102
RTVSPropertyOp59
 70
     1
102
RTVSPropertyOp60
 70
     1
102
RTVSPropertyOp61
 70
     1
102
RTVSPropertyOp62
 70
     1
  0
XRECORD
  5
378
102
{ACAD_REACTORS
330
377
102
}
330
377
100
AcDbXrecord
280
     1
102
RTVSPost2010Prop28
280
     0
102
RTVSPost2010PropOp28
 70
     1
102
RTVSPost2010Prop29
280
     1
102
RTVSPost2010PropOp29
 70
     1
102
RTVSPost2010Prop30
280
     1
102
RTVSPost2010PropOp30
 70
     1
102
RTVSPost2010Prop31
280
     0
102
RTVSPost2010PropOp31
 70
     1
102
RTVSPost2010Prop32
280
     0
102
RTVSPost2010PropOp32
 70
     1
102
RTVSPost2010Prop33
280
     0
102
RTVSPost2010PropOp33
 70
     1
102
RTVSPost2010Prop34
280
     0
102
RTVSPost2010PropOp34
 70
     1
102
RTVSPost2010Prop35
280
     0
102
RTVSPost2010PropOp35
 70
     1
102
RTVSPost2010Prop36
280
     0
102
RTVSPost2010PropOp36
 70
     1
102
RTVSPost2010Prop37
 90
       50
102
RTVSPost2010PropOp37
 70
     1
102
RTVSPost2010Prop38
140
0.0
102
RTVSPost2010PropOp38
 70
     1
102
RTVSPost2010Prop39
140
1.0
102
RTVSPost2010PropOp39
 70
     1
102
RTVSPost2010Prop40
 90
        0
102
RTVSPost2010PropOp40
 70
     1
102
RTVSPost2010Prop41ColorIndex
 90
       18
102
RTVSPost2010Prop41ColorRGB
 90
        0
102
RTVSPost2010PropOp41
 70
     1
102
RTVSPost2010Prop42
 90
       50
102
RTVSPost2010PropOp42
 70
     1
102
RTVSPost2010Prop43
 90
        3
102
RTVSPost2010PropOp43
 70
     1
102
RTVSPost2010Prop44ColorIndex
 90
        5
102
RTVSPost2010Prop44ColorRGB
 90
      255
102
RTVSPost2010PropOp44
 70
     1
102
RTVSPost2010Prop45
280
     0
102
RTVSPost2010PropOp45
 70
     1
102
RTVSPost2010Prop46
 90
       50
102
RTVSPost2010PropOp46
 70
     1
102
RTVSPost2010Prop47
 90
       50
102
RTVSPost2010PropOp47
 70
     1
102
RTVSPost2010Prop48
 90
       50
102
RTVSPost2010PropOp48
 70
     1
102
RTVSPost2010Prop49
280
     0
102
RTVSPost2010PropOp49
 70
     1
102
RTVSPost2010Prop50
 90
       50
102
RTVSPost2010PropOp50
 70
     1
102
RTVSPost2010Prop51ColorIndex
 90
      256
102
RTVSPost2010Prop51ColorRGB
 90
-16777216
102
RTVSPost2010PropOp51
 70
     0
102
RTVSPost2010Prop52
140
1.0
102
RTVSPost2010PropOp52
 70
     0
102
RTVSPost2010Prop53
 90
        2
102
RTVSPost2010PropOp53
 70
     1
102
RTVSPost2010Prop54
  1
strokes_ogs.tif
102
RTVSPost2010PropOp54
 70
     1
102
RTVSPost2010Prop55
280
     0
102
RTVSPost2010PropOp55
 70
     1
102
RTVSPost2010Prop56
140
1.0
102
RTVSPost2010PropOp56
 70
     1
102
RTVSPost2010Prop57
140
1.0
102
RTVSPost2010PropOp57
 70
     1
102
RTVSPropertyOp0
 70
     1
102
RTVSPropertyOp1
 70
     1
102
RTVSPropertyOp2
 70
     1
102
RTVSPropertyOp3
 70
     1
102
RTVSPropertyOp4
 70
     1
102
RTVSPropertyOp5
 70
     1
102
RTVSPropertyOp6
 70
     1
102
RTVSPropertyOp7
 70
     1
102
RTVSPropertyOp8
 70
     1
102
RTVSPropertyOp9
 70
     1
102
RTVSPropertyOp10
 70
     1
102
RTVSPropertyOp11
 70
     1
102
RTVSPropertyOp12
 70
     1
102
RTVSPropertyOp13
 70
     1
102
RTVSPropertyOp14
 70
     1
102
RTVSPropertyOp15
 70
     1
102
RTVSPropertyOp16
 70
     1
102
RTVSPropertyOp17
 70
     1
102
RTVSPropertyOp18
 70
     1
102
RTVSPropertyOp19
 70
     1
102
RTVSPropertyOp20
 70
     1
102
RTVSPropertyOp21
 70
     1
102
RTVSPropertyOp22
 70
     1
102
RTVSPropertyOp23
 70
     1
102
RTVSPropertyOp24
 70
     1
102
RTVSPropertyOp25
 70
     1
102
RTVSPropertyOp26
 70
     1
102
RTVSPropertyOp27
 70
     1
102
RTVSPropertyOp28
 70
     1
102
RTVSPropertyOp29
 70
     1
102
RTVSPropertyOp30
 70
     1
102
RTVSPropertyOp31
 70
     1
102
RTVSPropertyOp32
 70
     1
102
RTVSPropertyOp33
 70
     1
102
RTVSPropertyOp34
 70
     1
102
RTVSPropertyOp35
 70
     1
102
RTVSPropertyOp36
 70
     1
102
RTVSPropertyOp37
 70
     1
102
RTVSPropertyOp38
 70
     1
102
RTVSPropertyOp39
 70
     1
102
RTVSPropertyOp40
 70
     1
102
RTVSPropertyOp41
 70
     1
102
RTVSPropertyOp42
 70
     1
102
RTVSPropertyOp43
 70
     1
102
RTVSPropertyOp44
 70
     1
102
RTVSPropertyOp45
 70
     1
102
RTVSPropertyOp46
 70
     1
102
RTVSPropertyOp47
 70
     1
102
RTVSPropertyOp48
 70
     1
102
RTVSPropertyOp49
 70
     1
102
RTVSPropertyOp50
 70
     1
102
RTVSPropertyOp51
 70
     0
102
RTVSPropertyOp52
 70
     0
102
RTVSPropertyOp53
 70
     1
102
RTVSPropertyOp54
 70
     1
102
RTVSPropertyOp55
 70
     1
102
RTVSPropertyOp56
 70
     1
102
RTVSPropertyOp57
 70
     1
102
RTVSPropertyOp58
 70
     1
102
RTVSPropertyOp59
 70
     1
102
RTVSPropertyOp60
 70
     1
102
RTVSPropertyOp61
 70
     1
102
RTVSPropertyOp62
 70
     1
  0
XRECORD
  5
396
102
{ACAD_REACTORS
330
395
102
}
330
395
100
AcDbXrecord
280
     1
102
RTVSPost2010Prop28
280
     0
102
RTVSPost2010PropOp28
 70
     1
102
RTVSPost2010Prop29
280
     1
102
RTVSPost2010PropOp29
 70
     1
102
RTVSPost2010Prop30
280
     1
102
RTVSPost2010PropOp30
 70
     1
102
RTVSPost2010Prop31
280
     0
102
RTVSPost2010PropOp31
 70
     1
102
RTVSPost2010Prop32
280
     0
102
RTVSPost2010PropOp32
 70
     1
102
RTVSPost2010Prop33
280
     0
102
RTVSPost2010PropOp33
 70
     1
102
RTVSPost2010Prop34
280
     0
102
RTVSPost2010PropOp34
 70
     1
102
RTVSPost2010Prop35
280
     0
102
RTVSPost2010PropOp35
 70
     1
102
RTVSPost2010Prop36
280
     0
102
RTVSPost2010PropOp36
 70
     1
102
RTVSPost2010Prop37
 90
       50
102
RTVSPost2010PropOp37
 70
     1
102
RTVSPost2010Prop38
140
0.0
102
RTVSPost2010PropOp38
 70
     1
102
RTVSPost2010Prop39
140
1.0
102
RTVSPost2010PropOp39
 70
     1
102
RTVSPost2010Prop40
 90
        0
102
RTVSPost2010PropOp40
 70
     1
102
RTVSPost2010Prop41ColorIndex
 90
       18
102
RTVSPost2010Prop41ColorRGB
 90
        0
102
RTVSPost2010PropOp41
 70
     1
102
RTVSPost2010Prop42
 90
       50
102
RTVSPost2010PropOp42
 70
     1
102
RTVSPost2010Prop43
 90
        3
102
RTVSPost2010PropOp43
 70
     1
102
RTVSPost2010Prop44ColorIndex
 90
        5
102
RTVSPost2010Prop44ColorRGB
 90
      255
102
RTVSPost2010PropOp44
 70
     1
102
RTVSPost2010Prop45
280
     0
102
RTVSPost2010PropOp45
 70
     1
102
RTVSPost2010Prop46
 90
       50
102
RTVSPost2010PropOp46
 70
     1
102
RTVSPost2010Prop47
 90
       50
102
RTVSPost2010PropOp47
 70
     1
102
RTVSPost2010Prop48
 90
       50
102
RTVSPost2010PropOp48
 70
     1
102
RTVSPost2010Prop49
280
     0
102
RTVSPost2010PropOp49
 70
     1
102
RTVSPost2010Prop50
 90
       50
102
RTVSPost2010PropOp50
 70
     1
102
RTVSPost2010Prop51ColorIndex
 90
      256
102
RTVSPost2010Prop51ColorRGB
 90
-16777216
102
RTVSPost2010PropOp51
 70
     0
102
RTVSPost2010Prop52
140
1.0
102
RTVSPost2010PropOp52
 70
     0
102
RTVSPost2010Prop53
 90
        2
102
RTVSPost2010PropOp53
 70
     1
102
RTVSPost2010Prop54
  1
strokes_ogs.tif
102
RTVSPost2010PropOp54
 70
     1
102
RTVSPost2010Prop55
280
     0
102
RTVSPost2010PropOp55
 70
     1
102
RTVSPost2010Prop56
140
1.0
102
RTVSPost2010PropOp56
 70
     1
102
RTVSPost2010Prop57
140
1.0
102
RTVSPost2010PropOp57
 70
     1
102
RTVSPropertyOp0
 70
     1
102
RTVSPropertyOp1
 70
     1
102
RTVSPropertyOp2
 70
     1
102
RTVSPropertyOp3
 70
     1
102
RTVSPropertyOp4
 70
     1
102
RTVSPropertyOp5
 70
     1
102
RTVSPropertyOp6
 70
     1
102
RTVSPropertyOp7
 70
     1
102
RTVSPropertyOp8
 70
     1
102
RTVSPropertyOp9
 70
     1
102
RTVSPropertyOp10
 70
     1
102
RTVSPropertyOp11
 70
     1
102
RTVSPropertyOp12
 70
     1
102
RTVSPropertyOp13
 70
     1
102
RTVSPropertyOp14
 70
     1
102
RTVSPropertyOp15
 70
     1
102
RTVSPropertyOp16
 70
     1
102
RTVSPropertyOp17
 70
     1
102
RTVSPropertyOp18
 70
     1
102
RTVSPropertyOp19
 70
     1
102
RTVSPropertyOp20
 70
     1
102
RTVSPropertyOp21
 70
     1
102
RTVSPropertyOp22
 70
     1
102
RTVSPropertyOp23
 70
     1
102
RTVSPropertyOp24
 70
     1
102
RTVSPropertyOp25
 70
     1
102
RTVSPropertyOp26
 70
     1
102
RTVSPropertyOp27
 70
     1
102
RTVSPropertyOp28
 70
     1
102
RTVSPropertyOp29
 70
     1
102
RTVSPropertyOp30
 70
     1
102
RTVSPropertyOp31
 70
     1
102
RTVSPropertyOp32
 70
     1
102
RTVSPropertyOp33
 70
     1
102
RTVSPropertyOp34
 70
     1
102
RTVSPropertyOp35
 70
     1
102
RTVSPropertyOp36
 70
     1
102
RTVSPropertyOp37
 70
     1
102
RTVSPropertyOp38
 70
     1
102
RTVSPropertyOp39
 70
     1
102
RTVSPropertyOp40
 70
     1
102
RTVSPropertyOp41
 70
     1
102
RTVSPropertyOp42
 70
     1
102
RTVSPropertyOp43
 70
     1
102
RTVSPropertyOp44
 70
     1
102
RTVSPropertyOp45
 70
     1
102
RTVSPropertyOp46
 70
     1
102
RTVSPropertyOp47
 70
     1
102
RTVSPropertyOp48
 70
     1
102
RTVSPropertyOp49
 70
     1
102
RTVSPropertyOp50
 70
     1
102
RTVSPropertyOp51
 70
     0
102
RTVSPropertyOp52
 70
     0
102
RTVSPropertyOp53
 70
     1
102
RTVSPropertyOp54
 70
     1
102
RTVSPropertyOp55
 70
     1
102
RTVSPropertyOp56
 70
     1
102
RTVSPropertyOp57
 70
     1
102
RTVSPropertyOp58
 70
     1
102
RTVSPropertyOp59
 70
     1
102
RTVSPropertyOp60
 70
     1
102
RTVSPropertyOp61
 70
     1
102
RTVSPropertyOp62
 70
     1
  0
XRECORD
  5
394
102
{ACAD_REACTORS
330
393
102
}
330
393
100
AcDbXrecord
280
     1
102
RTVSPost2010Prop28
280
     0
102
RTVSPost2010PropOp28
 70
     1
102
RTVSPost2010Prop29
280
     1
102
RTVSPost2010PropOp29
 70
     1
102
RTVSPost2010Prop30
280
     1
102
RTVSPost2010PropOp30
 70
     1
102
RTVSPost2010Prop31
280
     0
102
RTVSPost2010PropOp31
 70
     1
102
RTVSPost2010Prop32
280
     0
102
RTVSPost2010PropOp32
 70
     1
102
RTVSPost2010Prop33
280
     0
102
RTVSPost2010PropOp33
 70
     1
102
RTVSPost2010Prop34
280
     0
102
RTVSPost2010PropOp34
 70
     1
102
RTVSPost2010Prop35
280
     0
102
RTVSPost2010PropOp35
 70
     1
102
RTVSPost2010Prop36
280
     0
102
RTVSPost2010PropOp36
 70
     1
102
RTVSPost2010Prop37
 90
       50
102
RTVSPost2010PropOp37
 70
     1
102
RTVSPost2010Prop38
140
0.0
102
RTVSPost2010PropOp38
 70
     1
102
RTVSPost2010Prop39
140
1.0
102
RTVSPost2010PropOp39
 70
     1
102
RTVSPost2010Prop40
 90
        0
102
RTVSPost2010PropOp40
 70
     1
102
RTVSPost2010Prop41ColorIndex
 90
       18
102
RTVSPost2010Prop41ColorRGB
 90
        0
102
RTVSPost2010PropOp41
 70
     1
102
RTVSPost2010Prop42
 90
       50
102
RTVSPost2010PropOp42
 70
     1
102
RTVSPost2010Prop43
 90
        3
102
RTVSPost2010PropOp43
 70
     1
102
RTVSPost2010Prop44ColorIndex
 90
        5
102
RTVSPost2010Prop44ColorRGB
 90
      255
102
RTVSPost2010PropOp44
 70
     1
102
RTVSPost2010Prop45
280
     0
102
RTVSPost2010PropOp45
 70
     1
102
RTVSPost2010Prop46
 90
       50
102
RTVSPost2010PropOp46
 70
     1
102
RTVSPost2010Prop47
 90
       50
102
RTVSPost2010PropOp47
 70
     1
102
RTVSPost2010Prop48
 90
       50
102
RTVSPost2010PropOp48
 70
     1
102
RTVSPost2010Prop49
280
     0
102
RTVSPost2010PropOp49
 70
     1
102
RTVSPost2010Prop50
 90
       50
102
RTVSPost2010PropOp50
 70
     1
102
RTVSPost2010Prop51ColorIndex
 90
      256
102
RTVSPost2010Prop51ColorRGB
 90
-16777216
102
RTVSPost2010PropOp51
 70
     0
102
RTVSPost2010Prop52
140
1.0
102
RTVSPost2010PropOp52
 70
     0
102
RTVSPost2010Prop53
 90
        2
102
RTVSPost2010PropOp53
 70
     1
102
RTVSPost2010Prop54
  1
strokes_ogs.tif
102
RTVSPost2010PropOp54
 70
     1
102
RTVSPost2010Prop55
280
     0
102
RTVSPost2010PropOp55
 70
     1
102
RTVSPost2010Prop56
140
1.0
102
RTVSPost2010PropOp56
 70
     1
102
RTVSPost2010Prop57
140
1.0
102
RTVSPost2010PropOp57
 70
     1
102
RTVSPropertyOp0
 70
     1
102
RTVSPropertyOp1
 70
     1
102
RTVSPropertyOp2
 70
     1
102
RTVSPropertyOp3
 70
     1
102
RTVSPropertyOp4
 70
     1
102
RTVSPropertyOp5
 70
     1
102
RTVSPropertyOp6
 70
     1
102
RTVSPropertyOp7
 70
     1
102
RTVSPropertyOp8
 70
     1
102
RTVSPropertyOp9
 70
     1
102
RTVSPropertyOp10
 70
     1
102
RTVSPropertyOp11
 70
     1
102
RTVSPropertyOp12
 70
     1
102
RTVSPropertyOp13
 70
     1
102
RTVSPropertyOp14
 70
     1
102
RTVSPropertyOp15
 70
     1
102
RTVSPropertyOp16
 70
     1
102
RTVSPropertyOp17
 70
     1
102
RTVSPropertyOp18
 70
     1
102
RTVSPropertyOp19
 70
     1
102
RTVSPropertyOp20
 70
     1
102
RTVSPropertyOp21
 70
     1
102
RTVSPropertyOp22
 70
     1
102
RTVSPropertyOp23
 70
     1
102
RTVSPropertyOp24
 70
     1
102
RTVSPropertyOp25
 70
     1
102
RTVSPropertyOp26
 70
     1
102
RTVSPropertyOp27
 70
     1
102
RTVSPropertyOp28
 70
     1
102
RTVSPropertyOp29
 70
     1
102
RTVSPropertyOp30
 70
     1
102
RTVSPropertyOp31
 70
     1
102
RTVSPropertyOp32
 70
     1
102
RTVSPropertyOp33
 70
     1
102
RTVSPropertyOp34
 70
     1
102
RTVSPropertyOp35
 70
     1
102
RTVSPropertyOp36
 70
     1
102
RTVSPropertyOp37
 70
     1
102
RTVSPropertyOp38
 70
     1
102
RTVSPropertyOp39
 70
     1
102
RTVSPropertyOp40
 70
     1
102
RTVSPropertyOp41
 70
     1
102
RTVSPropertyOp42
 70
     1
102
RTVSPropertyOp43
 70
     1
102
RTVSPropertyOp44
 70
     1
102
RTVSPropertyOp45
 70
     1
102
RTVSPropertyOp46
 70
     1
102
RTVSPropertyOp47
 70
     1
102
RTVSPropertyOp48
 70
     1
102
RTVSPropertyOp49
 70
     1
102
RTVSPropertyOp50
 70
     1
102
RTVSPropertyOp51
 70
     0
102
RTVSPropertyOp52
 70
     0
102
RTVSPropertyOp53
 70
     1
102
RTVSPropertyOp54
 70
     1
102
RTVSPropertyOp55
 70
     1
102
RTVSPropertyOp56
 70
     1
102
RTVSPropertyOp57
 70
     1
102
RTVSPropertyOp58
 70
     1
102
RTVSPropertyOp59
 70
     1
102
RTVSPropertyOp60
 70
     1
102
RTVSPropertyOp61
 70
     1
102
RTVSPropertyOp62
 70
     1
  0
XRECORD
  5
38E
102
{ACAD_REACTORS
330
38D
102
}
330
38D
100
AcDbXrecord
280
     1
102
RTVSPost2010Prop28
280
     0
102
RTVSPost2010PropOp28
 70
     1
102
RTVSPost2010Prop29
280
     1
102
RTVSPost2010PropOp29
 70
     1
102
RTVSPost2010Prop30
280
     1
102
RTVSPost2010PropOp30
 70
     1
102
RTVSPost2010Prop31
280
     0
102
RTVSPost2010PropOp31
 70
     1
102
RTVSPost2010Prop32
280
     0
102
RTVSPost2010PropOp32
 70
     1
102
RTVSPost2010Prop33
280
     0
102
RTVSPost2010PropOp33
 70
     1
102
RTVSPost2010Prop34
280
     0
102
RTVSPost2010PropOp34
 70
     1
102
RTVSPost2010Prop35
280
     0
102
RTVSPost2010PropOp35
 70
     1
102
RTVSPost2010Prop36
280
     0
102
RTVSPost2010PropOp36
 70
     1
102
RTVSPost2010Prop37
 90
       50
102
RTVSPost2010PropOp37
 70
     1
102
RTVSPost2010Prop38
140
0.0
102
RTVSPost2010PropOp38
 70
     1
102
RTVSPost2010Prop39
140
1.0
102
RTVSPost2010PropOp39
 70
     1
102
RTVSPost2010Prop40
 90
        0
102
RTVSPost2010PropOp40
 70
     1
102
RTVSPost2010Prop41ColorIndex
 90
       18
102
RTVSPost2010Prop41ColorRGB
 90
        0
102
RTVSPost2010PropOp41
 70
     1
102
RTVSPost2010Prop42
 90
       50
102
RTVSPost2010PropOp42
 70
     1
102
RTVSPost2010Prop43
 90
        3
102
RTVSPost2010PropOp43
 70
     1
102
RTVSPost2010Prop44ColorIndex
 90
        5
102
RTVSPost2010Prop44ColorRGB
 90
      255
102
RTVSPost2010PropOp44
 70
     1
102
RTVSPost2010Prop45
280
     0
102
RTVSPost2010PropOp45
 70
     1
102
RTVSPost2010Prop46
 90
       50
102
RTVSPost2010PropOp46
 70
     1
102
RTVSPost2010Prop47
 90
       50
102
RTVSPost2010PropOp47
 70
     1
102
RTVSPost2010Prop48
 90
       50
102
RTVSPost2010PropOp48
 70
     1
102
RTVSPost2010Prop49
280
     0
102
RTVSPost2010PropOp49
 70
     1
102
RTVSPost2010Prop50
 90
       50
102
RTVSPost2010PropOp50
 70
     1
102
RTVSPost2010Prop51ColorIndex
 90
      256
102
RTVSPost2010Prop51ColorRGB
 90
-16777216
102
RTVSPost2010PropOp51
 70
     0
102
RTVSPost2010Prop52
140
1.0
102
RTVSPost2010PropOp52
 70
     0
102
RTVSPost2010Prop53
 90
        2
102
RTVSPost2010PropOp53
 70
     1
102
RTVSPost2010Prop54
  1
strokes_ogs.tif
102
RTVSPost2010PropOp54
 70
     1
102
RTVSPost2010Prop55
280
     0
102
RTVSPost2010PropOp55
 70
     1
102
RTVSPost2010Prop56
140
1.0
102
RTVSPost2010PropOp56
 70
     1
102
RTVSPost2010Prop57
140
1.0
102
RTVSPost2010PropOp57
 70
     1
102
RTVSPropertyOp0
 70
     1
102
RTVSPropertyOp1
 70
     1
102
RTVSPropertyOp2
 70
     1
102
RTVSPropertyOp3
 70
     1
102
RTVSPropertyOp4
 70
     1
102
RTVSPropertyOp5
 70
     1
102
RTVSPropertyOp6
 70
     1
102
RTVSPropertyOp7
 70
     1
102
RTVSPropertyOp8
 70
     1
102
RTVSPropertyOp9
 70
     1
102
RTVSPropertyOp10
 70
     1
102
RTVSPropertyOp11
 70
     1
102
RTVSPropertyOp12
 70
     1
102
RTVSPropertyOp13
 70
     1
102
RTVSPropertyOp14
 70
     1
102
RTVSPropertyOp15
 70
     1
102
RTVSPropertyOp16
 70
     1
102
RTVSPropertyOp17
 70
     1
102
RTVSPropertyOp18
 70
     1
102
RTVSPropertyOp19
 70
     1
102
RTVSPropertyOp20
 70
     1
102
RTVSPropertyOp21
 70
     1
102
RTVSPropertyOp22
 70
     1
102
RTVSPropertyOp23
 70
     1
102
RTVSPropertyOp24
 70
     1
102
RTVSPropertyOp25
 70
     1
102
RTVSPropertyOp26
 70
     1
102
RTVSPropertyOp27
 70
     1
102
RTVSPropertyOp28
 70
     1
102
RTVSPropertyOp29
 70
     1
102
RTVSPropertyOp30
 70
     1
102
RTVSPropertyOp31
 70
     1
102
RTVSPropertyOp32
 70
     1
102
RTVSPropertyOp33
 70
     1
102
RTVSPropertyOp34
 70
     1
102
RTVSPropertyOp35
 70
     1
102
RTVSPropertyOp36
 70
     1
102
RTVSPropertyOp37
 70
     1
102
RTVSPropertyOp38
 70
     1
102
RTVSPropertyOp39
 70
     1
102
RTVSPropertyOp40
 70
     1
102
RTVSPropertyOp41
 70
     1
102
RTVSPropertyOp42
 70
     1
102
RTVSPropertyOp43
 70
     1
102
RTVSPropertyOp44
 70
     1
102
RTVSPropertyOp45
 70
     1
102
RTVSPropertyOp46
 70
     1
102
RTVSPropertyOp47
 70
     1
102
RTVSPropertyOp48
 70
     1
102
RTVSPropertyOp49
 70
     1
102
RTVSPropertyOp50
 70
     1
102
RTVSPropertyOp51
 70
     0
102
RTVSPropertyOp52
 70
     0
102
RTVSPropertyOp53
 70
     1
102
RTVSPropertyOp54
 70
     1
102
RTVSPropertyOp55
 70
     1
102
RTVSPropertyOp56
 70
     1
102
RTVSPropertyOp57
 70
     1
102
RTVSPropertyOp58
 70
     1
102
RTVSPropertyOp59
 70
     1
102
RTVSPropertyOp60
 70
     1
102
RTVSPropertyOp61
 70
     1
102
RTVSPropertyOp62
 70
     1
  0
XRECORD
  5
390
102
{ACAD_REACTORS
330
38F
102
}
330
38F
100
AcDbXrecord
280
     1
102
RTVSPost2010Prop28
280
     0
102
RTVSPost2010PropOp28
 70
     1
102
RTVSPost2010Prop29
280
     1
102
RTVSPost2010PropOp29
 70
     1
102
RTVSPost2010Prop30
280
     1
102
RTVSPost2010PropOp30
 70
     1
102
RTVSPost2010Prop31
280
     0
102
RTVSPost2010PropOp31
 70
     1
102
RTVSPost2010Prop32
280
     0
102
RTVSPost2010PropOp32
 70
     1
102
RTVSPost2010Prop33
280
     0
102
RTVSPost2010PropOp33
 70
     1
102
RTVSPost2010Prop34
280
     0
102
RTVSPost2010PropOp34
 70
     1
102
RTVSPost2010Prop35
280
     0
102
RTVSPost2010PropOp35
 70
     1
102
RTVSPost2010Prop36
280
     0
102
RTVSPost2010PropOp36
 70
     1
102
RTVSPost2010Prop37
 90
       50
102
RTVSPost2010PropOp37
 70
     1
102
RTVSPost2010Prop38
140
0.0
102
RTVSPost2010PropOp38
 70
     1
102
RTVSPost2010Prop39
140
1.0
102
RTVSPost2010PropOp39
 70
     1
102
RTVSPost2010Prop40
 90
        0
102
RTVSPost2010PropOp40
 70
     1
102
RTVSPost2010Prop41ColorIndex
 90
       18
102
RTVSPost2010Prop41ColorRGB
 90
        0
102
RTVSPost2010PropOp41
 70
     1
102
RTVSPost2010Prop42
 90
       50
102
RTVSPost2010PropOp42
 70
     1
102
RTVSPost2010Prop43
 90
        3
102
RTVSPost2010PropOp43
 70
     1
102
RTVSPost2010Prop44ColorIndex
 90
        5
102
RTVSPost2010Prop44ColorRGB
 90
      255
102
RTVSPost2010PropOp44
 70
     1
102
RTVSPost2010Prop45
280
     0
102
RTVSPost2010PropOp45
 70
     1
102
RTVSPost2010Prop46
 90
       50
102
RTVSPost2010PropOp46
 70
     1
102
RTVSPost2010Prop47
 90
       50
102
RTVSPost2010PropOp47
 70
     1
102
RTVSPost2010Prop48
 90
       50
102
RTVSPost2010PropOp48
 70
     1
102
RTVSPost2010Prop49
280
     0
102
RTVSPost2010PropOp49
 70
     1
102
RTVSPost2010Prop50
 90
       50
102
RTVSPost2010PropOp50
 70
     1
102
RTVSPost2010Prop51ColorIndex
 90
      256
102
RTVSPost2010Prop51ColorRGB
 90
-16777216
102
RTVSPost2010PropOp51
 70
     0
102
RTVSPost2010Prop52
140
1.0
102
RTVSPost2010PropOp52
 70
     0
102
RTVSPost2010Prop53
 90
        2
102
RTVSPost2010PropOp53
 70
     1
102
RTVSPost2010Prop54
  1
strokes_ogs.tif
102
RTVSPost2010PropOp54
 70
     1
102
RTVSPost2010Prop55
280
     0
102
RTVSPost2010PropOp55
 70
     1
102
RTVSPost2010Prop56
140
1.0
102
RTVSPost2010PropOp56
 70
     1
102
RTVSPost2010Prop57
140
1.0
102
RTVSPost2010PropOp57
 70
     1
102
RTVSPropertyOp0
 70
     1
102
RTVSPropertyOp1
 70
     1
102
RTVSPropertyOp2
 70
     1
102
RTVSPropertyOp3
 70
     1
102
RTVSPropertyOp4
 70
     1
102
RTVSPropertyOp5
 70
     1
102
RTVSPropertyOp6
 70
     1
102
RTVSPropertyOp7
 70
     1
102
RTVSPropertyOp8
 70
     1
102
RTVSPropertyOp9
 70
     1
102
RTVSPropertyOp10
 70
     1
102
RTVSPropertyOp11
 70
     1
102
RTVSPropertyOp12
 70
     1
102
RTVSPropertyOp13
 70
     1
102
RTVSPropertyOp14
 70
     1
102
RTVSPropertyOp15
 70
     1
102
RTVSPropertyOp16
 70
     1
102
RTVSPropertyOp17
 70
     1
102
RTVSPropertyOp18
 70
     1
102
RTVSPropertyOp19
 70
     1
102
RTVSPropertyOp20
 70
     1
102
RTVSPropertyOp21
 70
     1
102
RTVSPropertyOp22
 70
     1
102
RTVSPropertyOp23
 70
     1
102
RTVSPropertyOp24
 70
     1
102
RTVSPropertyOp25
 70
     1
102
RTVSPropertyOp26
 70
     1
102
RTVSPropertyOp27
 70
     1
102
RTVSPropertyOp28
 70
     1
102
RTVSPropertyOp29
 70
     1
102
RTVSPropertyOp30
 70
     1
102
RTVSPropertyOp31
 70
     1
102
RTVSPropertyOp32
 70
     1
102
RTVSPropertyOp33
 70
     1
102
RTVSPropertyOp34
 70
     1
102
RTVSPropertyOp35
 70
     1
102
RTVSPropertyOp36
 70
     1
102
RTVSPropertyOp37
 70
     1
102
RTVSPropertyOp38
 70
     1
102
RTVSPropertyOp39
 70
     1
102
RTVSPropertyOp40
 70
     1
102
RTVSPropertyOp41
 70
     1
102
RTVSPropertyOp42
 70
     1
102
RTVSPropertyOp43
 70
     1
102
RTVSPropertyOp44
 70
     1
102
RTVSPropertyOp45
 70
     1
102
RTVSPropertyOp46
 70
     1
102
RTVSPropertyOp47
 70
     1
102
RTVSPropertyOp48
 70
     1
102
RTVSPropertyOp49
 70
     1
102
RTVSPropertyOp50
 70
     1
102
RTVSPropertyOp51
 70
     0
102
RTVSPropertyOp52
 70
     0
102
RTVSPropertyOp53
 70
     1
102
RTVSPropertyOp54
 70
     1
102
RTVSPropertyOp55
 70
     1
102
RTVSPropertyOp56
 70
     1
102
RTVSPropertyOp57
 70
     1
102
RTVSPropertyOp58
 70
     1
102
RTVSPropertyOp59
 70
     1
102
RTVSPropertyOp60
 70
     1
102
RTVSPropertyOp61
 70
     1
102
RTVSPropertyOp62
 70
     1
  0
XRECORD
  5
380
102
{ACAD_REACTORS
330
37F
102
}
330
37F
100
AcDbXrecord
280
     1
102
RTVSPost2010Prop28
280
     0
102
RTVSPost2010PropOp28
 70
     1
102
RTVSPost2010Prop29
280
     1
102
RTVSPost2010PropOp29
 70
     1
102
RTVSPost2010Prop30
280
     1
102
RTVSPost2010PropOp30
 70
     1
102
RTVSPost2010Prop31
280
     0
102
RTVSPost2010PropOp31
 70
     1
102
RTVSPost2010Prop32
280
     0
102
RTVSPost2010PropOp32
 70
     1
102
RTVSPost2010Prop33
280
     0
102
RTVSPost2010PropOp33
 70
     1
102
RTVSPost2010Prop34
280
     0
102
RTVSPost2010PropOp34
 70
     1
102
RTVSPost2010Prop35
280
     0
102
RTVSPost2010PropOp35
 70
     1
102
RTVSPost2010Prop36
280
     0
102
RTVSPost2010PropOp36
 70
     1
102
RTVSPost2010Prop37
 90
       50
102
RTVSPost2010PropOp37
 70
     1
102
RTVSPost2010Prop38
140
0.0
102
RTVSPost2010PropOp38
 70
     1
102
RTVSPost2010Prop39
140
1.0
102
RTVSPost2010PropOp39
 70
     1
102
RTVSPost2010Prop40
 90
        0
102
RTVSPost2010PropOp40
 70
     1
102
RTVSPost2010Prop41ColorIndex
 90
       18
102
RTVSPost2010Prop41ColorRGB
 90
        0
102
RTVSPost2010PropOp41
 70
     1
102
RTVSPost2010Prop42
 90
       50
102
RTVSPost2010PropOp42
 70
     1
102
RTVSPost2010Prop43
 90
        3
102
RTVSPost2010PropOp43
 70
     1
102
RTVSPost2010Prop44ColorIndex
 90
        5
102
RTVSPost2010Prop44ColorRGB
 90
      255
102
RTVSPost2010PropOp44
 70
     1
102
RTVSPost2010Prop45
280
     0
102
RTVSPost2010PropOp45
 70
     1
102
RTVSPost2010Prop46
 90
       50
102
RTVSPost2010PropOp46
 70
     1
102
RTVSPost2010Prop47
 90
       50
102
RTVSPost2010PropOp47
 70
     1
102
RTVSPost2010Prop48
 90
       50
102
RTVSPost2010PropOp48
 70
     1
102
RTVSPost2010Prop49
280
     0
102
RTVSPost2010PropOp49
 70
     1
102
RTVSPost2010Prop50
 90
       50
102
RTVSPost2010PropOp50
 70
     1
102
RTVSPost2010Prop51ColorIndex
 90
      256
102
RTVSPost2010Prop51ColorRGB
 90
-16777216
102
RTVSPost2010PropOp51
 70
     0
102
RTVSPost2010Prop52
140
1.0
102
RTVSPost2010PropOp52
 70
     0
102
RTVSPost2010Prop53
 90
        2
102
RTVSPost2010PropOp53
 70
     1
102
RTVSPost2010Prop54
  1
strokes_ogs.tif
102
RTVSPost2010PropOp54
 70
     1
102
RTVSPost2010Prop55
280
     0
102
RTVSPost2010PropOp55
 70
     1
102
RTVSPost2010Prop56
140
1.0
102
RTVSPost2010PropOp56
 70
     1
102
RTVSPost2010Prop57
140
1.0
102
RTVSPost2010PropOp57
 70
     1
102
RTVSPropertyOp0
 70
     1
102
RTVSPropertyOp1
 70
     1
102
RTVSPropertyOp2
 70
     1
102
RTVSPropertyOp3
 70
     1
102
RTVSPropertyOp4
 70
     1
102
RTVSPropertyOp5
 70
     1
102
RTVSPropertyOp6
 70
     1
102
RTVSPropertyOp7
 70
     1
102
RTVSPropertyOp8
 70
     1
102
RTVSPropertyOp9
 70
     1
102
RTVSPropertyOp10
 70
     1
102
RTVSPropertyOp11
 70
     1
102
RTVSPropertyOp12
 70
     1
102
RTVSPropertyOp13
 70
     1
102
RTVSPropertyOp14
 70
     1
102
RTVSPropertyOp15
 70
     1
102
RTVSPropertyOp16
 70
     1
102
RTVSPropertyOp17
 70
     1
102
RTVSPropertyOp18
 70
     1
102
RTVSPropertyOp19
 70
     1
102
RTVSPropertyOp20
 70
     1
102
RTVSPropertyOp21
 70
     1
102
RTVSPropertyOp22
 70
     1
102
RTVSPropertyOp23
 70
     1
102
RTVSPropertyOp24
 70
     1
102
RTVSPropertyOp25
 70
     1
102
RTVSPropertyOp26
 70
     1
102
RTVSPropertyOp27
 70
     1
102
RTVSPropertyOp28
 70
     1
102
RTVSPropertyOp29
 70
     1
102
RTVSPropertyOp30
 70
     1
102
RTVSPropertyOp31
 70
     1
102
RTVSPropertyOp32
 70
     1
102
RTVSPropertyOp33
 70
     1
102
RTVSPropertyOp34
 70
     1
102
RTVSPropertyOp35
 70
     1
102
RTVSPropertyOp36
 70
     1
102
RTVSPropertyOp37
 70
     1
102
RTVSPropertyOp38
 70
     1
102
RTVSPropertyOp39
 70
     1
102
RTVSPropertyOp40
 70
     1
102
RTVSPropertyOp41
 70
     1
102
RTVSPropertyOp42
 70
     1
102
RTVSPropertyOp43
 70
     1
102
RTVSPropertyOp44
 70
     1
102
RTVSPropertyOp45
 70
     1
102
RTVSPropertyOp46
 70
     1
102
RTVSPropertyOp47
 70
     1
102
RTVSPropertyOp48
 70
     1
102
RTVSPropertyOp49
 70
     1
102
RTVSPropertyOp50
 70
     1
102
RTVSPropertyOp51
 70
     0
102
RTVSPropertyOp52
 70
     0
102
RTVSPropertyOp53
 70
     1
102
RTVSPropertyOp54
 70
     1
102
RTVSPropertyOp55
 70
     1
102
RTVSPropertyOp56
 70
     1
102
RTVSPropertyOp57
 70
     1
102
RTVSPropertyOp58
 70
     1
102
RTVSPropertyOp59
 70
     1
102
RTVSPropertyOp60
 70
     1
102
RTVSPropertyOp61
 70
     1
102
RTVSPropertyOp62
 70
     1
  0
XRECORD
  5
372
102
{ACAD_REACTORS
330
371
102
}
330
371
100
AcDbXrecord
280
     1
102
RTVSPost2010Prop28
280
     0
102
RTVSPost2010PropOp28
 70
     1
102
RTVSPost2010Prop29
280
     1
102
RTVSPost2010PropOp29
 70
     1
102
RTVSPost2010Prop30
280
     1
102
RTVSPost2010PropOp30
 70
     1
102
RTVSPost2010Prop31
280
     0
102
RTVSPost2010PropOp31
 70
     1
102
RTVSPost2010Prop32
280
     0
102
RTVSPost2010PropOp32
 70
     1
102
RTVSPost2010Prop33
280
     0
102
RTVSPost2010PropOp33
 70
     1
102
RTVSPost2010Prop34
280
     0
102
RTVSPost2010PropOp34
 70
     1
102
RTVSPost2010Prop35
280
     0
102
RTVSPost2010PropOp35
 70
     1
102
RTVSPost2010Prop36
280
     0
102
RTVSPost2010PropOp36
 70
     1
102
RTVSPost2010Prop37
 90
       50
102
RTVSPost2010PropOp37
 70
     1
102
RTVSPost2010Prop38
140
0.0
102
RTVSPost2010PropOp38
 70
     1
102
RTVSPost2010Prop39
140
1.0
102
RTVSPost2010PropOp39
 70
     1
102
RTVSPost2010Prop40
 90
        0
102
RTVSPost2010PropOp40
 70
     1
102
RTVSPost2010Prop41ColorIndex
 90
       18
102
RTVSPost2010Prop41ColorRGB
 90
        0
102
RTVSPost2010PropOp41
 70
     1
102
RTVSPost2010Prop42
 90
       50
102
RTVSPost2010PropOp42
 70
     1
102
RTVSPost2010Prop43
 90
        3
102
RTVSPost2010PropOp43
 70
     1
102
RTVSPost2010Prop44ColorIndex
 90
        5
102
RTVSPost2010Prop44ColorRGB
 90
      255
102
RTVSPost2010PropOp44
 70
     1
102
RTVSPost2010Prop45
280
     0
102
RTVSPost2010PropOp45
 70
     1
102
RTVSPost2010Prop46
 90
       50
102
RTVSPost2010PropOp46
 70
     1
102
RTVSPost2010Prop47
 90
       50
102
RTVSPost2010PropOp47
 70
     1
102
RTVSPost2010Prop48
 90
       50
102
RTVSPost2010PropOp48
 70
     1
102
RTVSPost2010Prop49
280
     0
102
RTVSPost2010PropOp49
 70
     1
102
RTVSPost2010Prop50
 90
       50
102
RTVSPost2010PropOp50
 70
     1
102
RTVSPost2010Prop51ColorIndex
 90
      256
102
RTVSPost2010Prop51ColorRGB
 90
-16777216
102
RTVSPost2010PropOp51
 70
     0
102
RTVSPost2010Prop52
140
1.0
102
RTVSPost2010PropOp52
 70
     0
102
RTVSPost2010Prop53
 90
        2
102
RTVSPost2010PropOp53
 70
     1
102
RTVSPost2010Prop54
  1
strokes_ogs.tif
102
RTVSPost2010PropOp54
 70
     1
102
RTVSPost2010Prop55
280
     0
102
RTVSPost2010PropOp55
 70
     1
102
RTVSPost2010Prop56
140
1.0
102
RTVSPost2010PropOp56
 70
     1
102
RTVSPost2010Prop57
140
1.0
102
RTVSPost2010PropOp57
 70
     1
102
RTVSPropertyOp0
 70
     1
102
RTVSPropertyOp1
 70
     1
102
RTVSPropertyOp2
 70
     1
102
RTVSPropertyOp3
 70
     1
102
RTVSPropertyOp4
 70
     1
102
RTVSPropertyOp5
 70
     1
102
RTVSPropertyOp6
 70
     1
102
RTVSPropertyOp7
 70
     1
102
RTVSPropertyOp8
 70
     1
102
RTVSPropertyOp9
 70
     1
102
RTVSPropertyOp10
 70
     1
102
RTVSPropertyOp11
 70
     1
102
RTVSPropertyOp12
 70
     1
102
RTVSPropertyOp13
 70
     1
102
RTVSPropertyOp14
 70
     1
102
RTVSPropertyOp15
 70
     1
102
RTVSPropertyOp16
 70
     1
102
RTVSPropertyOp17
 70
     1
102
RTVSPropertyOp18
 70
     1
102
RTVSPropertyOp19
 70
     1
102
RTVSPropertyOp20
 70
     1
102
RTVSPropertyOp21
 70
     1
102
RTVSPropertyOp22
 70
     1
102
RTVSPropertyOp23
 70
     1
102
RTVSPropertyOp24
 70
     1
102
RTVSPropertyOp25
 70
     1
102
RTVSPropertyOp26
 70
     1
102
RTVSPropertyOp27
 70
     1
102
RTVSPropertyOp28
 70
     1
102
RTVSPropertyOp29
 70
     1
102
RTVSPropertyOp30
 70
     1
102
RTVSPropertyOp31
 70
     1
102
RTVSPropertyOp32
 70
     1
102
RTVSPropertyOp33
 70
     1
102
RTVSPropertyOp34
 70
     1
102
RTVSPropertyOp35
 70
     1
102
RTVSPropertyOp36
 70
     1
102
RTVSPropertyOp37
 70
     1
102
RTVSPropertyOp38
 70
     1
102
RTVSPropertyOp39
 70
     1
102
RTVSPropertyOp40
 70
     1
102
RTVSPropertyOp41
 70
     1
102
RTVSPropertyOp42
 70
     1
102
RTVSPropertyOp43
 70
     1
102
RTVSPropertyOp44
 70
     1
102
RTVSPropertyOp45
 70
     1
102
RTVSPropertyOp46
 70
     1
102
RTVSPropertyOp47
 70
     1
102
RTVSPropertyOp48
 70
     1
102
RTVSPropertyOp49
 70
     1
102
RTVSPropertyOp50
 70
     1
102
RTVSPropertyOp51
 70
     0
102
RTVSPropertyOp52
 70
     0
102
RTVSPropertyOp53
 70
     1
102
RTVSPropertyOp54
 70
     1
102
RTVSPropertyOp55
 70
     1
102
RTVSPropertyOp56
 70
     1
102
RTVSPropertyOp57
 70
     1
102
RTVSPropertyOp58
 70
     1
102
RTVSPropertyOp59
 70
     1
102
RTVSPropertyOp60
 70
     1
102
RTVSPropertyOp61
 70
     1
102
RTVSPropertyOp62
 70
     1
  0
XRECORD
  5
392
102
{ACAD_REACTORS
330
391
102
}
330
391
100
AcDbXrecord
280
     1
102
RTVSPost2010Prop28
280
     0
102
RTVSPost2010PropOp28
 70
     1
102
RTVSPost2010Prop29
280
     1
102
RTVSPost2010PropOp29
 70
     1
102
RTVSPost2010Prop30
280
     1
102
RTVSPost2010PropOp30
 70
     1
102
RTVSPost2010Prop31
280
     0
102
RTVSPost2010PropOp31
 70
     1
102
RTVSPost2010Prop32
280
     0
102
RTVSPost2010PropOp32
 70
     1
102
RTVSPost2010Prop33
280
     0
102
RTVSPost2010PropOp33
 70
     1
102
RTVSPost2010Prop34
280
     0
102
RTVSPost2010PropOp34
 70
     1
102
RTVSPost2010Prop35
280
     0
102
RTVSPost2010PropOp35
 70
     1
102
RTVSPost2010Prop36
280
     0
102
RTVSPost2010PropOp36
 70
     1
102
RTVSPost2010Prop37
 90
       50
102
RTVSPost2010PropOp37
 70
     1
102
RTVSPost2010Prop38
140
0.0
102
RTVSPost2010PropOp38
 70
     1
102
RTVSPost2010Prop39
140
1.0
102
RTVSPost2010PropOp39
 70
     1
102
RTVSPost2010Prop40
 90
        0
102
RTVSPost2010PropOp40
 70
     1
102
RTVSPost2010Prop41ColorIndex
 90
       18
102
RTVSPost2010Prop41ColorRGB
 90
        0
102
RTVSPost2010PropOp41
 70
     1
102
RTVSPost2010Prop42
 90
       50
102
RTVSPost2010PropOp42
 70
     1
102
RTVSPost2010Prop43
 90
        3
102
RTVSPost2010PropOp43
 70
     1
102
RTVSPost2010Prop44ColorIndex
 90
        5
102
RTVSPost2010Prop44ColorRGB
 90
      255
102
RTVSPost2010PropOp44
 70
     1
102
RTVSPost2010Prop45
280
     0
102
RTVSPost2010PropOp45
 70
     1
102
RTVSPost2010Prop46
 90
       50
102
RTVSPost2010PropOp46
 70
     1
102
RTVSPost2010Prop47
 90
       50
102
RTVSPost2010PropOp47
 70
     1
102
RTVSPost2010Prop48
 90
       50
102
RTVSPost2010PropOp48
 70
     1
102
RTVSPost2010Prop49
280
     0
102
RTVSPost2010PropOp49
 70
     1
102
RTVSPost2010Prop50
 90
       50
102
RTVSPost2010PropOp50
 70
     1
102
RTVSPost2010Prop51ColorIndex
 90
      256
102
RTVSPost2010Prop51ColorRGB
 90
-16777216
102
RTVSPost2010PropOp51
 70
     0
102
RTVSPost2010Prop52
140
1.0
102
RTVSPost2010PropOp52
 70
     0
102
RTVSPost2010Prop53
 90
        2
102
RTVSPost2010PropOp53
 70
     1
102
RTVSPost2010Prop54
  1
strokes_ogs.tif
102
RTVSPost2010PropOp54
 70
     1
102
RTVSPost2010Prop55
280
     0
102
RTVSPost2010PropOp55
 70
     1
102
RTVSPost2010Prop56
140
1.0
102
RTVSPost2010PropOp56
 70
     1
102
RTVSPost2010Prop57
140
1.0
102
RTVSPost2010PropOp57
 70
     1
102
RTVSPropertyOp0
 70
     1
102
RTVSPropertyOp1
 70
     1
102
RTVSPropertyOp2
 70
     1
102
RTVSPropertyOp3
 70
     1
102
RTVSPropertyOp4
 70
     1
102
RTVSPropertyOp5
 70
     1
102
RTVSPropertyOp6
 70
     1
102
RTVSPropertyOp7
 70
     1
102
RTVSPropertyOp8
 70
     1
102
RTVSPropertyOp9
 70
     1
102
RTVSPropertyOp10
 70
     1
102
RTVSPropertyOp11
 70
     1
102
RTVSPropertyOp12
 70
     1
102
RTVSPropertyOp13
 70
     1
102
RTVSPropertyOp14
 70
     1
102
RTVSPropertyOp15
 70
     1
102
RTVSPropertyOp16
 70
     1
102
RTVSPropertyOp17
 70
     1
102
RTVSPropertyOp18
 70
     1
102
RTVSPropertyOp19
 70
     1
102
RTVSPropertyOp20
 70
     1
102
RTVSPropertyOp21
 70
     1
102
RTVSPropertyOp22
 70
     1
102
RTVSPropertyOp23
 70
     1
102
RTVSPropertyOp24
 70
     1
102
RTVSPropertyOp25
 70
     1
102
RTVSPropertyOp26
 70
     1
102
RTVSPropertyOp27
 70
     1
102
RTVSPropertyOp28
 70
     1
102
RTVSPropertyOp29
 70
     1
102
RTVSPropertyOp30
 70
     1
102
RTVSPropertyOp31
 70
     1
102
RTVSPropertyOp32
 70
     1
102
RTVSPropertyOp33
 70
     1
102
RTVSPropertyOp34
 70
     1
102
RTVSPropertyOp35
 70
     1
102
RTVSPropertyOp36
 70
     1
102
RTVSPropertyOp37
 70
     1
102
RTVSPropertyOp38
 70
     1
102
RTVSPropertyOp39
 70
     1
102
RTVSPropertyOp40
 70
     1
102
RTVSPropertyOp41
 70
     1
102
RTVSPropertyOp42
 70
     1
102
RTVSPropertyOp43
 70
     1
102
RTVSPropertyOp44
 70
     1
102
RTVSPropertyOp45
 70
     1
102
RTVSPropertyOp46
 70
     1
102
RTVSPropertyOp47
 70
     1
102
RTVSPropertyOp48
 70
     1
102
RTVSPropertyOp49
 70
     1
102
RTVSPropertyOp50
 70
     1
102
RTVSPropertyOp51
 70
     0
102
RTVSPropertyOp52
 70
     0
102
RTVSPropertyOp53
 70
     1
102
RTVSPropertyOp54
 70
     1
102
RTVSPropertyOp55
 70
     1
102
RTVSPropertyOp56
 70
     1
102
RTVSPropertyOp57
 70
     1
102
RTVSPropertyOp58
 70
     1
102
RTVSPropertyOp59
 70
     1
102
RTVSPropertyOp60
 70
     1
102
RTVSPropertyOp61
 70
     1
102
RTVSPropertyOp62
 70
     1
  0
ENDSEC
  0
EOF
