  0
SECTION
  2
HEADER
  9
$ACADVER
  1
AC1018
  9
$ACADMAINTVER
 70
   104
  9
$DWGCODEPAGE
  3
ANSI_1250
  9
$LASTSAVEDBY
  1
wq7085
  9
$INSBASE
 10
0.0
 20
0.0
 30
0.0
  9
$EXTMIN
 10
188.6658343333333
 20
118.534924
 30
0.0
  9
$EXTMAX
 10
401.058406
 20
345.2288016666667
 30
0.0
  9
$LIMMIN
 10
-0.5
 20
-0.5
  9
$LIMMAX
 10
5.0
 20
5.0
  9
$ORTHOMODE
 70
     0
  9
$REGENMODE
 70
     1
  9
$FILLMODE
 70
     1
  9
$QTEXTMODE
 70
     0
  9
$MIRRTEXT
 70
     1
  9
$LTSCALE
 40
1.0
  9
$ATTMODE
 70
     1
  9
$TEXTSIZE
 40
0.2
  9
$TRACEWID
 40
0.05
  9
$TEXTSTYLE
  7
Standard
  9
$CLAYER
  8
0
  9
$CELTYPE
  6
ByLayer
  9
$CECOLOR
 62
   256
  9
$CELTSCALE
 40
1.0
  9
$DISPSILH
 70
     0
  9
$DIMSCALE
 40
1.0
  9
$DIMASZ
 40
0.18
  9
$DIMEXO
 40
0.0625
  9
$DIMDLI
 40
0.38
  9
$DIMRND
 40
0.0
  9
$DIMDLE
 40
0.0
  9
$DIMEXE
 40
0.18
  9
$DIMTP
 40
0.0
  9
$DIMTM
 40
0.0
  9
$DIMTXT
 40
0.18
  9
$DIMCEN
 40
0.09
  9
$DIMTSZ
 40
0.0
  9
$DIMTOL
 70
     0
  9
$DIMLIM
 70
     0
  9
$DIMTIH
 70
     1
  9
$DIMTOH
 70
     1
  9
$DIMSE1
 70
     0
  9
$DIMSE2
 70
     0
  9
$DIMTAD
 70
     0
  9
$DIMZIN
 70
     0
  9
$DIMBLK
  1

  9
$DIMASO
 70
     1
  9
$DIMSHO
 70
     1
  9
$DIMPOST
  1

  9
$DIMAPOST
  1

  9
$DIMALT
 70
     0
  9
$DIMALTD
 70
     2
  9
$DIMALTF
 40
25.4
  9
$DIMLFAC
 40
1.0
  9
$DIMTOFL
 70
     0
  9
$DIMTVP
 40
0.0
  9
$DIMTIX
 70
     0
  9
$DIMSOXD
 70
     0
  9
$DIMSAH
 70
     0
  9
$DIMBLK1
  1

  9
$DIMBLK2
  1

  9
$DIMSTYLE
  2
Standard
  9
$DIMCLRD
 70
     0
  9
$DIMCLRE
 70
     0
  9
$DIMCLRT
 70
     0
  9
$DIMTFAC
 40
1.0
  9
$DIMGAP
 40
0.09
  9
$DIMJUST
 70
     0
  9
$DIMSD1
 70
     0
  9
$DIMSD2
 70
     0
  9
$DIMTOLJ
 70
     1
  9
$DIMTZIN
 70
     0
  9
$DIMALTZ
 70
     0
  9
$DIMALTTZ
 70
     0
  9
$DIMUPT
 70
     0
  9
$DIMDEC
 70
     4
  9
$DIMTDEC
 70
     4
  9
$DIMALTU
 70
     2
  9
$DIMALTTD
 70
     2
  9
$DIMTXSTY
  7
Standard
  9
$DIMAUNIT
 70
     0
  9
$DIMADEC
 70
     0
  9
$DIMALTRND
 40
0.0
  9
$DIMAZIN
 70
     0
  9
$DIMDSEP
 70
    46
  9
$DIMATFIT
 70
     3
  9
$DIMFRAC
 70
     0
  9
$DIMLDRBLK
  1

  9
$DIMLUNIT
 70
     2
  9
$DIMLWD
 70
    -2
  9
$DIMLWE
 70
    -2
  9
$DIMTMOVE
 70
     0
  9
$LUNITS
 70
     2
  9
$LUPREC
 70
     4
  9
$SKETCHINC
 40
0.1
  9
$FILLETRAD
 40
0.5
  9
$AUNITS
 70
     0
  9
$AUPREC
 70
     0
  9
$MENU
  1
.
  9
$ELEVATION
 40
0.0
  9
$PELEVATION
 40
0.0
  9
$THICKNESS
 40
0.0
  9
$LIMCHECK
 70
     0
  9
$CHAMFERA
 40
0.0
  9
$CHAMFERB
 40
0.0
  9
$CHAMFERC
 40
0.0
  9
$CHAMFERD
 40
0.0
  9
$SKPOLY
 70
     0
  9
$TDCREATE
 40
2458981.557013889
  9
$TDUCREATE
 40
2458981.473687604
  9
$TDUPDATE
 40
2458981.558125000
  9
$TDUUPDATE
 40
2458981.474791666
  9
$TDINDWG
 40
0.0003472338
  9
$TDUSRTIMER
 40
0.0003472338
  9
$USRTIMER
 70
     1
  9
$ANGBASE
 50
0.0
  9
$ANGDIR
 70
     0
  9
$PDMODE
 70
     0
  9
$PDSIZE
 40
0.0
  9
$PLINEWID
 40
0.0
  9
$SPLFRAME
 70
     0
  9
$SPLINETYPE
 70
     6
  9
$SPLINESEGS
 70
     8
  9
$HANDSEED
  5
394
  9
$SURFTAB1
 70
     6
  9
$SURFTAB2
 70
     6
  9
$SURFTYPE
 70
     6
  9
$SURFU
 70
     6
  9
$SURFV
 70
     6
  9
$UCSBASE
  2

  9
$UCSNAME
  2

  9
$UCSORG
 10
274.404842
 20
288.907994
 30
0.0
  9
$UCSXDIR
 10
1.0
 20
0.0
 30
0.0
  9
$UCSYDIR
 10
0.0
 20
1.0
 30
0.0
  9
$UCSORTHOREF
  2

  9
$UCSORTHOVIEW
 70
     0
  9
$UCSORGTOP
 10
0.0
 20
0.0
 30
0.0
  9
$UCSORGBOTTOM
 10
0.0
 20
0.0
 30
0.0
  9
$UCSORGLEFT
 10
0.0
 20
0.0
 30
0.0
  9
$UCSORGRIGHT
 10
0.0
 20
0.0
 30
0.0
  9
$UCSORGFRONT
 10
0.0
 20
0.0
 30
0.0
  9
$UCSORGBACK
 10
0.0
 20
0.0
 30
0.0
  9
$PUCSBASE
  2

  9
$PUCSNAME
  2

  9
$PUCSORG
 10
0.0
 20
0.0
 30
0.0
  9
$PUCSXDIR
 10
1.0
 20
0.0
 30
0.0
  9
$PUCSYDIR
 10
0.0
 20
1.0
 30
0.0
  9
$PUCSORTHOREF
  2

  9
$PUCSORTHOVIEW
 70
     0
  9
$PUCSORGTOP
 10
0.0
 20
0.0
 30
0.0
  9
$PUCSORGBOTTOM
 10
0.0
 20
0.0
 30
0.0
  9
$PUCSORGLEFT
 10
0.0
 20
0.0
 30
0.0
  9
$PUCSORGRIGHT
 10
0.0
 20
0.0
 30
0.0
  9
$PUCSORGFRONT
 10
0.0
 20
0.0
 30
0.0
  9
$PUCSORGBACK
 10
0.0
 20
0.0
 30
0.0
  9
$USERI1
 70
     0
  9
$USERI2
 70
     0
  9
$USERI3
 70
     0
  9
$USERI4
 70
     0
  9
$USERI5
 70
     0
  9
$USERR1
 40
0.0
  9
$USERR2
 40
0.0
  9
$USERR3
 40
0.0
  9
$USERR4
 40
0.0
  9
$USERR5
 40
0.0
  9
$WORLDVIEW
 70
     1
  9
$SHADEDGE
 70
     3
  9
$SHADEDIF
 70
    70
  9
$TILEMODE
 70
     1
  9
$MAXACTVP
 70
    64
  9
$PINSBASE
 10
0.0
 20
0.0
 30
0.0
  9
$PLIMCHECK
 70
     0
  9
$PEXTMIN
 10
-0.5
 20
-0.5
 30
-0.5
  9
$PEXTMAX
 10
5.0
 20
5.0
 30
5.0
  9
$PLIMMIN
 10
-0.5
 20
-0.5
  9
$PLIMMAX
 10
5.0
 20
5.0
  9
$UNITMODE
 70
     0
  9
$VISRETAIN
 70
     1
  9
$PLINEGEN
 70
     0
  9
$PSLTSCALE
 70
     1
  9
$TREEDEPTH
 70
  3020
  9
$CMLSTYLE
  2
Standard
  9
$CMLJUST
 70
     0
  9
$CMLSCALE
 40
1.0
  9
$PROXYGRAPHICS
 70
     1
  9
$MEASUREMENT
 70
     1
  9
$CELWEIGHT
370
    13
  9
$ENDCAPS
280
     0
  9
$JOINSTYLE
280
     0
  9
$LWDISPLAY
290
     0
  9
$INSUNITS
 70
     4
  9
$HYPERLINKBASE
  1

  9
$STYLESHEET
  1

  9
$XEDIT
290
     1
  9
$CEPSNTYPE
380
     0
  9
$PSTYLEMODE
290
     1
  9
$FINGERPRINTGUID
  2
{25E3F8C4-E775-4C93-AAA8-F5D30875F03D}
  9
$VERSIONGUID
  2
{81939DDC-D1A5-9E40-9277-82D52FEFA2B6}
  9
$EXTNAMES
290
     1
  9
$PSVPSCALE
 40
0.0
  9
$OLESTARTUP
290
     0
  9
$SORTENTS
280
   127
  9
$INDEXCTL
280
     0
  9
$HIDETEXT
280
     1
  9
$XCLIPFRAME
290
     0
  9
$HALOGAP
280
     0
  9
$OBSCOLOR
 70
   257
  9
$OBSLTYPE
280
     0
  9
$INTERSECTIONDISPLAY
280
     0
  9
$INTERSECTIONCOLOR
 70
   257
  9
$DIMASSOC
280
     2
  9
$PROJECTNAME
  1

  0
ENDSEC
  0
SECTION
  2
CLASSES
  0
CLASS
  1
ACDBDICTIONARYWDFLT
  2
AcDbDictionaryWithDefault
  3
ObjectDBX Classes
 90
        0
 91
        1
280
     0
281
     0
  0
CLASS
  1
VISUALSTYLE
  2
AcDbVisualStyle
  3
ObjectDBX Classes
 90
     4095
 91
       24
280
     0
281
     0
  0
CLASS
  1
MATERIAL
  2
AcDbMaterial
  3
ObjectDBX Classes
 90
     1153
 91
        3
280
     0
281
     0
  0
CLASS
  1
SCALE
  2
AcDbScale
  3
ObjectDBX Classes
 90
     1153
 91
       33
280
     0
281
     0
  0
CLASS
  1
TABLESTYLE
  2
AcDbTableStyle
  3
ObjectDBX Classes
 90
     4095
 91
        1
280
     0
281
     0
  0
CLASS
  1
MLEADERSTYLE
  2
AcDbMLeaderStyle
  3
ACDB_MLEADERSTYLE_CLASS
 90
     4095
 91
        1
280
     0
281
     0
  0
CLASS
  1
SUN
  2
AcDbSun
  3
SCENEOE
 90
     1153
 91
        0
280
     0
281
     0
  0
CLASS
  1
DIMASSOC
  2
AcDbDimAssoc
  3
"AcDbDimAssoc|Product Desc:     AcDim ARX App For Dimension|Company:          Autodesk, Inc.|WEB Address:      www.autodesk.com"
 90
        0
 91
        7
280
     0
281
     0
  0
CLASS
  1
DICTIONARYVAR
  2
AcDbDictionaryVar
  3
ObjectDBX Classes
 90
        0
 91
        8
280
     0
281
     0
  0
CLASS
  1
CELLSTYLEMAP
  2
AcDbCellStyleMap
  3
ObjectDBX Classes
 90
     1152
 91
        2
280
     0
281
     0
  0
CLASS
  1
ACDBSECTIONVIEWSTYLE
  2
AcDbSectionViewStyle
  3
ObjectDBX Classes
 90
     1025
 91
        1
280
     0
281
     0
  0
CLASS
  1
ACDBDETAILVIEWSTYLE
  2
AcDbDetailViewStyle
  3
ObjectDBX Classes
 90
     1025
 91
        1
280
     0
281
     0
  0
CLASS
  1
SORTENTSTABLE
  2
AcDbSortentsTable
  3
ObjectDBX Classes
 90
        0
 91
        1
280
     0
281
     0
  0
ENDSEC
  0
SECTION
  2
TABLES
  0
TABLE
  2
VPORT
  5
8
330
0
100
AcDbSymbolTable
 70
    16
  0
VPORT
  5
29
330
8
100
AcDbSymbolTableRecord
100
AcDbViewportTableRecord
  2
*Active
 70
     0
 10
0.0
 20
0.0
 11
1.0
 21
1.0
 12
280.7394322392074
 22
297.0729991015485
 13
0.0
 23
0.0
 14
0.5
 24
0.5
 15
0.5
 25
0.5
 16
0.0
 26
0.0
 36
1.0
 17
0.0
 27
0.0
 37
0.0
 40
204.661998477632
 41
2.283154121863799
 42
50.0
 43
411.248518
 44
-411.248518
 50
0.0
 51
0.0
 71
     0
 72
   100
 73
     1
 74
     3
 75
     0
 76
     0
 77
     0
 78
     0
281
     0
 65
     1
110
274.404842
120
288.907994
130
0.0
111
1.0
121
0.0
131
0.0
112
0.0
122
1.0
132
0.0
 79
     0
146
0.0
1001
ACAD_NAV_VCDISPLAY
1070
     3
  0
VPORT
  5
29B
330
8
100
AcDbSymbolTableRecord
100
AcDbViewportTableRecord
  2
L1
 70
     0
 10
0.0
 20
0.0
 11
1.0
 21
1.0
 12
294.357918
 22
231.833941
 13
0.0
 23
0.0
 14
0.5
 24
0.5
 15
0.5
 25
0.5
 16
0.0
 26
0.0
 36
1.0
 17
0.0
 27
0.0
 37
0.0
 40
207.433333
 41
0.085602
 42
50.0
 43
411.248518
 44
-411.248518
 50
0.0
 51
0.0
 71
     0
 72
   100
 73
     1
 74
     3
 75
     0
 76
     0
 77
     0
 78
     0
281
     0
 65
     1
110
0.0
120
0.0
130
0.0
111
1.0
121
0.0
131
0.0
112
0.0
122
1.0
132
0.0
 79
     0
146
0.0
  0
VPORT
  5
29C
330
8
100
AcDbSymbolTableRecord
100
AcDbViewportTableRecord
  2
L2
 70
     0
 10
0.0
 20
0.0
 11
0.5
 21
1.0
 12
0.0
 22
0.0
 13
0.0
 23
0.0
 14
0.5
 24
0.5
 15
0.5
 25
0.5
 16
0.0
 26
-1.0
 36
0.0
 17
0.0
 27
0.0
 37
0.0
 40
1319.735116
 41
0.013455
 42
50.0
 43
679.920199
 44
-679.920199
 50
0.0
 51
0.0
 71
     0
 72
   100
 73
     1
 74
     3
 75
     0
 76
     0
 77
     0
 78
     0
281
     0
 65
     1
110
0.0
120
0.0
130
0.0
111
1.0
121
0.0
131
0.0
112
0.0
122
1.0
132
0.0
 79
     0
146
0.0
  0
VPORT
  5
29D
330
8
100
AcDbSymbolTableRecord
100
AcDbViewportTableRecord
  2
L2
 70
     0
 10
0.5
 20
0.0
 11
1.0
 21
1.0
 12
0.0
 22
0.0
 13
0.0
 23
0.0
 14
0.5
 24
0.5
 15
0.5
 25
0.5
 16
1.0
 26
0.0
 36
0.0
 17
0.0
 27
0.0
 37
0.0
 40
1319.735116
 41
0.013455
 42
50.0
 43
667.9688169999999
 44
-667.9688169999999
 50
0.0
 51
0.0
 71
     0
 72
   100
 73
     1
 74
     3
 75
     0
 76
     0
 77
     0
 78
     0
281
     0
 65
     1
110
0.0
120
0.0
130
0.0
111
1.0
121
0.0
131
0.0
112
0.0
122
1.0
132
0.0
 79
     0
146
0.0
  0
VPORT
  5
29E
330
8
100
AcDbSymbolTableRecord
100
AcDbViewportTableRecord
  2
L3
 70
     0
 10
0.0
 20
0.5
 11
1.0
 21
1.0
 12
294.357918
 22
231.833941
 13
0.0
 23
0.0
 14
0.5
 24
0.5
 15
0.5
 25
0.5
 16
0.0
 26
0.0
 36
1.0
 17
0.0
 27
0.0
 37
0.0
 40
207.433333
 41
0.085602
 42
50.0
 43
411.248518
 44
-411.248518
 50
0.0
 51
0.0
 71
     0
 72
   100
 73
     1
 74
     3
 75
     0
 76
     0
 77
     0
 78
     0
281
     0
 65
     1
110
0.0
120
0.0
130
0.0
111
1.0
121
0.0
131
0.0
112
0.0
122
1.0
132
0.0
 79
     0
146
0.0
  0
VPORT
  5
29F
330
8
100
AcDbSymbolTableRecord
100
AcDbViewportTableRecord
  2
L3
 70
     0
 10
0.0
 20
0.0
 11
1.0
 21
0.5
 12
0.0
 22
0.0
 13
0.0
 23
0.0
 14
0.5
 24
0.5
 15
0.5
 25
0.5
 16
0.0
 26
-1.0
 36
0.0
 17
0.0
 27
0.0
 37
0.0
 40
1319.735116
 41
0.013455
 42
50.0
 43
679.920199
 44
-679.920199
 50
0.0
 51
0.0
 71
     0
 72
   100
 73
     1
 74
     3
 75
     0
 76
     0
 77
     0
 78
     0
281
     0
 65
     1
110
0.0
120
0.0
130
0.0
111
1.0
121
0.0
131
0.0
112
0.0
122
1.0
132
0.0
 79
     0
146
0.0
  0
VPORT
  5
2A0
330
8
100
AcDbSymbolTableRecord
100
AcDbViewportTableRecord
  2
L4
 70
     0
 10
0.0
 20
0.5
 11
0.5
 21
1.0
 12
294.357918
 22
231.833941
 13
0.0
 23
0.0
 14
0.5
 24
0.5
 15
0.5
 25
0.5
 16
0.0
 26
0.0
 36
1.0
 17
0.0
 27
0.0
 37
0.0
 40
207.433333
 41
0.085602
 42
50.0
 43
411.248518
 44
-411.248518
 50
0.0
 51
0.0
 71
     0
 72
   100
 73
     1
 74
     3
 75
     0
 76
     0
 77
     0
 78
     0
281
     0
 65
     1
110
0.0
120
0.0
130
0.0
111
1.0
121
0.0
131
0.0
112
0.0
122
1.0
132
0.0
 79
     0
146
0.0
  0
VPORT
  5
2A1
330
8
100
AcDbSymbolTableRecord
100
AcDbViewportTableRecord
  2
L4
 70
     0
 10
0.0
 20
0.0
 11
0.5
 21
0.5
 12
0.0
 22
0.0
 13
0.0
 23
0.0
 14
0.5
 24
0.5
 15
0.5
 25
0.5
 16
0.0
 26
-1.0
 36
0.0
 17
0.0
 27
0.0
 37
0.0
 40
1319.735116
 41
0.013455
 42
50.0
 43
679.920199
 44
-679.920199
 50
0.0
 51
0.0
 71
     0
 72
   100
 73
     1
 74
     3
 75
     0
 76
     0
 77
     0
 78
     0
281
     0
 65
     1
110
0.0
120
0.0
130
0.0
111
1.0
121
0.0
131
0.0
112
0.0
122
1.0
132
0.0
 79
     0
146
0.0
  0
VPORT
  5
2A2
330
8
100
AcDbSymbolTableRecord
100
AcDbViewportTableRecord
  2
L4
 70
     0
 10
0.5
 20
0.0
 11
1.0
 21
0.5
 12
0.0
 22
0.0
 13
0.0
 23
0.0
 14
0.5
 24
0.5
 15
0.5
 25
0.5
 16
1.0
 26
0.0
 36
0.0
 17
0.0
 27
0.0
 37
0.0
 40
1319.735116
 41
0.013455
 42
50.0
 43
667.9688169999999
 44
-667.9688169999999
 50
0.0
 51
0.0
 71
     0
 72
   100
 73
     1
 74
     3
 75
     0
 76
     0
 77
     0
 78
     0
281
     0
 65
     1
110
0.0
120
0.0
130
0.0
111
1.0
121
0.0
131
0.0
112
0.0
122
1.0
132
0.0
 79
     0
146
0.0
  0
VPORT
  5
2A3
330
8
100
AcDbSymbolTableRecord
100
AcDbViewportTableRecord
  2
L4
 70
     0
 10
0.5
 20
0.5
 11
1.0
 21
1.0
 12
0.0
 22
0.0
 13
0.0
 23
0.0
 14
0.5
 24
0.5
 15
0.5
 25
0.5
 16
0.5773502691896259
 26
-0.5773502691896259
 36
0.5773502691896259
 17
0.0
 27
0.0
 37
0.0
 40
1296.074958
 41
0.0137
 42
50.0
 43
675.1032679999999
 44
-675.1032679999999
 50
0.0
 51
0.0
 71
     0
 72
   100
 73
     1
 74
     3
 75
     0
 76
     0
 77
     0
 78
     0
281
     0
 65
     1
110
0.0
120
0.0
130
0.0
111
1.0
121
0.0
131
0.0
112
0.0
122
1.0
132
0.0
 79
     0
146
0.0
  0
VPORT
  5
2A4
330
8
100
AcDbSymbolTableRecord
100
AcDbViewportTableRecord
  2
L6
 70
     0
 10
0.0
 20
0.5
 11
0.333333
 21
1.0
 12
0.0
 22
0.0
 13
0.0
 23
0.0
 14
0.5
 24
0.5
 15
0.5
 25
0.5
 16
0.7188730927569434
 26
-0.5850486126764433
 36
0.3754192287502549
 17
0.0
 27
0.0
 37
0.0
 40
1367.812327
 41
0.012982
 42
50.0
 43
708.2012429999999
 44
-708.2012429999999
 50
0.0
 51
0.0
 71
     0
 72
   100
 73
     1
 74
     3
 75
     0
 76
     0
 77
     0
 78
     0
281
     0
 65
     1
110
0.0
120
0.0
130
0.0
111
1.0
121
0.0
131
0.0
112
0.0
122
1.0
132
0.0
 79
     0
146
0.0
  0
VPORT
  5
2A5
330
8
100
AcDbSymbolTableRecord
100
AcDbViewportTableRecord
  2
L6
 70
     0
 10
0.0
 20
0.0
 11
0.333333
 21
0.5
 12
0.0
 22
0.0
 13
0.0
 23
0.0
 14
0.5
 24
0.5
 15
0.5
 25
0.5
 16
-1.0
 26
0.0
 36
0.0
 17
0.0
 27
0.0
 37
0.0
 40
1319.735116
 41
0.013455
 42
50.0
 43
667.9688169999999
 44
-667.9688169999999
 50
0.0
 51
0.0
 71
     0
 72
   100
 73
     1
 74
     3
 75
     0
 76
     0
 77
     0
 78
     0
281
     0
 65
     1
110
0.0
120
0.0
130
0.0
111
1.0
121
0.0
131
0.0
112
0.0
122
1.0
132
0.0
 79
     0
146
0.0
  0
VPORT
  5
2A6
330
8
100
AcDbSymbolTableRecord
100
AcDbViewportTableRecord
  2
L6
 70
     0
 10
0.333333
 20
0.5
 11
0.666667
 21
1.0
 12
294.357918
 22
231.833941
 13
0.0
 23
0.0
 14
0.5
 24
0.5
 15
0.5
 25
0.5
 16
0.0
 26
0.0
 36
1.0
 17
0.0
 27
0.0
 37
0.0
 40
207.433333
 41
0.085602
 42
50.0
 43
411.248518
 44
-411.248518
 50
0.0
 51
0.0
 71
     0
 72
   100
 73
     1
 74
     3
 75
     0
 76
     0
 77
     0
 78
     0
281
     0
 65
     1
110
0.0
120
0.0
130
0.0
111
1.0
121
0.0
131
0.0
112
0.0
122
1.0
132
0.0
 79
     0
146
0.0
  0
VPORT
  5
2A7
330
8
100
AcDbSymbolTableRecord
100
AcDbViewportTableRecord
  2
L6
 70
     0
 10
0.333333
 20
0.0
 11
0.666667
 21
0.5
 12
0.0
 22
0.0
 13
0.0
 23
0.0
 14
0.5
 24
0.5
 15
0.5
 25
0.5
 16
0.0
 26
-1.0
 36
0.0
 17
0.0
 27
0.0
 37
0.0
 40
1319.735116
 41
0.013455
 42
50.0
 43
679.920199
 44
-679.920199
 50
0.0
 51
0.0
 71
     0
 72
   100
 73
     1
 74
     3
 75
     0
 76
     0
 77
     0
 78
     0
281
     0
 65
     1
110
0.0
120
0.0
130
0.0
111
1.0
121
0.0
131
0.0
112
0.0
122
1.0
132
0.0
 79
     0
146
0.0
  0
VPORT
  5
2A8
330
8
100
AcDbSymbolTableRecord
100
AcDbViewportTableRecord
  2
L6
 70
     0
 10
0.666667
 20
0.5
 11
1.0
 21
1.0
 12
0.0
 22
0.0
 13
0.0
 23
0.0
 14
0.5
 24
0.5
 15
0.5
 25
0.5
 16
0.5773502691896259
 26
-0.5773502691896259
 36
0.5773502691896259
 17
0.0
 27
0.0
 37
0.0
 40
1296.074958
 41
0.0137
 42
50.0
 43
675.1032679999999
 44
-675.1032679999999
 50
0.0
 51
0.0
 71
     0
 72
   100
 73
     1
 74
     3
 75
     0
 76
     0
 77
     0
 78
     0
281
     0
 65
     1
110
0.0
120
0.0
130
0.0
111
1.0
121
0.0
131
0.0
112
0.0
122
1.0
132
0.0
 79
     0
146
0.0
  0
VPORT
  5
2A9
330
8
100
AcDbSymbolTableRecord
100
AcDbViewportTableRecord
  2
L6
 70
     0
 10
0.666667
 20
0.0
 11
1.0
 21
0.5
 12
0.0
 22
0.0
 13
0.0
 23
0.0
 14
0.5
 24
0.5
 15
0.5
 25
0.5
 16
1.0
 26
0.0
 36
0.0
 17
0.0
 27
0.0
 37
0.0
 40
1319.735116
 41
0.013455
 42
50.0
 43
667.9688169999999
 44
-667.9688169999999
 50
0.0
 51
0.0
 71
     0
 72
   100
 73
     1
 74
     3
 75
     0
 76
     0
 77
     0
 78
     0
281
     0
 65
     1
110
0.0
120
0.0
130
0.0
111
1.0
121
0.0
131
0.0
112
0.0
122
1.0
132
0.0
 79
     0
146
0.0
  0
ENDTAB
  0
TABLE
  2
LTYPE
  5
5
330
0
100
AcDbSymbolTable
 70
     7
  0
LTYPE
  5
14
330
5
100
AcDbSymbolTableRecord
100
AcDbLinetypeTableRecord
  2
ByBlock
 70
     0
  3

 72
    65
 73
     0
 40
0.0
  0
LTYPE
  5
15
330
5
100
AcDbSymbolTableRecord
100
AcDbLinetypeTableRecord
  2
ByLayer
 70
     0
  3

 72
    65
 73
     0
 40
0.0
  0
LTYPE
  5
16
330
5
100
AcDbSymbolTableRecord
100
AcDbLinetypeTableRecord
  2
Continuous
 70
     0
  3
Solid line
 72
    65
 73
     0
 40
0.0
  0
LTYPE
  5
6E
330
5
100
AcDbSymbolTableRecord
100
AcDbLinetypeTableRecord
  2
CENTER
 70
     0
  3
____ _ ____ _ ____ _ ____
 72
    65
 73
     4
 40
47.4
 49
22.0
 74
     4
 75
     0
340
0
 46
0.0
 50
0.0
 44
0.0
 45
0.0
 49
-8.5
 74
     4
 75
     0
340
0
 46
0.0
 50
0.0
 44
0.0
 45
0.0
 49
8.5
 74
     4
 75
     0
340
0
 46
0.0
 50
0.0
 44
0.0
 45
0.0
 49
-8.5
 74
     4
 75
     0
340
0
 46
0.0
 50
0.0
 44
0.0
 45
0.0
  0
LTYPE
  5
6F
330
5
100
AcDbSymbolTableRecord
100
AcDbLinetypeTableRecord
  2
DASHDOT
 70
     0
  3
_._._._._._._._._._._._._._._._.
 72
    65
 73
     4
 40
70.0
 49
31.0
 74
     4
 75
     0
340
0
 46
0.0
 50
0.0
 44
0.0
 45
0.0
 49
-13.0
 74
     4
 75
     0
340
0
 46
0.0
 50
0.0
 44
0.0
 45
0.0
 49
13.0
 74
     4
 75
     0
340
0
 46
0.0
 50
0.0
 44
0.0
 45
0.0
 49
-13.0
 74
     4
 75
     0
340
0
 46
0.0
 50
0.0
 44
0.0
 45
0.0
  0
LTYPE
  5
70
330
5
100
AcDbSymbolTableRecord
100
AcDbLinetypeTableRecord
  2
DASHED
 70
     0
  3
__ __ __ __ __ __ __ __ __
 72
    65
 73
     2
 40
25.72
 49
12.86
 74
     4
 75
     0
340
0
 46
0.0
 50
0.0
 44
0.0
 45
0.0
 49
-12.86
 74
     4
 75
     0
340
0
 46
0.0
 50
0.0
 44
0.0
 45
0.0
  0
LTYPE
  5
71
330
5
100
AcDbSymbolTableRecord
100
AcDbLinetypeTableRecord
  2
DOT
 70
     0
  3
.........................
 72
    65
 73
     2
 40
10.0
 49
0.0
 74
     4
 75
     0
340
0
 46
0.0
 50
0.0
 44
0.0
 45
0.0
 49
-10.0
 74
     4
 75
     0
340
0
 46
0.0
 50
0.0
 44
0.0
 45
0.0
  0
LTYPE
  5
72
330
5
100
AcDbSymbolTableRecord
100
AcDbLinetypeTableRecord
  2
PHANTOM
 70
     0
  3
____ _ _ ____ _ _ _____ _ _ ____
 72
    65
 73
     6
 40
50.5
 49
18.0
 74
     4
 75
     0
340
0
 46
0.0
 50
0.0
 44
0.0
 45
0.0
 49
-6.5
 74
     4
 75
     0
340
0
 46
0.0
 50
0.0
 44
0.0
 45
0.0
 49
6.5
 74
     4
 75
     0
340
0
 46
0.0
 50
0.0
 44
0.0
 45
0.0
 49
-6.5
 74
     4
 75
     0
340
0
 46
0.0
 50
0.0
 44
0.0
 45
0.0
 49
6.5
 74
     4
 75
     0
340
0
 46
0.0
 50
0.0
 44
0.0
 45
0.0
 49
-6.5
 74
     4
 75
     0
340
0
 46
0.0
 50
0.0
 44
0.0
 45
0.0
  0
LTYPE
  5
336
330
5
100
AcDbSymbolTableRecord
100
AcDbLinetypeTableRecord
  2
CENTER2
 70
     0
  3
Center (.5x) ___ _ ___ _ ___ _ ___ _ ___ _ ___
 72
    65
 73
     4
 40
1.125
 49
0.75
 74
     0
 49
-0.125
 74
     0
 49
0.125
 74
     0
 49
-0.125
 74
     0
  0
ENDTAB
  0
TABLE
  2
LAYER
  5
2
330
0
100
AcDbSymbolTable
 70
    22
  0
LAYER
  5
10
102
{ACAD_XDICTIONARY
360
341
102
}
330
2
100
AcDbSymbolTableRecord
100
AcDbLayerTableRecord
  2
0
 70
     0
 62
     7
  6
Continuous
370
    -3
390
F
  0
LAYER
  5
1F5
330
2
100
AcDbSymbolTableRecord
100
AcDbLayerTableRecord
  2
Defpoints
 70
     0
 62
     7
  6
Continuous
290
     0
370
    -3
390
F
  0
LAYER
  5
333
102
{ACAD_XDICTIONARY
360
343
102
}
330
2
100
AcDbSymbolTableRecord
100
AcDbLayerTableRecord
  2
1
 70
     0
 62
     4
  6
Continuous
370
    -3
390
F
  0
LAYER
  5
334
102
{ACAD_XDICTIONARY
360
345
102
}
330
2
100
AcDbSymbolTableRecord
100
AcDbLayerTableRecord
  2
2
 70
     0
 62
     7
  6
Continuous
370
    -3
390
F
  0
LAYER
  5
335
102
{ACAD_XDICTIONARY
360
347
102
}
330
2
100
AcDbSymbolTableRecord
100
AcDbLayerTableRecord
  2
4
 70
     0
 62
     2
  6
CENTER2
370
    -3
390
F
  0
LAYER
  5
337
102
{ACAD_XDICTIONARY
360
349
102
}
330
2
100
AcDbSymbolTableRecord
100
AcDbLayerTableRecord
  2
SK1
 70
     0
 62
     4
  6
Continuous
370
    -3
390
F
  0
LAYER
  5
338
102
{ACAD_XDICTIONARY
360
34B
102
}
330
2
100
AcDbSymbolTableRecord
100
AcDbLayerTableRecord
  2
SK2
 70
     0
 62
     7
  6
Continuous
370
    -3
390
F
  0
LAYER
  5
33A
102
{ACAD_XDICTIONARY
360
34D
102
}
330
2
100
AcDbSymbolTableRecord
100
AcDbLayerTableRecord
  2
SK4
 70
     0
 62
     2
  6
CENTER2
370
    -3
390
F
  0
LAYER
  5
33B
102
{ACAD_XDICTIONARY
360
34F
102
}
330
2
100
AcDbSymbolTableRecord
100
AcDbLayerTableRecord
  2
SK6
 70
     0
 62
     5
  6
Continuous
370
    -3
390
F
  0
LAYER
  5
33C
102
{ACAD_XDICTIONARY
360
351
102
}
330
2
100
AcDbSymbolTableRecord
100
AcDbLayerTableRecord
  2
CUT
 70
     0
 62
     1
  6
Continuous
370
    -3
390
F
  0
LAYER
  5
33D
102
{ACAD_XDICTIONARY
360
353
102
}
330
2
100
AcDbSymbolTableRecord
100
AcDbLayerTableRecord
  2
NOCUT
 70
     0
 62
     7
  6
Continuous
370
    -3
390
F
  0
LAYER
  5
33E
102
{ACAD_XDICTIONARY
360
355
102
}
330
2
100
AcDbSymbolTableRecord
100
AcDbLayerTableRecord
  2
80
 70
     0
 62
     6
  6
Continuous
370
    -3
390
F
  0
LAYER
  5
33F
102
{ACAD_XDICTIONARY
360
357
102
}
330
2
100
AcDbSymbolTableRecord
100
AcDbLayerTableRecord
  2
81
 70
     0
 62
     3
  6
Continuous
370
    -3
390
F
  0
ENDTAB
  0
TABLE
  2
STYLE
  5
3
330
0
100
AcDbSymbolTable
 70
     3
  0
STYLE
  5
11
330
3
100
AcDbSymbolTableRecord
100
AcDbTextStyleTableRecord
  2
Standard
 70
     0
 40
0.0
 41
1.0
 50
0.0
 71
     0
 42
0.2
  3
txt
  4

  0
STYLE
  5
1E9
330
3
100
AcDbSymbolTableRecord
100
AcDbTextStyleTableRecord
  2
cesky
 70
     0
 40
0.0
 41
1.0
 50
0.0
 71
     0
 42
0.2
  3
simplex.shx
  4

  0
STYLE
  5
1EA
330
3
100
AcDbSymbolTableRecord
100
AcDbTextStyleTableRecord
  2
DWGDirectTextStyle
 70
     0
 40
0.0
 41
1.0
 50
0.0
 71
     0
 42
0.2
  3
simplex
  4

  0
ENDTAB
  0
TABLE
  2
VIEW
  5
6
330
0
100
AcDbSymbolTable
 70
     0
  0
ENDTAB
  0
TABLE
  2
UCS
  5
7
330
0
100
AcDbSymbolTable
 70
     0
  0
ENDTAB
  0
TABLE
  2
APPID
  5
9
330
0
100
AcDbSymbolTable
 70
     7
  0
APPID
  5
12
330
9
100
AcDbSymbolTableRecord
100
AcDbRegAppTableRecord
  2
ACAD
 70
     0
  0
APPID
  5
1F1
330
9
100
AcDbSymbolTableRecord
100
AcDbRegAppTableRecord
  2
ACAD_DSTYLE_DIMBREAK
 70
     0
  0
APPID
  5
2AA
330
9
100
AcDbSymbolTableRecord
100
AcDbRegAppTableRecord
  2
ACAD_DSTYLE_DIM_LINETYPE
 70
     0
  0
APPID
  5
2AB
330
9
100
AcDbSymbolTableRecord
100
AcDbRegAppTableRecord
  2
ACAD_DSTYLE_DIM_EXT1_LINETYPE
 70
     0
  0
APPID
  5
2AC
330
9
100
AcDbSymbolTableRecord
100
AcDbRegAppTableRecord
  2
ACAD_DSTYLE_DIM_EXT2_LINETYPE
 70
     0
  0
APPID
  5
2EC
330
9
100
AcDbSymbolTableRecord
100
AcDbRegAppTableRecord
  2
ACAD_MLEADERVER
 70
     0
  0
APPID
  5
35C
330
9
100
AcDbSymbolTableRecord
100
AcDbRegAppTableRecord
  2
ACAD_NAV_VCDISPLAY
 70
     0
  0
ENDTAB
  0
TABLE
  2
DIMSTYLE
  5
A
330
0
100
AcDbSymbolTable
 70
     1
100
AcDbDimStyleTable
 71
     0
  0
DIMSTYLE
105
27
330
A
100
AcDbSymbolTableRecord
100
AcDbDimStyleTableRecord
  2
Standard
 70
     0
340
11
1001
ACAD_DSTYLE_DIMBREAK
1070
   391
1040
6.349999999999999
  0
ENDTAB
  0
TABLE
  2
BLOCK_RECORD
  5
1
330
0
100
AcDbSymbolTable
 70
    16
  0
BLOCK_RECORD
  5
1F
102
{ACAD_XDICTIONARY
360
2FC
102
}
330
1
100
AcDbSymbolTableRecord
100
AcDbBlockTableRecord
  2
*Model_Space
340
22
  0
BLOCK_RECORD
  5
1B
330
1
100
AcDbSymbolTableRecord
100
AcDbBlockTableRecord
  2
*Paper_Space
340
1E
  0
BLOCK_RECORD
  5
23
330
1
100
AcDbSymbolTableRecord
100
AcDbBlockTableRecord
  2
*Paper_Space0
340
26
  0
BLOCK_RECORD
  5
1EC
330
1
100
AcDbSymbolTableRecord
100
AcDbBlockTableRecord
  2
ASSORTED_DRAFT1
340
0
  0
BLOCK_RECORD
  5
1F6
330
1
100
AcDbSymbolTableRecord
100
AcDbBlockTableRecord
  2
*D2
340
0
  0
BLOCK_RECORD
  5
201
330
1
100
AcDbSymbolTableRecord
100
AcDbBlockTableRecord
  2
_U0
340
0
  0
BLOCK_RECORD
  5
20C
330
1
100
AcDbSymbolTableRecord
100
AcDbBlockTableRecord
  2
*D4
340
0
  0
BLOCK_RECORD
  5
218
330
1
100
AcDbSymbolTableRecord
100
AcDbBlockTableRecord
  2
_U1
340
0
  0
BLOCK_RECORD
  5
225
330
1
100
AcDbSymbolTableRecord
100
AcDbBlockTableRecord
  2
*D6
340
0
  0
BLOCK_RECORD
  5
231
330
1
100
AcDbSymbolTableRecord
100
AcDbBlockTableRecord
  2
_U2
340
0
  0
BLOCK_RECORD
  5
23E
330
1
100
AcDbSymbolTableRecord
100
AcDbBlockTableRecord
  2
*D8
340
0
  0
BLOCK_RECORD
  5
24A
330
1
100
AcDbSymbolTableRecord
100
AcDbBlockTableRecord
  2
_U3
340
0
  0
BLOCK_RECORD
  5
256
330
1
100
AcDbSymbolTableRecord
100
AcDbBlockTableRecord
  2
*D10
340
0
  0
BLOCK_RECORD
  5
262
330
1
100
AcDbSymbolTableRecord
100
AcDbBlockTableRecord
  2
_U4
340
0
  0
BLOCK_RECORD
  5
26E
330
1
100
AcDbSymbolTableRecord
100
AcDbBlockTableRecord
  2
*D12
340
0
  0
BLOCK_RECORD
  5
27A
330
1
100
AcDbSymbolTableRecord
100
AcDbBlockTableRecord
  2
_U5
340
0
  0
BLOCK_RECORD
  5
286
330
1
100
AcDbSymbolTableRecord
100
AcDbBlockTableRecord
  2
*D14
340
0
  0
BLOCK_RECORD
  5
292
330
1
100
AcDbSymbolTableRecord
100
AcDbBlockTableRecord
  2
_U6
340
0
  0
ENDTAB
  0
ENDSEC
  0
SECTION
  2
BLOCKS
  0
BLOCK
  5
20
330
1F
100
AcDbEntity
  8
0
100
AcDbBlockBegin
  2
*Model_Space
 70
     0
 10
0.0
 20
0.0
 30
0.0
  3
*Model_Space
  1

  0
ENDBLK
  5
21
330
1F
100
AcDbEntity
  8
0
100
AcDbBlockEnd
  0
BLOCK
  5
1C
330
1B
100
AcDbEntity
 67
     1
  8
0
100
AcDbBlockBegin
  2
*Paper_Space
 70
     0
 10
0.0
 20
0.0
 30
0.0
  3
*Paper_Space
  1

  0
ENDBLK
  5
1D
330
1B
100
AcDbEntity
 67
     1
  8
0
100
AcDbBlockEnd
  0
BLOCK
  5
24
330
23
100
AcDbEntity
 67
     1
  8
0
100
AcDbBlockBegin
  2
*Paper_Space0
 70
     0
 10
0.0
 20
0.0
 30
0.0
  3
*Paper_Space0
  1

  0
ENDBLK
  5
25
330
23
100
AcDbEntity
 67
     1
  8
0
100
AcDbBlockEnd
  0
BLOCK
  5
1EF
330
1EC
100
AcDbEntity
  8
0
100
AcDbBlockBegin
  2
ASSORTED_DRAFT1
 70
     0
 10
0.0
 20
0.0
 30
0.0
  3
ASSORTED_DRAFT1
  1

  0
SOLID
  5
1ED
330
1EC
100
AcDbEntity
  8
0
 62
   254
370
    13
100
AcDbTrace
 10
270.185042
 20
164.534924
 30
0.0
 11
265.185046
 21
163.42645
 31
0.0
 12
265.1850379999999
 22
165.643397
 32
0.0
 13
270.185042
 23
164.534924
 33
0.0
  0
ENDBLK
  5
1F0
330
1EC
100
AcDbEntity
  8
0
100
AcDbBlockEnd
  0
BLOCK
  5
1F7
330
1F6
100
AcDbEntity
  8
0
100
AcDbBlockBegin
  2
*D2
 70
     1
 10
0.0
 20
0.0
 30
0.0
  3
*D2
  1

  0
LINE
  5
1F9
330
1F6
100
AcDbEntity
  8
0
 62
   254
370
    -2
100
AcDbLine
 10
292.603832
 20
288.907994
 30
0.0
 11
401.058406
 21
288.907994
 31
0.0
  0
LINE
  5
1FA
330
1F6
100
AcDbEntity
  8
0
 62
   254
370
    -2
100
AcDbLine
 10
330.83929
 20
302.992294
 30
0.0
 11
401.058406
 21
302.992294
 31
0.0
  0
LINE
  5
1FB
330
1F6
100
AcDbEntity
  8
0
 62
   254
370
    -2
100
AcDbLine
 10
400.0584059999999
 20
288.907994
 30
0.0
 11
400.0584059999999
 21
302.992294
 31
0.0
  0
SOLID
  5
1FC
330
1F6
100
AcDbEntity
  8
0
 62
   254
100
AcDbTrace
 10
400.64174
 20
299.492294
 30
0.0
 11
399.475073
 21
299.492294
 31
0.0
 12
400.0584059999999
 22
302.992294
 32
0.0
 13
400.0584059999999
 23
302.992294
 33
0.0
  0
MTEXT
  5
1FD
330
1F6
100
AcDbEntity
  8
0
 62
   254
370
    13
100
AcDbMText
 10
394.808406
 20
276.57466
 30
0.0
 40
3.5
 41
0.0
 71
     5
 72
     1
  1
\A1;28.2
  7
cesky
 11
0.0
 21
1.0
 31
0.0
 73
     1
 44
1.0
  0
POINT
  5
1FE
330
1F6
100
AcDbEntity
  8
Defpoints
 62
     0
100
AcDbPoint
 10
292.603832
 20
288.907994
 30
0.0
  0
POINT
  5
1FF
330
1F6
100
AcDbEntity
  8
Defpoints
 62
     0
100
AcDbPoint
 10
330.83929
 20
302.992294
 30
0.0
  0
POINT
  5
200
330
1F6
100
AcDbEntity
  8
Defpoints
 62
     0
100
AcDbPoint
 10
400.0584059999999
 20
302.992294
 30
0.0
  0
ENDBLK
  5
1F8
330
1F6
100
AcDbEntity
  8
0
100
AcDbBlockEnd
  0
BLOCK
  5
207
330
201
100
AcDbEntity
  8
0
100
AcDbBlockBegin
  2
_U0
 70
     0
 10
0.0
 20
0.0
 30
0.0
  3
_U0
  1

  0
ENDBLK
  5
208
330
201
100
AcDbEntity
  8
0
100
AcDbBlockEnd
  0
BLOCK
  5
20D
330
20C
100
AcDbEntity
  8
0
100
AcDbBlockBegin
  2
*D4
 70
     1
 10
0.0
 20
0.0
 30
0.0
  3
*D4
  1

  0
LINE
  5
20F
330
20C
100
AcDbEntity
  8
0
 62
    95
370
    -2
100
AcDbLine
 10
216.004842
 20
304.782994
 30
0.0
 11
204.468887
 21
304.782994
 31
0.0
  0
LINE
  5
210
330
20C
100
AcDbEntity
  8
0
 62
    95
370
    -2
100
AcDbLine
 10
216.004842
 20
273.032994
 30
0.0
 11
204.468887
 21
273.032994
 31
0.0
  0
LINE
  5
211
330
20C
100
AcDbEntity
  8
0
 62
    95
370
    -2
100
AcDbLine
 10
205.468887
 20
301.282994
 30
0.0
 11
205.468887
 21
276.532994
 31
0.0
  0
SOLID
  5
212
330
20C
100
AcDbEntity
  8
0
 62
    95
100
AcDbTrace
 10
206.05222
 20
301.282994
 30
0.0
 11
204.885554
 21
301.282994
 31
0.0
 12
205.468887
 22
304.782994
 32
0.0
 13
205.468887
 23
304.782994
 33
0.0
  0
SOLID
  5
213
330
20C
100
AcDbEntity
  8
0
 62
    95
100
AcDbTrace
 10
204.885554
 20
276.532994
 30
0.0
 11
206.05222
 21
276.532994
 31
0.0
 12
205.468887
 22
273.032994
 32
0.0
 13
205.468887
 23
273.032994
 33
0.0
  0
MTEXT
  5
214
330
20C
100
AcDbEntity
  8
0
 62
    95
370
    13
100
AcDbMText
 10
200.218887
 20
288.907994
 30
0.0
 40
3.5
 41
0.0
 71
     5
 72
     1
  1
\A1;31.75
  7
cesky
 11
0.0
 21
1.0
 31
0.0
 73
     1
 44
1.0
  0
POINT
  5
215
330
20C
100
AcDbEntity
  8
Defpoints
 62
     0
100
AcDbPoint
 10
216.004842
 20
304.782994
 30
0.0
  0
POINT
  5
216
330
20C
100
AcDbEntity
  8
Defpoints
 62
     0
100
AcDbPoint
 10
216.004842
 20
273.032994
 30
0.0
  0
POINT
  5
217
330
20C
100
AcDbEntity
  8
Defpoints
 62
     0
100
AcDbPoint
 10
205.468887
 20
273.032994
 30
0.0
  0
ENDBLK
  5
20E
330
20C
100
AcDbEntity
  8
0
100
AcDbBlockEnd
  0
BLOCK
  5
220
330
218
100
AcDbEntity
  8
0
100
AcDbBlockBegin
  2
_U1
 70
     0
 10
0.0
 20
0.0
 30
0.0
  3
_U1
  1

  0
ENDBLK
  5
221
330
218
100
AcDbEntity
  8
0
100
AcDbBlockEnd
  0
BLOCK
  5
226
330
225
100
AcDbEntity
  8
0
100
AcDbBlockBegin
  2
*D6
 70
     1
 10
0.0
 20
0.0
 30
0.0
  3
*D6
  1

  0
LINE
  5
228
330
225
100
AcDbEntity
  8
0
 62
    95
370
    -2
100
AcDbLine
 10
277.154842
 20
309.907994
 30
0.0
 11
192.519918
 21
309.907994
 31
0.0
  0
LINE
  5
229
330
225
100
AcDbEntity
  8
0
 62
    95
370
    -2
100
AcDbLine
 10
277.154842
 20
267.907994
 30
0.0
 11
192.519918
 21
267.907994
 31
0.0
  0
LINE
  5
22A
330
225
100
AcDbEntity
  8
0
 62
    95
370
    -2
100
AcDbLine
 10
193.519918
 20
306.407994
 30
0.0
 11
193.519918
 21
271.407994
 31
0.0
  0
SOLID
  5
22B
330
225
100
AcDbEntity
  8
0
 62
    95
100
AcDbTrace
 10
194.103251
 20
306.407994
 30
0.0
 11
192.936584
 21
306.407994
 31
0.0
 12
193.519918
 22
309.907994
 32
0.0
 13
193.519918
 23
309.907994
 33
0.0
  0
SOLID
  5
22C
330
225
100
AcDbEntity
  8
0
 62
    95
100
AcDbTrace
 10
192.936584
 20
271.407994
 30
0.0
 11
194.103251
 21
271.407994
 31
0.0
 12
193.519918
 22
267.907994
 32
0.0
 13
193.519918
 23
267.907994
 33
0.0
  0
MTEXT
  5
22D
330
225
100
AcDbEntity
  8
0
 62
    95
370
    13
100
AcDbMText
 10
188.269918
 20
288.907994
 30
0.0
 40
3.5
 41
0.0
 71
     5
 72
     1
  1
\A1;42
  7
cesky
 11
0.0
 21
1.0
 31
0.0
 73
     1
 44
1.0
  0
POINT
  5
22E
330
225
100
AcDbEntity
  8
Defpoints
 62
     0
100
AcDbPoint
 10
277.154842
 20
309.907994
 30
0.0
  0
POINT
  5
22F
330
225
100
AcDbEntity
  8
Defpoints
 62
     0
100
AcDbPoint
 10
277.154842
 20
267.907994
 30
0.0
  0
POINT
  5
230
330
225
100
AcDbEntity
  8
Defpoints
 62
     0
100
AcDbPoint
 10
193.519918
 20
267.907994
 30
0.0
  0
ENDBLK
  5
227
330
225
100
AcDbEntity
  8
0
100
AcDbBlockEnd
  0
BLOCK
  5
239
330
231
100
AcDbEntity
  8
0
100
AcDbBlockBegin
  2
_U2
 70
     0
 10
0.0
 20
0.0
 30
0.0
  3
_U2
  1

  0
ENDBLK
  5
23A
330
231
100
AcDbEntity
  8
0
100
AcDbBlockEnd
  0
BLOCK
  5
23F
330
23E
100
AcDbEntity
  8
0
100
AcDbBlockBegin
  2
*D8
 70
     1
 10
0.0
 20
0.0
 30
0.0
  3
*D8
  1

  0
LINE
  5
241
330
23E
100
AcDbEntity
  8
0
 62
   254
370
    -2
100
AcDbLine
 10
383.910642
 20
304.992294
 30
0.0
 11
383.910642
 21
341.687968
 31
0.0
  0
LINE
  5
242
330
23E
100
AcDbEntity
  8
0
 62
   254
370
    -2
100
AcDbLine
 10
214.404842
 20
303.182994
 30
0.0
 11
214.404842
 21
341.687968
 31
0.0
  0
LINE
  5
243
330
23E
100
AcDbEntity
  8
0
 62
   254
370
    -2
100
AcDbLine
 10
380.410642
 20
340.687968
 30
0.0
 11
217.904842
 21
340.687968
 31
0.0
  0
SOLID
  5
244
330
23E
100
AcDbEntity
  8
0
 62
   254
100
AcDbTrace
 10
380.410642
 20
340.104634
 30
0.0
 11
380.410642
 21
341.271301
 31
0.0
 12
383.910642
 22
340.687968
 32
0.0
 13
383.910642
 23
340.687968
 33
0.0
  0
SOLID
  5
245
330
23E
100
AcDbEntity
  8
0
 62
   254
100
AcDbTrace
 10
217.904842
 20
341.271301
 30
0.0
 11
217.904842
 21
340.104634
 31
0.0
 12
214.404842
 22
340.687968
 32
0.0
 13
214.404842
 23
340.687968
 33
0.0
  0
MTEXT
  5
246
330
23E
100
AcDbEntity
  8
0
 62
   254
370
    13
100
AcDbMText
 10
299.157742
 20
345.937968
 30
0.0
 40
3.5
 41
0.0
 71
     5
 72
     1
  1
\A1;169.5
  7
cesky
 73
     1
 44
1.0
  0
POINT
  5
247
330
23E
100
AcDbEntity
  8
Defpoints
 62
     0
100
AcDbPoint
 10
383.910642
 20
304.992294
 30
0.0
  0
POINT
  5
248
330
23E
100
AcDbEntity
  8
Defpoints
 62
     0
100
AcDbPoint
 10
214.404842
 20
303.182994
 30
0.0
  0
POINT
  5
249
330
23E
100
AcDbEntity
  8
Defpoints
 62
     0
100
AcDbPoint
 10
214.404842
 20
340.687968
 30
0.0
  0
ENDBLK
  5
240
330
23E
100
AcDbEntity
  8
0
100
AcDbBlockEnd
  0
BLOCK
  5
251
330
24A
100
AcDbEntity
  8
0
100
AcDbBlockBegin
  2
_U3
 70
     0
 10
0.0
 20
0.0
 30
0.0
  3
_U3
  1

  0
ENDBLK
  5
252
330
24A
100
AcDbEntity
  8
0
100
AcDbBlockEnd
  0
BLOCK
  5
257
330
256
100
AcDbEntity
  8
0
100
AcDbBlockBegin
  2
*D10
 70
     1
 10
0.0
 20
0.0
 30
0.0
  3
*D10
  1

  0
LINE
  5
259
330
256
100
AcDbEntity
  8
0
 62
   254
370
    -2
100
AcDbLine
 10
274.404842
 20
288.907994
 30
0.0
 11
274.404842
 21
328.5109970000001
 31
0.0
  0
LINE
  5
25A
330
256
100
AcDbEntity
  8
0
 62
   254
370
    -2
100
AcDbLine
 10
214.404842
 20
296.045494
 30
0.0
 11
214.404842
 21
328.5109970000001
 31
0.0
  0
LINE
  5
25B
330
256
100
AcDbEntity
  8
0
 62
   254
370
    -2
100
AcDbLine
 10
270.904842
 20
327.510997
 30
0.0
 11
217.904842
 21
327.510997
 31
0.0
  0
SOLID
  5
25C
330
256
100
AcDbEntity
  8
0
 62
   254
100
AcDbTrace
 10
270.904842
 20
326.927663
 30
0.0
 11
270.904842
 21
328.09433
 31
0.0
 12
274.404842
 22
327.510997
 32
0.0
 13
274.404842
 23
327.510997
 33
0.0
  0
SOLID
  5
25D
330
256
100
AcDbEntity
  8
0
 62
   254
100
AcDbTrace
 10
217.904842
 20
328.09433
 30
0.0
 11
217.904842
 21
326.927663
 31
0.0
 12
214.404842
 22
327.510997
 32
0.0
 13
214.404842
 23
327.510997
 33
0.0
  0
MTEXT
  5
25E
330
256
100
AcDbEntity
  8
0
 62
   254
370
    13
100
AcDbMText
 10
244.404842
 20
332.7609970000001
 30
0.0
 40
3.5
 41
0.0
 71
     5
 72
     1
  1
\A1;60
  7
cesky
 73
     1
 44
1.0
  0
POINT
  5
25F
330
256
100
AcDbEntity
  8
Defpoints
 62
     0
100
AcDbPoint
 10
274.404842
 20
288.907994
 30
0.0
  0
POINT
  5
260
330
256
100
AcDbEntity
  8
Defpoints
 62
     0
100
AcDbPoint
 10
214.404842
 20
296.045494
 30
0.0
  0
POINT
  5
261
330
256
100
AcDbEntity
  8
Defpoints
 62
     0
100
AcDbPoint
 10
214.404842
 20
327.510997
 30
0.0
  0
ENDBLK
  5
258
330
256
100
AcDbEntity
  8
0
100
AcDbBlockEnd
  0
BLOCK
  5
269
330
262
100
AcDbEntity
  8
0
100
AcDbBlockBegin
  2
_U4
 70
     0
 10
0.0
 20
0.0
 30
0.0
  3
_U4
  1

  0
ENDBLK
  5
26A
330
262
100
AcDbEntity
  8
0
100
AcDbBlockEnd
  0
BLOCK
  5
26F
330
26E
100
AcDbEntity
  8
0
100
AcDbBlockBegin
  2
*D12
 70
     1
 10
0.0
 20
0.0
 30
0.0
  3
*D12
  1

  0
LINE
  5
271
330
26E
100
AcDbEntity
  8
0
 62
   254
370
    -2
100
AcDbLine
 10
383.910642
 20
302.992294
 30
0.0
 11
383.910642
 21
316.914763
 31
0.0
  0
LINE
  5
272
330
26E
100
AcDbEntity
  8
0
 62
   254
370
    -2
100
AcDbLine
 10
292.795937
 20
302.67195
 30
0.0
 11
292.795937
 21
316.914763
 31
0.0
  0
LINE
  5
273
330
26E
100
AcDbEntity
  8
0
 62
   254
370
    -2
100
AcDbLine
 10
380.410642
 20
315.914763
 30
0.0
 11
296.295937
 21
315.914763
 31
0.0
  0
SOLID
  5
274
330
26E
100
AcDbEntity
  8
0
 62
   254
100
AcDbTrace
 10
380.410642
 20
315.331429
 30
0.0
 11
380.410642
 21
316.498096
 31
0.0
 12
383.910642
 22
315.914763
 32
0.0
 13
383.910642
 23
315.914763
 33
0.0
  0
SOLID
  5
275
330
26E
100
AcDbEntity
  8
0
 62
   254
100
AcDbTrace
 10
296.295937
 20
316.498096
 30
0.0
 11
296.295937
 21
315.331429
 31
0.0
 12
292.795937
 22
315.914763
 32
0.0
 13
292.795937
 23
315.914763
 33
0.0
  0
MTEXT
  5
276
330
26E
100
AcDbEntity
  8
0
 62
   254
370
    13
100
AcDbMText
 10
338.353289
 20
321.164763
 30
0.0
 40
3.5
 41
0.0
 71
     5
 72
     1
  1
\A1;91.1
  7
cesky
 73
     1
 44
1.0
  0
POINT
  5
277
330
26E
100
AcDbEntity
  8
Defpoints
 62
     0
100
AcDbPoint
 10
383.910642
 20
302.992294
 30
0.0
  0
POINT
  5
278
330
26E
100
AcDbEntity
  8
Defpoints
 62
     0
100
AcDbPoint
 10
292.795937
 20
302.67195
 30
0.0
  0
POINT
  5
279
330
26E
100
AcDbEntity
  8
Defpoints
 62
     0
100
AcDbPoint
 10
292.795937
 20
315.914763
 30
0.0
  0
ENDBLK
  5
270
330
26E
100
AcDbEntity
  8
0
100
AcDbBlockEnd
  0
BLOCK
  5
281
330
27A
100
AcDbEntity
  8
0
100
AcDbBlockBegin
  2
_U5
 70
     0
 10
0.0
 20
0.0
 30
0.0
  3
_U5
  1

  0
ENDBLK
  5
282
330
27A
100
AcDbEntity
  8
0
100
AcDbBlockEnd
  0
BLOCK
  5
287
330
286
100
AcDbEntity
  8
0
100
AcDbBlockBegin
  2
*D14
 70
     1
 10
0.0
 20
0.0
 30
0.0
  3
*D14
  1

  0
LINE
  5
289
330
286
100
AcDbEntity
  8
0
 62
   254
370
    -2
100
AcDbLine
 10
383.910642
 20
302.992294
 30
0.0
 11
383.910642
 21
328.5109970000001
 31
0.0
  0
LINE
  5
28A
330
286
100
AcDbEntity
  8
0
 62
   254
370
    -2
100
AcDbLine
 10
274.404842
 20
288.907994
 30
0.0
 11
274.404842
 21
328.5109970000001
 31
0.0
  0
LINE
  5
28B
330
286
100
AcDbEntity
  8
0
 62
   254
370
    -2
100
AcDbLine
 10
380.410642
 20
327.510997
 30
0.0
 11
277.904842
 21
327.510997
 31
0.0
  0
SOLID
  5
28C
330
286
100
AcDbEntity
  8
0
 62
   254
100
AcDbTrace
 10
380.410642
 20
326.927663
 30
0.0
 11
380.410642
 21
328.09433
 31
0.0
 12
383.910642
 22
327.510997
 32
0.0
 13
383.910642
 23
327.510997
 33
0.0
  0
SOLID
  5
28D
330
286
100
AcDbEntity
  8
0
 62
   254
100
AcDbTrace
 10
277.904842
 20
328.09433
 30
0.0
 11
277.904842
 21
326.927663
 31
0.0
 12
274.404842
 22
327.510997
 32
0.0
 13
274.404842
 23
327.510997
 33
0.0
  0
MTEXT
  5
28E
330
286
100
AcDbEntity
  8
0
 62
   254
370
    13
100
AcDbMText
 10
329.157742
 20
332.7609970000001
 30
0.0
 40
3.5
 41
0.0
 71
     5
 72
     1
  1
\A1;109.5
  7
cesky
 73
     1
 44
1.0
  0
POINT
  5
28F
330
286
100
AcDbEntity
  8
Defpoints
 62
     0
100
AcDbPoint
 10
383.910642
 20
302.992294
 30
0.0
  0
POINT
  5
290
330
286
100
AcDbEntity
  8
Defpoints
 62
     0
100
AcDbPoint
 10
274.404842
 20
288.907994
 30
0.0
  0
POINT
  5
291
330
286
100
AcDbEntity
  8
Defpoints
 62
     0
100
AcDbPoint
 10
274.404842
 20
327.510997
 30
0.0
  0
ENDBLK
  5
288
330
286
100
AcDbEntity
  8
0
100
AcDbBlockEnd
  0
BLOCK
  5
299
330
292
100
AcDbEntity
  8
0
100
AcDbBlockBegin
  2
_U6
 70
     0
 10
0.0
 20
0.0
 30
0.0
  3
_U6
  1

  0
ENDBLK
  5
29A
330
292
100
AcDbEntity
  8
0
100
AcDbBlockEnd
  0
ENDSEC
  0
SECTION
  2
ENTITIES
  0
POINT
  5
73
102
{ACAD_REACTORS
330
340
102
}
330
1F
100
AcDbEntity
  8
80
100
AcDbPoint
 10
274.404842
 20
288.907994
 30
0.0
  0
POINT
  5
76
330
1F
100
AcDbEntity
  8
4
 60
     1
100
AcDbPoint
 10
292.603832
 20
288.907994
 30
0.0
  0
POINT
  5
78
330
1F
100
AcDbEntity
  8
4
 60
     1
100
AcDbPoint
 10
382.999977
 20
288.907994
 30
0.0
  0
POINT
  5
79
330
1F
100
AcDbEntity
  8
SK4
 60
     1
100
AcDbPoint
 10
216.004842
 20
288.907994
 30
0.0
  0
POINT
  5
7A
330
1F
100
AcDbEntity
  8
SK4
 60
     1
100
AcDbPoint
 10
274.404842
 20
288.907994
 30
0.0
  0
POINT
  5
7B
330
1F
100
AcDbEntity
  8
SK6
 60
     1
100
AcDbPoint
 10
274.404842
 20
288.907994
 30
0.0
  0
LINE
  5
7C
330
1F
100
AcDbEntity
  8
1
100
AcDbLine
 10
382.875733
 20
289.4394779999999
 30
0.0
 11
383.303216
 21
289.18262
 31
0.0
  0
LINE
  5
7E
330
1F
100
AcDbEntity
  8
1
100
AcDbLine
 10
382.919618
 20
288.812185
 30
0.0
 11
383.303216
 21
289.18262
 31
0.0
  0
LINE
  5
7F
330
1F
100
AcDbEntity
  8
1
100
AcDbLine
 10
382.689714
 20
288.950325
 30
0.0
 11
382.919618
 21
288.812185
 31
0.0
  0
LINE
  5
80
330
1F
100
AcDbEntity
  8
1
100
AcDbLine
 10
382.919618
 20
288.812185
 30
0.0
 11
382.689667
 21
288.590123
 31
0.0
  0
LINE
  5
81
330
1F
100
AcDbEntity
  8
1
100
AcDbLine
 10
383.177636
 20
280.892342
 30
0.0
 11
382.474252
 21
280.50245
 31
0.0
  0
LINE
  5
82
330
1F
100
AcDbEntity
  8
1
100
AcDbLine
 10
382.8072
 20
281.275939
 30
0.0
 11
383.177636
 21
280.892342
 31
0.0
  0
LINE
  5
83
330
1F
100
AcDbEntity
  8
1
100
AcDbLine
 10
383.803236
 20
281.933516
 30
0.0
 11
383.177636
 21
280.892342
 31
0.0
  0
LINE
  5
84
330
1F
100
AcDbEntity
  8
1
100
AcDbLine
 10
383.290631
 20
282.080503
 30
0.0
 11
383.803236
 21
281.933516
 31
0.0
  0
LINE
  5
85
330
1F
100
AcDbEntity
  8
1
100
AcDbLine
 10
383.910642
 20
288.086795
 30
0.0
 11
383.803236
 21
281.933516
 31
0.0
  0
LINE
  5
86
330
1F
100
AcDbEntity
  8
1
100
AcDbLine
 10
383.393219
 20
287.957787
 30
0.0
 11
383.910642
 21
288.086795
 31
0.0
  0
LINE
  5
87
330
1F
100
AcDbEntity
  8
1
100
AcDbLine
 10
383.303216
 20
289.18262
 30
0.0
 11
383.910642
 21
288.086795
 31
0.0
  0
LINE
  5
88
330
1F
100
AcDbEntity
  8
1
100
AcDbLine
 10
382.8072
 20
281.275939
 30
0.0
 11
382.358721
 21
281.027343
 31
0.0
  0
LINE
  5
89
330
1F
100
AcDbEntity
  8
1
100
AcDbLine
 10
383.393219
 20
287.957787
 30
0.0
 11
383.290631
 21
282.080503
 31
0.0
  0
LINE
  5
8A
330
1F
100
AcDbEntity
  8
1
100
AcDbLine
 10
383.393219
 20
287.957787
 30
0.0
 11
382.747273
 21
287.796734
 31
0.0
  0
LINE
  5
8B
330
1F
100
AcDbEntity
  8
1
100
AcDbLine
 10
382.919618
 20
288.812185
 30
0.0
 11
383.393219
 21
287.957787
 31
0.0
  0
LINE
  5
8C
330
1F
100
AcDbEntity
  8
1
100
AcDbLine
 10
383.290631
 20
282.080503
 30
0.0
 11
382.650699
 21
282.264001
 31
0.0
  0
LINE
  5
8D
330
1F
100
AcDbEntity
  8
1
100
AcDbLine
 10
382.8072
 20
281.275939
 30
0.0
 11
382.426901
 21
281.66975
 31
0.0
  0
LINE
  5
8E
330
1F
100
AcDbEntity
  8
1
100
AcDbLine
 10
383.290631
 20
282.080503
 30
0.0
 11
382.8072
 21
281.275939
 31
0.0
  0
LINE
  5
8F
330
1F
100
AcDbEntity
  8
1
100
AcDbLine
 10
382.45549
 20
281.939119
 30
0.0
 11
382.650699
 21
282.264001
 31
0.0
  0
LINE
  5
90
330
1F
100
AcDbEntity
  8
1
100
AcDbLine
 10
382.650699
 20
282.264001
 30
0.0
 11
382.682335
 21
284.076403
 31
0.0
  0
LINE
  5
91
330
1F
100
AcDbEntity
  8
1
100
AcDbLine
 10
382.689668
 20
284.496545
 30
0.0
 11
382.747273
 21
287.796734
 31
0.0
  0
LINE
  5
92
330
1F
100
AcDbEntity
  8
1
100
AcDbLine
 10
382.747273
 20
287.796734
 30
0.0
 11
382.689664
 21
287.900664
 31
0.0
  0
LINE
  5
96
330
1F
100
AcDbEntity
  8
80
100
AcDbLine
 10
275.404416
 20
288.907994
 30
0.0
 11
273.405268
 21
288.907994
 31
0.0
  0
LINE
  5
97
330
1F
100
AcDbEntity
  8
1
100
AcDbLine
 10
382.212655
 20
275.307994
 30
0.0
 11
382.703157
 21
279.929388
 31
0.0
  0
LINE
  5
99
330
1F
100
AcDbEntity
  8
1
100
AcDbLine
 10
382.703157
 20
279.929388
 30
0.0
 11
382.661066
 21
279.930062
 31
0.0
  0
LINE
  5
9A
330
1F
100
AcDbEntity
  8
1
100
AcDbLine
 10
382.686348
 20
280.168262
 30
0.0
 11
382.661066
 21
279.930062
 31
0.0
  0
LINE
  5
9B
330
1F
100
AcDbEntity
  8
1
100
AcDbLine
 10
382.686348
 20
280.168262
 30
0.0
 11
382.480798
 21
280.502341
 31
0.0
  0
LINE
  5
9C
330
1F
100
AcDbEntity
  8
1
100
AcDbLine
 10
382.480798
 20
280.502341
 30
0.0
 11
382.373447
 21
280.504059
 31
0.0
  0
LINE
  5
9D
330
1F
100
AcDbEntity
  8
1
100
AcDbLine
 10
382.356281
 20
281.004398
 30
0.0
 11
382.689668
 21
284.145494
 31
0.0
  0
LINE
  5
9E
330
1F
100
AcDbEntity
  8
1
100
AcDbLine
 10
381.980773
 20
284.145494
 30
0.0
 11
382.689668
 21
284.145494
 31
0.0
  0
LINE
  5
9F
330
1F
100
AcDbEntity
  8
1
100
AcDbLine
 10
382.689668
 20
284.145494
 30
0.0
 11
382.689668
 21
288.931302
 31
0.0
  0
LINE
  5
A0
330
1F
100
AcDbEntity
  8
1
100
AcDbLine
 10
373.939611
 20
302.313404
 30
0.0
 11
373.931365
 21
302.504025
 31
0.0
  0
LINE
  5
A1
330
1F
100
AcDbEntity
  8
1
100
AcDbLine
 10
373.713275
 20
301.917899
 30
0.0
 11
373.690829
 21
302.436815
 31
0.0
  0
LINE
  5
A2
330
1F
100
AcDbEntity
  8
SK1
100
AcDbLine
 10
216.004842
 20
304.782994
 30
0.0
 11
216.004842
 21
273.032994
 31
0.0
  0
LINE
  5
A3
330
1F
100
AcDbEntity
  8
SK1
100
AcDbLine
 10
214.404842
 20
303.182994
 30
0.0
 11
214.404842
 21
274.632994
 31
0.0
  0
LINE
  5
A4
330
1F
100
AcDbEntity
  8
1
100
AcDbLine
 10
373.761869
 20
295.606027
 30
0.0
 11
373.756638
 21
295.589056
 31
0.0
  0
LINE
  5
A5
330
1F
100
AcDbEntity
  8
1
100
AcDbLine
 10
373.761869
 20
295.606027
 30
0.0
 11
373.466385
 21
302.437215
 31
0.0
  0
LINE
  5
A6
330
1F
100
AcDbEntity
  8
1
100
AcDbLine
 10
373.461887
 20
302.403303
 30
0.0
 11
373.756638
 21
295.589056
 31
0.0
  0
LINE
  5
A7
330
1F
100
AcDbEntity
  8
1
100
AcDbLine
 10
382.212655
 20
275.307994
 30
0.0
 11
367.752078
 21
275.307994
 31
0.0
  0
LINE
  5
A8
330
1F
100
AcDbEntity
  8
1
100
AcDbLine
 10
274.904842
 20
267.907994
 30
0.0
 11
274.904842
 21
288.907994
 31
0.0
  0
LINE
  5
A9
330
1F
100
AcDbEntity
  8
1
100
AcDbLine
 10
274.904842
 20
288.907994
 30
0.0
 11
274.904842
 21
309.907994
 31
0.0
  0
LINE
  5
AA
330
1F
100
AcDbEntity
  8
1
100
AcDbLine
 10
279.404842
 20
267.907994
 30
0.0
 11
279.404842
 21
273.105141
 31
0.0
  0
LINE
  5
AB
330
1F
100
AcDbEntity
  8
1
100
AcDbLine
 10
279.404842
 20
309.907994
 30
0.0
 11
279.404842
 21
281.1717319999999
 31
0.0
  0
LINE
  5
AC
330
1F
100
AcDbEntity
  8
SK1
100
AcDbLine
 10
214.404842
 20
274.632994
 30
0.0
 11
216.004842
 21
273.032994
 31
0.0
  0
LINE
  5
AD
330
1F
100
AcDbEntity
  8
SK1
100
AcDbLine
 10
216.004842
 20
304.782994
 30
0.0
 11
214.404842
 21
303.182994
 31
0.0
  0
LINE
  5
AE
330
1F
100
AcDbEntity
  8
1
100
AcDbLine
 10
279.404842
 20
267.907994
 30
0.0
 11
282.704337
 21
271.207488
 31
0.0
  0
LINE
  5
AF
330
1F
100
AcDbEntity
  8
1
100
AcDbLine
 10
282.704337
 20
306.608499
 30
0.0
 11
279.404842
 21
309.907994
 31
0.0
  0
LINE
  5
B0
330
1F
100
AcDbEntity
  8
SK1
100
AcDbLine
 10
274.404842
 20
304.782994
 30
0.0
 11
216.004842
 21
304.782994
 31
0.0
  0
LINE
  5
B1
330
1F
100
AcDbEntity
  8
1
100
AcDbLine
 10
274.904842
 20
267.907994
 30
0.0
 11
274.404842
 21
268.407994
 31
0.0
  0
LINE
  5
B2
330
1F
100
AcDbEntity
  8
1
100
AcDbLine
 10
274.404842
 20
309.407994
 30
0.0
 11
274.904842
 21
309.907994
 31
0.0
  0
LINE
  5
B3
330
1F
100
AcDbEntity
  8
1
100
AcDbLine
 10
279.404842
 20
309.907994
 30
0.0
 11
274.904842
 21
309.907994
 31
0.0
  0
LINE
  5
B4
330
1F
100
AcDbEntity
  8
1
100
AcDbLine
 10
371.374173
 20
292.498129
 30
0.0
 11
371.391862
 21
291.981132
 31
0.0
  0
LINE
  5
B5
330
1F
100
AcDbEntity
  8
1
100
AcDbLine
 10
371.431441
 20
290.824326
 30
0.0
 11
371.465425
 21
289.831046
 31
0.0
  0
LINE
  5
B6
330
1F
100
AcDbEntity
  8
1
100
AcDbLine
 10
381.420224
 20
292.44475
 30
0.0
 11
375.024076
 21
292.165881
 31
0.0
  0
LINE
  5
B7
330
1F
100
AcDbEntity
  8
1
100
AcDbLine
 10
286.804842
 20
302.265205
 30
0.0
 11
286.804842
 21
287.362065
 31
0.0
  0
LINE
  5
B8
330
1F
100
AcDbEntity
  8
1
100
AcDbLine
 10
383.006082
 20
293.195754
 30
0.0
 11
376.7180370000001
 21
292.921598
 31
0.0
  0
LINE
  5
B9
330
1F
100
AcDbEntity
  8
1
100
AcDbLine
 10
376.712806
 20
292.904627
 30
0.0
 11
376.7180370000001
 21
292.921598
 31
0.0
  0
LINE
  5
BA
330
1F
100
AcDbEntity
  8
1
100
AcDbLine
 10
376.712806
 20
292.904627
 30
0.0
 11
382.964096
 21
293.1771799999999
 31
0.0
  0
LINE
  5
BB
330
1F
100
AcDbEntity
  8
1
100
AcDbLine
 10
382.886661
 20
292.475698
 30
0.0
 11
375.031325
 21
292.1332089999999
 31
0.0
  0
LINE
  5
BC
330
1F
100
AcDbEntity
  8
1
100
AcDbLine
 10
382.759938
 20
289.430151
 30
0.0
 11
382.867472
 21
289.428274
 31
0.0
  0
LINE
  5
BD
330
1F
100
AcDbEntity
  8
1
100
AcDbLine
 10
382.867472
 20
289.428274
 30
0.0
 11
383.10848
 21
289.754866
 31
0.0
  0
LINE
  5
BE
330
1F
100
AcDbEntity
  8
1
100
AcDbLine
 10
383.10848
 20
289.993477
 30
0.0
 11
383.10848
 21
289.754866
 31
0.0
  0
LINE
  5
BF
330
1F
100
AcDbEntity
  8
1
100
AcDbLine
 10
383.10848
 20
289.993477
 30
0.0
 11
383.150642
 21
289.992741
 31
0.0
  0
LINE
  5
C0
330
1F
100
AcDbEntity
  8
1
100
AcDbLine
 10
383.150642
 20
293.476737
 30
0.0
 11
383.150642
 21
289.992741
 31
0.0
  0
LINE
  5
C1
330
1F
100
AcDbEntity
  8
1
100
AcDbLine
 10
383.006082
 20
293.195754
 30
0.0
 11
383.004302
 21
293.419802
 31
0.0
  0
LINE
  5
C2
330
1F
100
AcDbEntity
  8
1
100
AcDbLine
 10
383.006082
 20
293.195754
 30
0.0
 11
382.964096
 21
293.1771799999999
 31
0.0
  0
LINE
  5
C3
330
1F
100
AcDbEntity
  8
1
100
AcDbLine
 10
382.96541
 20
293.011816
 30
0.0
 11
382.964096
 21
293.1771799999999
 31
0.0
  0
LINE
  5
C4
330
1F
100
AcDbEntity
  8
1
100
AcDbLine
 10
382.886661
 20
292.475698
 30
0.0
 11
382.899404
 21
292.481335
 31
0.0
  0
LINE
  5
C5
330
1F
100
AcDbEntity
  8
1
100
AcDbLine
 10
382.886661
 20
292.475698
 30
0.0
 11
381.24284
 21
289.736849
 31
0.0
  0
LINE
  5
C6
330
1F
100
AcDbEntity
  8
1
100
AcDbLine
 10
381.360312
 20
284.145494
 30
0.0
 11
381.623694
 21
284.145494
 31
0.0
  0
LINE
  5
C7
330
1F
100
AcDbEntity
  8
1
100
AcDbLine
 10
274.404842
 20
309.407994
 30
0.0
 11
274.404842
 21
288.907994
 31
0.0
  0
LINE
  5
C8
330
1F
100
AcDbEntity
  8
1
100
AcDbLine
 10
274.404842
 20
288.907994
 30
0.0
 11
274.404842
 21
268.407994
 31
0.0
  0
LINE
  5
CA
330
1F
100
AcDbEntity
  8
1
100
AcDbLine
 10
274.904842
 20
267.907994
 30
0.0
 11
279.404842
 21
267.907994
 31
0.0
  0
LINE
  5
CB
330
1F
100
AcDbEntity
  8
SK1
100
AcDbLine
 10
216.004842
 20
273.032994
 30
0.0
 11
274.404842
 21
273.032994
 31
0.0
  0
LINE
  5
CC
330
1F
100
AcDbEntity
  8
81
100
AcDbLine
 10
383.910642
 20
304.992294
 30
0.0
 11
383.910642
 21
300.992294
 31
0.0
  0
LINE
  5
CD
330
1F
100
AcDbEntity
  8
81
100
AcDbLine
 10
381.910642
 20
302.992294
 30
0.0
 11
385.910642
 21
302.992294
 31
0.0
  0
LINE
  5
CE
330
1F
100
AcDbEntity
  8
80
100
AcDbLine
 10
274.404842
 20
287.90842
 30
0.0
 11
274.404842
 21
289.907567
 31
0.0
  0
LINE
  5
D0
330
1F
100
AcDbEntity
  8
1
100
AcDbLine
 10
377.856443
 20
298.681224
 30
0.0
 11
377.882043
 21
298.764284
 31
0.0
  0
LINE
  5
D2
330
1F
100
AcDbEntity
  8
1
100
AcDbLine
 10
292.603832
 20
275.307994
 30
0.0
 11
302.952659
 21
275.307994
 31
0.0
  0
LINE
  5
D3
330
1F
100
AcDbEntity
  8
1
100
AcDbLine
 10
373.884777
 20
302.507994
 30
0.0
 11
366.179209
 21
302.507994
 31
0.0
  0
LINE
  5
D4
330
1F
100
AcDbEntity
  8
1
100
AcDbLine
 10
302.385263
 20
302.507994
 30
0.0
 11
292.603832
 21
302.507994
 31
0.0
  0
LINE
  5
D5
330
1F
100
AcDbEntity
  8
1
100
AcDbLine
 10
375.860477
 20
298.658852
 30
0.0
 11
375.840032
 21
298.592517
 31
0.0
  0
LINE
  5
D6
330
1F
100
AcDbEntity
  8
1
100
AcDbLine
 10
381.096056
 20
296.972574
 30
0.0
 11
381.116501
 21
297.038909
 31
0.0
  0
LINE
  5
D7
330
1F
100
AcDbEntity
  8
1
100
AcDbLine
 10
383.207429
 20
302.1399580000001
 30
0.0
 11
383.563292
 21
294.181273
 31
0.0
  0
LINE
  5
D8
330
1F
100
AcDbEntity
  8
1
100
AcDbLine
 10
374.430972
 20
302.5298160000001
 30
0.0
 11
382.400864
 21
302.8773
 31
0.0
  0
LINE
  5
D9
330
1F
100
AcDbEntity
  8
1
100
AcDbLine
 10
374.04922
 20
293.766463
 30
0.0
 11
373.693356
 21
301.725149
 31
0.0
  0
LINE
  5
DA
330
1F
100
AcDbEntity
  8
1
100
AcDbLine
 10
382.825676
 20
293.376605
 30
0.0
 11
374.855785
 21
293.029121
 31
0.0
  0
LINE
  5
DB
330
1F
100
AcDbEntity
  8
1
100
AcDbLine
 10
375.285823
 20
294.301232
 30
0.0
 11
374.973625
 21
301.28337
 31
0.0
  0
LINE
  5
DC
330
1F
100
AcDbEntity
  8
1
100
AcDbLine
 10
382.277793
 20
294.606079
 30
0.0
 11
375.285823
 21
294.301232
 31
0.0
  0
LINE
  5
DD
330
1F
100
AcDbEntity
  8
1
100
AcDbLine
 10
374.973625
 20
301.28337
 30
0.0
 11
381.965594
 21
301.588217
 31
0.0
  0
LINE
  5
DE
330
1F
100
AcDbEntity
  8
1
100
AcDbLine
 10
381.965594
 20
301.588217
 30
0.0
 11
382.277793
 21
294.606079
 31
0.0
  0
LINE
  5
DF
330
1F
100
AcDbEntity
  8
1
100
AcDbLine
 10
377.280974
 20
297.806787
 30
0.0
 11
377.256044
 21
297.725898
 31
0.0
  0
LINE
  5
E0
330
1F
100
AcDbEntity
  8
1
100
AcDbLine
 10
377.365492
 20
297.792611
 30
0.0
 11
377.340039
 21
297.710026
 31
0.0
  0
LINE
  5
E1
330
1F
100
AcDbEntity
  8
1
100
AcDbLine
 10
379.547326
 20
297.221135
 30
0.0
 11
379.572217
 21
297.301895
 31
0.0
  0
LINE
  5
E2
330
1F
100
AcDbEntity
  8
1
100
AcDbLine
 10
379.455197
 20
297.241747
 30
0.0
 11
379.480669
 21
297.324391
 31
0.0
  0
LINE
  5
E3
330
1F
100
AcDbEntity
  8
1
100
AcDbLine
 10
378.512185
 20
296.626006
 30
0.0
 11
378.537538
 21
296.708264
 31
0.0
  0
LINE
  5
E4
330
1F
100
AcDbEntity
  8
1
100
AcDbLine
 10
377.530505
 20
297.199011
 30
0.0
 11
377.556173
 21
297.282292
 31
0.0
  0
LINE
  5
E5
330
1F
100
AcDbEntity
  8
1
100
AcDbLine
 10
379.072122
 20
296.872593
 30
0.0
 11
379.097854
 21
296.956082
 31
0.0
  0
LINE
  5
E6
330
1F
100
AcDbEntity
  8
1
100
AcDbLine
 10
377.852549
 20
298.655453
 30
0.0
 11
377.878281
 21
298.738942
 31
0.0
  0
LINE
  5
E7
330
1F
100
AcDbEntity
  8
1
100
AcDbLine
 10
379.419834
 20
298.412317
 30
0.0
 11
379.3941660000001
 21
298.329035
 31
0.0
  0
LINE
  5
117
330
1F
100
AcDbEntity
  8
NOCUT
100
AcDbLine
 10
274.404842
 20
304.782994
 30
0.0
 11
274.404842
 21
309.407994
 31
0.0
  0
LINE
  5
118
330
1F
100
AcDbEntity
  8
NOCUT
100
AcDbLine
 10
274.404842
 20
309.407994
 30
0.0
 11
274.904842
 21
309.907994
 31
0.0
  0
LINE
  5
119
330
1F
100
AcDbEntity
  8
NOCUT
100
AcDbLine
 10
214.404842
 20
303.182994
 30
0.0
 11
216.004842
 21
304.782994
 31
0.0
  0
LINE
  5
11A
330
1F
100
AcDbEntity
  8
NOCUT
100
AcDbLine
 10
214.404842
 20
303.182994
 30
0.0
 11
214.404842
 21
288.907994
 31
0.0
  0
LINE
  5
11B
330
1F
100
AcDbEntity
  8
NOCUT
100
AcDbLine
 10
274.404842
 20
304.782994
 30
0.0
 11
216.004842
 21
304.782994
 31
0.0
  0
LINE
  5
11C
330
1F
100
AcDbEntity
  8
NOCUT
100
AcDbLine
 10
279.404842
 20
309.907994
 30
0.0
 11
274.904842
 21
309.907994
 31
0.0
  0
LINE
  5
11D
330
1F
100
AcDbEntity
  8
NOCUT
100
AcDbLine
 10
279.404842
 20
309.907994
 30
0.0
 11
282.704337
 21
306.608499
 31
0.0
  0
LINE
  5
11E
330
1F
100
AcDbEntity
  8
NOCUT
100
AcDbLine
 10
292.603832
 20
302.507994
 30
0.0
 11
382.762622
 21
302.507994
 31
0.0
  0
LINE
  5
11F
330
1F
100
AcDbEntity
  8
NOCUT
100
AcDbLine
 10
382.762622
 20
302.507994
 30
0.0
 11
383.150642
 21
293.694106
 31
0.0
  0
LINE
  5
120
330
1F
100
AcDbEntity
  8
NOCUT
100
AcDbLine
 10
383.150642
 20
293.694106
 30
0.0
 11
383.150642
 21
288.907994
 31
0.0
  0
LINE
  5
121
330
1F
100
AcDbEntity
  8
NOCUT
100
AcDbLine
 10
383.150642
 20
288.907994
 30
0.0
 11
214.404842
 21
288.907994
 31
0.0
  0
ARC
  5
12A
330
1F
100
AcDbEntity
  8
1
100
AcDbCircle
 10
292.603832
 20
316.507994
 30
0.0
 40
14.0
100
AcDbArc
 50
225.0
 51
270.0
  0
ARC
  5
12B
330
1F
100
AcDbEntity
  8
1
100
AcDbCircle
 10
292.603832
 20
261.307994
 30
0.0
 40
14.0
100
AcDbArc
 50
90.0
 51
135.0
  0
ARC
  5
12C
330
1F
100
AcDbEntity
  8
1
100
AcDbCircle
 10
378.908631
 20
285.293558
 30
0.0
 40
1.5
100
AcDbArc
 50
75.0
 51
345.0
  0
CIRCLE
  5
12D
330
1F
100
AcDbEntity
  8
1
100
AcDbCircle
 10
378.9282790000001
 20
285.273212
 30
0.0
 40
1.099999999999998
  0
ARC
  5
13C
330
1F
100
AcDbEntity
  8
NOCUT
100
AcDbCircle
 10
292.603832
 20
316.507994
 30
0.0
 40
14.0
100
AcDbArc
 50
225.0
 51
270.0
  0
ELLIPSE
  5
13D
330
1F
100
AcDbEntity
  8
1
100
AcDbEllipse
 10
378.462335
 20
297.764023
 30
0.0
 11
1.720153232247756
 21
-0.5301630481159539
 31
0.0
210
0.0
220
0.0
230
1.0
 40
0.9982459999999999
 41
0.0
 42
6.283185307179585
  0
ELLIPSE
  5
13E
330
1F
100
AcDbEntity
  8
1
100
AcDbEllipse
 10
382.426432
 20
281.003275
 30
0.0
 11
0.0538770024358932
 21
0.4991611425114484
 31
0.0
210
0.0
220
0.0
230
1.0
 40
0.139171
 41
1.583568179252895
 42
3.154364506042261
  0
ELLIPSE
  5
13F
330
1F
100
AcDbEntity
  8
1
100
AcDbEllipse
 10
383.6561200000001
 20
288.907994
 30
0.0
 11
1.472047264116953
 21
13.59846191087477
 31
0.0
210
0.0
220
0.0
230
1.0
 40
0.138944
 41
1.943603415180196
 42
3.156632395651071
  0
ELLIPSE
  5
140
330
1F
100
AcDbEntity
  8
1
100
AcDbEllipse
 10
383.150642
 20
288.907994
 30
0.0
 11
0.0
 21
13.60000000034204
 31
0.0
210
0.0
220
0.0
230
1.0
 40
0.140541
 41
1.509813263816561
 42
1.928563673109579
  0
ELLIPSE
  5
141
330
1F
100
AcDbEntity
  8
1
100
AcDbEllipse
 10
374.365533
 20
288.907994
 30
0.0
 11
0.4905428965320195
 21
-13.59982362479598
 31
0.0
210
0.0
220
0.0
230
1.0
 40
0.141202
 41
3.112340589416973
 42
3.238854451305955
  0
ELLIPSE
  5
142
330
1F
100
AcDbEntity
  8
1
100
AcDbEllipse
 10
374.497847
 20
288.907993
 30
0.0
 11
0.5733974298313323
 21
-13.59999528933175
 31
0.0
210
0.0
220
0.0
230
1.0
 40
0.01982
 41
3.001727499017853
 42
3.116598039308484
  0
ELLIPSE
  5
143
330
1F
100
AcDbEntity
  8
1
100
AcDbEllipse
 10
377.14769
 20
288.907994
 30
0.0
 11
23.321096554555
 21
-13.4173399924617
 31
0.0
210
0.0
220
0.0
230
1.0
 40
0.095256
 41
4.081933704697893
 42
4.379440429712756
  0
ELLIPSE
  5
144
330
1F
100
AcDbEntity
  8
1
100
AcDbEllipse
 10
375.378591
 20
294.560899
 30
0.0
 11
-1.911281369164168
 21
0.5890700534621861
 31
0.0
210
0.0
220
0.0
230
1.0
 40
0.9982459999999999
 41
0.0618257924284764
 42
1.91389262152557
  0
ELLIPSE
  5
145
330
1F
100
AcDbEntity
  8
1
100
AcDbEllipse
 10
375.378591
 20
294.560899
 30
0.0
 11
-1.911281369164168
 21
0.5890700534621861
 31
0.0
210
0.0
220
0.0
230
1.0
 40
0.9982459999999999
 41
1.913893121624747
 42
2.629194719155935
  0
ELLIPSE
  5
146
330
1F
100
AcDbEntity
  8
1
100
AcDbEllipse
 10
375.3111140000001
 20
294.341966
 30
0.0
 11
-1.911281369164168
 21
0.5890700534621861
 31
0.0
210
0.0
220
0.0
230
1.0
 40
0.9982459999999999
 41
5.754285902275968
 42
5.897168805749942
  0
ELLIPSE
  5
147
330
1F
100
AcDbEntity
  8
1
100
AcDbEllipse
 10
375.305884
 20
294.324994
 30
0.0
 11
1.911281369164172
 21
-0.5890700534621706
 31
0.0
210
0.0
220
0.0
230
1.0
 40
0.9982459999999999
 41
2.755576152160148
 42
4.43027344542994
  0
ELLIPSE
  5
148
330
1F
100
AcDbEntity
  8
1
100
AcDbEllipse
 10
374.064088
 20
288.907967
 30
0.0
 11
0.5733986043058737
 21
-13.60002176146543
 31
0.0
210
0.0
220
0.0
230
1.0
 40
0.01982
 41
3.242823710975718
 42
3.264915802693685
  0
ELLIPSE
  5
149
330
1F
100
AcDbEntity
  8
1
100
AcDbEllipse
 10
320.881875
 20
288.9235779999999
 30
0.0
 11
779.4313151738133
 21
-0.7703173402736971
 31
0.0
210
0.0
220
0.0
230
1.0
 40
0.017401
 41
1.503302798923034
 42
1.506034713922751
  0
ELLIPSE
  5
14A
330
1F
100
AcDbEntity
  8
1
100
AcDbEllipse
 10
313.23484
 20
288.907993
 30
0.0
 11
77.12265838721039
 21
-11.86703352387805
 31
0.0
210
0.0
220
0.0
230
1.0
 40
0.086139
 41
4.454860137664987
 42
4.525553442938188
  0
ELLIPSE
  5
14B
330
1F
100
AcDbEntity
  8
1
100
AcDbEllipse
 10
297.904842
 20
280.970184
 30
0.0
 11
-2.104386049382545
 21
-6.676193477960634
 31
0.0
210
0.0
220
0.0
230
1.0
 40
0.17101
 41
4.215297597330256
 42
5.748924945824732
  0
ELLIPSE
  5
14C
330
1F
100
AcDbEntity
  8
1
100
AcDbEllipse
 10
374.469287
 20
304.734041
 30
0.0
 11
-12.04107262573426
 21
3.711141336811773
 31
0.0
210
0.0
220
0.0
230
1.0
 40
0.9982459999999997
 41
1.355245403490662
 42
1.794199948221733
  0
ELLIPSE
  5
14D
330
1F
100
AcDbEntity
  8
1
100
AcDbEllipse
 10
375.3111140000001
 20
294.341966
 30
0.0
 11
-1.911281369164168
 21
0.5890700534621861
 31
0.0
210
0.0
220
0.0
230
1.0
 40
0.9982459999999999
 41
2.649677620372691
 42
2.781190600162635
  0
ELLIPSE
  5
14E
330
1F
100
AcDbEntity
  8
1
100
AcDbEllipse
 10
375.305884
 20
294.324994
 30
0.0
 11
1.911281369164172
 21
-0.5890700534621706
 31
0.0
210
0.0
220
0.0
230
1.0
 40
0.9982459999999999
 41
5.657731117003451
 42
5.791270273962474
  0
ELLIPSE
  5
14F
330
1F
100
AcDbEntity
  8
1
100
AcDbEllipse
 10
382.759938
 20
288.930075
 30
0.0
 11
0.0001758288823801
 21
-0.5000776676676978
 31
0.0
210
0.0
220
0.0
230
1.0
 40
0.140519
 41
3.139090475969821
 42
4.709886802760513
  0
ELLIPSE
  5
150
330
1F
100
AcDbEntity
  8
1
100
AcDbEllipse
 10
382.895435
 20
292.980859
 30
0.0
 11
0.0003744272827284
 21
0.5004816776363344
 31
0.0
210
0.0
220
0.0
230
1.0
 40
0.140039
 41
3.203590848633544
 42
4.774387175428024
  0
ELLIPSE
  5
151
330
1F
100
AcDbEntity
  8
1
100
AcDbEllipse
 10
299.891437
 20
288.907994
 30
0.0
 11
289.7620931600979
 21
13.26288013130271
 31
0.0
210
0.0
220
0.0
230
1.0
 40
0.010385
 41
4.974556704463058
 42
4.996491535442374
  0
ELLIPSE
  5
152
330
1F
100
AcDbEntity
  8
1
100
AcDbEllipse
 10
378.648375
 20
298.018268
 30
0.0
 11
2.957951010929479
 21
-0.9116608304033753
 31
0.0
210
0.0
220
0.0
230
1.0
 40
0.9982459999999999
 41
2.062922183040388
 42
6.283185307179585
  0
ELLIPSE
  5
153
330
1F
100
AcDbEntity
  8
1
100
AcDbEllipse
 10
378.648375
 20
298.018268
 30
0.0
 11
2.957951010929479
 21
-0.9116608304033753
 31
0.0
210
0.0
220
0.0
230
1.0
 40
0.9982459999999999
 41
0.0
 42
1.07872011765702
  0
ELLIPSE
  5
154
330
1F
100
AcDbEntity
  8
1
100
AcDbEllipse
 10
374.768319
 20
293.704767
 30
0.0
 11
0.9542290187871349
 21
1.042393246316883
 31
0.0
210
0.0
220
0.0
230
0.9999999999999998
 40
0.017942
 41
0.9781180678586983
 42
1.532929100970135
  0
ELLIPSE
  5
155
330
1F
100
AcDbEntity
  8
1
100
AcDbEllipse
 10
377.435031
 20
297.228436
 30
0.0
 11
-0.0954739578056768
 21
0.029425729950704
 31
0.0
210
0.0
220
0.0
230
1.0
 40
0.9982459999999999
 41
2.437491673396035
 42
3.286426825806893
  0
ELLIPSE
  5
156
330
1F
100
AcDbEntity
  8
1
100
AcDbEllipse
 10
376.984407
 20
297.298564
 30
0.0
 11
-0.5313079055677
 21
0.1637527479664163
 31
0.0
210
0.0
220
0.0
230
1.0
 40
0.9982459999999999
 41
3.28642682580691
 42
4.206550398976736
  0
ELLIPSE
  5
157
330
1F
100
AcDbEntity
  8
1
100
AcDbEllipse
 10
377.312885
 20
297.614062
 30
0.0
 11
-0.0954739578056769
 21
0.029425729950704
 31
0.0
210
0.0
220
0.0
230
0.9999999999999998
 40
0.9982459999999999
 41
4.206550398976785
 42
5.055485551387833
  0
ELLIPSE
  5
158
330
1F
100
AcDbEntity
  8
1
100
AcDbEllipse
 10
377.3039740000001
 20
297.813364
 30
0.0
 11
-0.0954739578056769
 21
0.029425729950704
 31
0.0
210
0.0
220
0.0
230
1.0
 40
0.9982459999999999
 41
0.5413589697884449
 42
1.913892897797795
  0
ELLIPSE
  5
159
330
1F
100
AcDbEntity
  8
1
100
AcDbEllipse
 10
377.746585
 20
297.922436
 30
0.0
 11
-0.5313079055677003
 21
0.1637527479664164
 31
0.0
210
0.0
220
0.0
230
1.0
 40
0.9982459999999999
 41
5.904420703798433
 42
6.824544276968271
  0
ELLIPSE
  5
15A
330
1F
100
AcDbEntity
  8
1
100
AcDbEllipse
 10
377.3912259999999
 20
298.20812
 30
0.0
 11
-0.0954739578056768
 21
0.0294257299507039
 31
0.0
210
0.0
220
0.0
230
0.9999999999999998
 40
0.9982459999999999
 41
4.531886775789115
 42
5.904420703798492
  0
ELLIPSE
  5
15B
330
1F
100
AcDbEntity
  8
1
100
AcDbEllipse
 10
377.4832990000001
 20
298.385071
 30
0.0
 11
-0.0954739578056768
 21
0.029425729950704
 31
0.0
210
0.0
220
0.0
230
1.0
 40
0.9982459999999999
 41
1.390294122199575
 42
2.239229274610404
  0
ELLIPSE
  5
15C
330
1F
100
AcDbEntity
  8
1
100
AcDbEllipse
 10
377.318422
 20
298.809761
 30
0.0
 11
-0.5313079055677
 21
0.1637527479664163
 31
0.0
210
0.0
220
0.0
230
1.0
 40
0.9982459999999999
 41
2.239229274610306
 42
3.159352847780179
  0
ELLIPSE
  5
15D
330
1F
100
AcDbEntity
  8
1
100
AcDbEllipse
 10
377.756569
 20
298.683181
 30
0.0
 11
-0.0954739578056769
 21
0.029425729950704
 31
0.0
210
0.0
220
0.0
230
0.9999999999999998
 40
0.9982459999999999
 41
3.15935284778008
 42
4.008288000190868
  0
ELLIPSE
  5
15E
330
1F
100
AcDbEntity
  8
1
100
AcDbEllipse
 10
377.924956
 20
298.790368
 30
0.0
 11
-0.0954739578056769
 21
0.029425729950704
 31
0.0
210
0.0
220
0.0
230
1.0
 40
0.9982459999999999
 41
5.777346725771542
 42
7.149880653780662
  0
ELLIPSE
  5
15F
330
1F
100
AcDbEntity
  8
1
100
AcDbEllipse
 10
378.241237
 20
298.462054
 30
0.0
 11
-0.5313079055677003
 21
0.1637527479664164
 31
0.0
210
0.0
220
0.0
230
1.0
 40
0.9982459999999999
 41
4.857223152601838
 42
5.777346725771633
  0
ELLIPSE
  5
160
330
1F
100
AcDbEntity
  8
1
100
AcDbEllipse
 10
378.311021
 20
298.911955
 30
0.0
 11
-0.0954739578056768
 21
0.0294257299507039
 31
0.0
210
0.0
220
0.0
230
0.9999999999999998
 40
0.9982459999999999
 41
3.484689224592676
 42
4.857223152601786
  0
ELLIPSE
  5
161
330
1F
100
AcDbEntity
  8
1
100
AcDbEllipse
 10
378.510604
 20
298.920657
 30
0.0
 11
-0.0954739578056768
 21
0.029425729950704
 31
0.0
210
0.0
220
0.0
230
1.0
 40
0.9982459999999999
 41
0.3430965710029513
 42
1.192031723413735
  0
ELLIPSE
  5
162
330
1F
100
AcDbEntity
  8
1
100
AcDbEllipse
 10
378.79635
 20
299.275219
 30
0.0
 11
-0.5313079055677
 21
0.1637527479664163
 31
0.0
210
0.0
220
0.0
230
1.0
 40
0.9982459999999999
 41
1.192031723413742
 42
2.112155296583575
  0
ELLIPSE
  5
163
330
1F
100
AcDbEntity
  8
1
100
AcDbEllipse
 10
378.906019
 20
298.833142
 30
0.0
 11
-0.0954739578056769
 21
0.029425729950704
 31
0.0
210
0.0
220
0.0
230
0.9999999999999998
 40
0.9982459999999999
 41
2.112155296583328
 42
2.961090448994418
  0
ELLIPSE
  5
164
330
1F
100
AcDbEntity
  8
1
100
AcDbEllipse
 10
379.083318
 20
298.741027
 30
0.0
 11
-0.0954739578056769
 21
0.029425729950704
 31
0.0
210
0.0
220
0.0
230
1.0
 40
0.9982459999999999
 41
4.730149174575289
 42
6.102683102584167
  0
ELLIPSE
  5
165
330
1F
100
AcDbEntity
  8
1
100
AcDbEllipse
 10
378.956987
 20
298.3036399999999
 30
0.0
 11
-0.5313079055677003
 21
0.1637527479664164
 31
0.0
210
0.0
220
0.0
230
1.0
 40
0.9982459999999999
 41
3.810025601405218
 42
4.730149174575091
  0
ELLIPSE
  5
166
330
1F
100
AcDbEntity
  8
1
100
AcDbEllipse
 10
379.382131
 20
298.467859
 30
0.0
 11
-0.0954739578056768
 21
0.0294257299507039
 31
0.0
210
0.0
220
0.0
230
0.9999999999999998
 40
0.9982459999999999
 41
2.437491673396074
 42
3.810025601405158
  0
ELLIPSE
  5
167
330
1F
100
AcDbEntity
  8
1
100
AcDbEllipse
 10
379.48964
 20
298.299609
 30
0.0
 11
-0.0954739578056768
 21
0.029425729950704
 31
0.0
210
0.0
220
0.0
230
1.0
 40
0.9982459999999999
 41
5.579084326985974
 42
6.428019479396759
  0
ELLIPSE
  5
168
330
1F
100
AcDbEntity
  8
1
100
AcDbEllipse
 10
379.940264
 20
298.2294819999999
 30
0.0
 11
-0.5313079055677
 21
0.1637527479664163
 31
0.0
210
0.0
220
0.0
230
1.0
 40
0.9982459999999999
 41
0.1448341722171333
 42
1.064957745386994
  0
ELLIPSE
  5
169
330
1F
100
AcDbEntity
  8
1
100
AcDbEllipse
 10
379.611785
 20
297.913984
 30
0.0
 11
-0.0954739578056769
 21
0.029425729950704
 31
0.0
210
0.0
220
0.0
230
0.9999999999999998
 40
0.9982459999999999
 41
1.064957745386992
 42
1.913892897798198
  0
ELLIPSE
  5
16A
330
1F
100
AcDbEntity
  8
1
100
AcDbEllipse
 10
379.620697
 20
297.714682
 30
0.0
 11
-0.0954739578056769
 21
0.029425729950704
 31
0.0
210
0.0
220
0.0
230
1.0
 40
0.9982459999999999
 41
3.682951623378444
 42
5.055485551387856
  0
ELLIPSE
  5
16B
330
1F
100
AcDbEntity
  8
1
100
AcDbEllipse
 10
379.178086
 20
297.60561
 30
0.0
 11
-0.5313079055677003
 21
0.1637527479664164
 31
0.0
210
0.0
220
0.0
230
1.0
 40
0.9982459999999999
 41
2.762828050208653
 42
3.682951623378491
  0
ELLIPSE
  5
16C
330
1F
100
AcDbEntity
  8
1
100
AcDbEllipse
 10
379.533445
 20
297.3199259999999
 30
0.0
 11
-0.0954739578056768
 21
0.0294257299507039
 31
0.0
210
0.0
220
0.0
230
0.9999999999999998
 40
0.9982459999999999
 41
1.390294122199589
 42
2.762828050208818
  0
ELLIPSE
  5
16D
330
1F
100
AcDbEntity
  8
1
100
AcDbEllipse
 10
379.441372
 20
297.142975
 30
0.0
 11
-0.0954739578056768
 21
0.029425729950704
 31
0.0
210
0.0
220
0.0
230
1.0
 40
0.9982459999999999
 41
4.531886775789228
 42
5.380821928200309
  0
ELLIPSE
  5
16E
330
1F
100
AcDbEntity
  8
1
100
AcDbEllipse
 10
379.6062490000001
 20
296.718285
 30
0.0
 11
-0.5313079055677
 21
0.1637527479664163
 31
0.0
210
0.0
220
0.0
230
1.0
 40
0.9982459999999999
 41
5.380821928200099
 42
6.300945501369959
  0
ELLIPSE
  5
16F
330
1F
100
AcDbEntity
  8
1
100
AcDbEllipse
 10
379.168102
 20
296.844865
 30
0.0
 11
-0.0954739578056769
 21
0.029425729950704
 31
0.0
210
0.0
220
0.0
230
0.9999999999999998
 40
0.9982459999999999
 41
0.0177601941903571
 42
0.8666953466012305
  0
ELLIPSE
  5
170
330
1F
100
AcDbEntity
  8
1
100
AcDbEllipse
 10
378.999715
 20
296.737678
 30
0.0
 11
-0.0954739578056769
 21
0.029425729950704
 31
0.0
210
0.0
220
0.0
230
1.0
 40
0.9982459999999999
 41
2.635754072181749
 42
4.008288000190976
  0
ELLIPSE
  5
171
330
1F
100
AcDbEntity
  8
1
100
AcDbEllipse
 10
378.683434
 20
297.065992
 30
0.0
 11
-0.5313079055677003
 21
0.1637527479664164
 31
0.0
210
0.0
220
0.0
230
1.0
 40
0.9982459999999999
 41
1.715630499012073
 42
2.635754072181888
  0
ELLIPSE
  5
172
330
1F
100
AcDbEntity
  8
1
100
AcDbEllipse
 10
378.61365
 20
296.6160910000001
 30
0.0
 11
-0.0954739578056768
 21
0.0294257299507039
 31
0.0
210
0.0
220
0.0
230
0.9999999999999998
 40
0.9982459999999999
 41
0.3430965710029513
 42
1.715630499011983
  0
ELLIPSE
  5
173
330
1F
100
AcDbEntity
  8
1
100
AcDbEllipse
 10
378.414067
 20
296.607389
 30
0.0
 11
-0.0954739578056768
 21
0.029425729950704
 31
0.0
210
0.0
220
0.0
230
1.0
 40
0.9982459999999999
 41
3.48468922459261
 42
4.333624377003501
  0
ELLIPSE
  5
174
330
1F
100
AcDbEntity
  8
1
100
AcDbEllipse
 10
378.12832
 20
296.252827
 30
0.0
 11
-0.5313079055677
 21
0.1637527479664163
 31
0.0
210
0.0
220
0.0
230
1.0
 40
0.9982459999999999
 41
4.333624377003535
 42
5.253747950173392
  0
ELLIPSE
  5
175
330
1F
100
AcDbEntity
  8
1
100
AcDbEllipse
 10
296.707771
 20
274.852981
 30
0.0
 11
-19.24285045621101
 21
3.917937864571864
 31
0.0
210
0.0
220
0.0
230
1.0
 40
0.492404
 41
4.750373035221113
 42
5.763137823233552
  0
ELLIPSE
  5
176
330
1F
100
AcDbEntity
  8
1
100
AcDbEllipse
 10
378.488489
 20
297.848881
 30
0.0
 11
-2.628011882600731
 21
0.8099713235105056
 31
0.0
210
0.0
220
0.0
230
1.0
 40
0.9982459999999999
 41
3.141666558290521
 42
6.283160900740866
  0
ELLIPSE
  5
177
330
1F
100
AcDbEntity
  8
1
100
AcDbEllipse
 10
378.628586
 20
297.954059
 30
0.0
 11
3.014795222820601
 21
-0.9291806071761495
 31
0.0
210
0.0
220
0.0
230
0.9999999999999998
 40
0.9982459999999999
 41
0.0
 42
6.283185307179585
  0
ELLIPSE
  5
178
330
1F
100
AcDbEntity
  8
1
100
AcDbEllipse
 10
378.625709
 20
297.944725
 30
0.0
 11
-3.105832224891778
 21
0.9572388368760543
 31
0.0
210
0.0
220
0.0
230
0.9999999999999998
 40
0.9982459999999999
 41
0.0
 42
6.283185307179585
  0
ELLIPSE
  5
179
330
1F
100
AcDbEntity
  8
1
100
AcDbEllipse
 10
374.409132
 20
301.737782
 30
0.0
 11
1.04297253967947
 21
-0.9547593162785917
 31
0.0
210
0.0
220
0.0
230
1.0
 40
0.037843
 41
1.033905731106071
 42
1.588716763957228
  0
ELLIPSE
  5
17A
330
1F
100
AcDbEntity
  8
1
100
AcDbEllipse
 10
382.453458
 20
302.088511
 30
0.0
 11
0.954229018528866
 21
1.042393246047395
 31
0.0
210
0.0
220
0.0
230
1.0
 40
0.017942
 41
1.532929100615838
 42
2.087740133878686
  0
ELLIPSE
  5
17B
330
1F
100
AcDbEntity
  8
1
100
AcDbEllipse
 10
382.812645
 20
294.055496
 30
0.0
 11
1.042972539388717
 21
-0.9547593160210144
 31
0.0
210
0.0
220
0.0
230
1.0
 40
0.037843
 41
1.588716764086431
 42
2.143527797089334
  0
ELLIPSE
  5
17C
330
1F
100
AcDbEntity
  8
1
100
AcDbEllipse
 10
233.836904
 20
288.907991
 30
0.0
 11
77.12264908262651
 21
-11.86703156974353
 31
0.0
210
0.0
220
0.0
230
1.0
 40
0.086139
 41
5.591924678428743
 42
5.616335480034891
  0
ELLIPSE
  5
17D
330
1F
100
AcDbEntity
  8
1
100
AcDbEllipse
 10
378.468044
 20
297.782546
 30
0.0
 11
2.628011882600738
 21
-0.8099713235104848
 31
0.0
210
0.0
220
0.0
230
1.0
 40
0.9982459999999999
 41
0.0
 42
6.283185307179585
  0
ELLIPSE
  5
17E
330
1F
100
AcDbEntity
  8
1
100
AcDbEllipse
 10
378.018652
 20
296.694904
 30
0.0
 11
-0.0954739578056769
 21
0.029425729950704
 31
0.0
210
0.0
220
0.0
230
0.9999999999999998
 40
0.9982459999999999
 41
5.253747950173401
 42
6.102683102584167
  0
ELLIPSE
  5
17F
330
1F
100
AcDbEntity
  8
1
100
AcDbEllipse
 10
377.841353
 20
296.787019
 30
0.0
 11
-0.0954739578056769
 21
0.029425729950704
 31
0.0
210
0.0
220
0.0
230
1.0
 40
0.9982459999999999
 41
1.588556520985352
 42
2.961090448994323
  0
ELLIPSE
  5
180
330
1F
100
AcDbEntity
  8
1
100
AcDbEllipse
 10
377.967684
 20
297.224406
 30
0.0
 11
-0.5313079055677003
 21
0.1637527479664164
 31
0.0
210
0.0
220
0.0
230
1.0
 40
0.9982459999999999
 41
0.668432947815416
 42
1.588556520985246
  0
ELLIPSE
  5
181
330
1F
100
AcDbEntity
  8
1
100
AcDbEllipse
 10
377.54254
 20
297.060187
 30
0.0
 11
-0.0954739578056768
 21
0.0294257299507039
 31
0.0
210
0.0
220
0.0
230
0.9999999999999998
 40
0.9982459999999999
 41
5.57908432698592
 42
6.951618254995008
  0
SPLINE
  5
18D
330
1F
100
AcDbEntity
  8
1
100
AcDbSpline
210
0.0
220
0.0
230
1.0
 70
     9
 71
     3
 72
   125
 73
   121
 74
     0
 42
0.000000001
 43
0.0000000001
 40
0.0
 40
0.0
 40
0.0
 40
0.0
 40
0.0312499999999897
 40
0.0312499999999897
 40
0.046874999999987
 40
0.046874999999987
 40
0.0546874999999882
 40
0.0546874999999882
 40
0.0624999999999893
 40
0.0624999999999893
 40
0.0937499999999891
 40
0.0937499999999891
 40
0.1015624999999891
 40
0.1015624999999891
 40
0.1093749999999891
 40
0.1093749999999891
 40
0.1249999999999891
 40
0.1249999999999891
 40
0.1562499999999925
 40
0.1562499999999925
 40
0.1874999999999959
 40
0.1874999999999959
 40
0.2031249999999987
 40
0.2031249999999987
 40
0.2109375000000008
 40
0.2109375000000008
 40
0.2187500000000028
 40
0.2187500000000028
 40
0.2500000000000097
 40
0.2500000000000097
 40
0.2578125000000115
 40
0.2578125000000115
 40
0.2656250000000133
 40
0.2656250000000133
 40
0.2812500000000163
 40
0.2812500000000163
 40
0.3125000000000219
 40
0.3125000000000219
 40
0.3203125000000229
 40
0.3203125000000229
 40
0.328125000000024
 40
0.3437500000000285
 40
0.3437500000000285
 40
0.3750000000000375
 40
0.3750000000000375
 40
0.3828125000000389
 40
0.3828125000000389
 40
0.3906250000000402
 40
0.406250000000039
 40
0.4218750000000379
 40
0.4218750000000379
 40
0.4296875000000349
 40
0.4296875000000349
 40
0.4375000000000322
 40
0.4375000000000322
 40
0.4687500000000303
 40
0.4687500000000303
 40
0.4843750000000318
 40
0.4843750000000318
 40
0.4921875000000326
 40
0.4921875000000326
 40
0.5000000000000334
 40
0.5000000000000334
 40
0.5312500000000262
 40
0.5312500000000262
 40
0.5390625000000244
 40
0.5390625000000244
 40
0.5468750000000224
 40
0.5468750000000224
 40
0.5625000000000236
 40
0.5781250000000246
 40
0.5781250000000246
 40
0.5937500000000257
 40
0.5937500000000257
 40
0.6250000000000275
 40
0.6250000000000275
 40
0.6328125000000279
 40
0.6328125000000279
 40
0.6406250000000285
 40
0.6406250000000285
 40
0.6562500000000297
 40
0.6562500000000297
 40
0.6875000000000324
 40
0.6875000000000324
 40
0.6953125000000321
 40
0.6953125000000321
 40
0.7031250000000321
 40
0.7187500000000304
 40
0.7343750000000288
 40
0.7343750000000288
 40
0.7421875000000277
 40
0.7421875000000277
 40
0.7500000000000265
 40
0.7500000000000265
 40
0.7812500000000217
 40
0.7812500000000217
 40
0.7968750000000199
 40
0.7968750000000199
 40
0.8125000000000179
 40
0.8125000000000179
 40
0.8437500000000143
 40
0.8437500000000143
 40
0.8593750000000126
 40
0.8593750000000126
 40
0.8671875000000117
 40
0.8671875000000117
 40
0.8750000000000108
 40
0.8750000000000108
 40
0.9062500000000067
 40
0.9062500000000067
 40
0.9218750000000047
 40
0.9218750000000047
 40
0.9375000000000028
 40
0.953125000000001
 40
0.953125000000001
 40
0.9609375
 40
0.9609375
 40
0.9687499999999987
 40
0.9687499999999987
 40
1.0
 40
1.0
 40
1.0
 40
1.0
 10
378.9304469271758
 20
286.5433679557893
 30
0.0
 10
379.0146415815369
 20
286.5418983326308
 30
0.0
 10
379.0972257405702
 20
286.5320333037796
 30
0.0
 10
379.2187864767038
 20
286.5051795052428
 30
0.0
 10
379.2589177807636
 20
286.4942033384444
 30
0.0
 10
379.3185168428347
 20
286.4746303829899
 30
0.0
 10
379.3383397772631
 20
286.4675640823849
 30
0.0
 10
379.3774339132927
 20
286.4525074233352
 30
0.0
 10
379.3967104458819
 20
286.4445194551923
 30
0.0
 10
379.4917675315457
 20
286.4023299054225
 30
0.0
 10
379.5636100015105
 20
286.3614440001332
 30
0.0
 10
379.6481900274267
 20
286.3015180883817
 30
0.0
 10
379.6648424786313
 20
286.2890879587758
 30
0.0
 10
379.6976112390908
 20
286.2633238952911
 30
0.0
 10
379.7137180226584
 20
286.2499926307354
 30
0.0
 10
379.7606933375899
 20
286.2090988755235
 30
0.0
 10
379.7904081599487
 20
286.1804950647644
 30
0.0
 10
379.8748905422129
 20
286.0907980918707
 30
0.0
 10
379.9250454575445
 20
286.0258455900378
 30
0.0
 10
380.0126763461788
 20
285.885527016534
 30
0.0
 10
380.0487315559011
 20
285.8124444068963
 30
0.0
 10
380.0918327152837
 20
285.6987465174076
 30
0.0
 10
380.1043558857094
 20
285.6601628716108
 30
0.0
 10
380.1203398585101
 20
285.6012540130491
 30
0.0
 10
380.125210283722
 20
285.5813975844794
 30
0.0
 10
380.1339491995747
 20
285.5415742701575
 30
0.0
 10
380.1378119389577
 20
285.5216467055629
 30
0.0
 10
380.1546509969095
 20
285.4219331011895
 30
0.0
 10
380.160271208184
 20
285.3419234558763
 30
0.0
 10
380.1577136430435
 20
285.2416335639121
 30
0.0
 10
380.1567188023816
 20
285.2215614637101
 30
0.0
 10
380.1537513405212
 20
285.1813886113033
 30
0.0
 10
380.1517720452177
 20
285.1612379237187
 30
0.0
 10
380.1443926572215
 20
285.1011436953142
 30
0.0
 10
380.1375769792949
 20
285.0616406587584
 30
0.0
 10
380.1116292956451
 20
284.9447487811607
 30
0.0
 10
380.0870480812368
 20
284.8689635534027
 30
0.0
 10
380.0470448249992
 20
284.7769174293326
 30
0.0
 10
380.0385648204055
 20
284.7586206905614
 30
0.0
 10
380.0206968241565
 20
284.7224012094297
 30
0.0
 10
379.992671000228
 20
284.6689158986533
 30
0.0
 10
379.9610505213126
 20
284.6179016305391
 30
0.0
 10
379.8930696463048
 20
284.5191080914876
 30
0.0
 10
379.8414796996102
 20
284.4575259053517
 30
0.0
 10
379.7686149099894
 20
284.3861750637699
 30
0.0
 10
379.753648203854
 20
284.3722217487183
 30
0.0
 10
379.7231970264164
 20
284.345191526748
 30
0.0
 10
379.6766296503936
 20
284.3058542793197
 30
0.0
 10
379.5946156926025
 20
284.2462437517385
 30
0.0
 10
379.5242793086304
 20
284.204905794282
 30
0.0
 10
379.4696892152133
 20
284.1763583457849
 30
0.0
 10
379.4511856408303
 20
284.1672526432051
 30
0.0
 10
379.4135461590753
 20
284.1498841243192
 30
0.0
 10
379.3943795845836
 20
284.1416124304343
 30
0.0
 10
379.2981153189673
 20
284.1028893163592
 30
0.0
 10
379.2188825563493
 20
284.0798413068029
 30
0.0
 10
379.0967010613757
 20
284.0570932103826
 30
0.0
 10
379.0554146323647
 20
284.0514954173181
 30
0.0
 10
378.9926083155478
 20
284.0462054265554
 30
0.0
 10
378.9715735970884
 20
284.044968551641
 30
0.0
 10
378.9297322636291
 20
284.0435611673108
 30
0.0
 10
378.9088648594463
 20
284.0433850178101
 30
0.0
 10
378.8047898112703
 20
284.0450988723975
 30
0.0
 10
378.7223605901899
 20
284.0546955643239
 30
0.0
 10
378.6203697294249
 20
284.0770710536481
 30
0.0
 10
378.5999644768942
 20
284.0820875716557
 30
0.0
 10
378.5596419804843
 20
284.0930821530532
 30
0.0
 10
378.5397141378642
 20
284.0990585788699
 30
0.0
 10
378.4806130120728
 20
284.1183909960356
 30
0.0
 10
378.4036273375003
 20
284.147901175562
 30
0.0
 10
378.3301701881204
 20
284.1846955380888
 30
0.0
 10
378.2584779493999
 20
284.2251508452742
 30
0.0
 10
378.2234025117704
 20
284.2473095673017
 30
0.0
 10
378.1229427210195
 20
284.3179078652832
 30
0.0
 10
378.0615968287547
 20
284.3707476492629
 30
0.0
 10
377.991657625173
 20
284.4438123401787
 30
0.0
 10
377.9780101691066
 20
284.4587793513514
 30
0.0
 10
377.9514015566784
 20
284.4894297053141
 30
0.0
 10
377.9384189977088
 20
284.5051434736895
 30
0.0
 10
377.9008723216975
 20
284.5529085153847
 30
0.0
 10
377.8775924806183
 20
284.5857012330312
 30
0.0
 10
377.8128148031728
 20
284.6868476704078
 30
0.0
 10
377.7763310170317
 20
284.7579442010263
 30
0.0
 10
377.7392225888385
 20
284.8515307284517
 30
0.0
 10
377.7322240415547
 20
284.8705098627838
 30
0.0
 10
377.7192248074668
 20
284.908567034031
 30
0.0
 10
377.7011707941509
 20
284.9659345490573
 30
0.0
 10
377.6781559802858
 20
285.0629353961601
 30
0.0
 10
377.6672048834299
 20
285.1420122849472
 30
0.0
 10
377.6618364931549
 20
285.2018854133023
 30
0.0
 10
377.6605220075597
 20
285.2219375079453
 30
0.0
 10
377.6588612610673
 20
285.2622342502881
 30
0.0
 10
377.6585162286261
 20
285.2825336928171
 30
0.0
 10
377.6592618946822
 20
285.3837154675813
 30
0.0
 10
377.6676414834485
 20
285.4636198919794
 30
0.0
 10
377.6916819165982
 20
285.5819212098678
 30
0.0
 10
377.7016202529317
 20
285.6210937139756
 30
0.0
 10
377.7254744454769
 20
285.6988914767372
 30
0.0
 10
377.7394719865752
 20
285.7376671179528
 30
0.0
 10
377.7866722937762
 20
285.8506698820381
 30
0.0
 10
377.8251876418012
 20
285.9223182258422
 30
0.0
 10
377.8935632737242
 20
286.0241806841242
 30
0.0
 10
377.9181339436054
 20
286.0571935402243
 30
0.0
 10
377.9577775399078
 20
286.1052281549257
 30
0.0
 10
377.9713863966402
 20
286.1209028742986
 30
0.0
 10
377.9992521769923
 20
286.1514374715749
 30
0.0
 10
378.0135290839082
 20
286.166321681264
 30
0.0
 10
378.0866129339951
 20
286.2388468347082
 30
0.0
 10
378.1504687761667
 20
286.2908548311432
 30
0.0
 10
378.2545269500395
 20
286.3595672796762
 30
0.0
 10
378.2907762166398
 20
286.3809815916543
 30
0.0
 10
378.3645248819539
 20
286.4196943805771
 30
0.0
 10
378.4398150957642
 20
286.454527018858
 30
0.0
 10
378.5181321092451
 20
286.4817251107784
 30
0.0
 10
378.5780179227047
 20
286.499222972805
 30
0.0
 10
378.598171554803
 20
286.504571265436
 30
0.0
 10
378.6388688242686
 20
286.5142818038865
 30
0.0
 10
378.6594602588603
 20
286.5186524263687
 30
0.0
 10
378.7627839623216
 20
286.5378642655114
 30
0.0
 10
378.8462522728145
 20
286.5448375789477
 30
0.0
 10
378.9304469271758
 20
286.5433679557893
 30
0.0
  0
SPLINE
  5
18E
330
1F
100
AcDbEntity
  8
1
100
AcDbSpline
210
0.0
220
0.0
230
1.0
 70
     8
 71
     3
 72
    25
 73
    21
 74
     0
 42
0.000000001
 43
0.0000000001
 40
0.0
 40
0.0
 40
0.0
 40
0.0
 40
0.1250000000000095
 40
0.1250000000000095
 40
0.2500000000000191
 40
0.2500000000000191
 40
0.3750000000000286
 40
0.3750000000000286
 40
0.5000000000000382
 40
0.5000000000000382
 40
0.5312500000000366
 40
0.5312500000000366
 40
0.5625000000000352
 40
0.6250000000000324
 40
0.6250000000000324
 40
0.7500000000000215
 40
0.7500000000000215
 40
0.8750000000000108
 40
0.8750000000000108
 40
1.0
 40
1.0
 40
1.0
 40
1.0
 10
368.2977122838525
 20
291.7788777270936
 30
0.0
 10
368.0591701778263
 20
291.8949965617902
 30
0.0
 10
367.8184319196762
 20
292.0152218744667
 30
0.0
 10
367.3335365717241
 20
292.2620652067489
 30
0.0
 10
367.0893734105784
 20
292.388694578864
 30
0.0
 10
366.5982632565878
 20
292.6471586745137
 30
0.0
 10
366.3513132234799
 20
292.7789990828878
 30
0.0
 10
365.8550758119089
 20
293.0470503879686
 30
0.0
 10
365.6057867592874
 20
293.1832644151022
 30
0.0
 10
365.2929167571534
 20
293.355885505385
 30
0.0
 10
365.2302617441001
 20
293.3905378138664
 30
0.0
 10
365.1050636154555
 20
293.4599408263334
 30
0.0
 10
364.9173534879634
 20
293.564237475352
 30
0.0
 10
364.7298938510569
 20
293.6690868903905
 30
0.0
 10
364.3552840458333
 20
293.8794686352357
 30
0.0
 10
364.1059558184018
 20
294.020631517661
 30
0.0
 10
363.6080202476447
 20
294.3045480817706
 30
0.0
 10
363.3594132107782
 20
294.4473024397278
 30
0.0
 10
362.8628463292201
 20
294.7342393364329
 30
0.0
 10
362.6148866792411
 20
294.8784223048595
 30
0.0
 10
362.3672240143809
 20
295.0232606403594
 30
0.0
  0
SPLINE
  5
18F
330
1F
100
AcDbEntity
  8
1
100
AcDbSpline
210
0.0
220
0.0
230
1.0
 70
     8
 71
     3
 72
    24
 73
    20
 74
     0
 42
0.000000001
 43
0.0000000001
 40
0.0
 40
0.0
 40
0.0
 40
0.0
 40
0.2500000000000013
 40
0.2500000000000013
 40
0.3750000000000056
 40
0.3750000000000056
 40
0.4375000000000043
 40
0.4375000000000043
 40
0.5000000000000029
 40
0.5000000000000029
 40
0.7500000000000045
 40
0.7500000000000045
 40
0.8125000000000049
 40
0.8125000000000049
 40
0.8437500000000051
 40
0.8437500000000051
 40
0.8750000000000053
 40
0.8750000000000053
 40
1.0
 40
1.0
 40
1.0
 40
1.0
 10
375.0209378434616
 20
292.132754555575
 30
0.0
 10
374.5144129697201
 20
292.1105269794778
 30
0.0
 10
374.0102636458595
 20
292.1184975144318
 30
0.0
 10
373.2575231824318
 20
292.174668411103
 30
0.0
 10
373.0071919290599
 20
292.2007816457523
 30
0.0
 10
372.6325729987221
 20
292.2510801641108
 30
0.0
 10
372.507846447052
 20
292.2697023422173
 30
0.0
 10
372.2586881869155
 20
292.3106810558304
 30
0.0
 10
372.1341943834774
 20
292.3330497908986
 30
0.0
 10
371.5131396867257
 20
292.4541792573499
 30
0.0
 10
371.0249559197858
 20
292.5798584107397
 30
0.0
 10
370.4254505977888
 20
292.7723912890026
 30
0.0
 10
370.3060876284439
 20
292.8126753940961
 30
0.0
 10
370.1278540712518
 20
292.8757751504141
 30
0.0
 10
370.068553373772
 20
292.8972634101429
 30
0.0
 10
369.9503878763377
 20
292.9410715798316
 30
0.0
 10
369.8915161929449
 20
292.963393441159
 30
0.0
 10
369.5982093576107
 20
293.0770816288594
 30
0.0
 10
369.3669259958672
 20
293.1746794358062
 30
0.0
 10
369.1389806788373
 20
293.2788386690169
 30
0.0
  0
SPLINE
  5
190
330
1F
100
AcDbEntity
  8
1
100
AcDbSpline
210
0.0
220
0.0
230
1.0
 70
     8
 71
     3
 72
    28
 73
    24
 74
     0
 42
0.000000001
 43
0.0000000001
 40
0.0
 40
0.0
 40
0.0
 40
0.0
 40
0.1250000000000138
 40
0.1250000000000138
 40
0.2500000000000276
 40
0.2500000000000276
 40
0.281250000000031
 40
0.281250000000031
 40
0.3125000000000345
 40
0.3750000000000359
 40
0.3750000000000359
 40
0.5000000000000333
 40
0.5000000000000333
 40
0.5312500000000312
 40
0.5312500000000312
 40
0.5625000000000292
 40
0.5625000000000292
 40
0.625000000000025
 40
0.625000000000025
 40
0.7500000000000167
 40
0.8750000000000085
 40
0.8750000000000085
 40
1.0
 40
1.0
 40
1.0
 40
1.0
 10
368.3177331968118
 20
291.1937115996583
 30
0.0
 10
368.5706818992107
 20
291.0368774982219
 30
0.0
 10
368.8290270993294
 20
290.889983967503
 30
0.0
 10
369.3563578225043
 20
290.6160640054441
 30
0.0
 10
369.6253429832184
 20
290.4890365596141
 30
0.0
 10
369.9682257810101
 20
290.342818834851
 30
0.0
 10
370.0371732305225
 20
290.3141892070183
 30
0.0
 10
370.1755179390291
 20
290.2582815323596
 30
0.0
 10
370.3836928652419
 20
290.1764513283715
 30
0.0
 10
370.5938297577956
 20
290.1006881307184
 30
0.0
 10
371.0166990128221
 20
289.9572095508569
 30
0.0
 10
371.3020686763725
 20
289.8722764918147
 30
0.0
 10
371.6630900987895
 20
289.7795350742995
 30
0.0
 10
371.7355101482183
 20
289.7616589050246
 30
0.0
 10
371.8807826935608
 20
289.7272549753472
 30
0.0
 10
371.9536435333567
 20
289.7107266426677
 30
0.0
 10
372.1722632801088
 20
289.6632984163463
 30
0.0
 10
372.3182616672418
 20
289.6345049542802
 30
0.0
 10
372.7570016625238
 20
289.5564868585387
 30
0.0
 10
373.3439722176944
 20
289.4747370432865
 30
0.0
 10
373.9348525915875
 20
289.4369434691633
 30
0.0
 10
374.5276961823599
 20
289.4212351195468
 30
0.0
 10
374.8250994874475
 20
289.424422465236
 30
0.0
 10
375.1235078104987
 20
289.4389145723259
 30
0.0
  0
SPLINE
  5
191
330
1F
100
AcDbEntity
  8
1
100
AcDbSpline
210
0.0
220
0.0
230
1.0
 70
     8
 71
     3
 72
    87
 73
    83
 74
     0
 42
0.000000001
 43
0.0000000001
 40
0.0
 40
0.0
 40
0.0
 40
0.0
 40
0.0625000000000163
 40
0.0625000000000163
 40
0.1250000000000325
 40
0.1250000000000325
 40
0.1875000000000487
 40
0.1875000000000487
 40
0.250000000000065
 40
0.250000000000065
 40
0.2812500000000722
 40
0.2812500000000722
 40
0.3125000000000793
 40
0.3125000000000793
 40
0.3281250000000829
 40
0.3281250000000829
 40
0.3437500000000865
 40
0.3437500000000865
 40
0.3750000000000956
 40
0.3750000000000956
 40
0.4062500000001048
 40
0.4062500000001048
 40
0.4140625000001059
 40
0.4140625000001059
 40
0.4218750000001072
 40
0.4218750000001072
 40
0.437500000000108
 40
0.437500000000108
 40
0.4531250000001089
 40
0.4531250000001089
 40
0.4687500000001098
 40
0.4687500000001098
 40
0.4843750000001107
 40
0.4843750000001107
 40
0.492187500000111
 40
0.492187500000111
 40
0.5000000000001111
 40
0.5000000000001111
 40
0.5312500000001127
 40
0.5312500000001127
 40
0.5351562500001128
 40
0.5351562500001128
 40
0.5390625000001132
 40
0.5390625000001132
 40
0.5468750000001128
 40
0.5468750000001128
 40
0.5625000000001123
 40
0.5625000000001123
 40
0.5703125000001125
 40
0.5742187500001125
 40
0.5742187500001125
 40
0.5781250000001125
 40
0.5781250000001125
 40
0.5937500000001128
 40
0.5937500000001128
 40
0.6093750000001132
 40
0.6093750000001132
 40
0.6250000000001134
 40
0.6250000000001134
 40
0.6328125000001135
 40
0.6328125000001135
 40
0.6406250000001135
 40
0.6406250000001135
 40
0.656250000000111
 40
0.656250000000111
 40
0.6875000000001034
 40
0.6875000000001034
 40
0.7187500000000959
 40
0.7187500000000959
 40
0.7500000000000883
 40
0.7500000000000883
 40
0.7656250000000845
 40
0.7656250000000845
 40
0.7812500000000808
 40
0.7812500000000808
 40
0.8125000000000703
 40
0.8125000000000703
 40
0.8750000000000468
 40
0.8750000000000468
 40
0.9375000000000234
 40
0.9375000000000234
 40
1.0
 40
1.0
 40
1.0
 40
1.0
 10
369.1389806788373
 20
293.2788386690168
 30
0.0
 10
369.3350388685959
 20
293.1480456419862
 30
0.0
 10
369.5304581210351
 20
293.023013897161
 30
0.0
 10
369.9194445164903
 20
292.7835982068443
 30
0.0
 10
370.1130163557067
 20
292.6692169198168
 30
0.0
 10
370.4974381483326
 20
292.4503131380845
 30
0.0
 10
370.6882975827144
 20
292.3457939440461
 30
0.0
 10
371.0659240031386
 20
292.1458195738132
 30
0.0
 10
371.2527027537247
 20
292.0503708158507
 30
0.0
 10
371.5280265959584
 20
291.9133011481995
 30
0.0
 10
371.6189859084689
 20
291.868626949403
 30
0.0
 10
371.7988154389114
 20
291.7811620891105
 30
0.0
 10
371.8876883894917
 20
291.7383719766471
 30
0.0
 10
372.0189532195145
 20
291.6754623765681
 30
0.0
 10
372.0623872746586
 20
291.6546944838271
 30
0.0
 10
372.1483638398138
 20
291.6136034366328
 30
0.0
 10
372.190871557437
 20
291.5932969401143
 30
0.0
 10
372.3167547022084
 20
291.5330493641059
 30
0.0
 10
372.3985097871521
 20
291.4937826540318
 30
0.0
 10
372.5562483002543
 20
291.4167563129839
 30
0.0
 10
372.6322484677279
 20
291.3789982888719
 30
0.0
 10
372.72224338807
 20
291.3325023078945
 30
0.0
 10
372.7400002575306
 20
291.3232319659209
 30
0.0
 10
372.7748682447811
 20
291.304801805549
 30
0.0
 10
372.7919869822182
 20
291.2956381878309
 30
0.0
 10
372.842317590142
 20
291.2682932627248
 30
0.0
 10
372.8745079305011
 20
291.2502579896584
 30
0.0
 10
372.9356504230026
 20
291.2145290326654
 30
0.0
 10
372.9646042648408
 20
291.1968353140588
 30
0.0
 10
373.0186146822074
 20
291.1617386589743
 30
0.0
 10
373.0436738681611
 20
291.1443356278297
 30
0.0
 10
373.0890230898834
 20
291.1097683011814
 30
0.0
 10
373.1093173273867
 20
291.0926037816636
 30
0.0
 10
373.1352939790702
 20
291.0669994269184
 30
0.0
 10
373.143205930592
 20
291.0584884232184
 30
0.0
 10
373.1573450130052
 20
291.0415090115415
 30
0.0
 10
373.1635869339094
 20
291.0330129375264
 30
0.0
 10
373.1897547660953
 20
290.9910915675268
 30
0.0
 10
373.1948215273314
 20
290.9591883486998
 30
0.0
 10
373.1772146988884
 20
290.9256561967553
 30
0.0
 10
373.1749335636243
 20
290.9219639378589
 30
0.0
 10
373.1697009924779
 20
290.9146497554723
 30
0.0
 10
373.1667517045127
 20
290.9110333313588
 30
0.0
 10
373.156968262425
 20
290.9003862023003
 30
0.0
 10
373.1491773293821
 20
290.893527797492
 30
0.0
 10
373.1220893953229
 20
290.873676879988
 30
0.0
 10
373.0990727319656
 20
290.8614078349339
 30
0.0
 10
373.0575380813091
 20
290.8444945562926
 30
0.0
 10
373.0350201278732
 20
290.8364108202049
 30
0.0
 10
373.0099704155451
 20
290.8288970358936
 30
0.0
 10
372.9927192539668
 20
290.8240158195361
 30
0.0
 10
372.9838184923458
 20
290.8216400080791
 30
0.0
 10
372.9383143282248
 20
290.810165542877
 30
0.0
 10
372.8984669338863
 20
290.8022022711021
 30
0.0
 10
372.8132113278235
 20
290.7884858267544
 30
0.0
 10
372.7678002940143
 20
290.7827335599792
 30
0.0
 10
372.6724476717559
 20
290.773284810234
 30
0.0
 10
372.6225040514142
 20
290.7695888965084
 30
0.0
 10
372.5448002151749
 20
290.7655040554276
 30
0.0
 10
372.5185160846836
 20
290.764390762812
 30
0.0
 10
372.4654444011808
 20
290.7626430338936
 30
0.0
 10
372.4386284429712
 20
290.7620071042421
 30
0.0
 10
372.3574418362713
 20
290.7607786840937
 30
0.0
 10
372.3023363101984
 20
290.7608641699964
 30
0.0
 10
372.1347187840208
 20
290.7636208529786
 30
0.0
 10
372.0199387818897
 20
290.7687807354945
 30
0.0
 10
371.7865564628849
 20
290.7850304012227
 30
0.0
 10
371.6679353026379
 20
290.7961269019505
 30
0.0
 10
371.4281967045577
 20
290.8238599086759
 30
0.0
 10
371.3070703626777
 20
290.8404993970005
 30
0.0
 10
371.1241544198291
 20
290.8694447758411
 30
0.0
 10
371.0629310313071
 20
290.8797673023114
 30
0.0
 10
370.9405527570391
 20
290.901650020076
 30
0.0
 10
370.8793589186657
 20
290.9132154584195
 30
0.0
 10
370.6958396773243
 20
290.9497410480585
 30
0.0
 10
370.5735799374701
 20
290.9765282384093
 30
0.0
 10
370.2075149422614
 20
291.06395403213
 30
0.0
 10
369.9644493615677
 20
291.1316348587703
 30
0.0
 10
369.4816996662003
 20
291.2851920796144
 30
0.0
 10
369.2420001792717
 20
291.3710732161416
 30
0.0
 10
368.7666861001876
 20
291.5611197779756
 30
0.0
 10
368.5310663791668
 20
291.6652843407057
 30
0.0
 10
368.2977122838524
 20
291.7788777270934
 30
0.0
  0
SPLINE
  5
192
330
1F
100
AcDbEntity
  8
1
100
AcDbSpline
210
0.0
220
0.0
230
1.0
 70
     8
 71
     3
 72
    12
 73
     8
 74
     0
 42
0.000000001
 43
0.0000000001
 40
0.0
 40
0.0
 40
0.0
 40
0.0
 40
0.5000000000000023
 40
0.5000000000000023
 40
0.7500000000000011
 40
0.7500000000000011
 40
1.0
 40
1.0
 40
1.0
 40
1.0
 10
368.4589665585231
 20
293.6510751567474
 30
0.0
 10
368.4088053948593
 20
293.6804930528118
 30
0.0
 10
368.3616403979327
 20
293.7126163413997
 30
0.0
 10
368.2965263314508
 20
293.7659640800299
 30
0.0
 10
368.2757688016876
 20
293.7846147137859
 30
0.0
 10
368.2365418497083
 20
293.8240228307017
 30
0.0
 10
368.2180640847
 20
293.8447727358512
 30
0.0
 10
368.201078983977
 20
293.8668998157122
 30
0.0
  0
SPLINE
  5
193
330
1F
100
AcDbEntity
  8
1
100
AcDbSpline
210
0.0
220
0.0
230
1.0
 70
     8
 71
     3
 72
    19
 73
    15
 74
     0
 42
0.000000001
 43
0.0000000001
 40
0.0
 40
0.0
 40
0.0
 40
0.0
 40
0.2499999999999978
 40
0.2499999999999978
 40
0.4999999999999958
 40
0.4999999999999958
 40
0.6249999999999966
 40
0.6249999999999966
 40
0.6562499999999969
 40
0.6562499999999969
 40
0.6874999999999972
 40
0.7499999999999977
 40
0.7499999999999977
 40
1.0
 40
1.0
 40
1.0
 40
1.0
 10
295.5123545439666
 20
275.4075964175487
 30
0.0
 10
295.6952109595568
 20
275.3948865778482
 30
0.0
 10
295.8825897450848
 20
275.3848140492434
 30
0.0
 10
296.2666136374684
 20
275.368529628489
 30
0.0
 10
296.4632566312746
 20
275.3623181204236
 30
0.0
 10
296.7655860356315
 20
275.3551482873481
 30
0.0
 10
296.8675927768627
 20
275.353119426333
 30
0.0
 10
296.9967069611274
 20
275.3509821366503
 30
0.0
 10
297.0226188209437
 20
275.3505746039195
 30
0.0
 10
297.0744045289696
 20
275.3498013582066
 30
0.0
 10
297.1520986997272
 20
275.3487029983615
 30
0.0
 10
297.2298394761029
 20
275.3477818788161
 30
0.0
 10
297.4890782051493
 20
275.3450789786992
 30
0.0
 10
297.696797291718
 20
275.3440687448724
 30
0.0
 10
297.9048419452959
 20
275.3440687448724
 30
0.0
  0
SPLINE
  5
194
330
1F
100
AcDbEntity
  8
1
100
AcDbSpline
210
0.0
220
0.0
230
1.0
 70
     8
 71
     3
 72
    10
 73
     6
 74
     0
 42
0.000000001
 43
0.0000000001
 40
0.0
 40
0.0
 40
0.0
 40
0.0
 40
0.5
 40
0.5
 40
1.0
 40
1.0
 40
1.0
 40
1.0
 10
308.1402449544075
 20
275.3548551009599
 30
0.0
 10
306.4412633798153
 20
275.3227390649855
 30
0.0
 10
304.739309250905
 20
275.3084289245236
 30
0.0
 10
301.3279240757701
 20
275.307577758635
 30
0.0
 10
299.618491810814
 20
275.3210018442224
 30
0.0
 10
297.9048419452959
 20
275.3440687448731
 30
0.0
  0
SPLINE
  5
195
330
1F
100
AcDbEntity
  8
1
100
AcDbSpline
210
0.0
220
0.0
230
1.0
 70
     8
 71
     3
 72
    10
 73
     6
 74
     0
 42
0.000000001
 43
0.0000000001
 40
0.0
 40
0.0
 40
0.0
 40
0.0
 40
0.5
 40
0.5
 40
1.0
 40
1.0
 40
1.0
 40
1.0
 10
293.8056180681801
 20
275.4742111497705
 30
0.0
 10
294.090204822192
 20
275.4617739326632
 30
0.0
 10
294.3745927545821
 20
275.4499262252848
 30
0.0
 10
294.9433427847698
 20
275.4276425681414
 30
0.0
 10
295.22770773045
 20
275.4172102066694
 30
0.0
 10
295.5123545439668
 20
275.4075964175487
 30
0.0
  0
SPLINE
  5
196
330
1F
100
AcDbEntity
  8
1
100
AcDbSpline
210
0.0
220
0.0
230
1.0
 70
     8
 71
     3
 72
    18
 73
    14
 74
     0
 42
0.000000001
 43
0.0000000001
 40
0.0
 40
0.0
 40
0.0
 40
0.0
 40
0.2499999999999894
 40
0.2499999999999894
 40
0.4999999999999788
 40
0.4999999999999788
 40
0.7499999999999682
 40
0.7499999999999682
 40
0.8124999999999763
 40
0.8124999999999763
 40
0.8749999999999843
 40
0.8749999999999843
 40
1.0
 40
1.0
 40
1.0
 40
1.0
 10
375.0211115031387
 20
292.3421250454202
 30
0.0
 10
374.9485270065254
 20
292.353211618018
 30
0.0
 10
374.8774277823413
 20
292.3682352457483
 30
0.0
 10
374.7376133783484
 20
292.4057320607894
 30
0.0
 10
374.6689011424202
 20
292.4282073445364
 30
0.0
 10
374.5334653949635
 20
292.4806359664335
 30
0.0
 10
374.4667456309237
 20
292.5105867969474
 30
0.0
 10
374.3843959340497
 20
292.5529935531226
 30
0.0
 10
374.3679774143337
 20
292.5617264511647
 30
0.0
 10
374.3354648625756
 20
292.5795761767918
 30
0.0
 10
374.3193430086405
 20
292.5887070116241
 30
0.0
 10
374.2713771546534
 20
292.6167105476713
 30
0.0
 10
374.2399326172952
 20
292.6361939638668
 30
0.0
 10
374.2090144775437
 20
292.6564777622626
 30
0.0
  0
SPLINE
  5
197
330
1F
100
AcDbEntity
  8
1
100
AcDbSpline
210
0.0
220
0.0
230
1.0
 70
    12
 71
     2
 72
     6
 73
     3
 74
     0
 42
0.000000001
 43
0.0000000001
 40
0.0
 40
0.0
 40
0.0
 40
1.0
 40
1.0
 40
1.0
 10
373.4663845577817
 20
302.4372151170758
 30
0.0
 41
0.500006429238473
 10
373.5786075500119
 20
302.4370155127818
 30
0.0
 41
0.4999935707615271
 10
373.6908290677593
 20
302.4368153470533
 30
0.0
 41
0.500006429238473
  0
SPLINE
  5
198
330
1F
100
AcDbEntity
  8
1
100
AcDbSpline
210
0.0
220
0.0
230
1.0
 70
     8
 71
     3
 72
    10
 73
     6
 74
     0
 42
0.000000001
 43
0.0000000001
 40
0.0
 40
0.0
 40
0.0
 40
0.0
 40
0.5
 40
0.5
 40
1.0
 40
1.0
 40
1.0
 40
1.0
 10
372.3628098357289
 20
298.8818258837623
 30
0.0
 10
372.1669541020103
 20
299.4619958117898
 30
0.0
 10
371.9849447679377
 20
300.0464647172582
 30
0.0
 10
371.6442930067753
 20
301.2226573964968
 30
0.0
 10
371.4857789107227
 20
301.8139417821993
 30
0.0
 10
371.33720349449
 20
302.4078513649627
 30
0.0
  0
SPLINE
  5
199
330
1F
100
AcDbEntity
  8
1
100
AcDbSpline
210
0.0
220
0.0
230
1.0
 70
    28
 71
     4
 72
    13
 73
     8
 74
     0
 42
0.000000001
 43
0.0000000001
 40
0.0
 40
0.0
 40
0.0
 40
0.0
 40
0.0
 40
0.3602493529375067
 40
0.3602493529375067
 40
0.3602493529375067
 40
1.0
 40
1.0
 40
1.0
 40
1.0
 40
1.0
 10
297.9048419452959
 20
284.4701841590626
 30
0.0
 41
0.9970039865930488
 10
297.9048419452959
 20
283.6580063325716
 30
0.0
 41
0.9970039865930488
 10
297.9048419452959
 20
282.7646282199181
 30
0.0
 41
0.9985019932965244
 10
297.9048419452959
 20
281.8451841590626
 30
0.0
 41
1.001498006703475
 10
297.9048419452959
 20
279.4163109553631
 30
0.0
 41
1.001498006703475
 10
297.9048419452959
 20
277.7084332548808
 30
0.0
 41
0.9920495951662728
 10
297.9048419452959
 20
276.2962852927797
 30
0.0
 41
0.9983212866721839
 10
297.9048419452959
 20
275.3440687448724
 30
0.0
 41
1.000785961077782
  0
SPLINE
  5
19A
330
1F
100
AcDbEntity
  8
1
100
AcDbSpline
210
0.0
220
0.0
230
1.0
 70
     8
 71
     3
 72
     8
 73
     4
 74
     0
 42
0.000000001
 43
0.0000000001
 40
0.0
 40
0.0
 40
0.0
 40
0.0
 40
1.0
 40
1.0
 40
1.0
 40
1.0
 10
369.1389806788375
 20
293.2788386690169
 30
0.0
 10
368.9099832712849
 20
293.3955005604494
 30
0.0
 10
368.683367049824
 20
293.5194715445554
 30
0.0
 10
368.4589665585231
 20
293.6510751567474
 30
0.0
  0
SPLINE
  5
19B
330
1F
100
AcDbEntity
  8
1
100
AcDbSpline
210
0.0
220
0.0
230
1.0
 70
     8
 71
     3
 72
    51
 73
    47
 74
     0
 42
0.000000001
 43
0.0000000001
 40
0.0
 40
0.0
 40
0.0
 40
0.0
 40
0.1250000000000033
 40
0.1250000000000033
 40
0.2500000000000066
 40
0.2500000000000066
 40
0.3125000000000082
 40
0.3125000000000082
 40
0.3750000000000097
 40
0.3750000000000097
 40
0.4062500000000132
 40
0.4062500000000132
 40
0.4375000000000166
 40
0.4375000000000166
 40
0.5000000000000237
 40
0.5000000000000237
 40
0.5312500000000248
 40
0.5312500000000248
 40
0.5468750000000253
 40
0.5468750000000253
 40
0.5625000000000257
 40
0.5625000000000257
 40
0.6250000000000231
 40
0.6250000000000231
 40
0.6875000000000206
 40
0.6875000000000206
 40
0.7187500000000196
 40
0.7187500000000196
 40
0.7343750000000203
 40
0.7343750000000203
 40
0.7500000000000209
 40
0.7500000000000209
 40
0.8125000000000152
 40
0.8125000000000152
 40
0.8437500000000124
 40
0.8437500000000124
 40
0.8515625000000117
 40
0.8515625000000117
 40
0.859375000000011
 40
0.8750000000000104
 40
0.8750000000000104
 40
0.9375000000000051
 40
0.9375000000000051
 40
0.9687500000000028
 40
0.9687500000000028
 40
1.0
 40
1.0
 40
1.0
 40
1.0
 10
368.3379196717053
 20
294.3252948847226
 30
0.0
 10
368.6016241382778
 20
294.415800925403
 30
0.0
 10
368.8618510365149
 20
294.5141020754686
 30
0.0
 10
369.3739501822136
 20
294.7294316615613
 30
0.0
 10
369.6258358412912
 20
294.8464300349116
 30
0.0
 10
369.9958862408609
 20
295.0393624945785
 30
0.0
 10
370.117934050463
 20
295.1065925252044
 30
0.0
 10
370.3590635461126
 20
295.2477012717803
 30
0.0
 10
370.4781468674296
 20
295.321576322208
 30
0.0
 10
370.6541912959818
 20
295.4381733122074
 30
0.0
 10
370.7123621471021
 20
295.4779565294227
 30
0.0
 10
370.8271565818153
 20
295.5591645063051
 30
0.0
 10
370.8838454706685
 20
295.6006319705596
 30
0.0
 10
371.0516468962688
 20
295.7277957667812
 30
0.0
 10
371.1605042608758
 20
295.8162412279846
 30
0.0
 10
371.3185639121201
 20
295.9552805685232
 30
0.0
 10
371.3703771308819
 20
296.002691635465
 30
0.0
 10
371.4466718291158
 20
296.0755455162513
 30
0.0
 10
371.471865659219
 20
296.1001199511761
 30
0.0
 10
371.521755730522
 20
296.1498753983142
 30
0.0
 10
371.5464635486961
 20
296.1750695801386
 30
0.0
 10
371.6682357768811
 20
296.3021383332363
 30
0.0
 10
371.7603752001393
 20
296.4076326958722
 30
0.0
 10
371.9324949762641
 20
296.6274656562285
 30
0.0
 10
372.0124894090765
 20
296.7417940125121
 30
0.0
 10
372.1215900964309
 20
296.9212083883213
 30
0.0
 10
372.1561345958876
 20
296.982338750472
 30
0.0
 10
372.2049042119731
 20
297.0762507099697
 30
0.0
 10
372.2206802015398
 20
297.107986746061
 30
0.0
 10
372.2509521954216
 20
297.1718113372607
 30
0.0
 10
372.2654618368709
 20
297.203920378685
 30
0.0
 10
372.3347934778561
 20
297.3654759481153
 30
0.0
 10
372.380013773903
 20
297.4979384871465
 30
0.0
 10
372.4303216228117
 20
297.7021363544538
 30
0.0
 10
372.444161251452
 20
297.771122550029
 30
0.0
 10
372.4574859954853
 20
297.8586038245957
 30
0.0
 10
372.4599546026817
 20
297.8761858131691
 30
0.0
 10
372.4644643907806
 20
297.9113096487869
 30
0.0
 10
372.4705942868209
 20
297.9639653340203
 30
0.0
 10
372.4748242835759
 20
298.0165310258868
 30
0.0
 10
372.4847148723372
 20
298.1915506102504
 30
0.0
 10
372.479184705145
 20
298.330929534373
 30
0.0
 10
372.4506243049025
 20
298.5390380122911
 30
0.0
 10
372.4377211490177
 20
298.6082472598141
 30
0.0
 10
372.4050702153334
 20
298.7463415426372
 30
0.0
 10
372.3854797015866
 20
298.8145469555841
 30
0.0
 10
372.3628098357292
 20
298.8818258837625
 30
0.0
  0
SPLINE
  5
19C
330
1F
100
AcDbEntity
  8
1
100
AcDbSpline
210
0.0
220
0.0
230
1.0
 70
    12
 71
     3
 72
     9
 73
     5
 74
     0
 42
0.000000001
 43
0.0000000001
 40
0.0
 40
0.0
 40
0.0
 40
0.0
 40
0.4002907480417964
 40
1.0
 40
1.0
 40
1.0
 40
1.0
 10
344.4383786431054
 20
298.6995747393365
 30
0.0
 41
1.001478596220267
 10
348.1756658037589
 20
298.7262388708763
 30
0.0
 41
1.001486566215509
 10
357.5101702760957
 20
298.4085232773232
 30
0.0
 41
1.001555044751215
 10
366.8665208704879
 20
298.1226235480593
 30
0.0
 41
1.001457181161909
 10
372.3628098357415
 20
298.8818258837642
 30
0.0
 41
1.001483969427863
  0
SPLINE
  5
19D
330
1F
100
AcDbEntity
  8
1
100
AcDbSpline
210
0.0
220
0.0
230
1.0
 70
     8
 71
     3
 72
    17
 73
    13
 74
     0
 42
0.000000001
 43
0.0000000001
 40
0.0
 40
0.0
 40
0.0
 40
0.0
 40
0.2499999999999982
 40
0.2499999999999982
 40
0.4999999999999964
 40
0.4999999999999964
 40
0.5624999999999964
 40
0.5624999999999964
 40
0.6249999999999963
 40
0.7499999999999982
 40
0.7499999999999982
 40
1.0
 40
1.0
 40
1.0
 40
1.0
 10
287.7854185415626
 20
285.9236410538626
 30
0.0
 10
288.1685027793248
 20
285.927975407239
 30
0.0
 10
288.5571846434232
 20
285.9224312476899
 30
0.0
 10
289.3456916217917
 20
285.8916776750996
 30
0.0
 10
289.7455163162182
 20
285.8664690029852
 30
0.0
 10
290.2523630714809
 20
285.8224885097897
 30
0.0
 10
290.3541252667673
 20
285.8130641008515
 30
0.0
 10
290.5581974090093
 20
285.7929741493637
 30
0.0
 10
290.864408027497
 20
285.7610493328451
 30
0.0
 10
291.1709223972128
 20
285.7238153965857
 30
0.0
 10
291.7843491381328
 20
285.6423910499369
 30
0.0
 10
292.1938302065933
 20
285.5788461510577
 30
0.0
 10
292.6038318185192
 20
285.5062029265356
 30
0.0
  0
SPLINE
  5
19E
330
1F
100
AcDbEntity
  8
1
100
AcDbSpline
210
0.0
220
0.0
230
1.0
 70
     8
 71
     3
 72
    22
 73
    18
 74
     0
 42
0.000000001
 43
0.0000000001
 40
0.0
 40
0.0
 40
0.0
 40
0.0
 40
0.1250000000000001
 40
0.1250000000000001
 40
0.2500000000000002
 40
0.2500000000000002
 40
0.3750000000000003
 40
0.3750000000000003
 40
0.5000000000000005
 40
0.5000000000000005
 40
0.75
 40
0.75
 40
0.8124999999999998
 40
0.8124999999999998
 40
0.875
 40
0.875
 40
1.0
 40
1.0
 40
1.0
 40
1.0
 10
279.4048419452957
 20
273.1051406933967
 30
0.0
 10
279.5302493713341
 20
273.0923414329947
 30
0.0
 10
279.6578225332073
 20
273.0871296349432
 30
0.0
 10
279.9167372214279
 20
273.0896713011699
 30
0.0
 10
280.0480803047934
 20
273.0974310966133
 30
0.0
 10
280.3140516645006
 20
273.1241578596675
 30
0.0
 10
280.4486808927642
 20
273.1431286258995
 30
0.0
 10
280.7207799794623
 20
273.1908039213114
 30
0.0
 10
280.8582504151614
 20
273.2195107567546
 30
0.0
 10
281.2742804570155
 20
273.3183166299731
 30
0.0
 10
281.5564608342228
 20
273.401047617624
 30
0.0
 10
281.9130899153695
 20
273.520152981094
 30
0.0
 10
281.9846108278091
 20
273.5447630707406
 30
0.0
 10
282.1279892973361
 20
273.5954437055859
 30
0.0
 10
282.1998659904067
 20
273.6215215257828
 30
0.0
 10
282.4157188003848
 20
273.7017030284402
 30
0.0
 10
282.5599494877817
 20
273.7577602657535
 30
0.0
 10
282.7043368819076
 20
273.8160135997356
 30
0.0
  0
SPLINE
  5
19F
330
1F
100
AcDbEntity
  8
1
100
AcDbSpline
210
0.0
220
0.0
230
1.0
 70
     8
 71
     3
 72
    31
 73
    27
 74
     0
 42
0.000000001
 43
0.0000000001
 40
0.0
 40
0.0
 40
0.0
 40
0.0
 40
0.1249999999999993
 40
0.1249999999999993
 40
0.2499999999999986
 40
0.2499999999999986
 40
0.3124999999999982
 40
0.3124999999999982
 40
0.3437499999999983
 40
0.3437499999999983
 40
0.3749999999999984
 40
0.3749999999999984
 40
0.4999999999999973
 40
0.4999999999999973
 40
0.6249999999999961
 40
0.6249999999999961
 40
0.6562499999999958
 40
0.6562499999999958
 40
0.6718749999999957
 40
0.6718749999999957
 40
0.6874999999999956
 40
0.7499999999999961
 40
0.7499999999999961
 40
0.8749999999999978
 40
0.8749999999999978
 40
1.0
 40
1.0
 40
1.0
 40
1.0
 10
277.3685042405017
 20
277.8281742250823
 30
0.0
 10
277.3220211164612
 20
277.5887678878518
 30
0.0
 10
277.2935779719614
 20
277.3526017553297
 30
0.0
 10
277.2710674877966
 20
276.8867261431106
 30
0.0
 10
277.2770068115389
 20
276.6570166640869
 30
0.0
 10
277.3116652593418
 20
276.3173001046032
 30
0.0
 10
277.3275217948387
 20
276.2048694337812
 30
0.0
 10
277.3578691520573
 20
276.0374385145548
 30
0.0
 10
277.3691025919708
 20
275.9817356941685
 30
0.0
 10
277.393630882218
 20
275.8713998792046
 30
0.0
 10
277.4069280054385
 20
275.8167298535283
 30
0.0
 10
277.4784934602225
 20
275.5458127210699
 30
0.0
 10
277.5519414590117
 20
275.3368451865478
 30
0.0
 10
277.7300588940284
 20
274.933332987663
 30
0.0
 10
277.8347323105278
 20
274.738791695947
 30
0.0
 10
277.9852551813145
 20
274.5042085064681
 30
0.0
 10
278.0163472181854
 20
274.4577224717967
 30
0.0
 10
278.0644799157327
 20
274.3886340941994
 30
0.0
 10
278.0807760097348
 20
274.365708569678
 30
0.0
 10
278.1137614955651
 20
274.3202155021982
 30
0.0
 10
278.1972726621853
 20
274.2072858469621
 30
0.0
 10
278.2859712552117
 20
274.0983064493928
 30
0.0
 10
278.5085705231789
 20
273.8439448317293
 30
0.0
 10
278.6698985276506
 20
273.683933926611
 30
0.0
 10
279.0180519236016
 20
273.3815296427061
 30
0.0
 10
279.2048760925454
 20
273.2391391373596
 30
0.0
 10
279.4048419452957
 20
273.1051406933967
 30
0.0
  0
SPLINE
  5
1A0
330
1F
100
AcDbEntity
  8
1
100
AcDbSpline
210
0.0
220
0.0
230
1.0
 70
     8
 71
     3
 72
    57
 73
    53
 74
     0
 42
0.000000001
 43
0.0000000001
 40
0.0
 40
0.0
 40
0.0
 40
0.0
 40
0.0624999999999998
 40
0.0624999999999998
 40
0.1249999999999995
 40
0.1249999999999995
 40
0.1874999999999993
 40
0.1874999999999993
 40
0.218749999999999
 40
0.218749999999999
 40
0.2499999999999987
 40
0.2499999999999987
 40
0.3124999999999982
 40
0.3124999999999982
 40
0.3749999999999977
 40
0.3749999999999977
 40
0.4062499999999973
 40
0.4062499999999973
 40
0.4218749999999972
 40
0.4218749999999972
 40
0.4374999999999969
 40
0.4374999999999969
 40
0.4687499999999968
 40
0.4687499999999968
 40
0.4999999999999968
 40
0.4999999999999968
 40
0.5312499999999967
 40
0.5312499999999967
 40
0.5624999999999966
 40
0.5624999999999966
 40
0.5937499999999965
 40
0.5937499999999965
 40
0.6249999999999964
 40
0.6249999999999964
 40
0.6406249999999963
 40
0.6406249999999963
 40
0.6562499999999961
 40
0.6562499999999961
 40
0.6874999999999966
 40
0.6874999999999966
 40
0.749999999999997
 40
0.749999999999997
 40
0.8124999999999975
 40
0.8124999999999975
 40
0.8437499999999978
 40
0.8437499999999978
 40
0.8749999999999982
 40
0.9062499999999987
 40
0.9374999999999992
 40
0.9687499999999996
 40
0.9687499999999996
 40
1.0
 40
1.0
 40
1.0
 40
1.0
 10
297.9048419452959
 20
284.5846079475374
 30
0.0
 10
299.3756805056387
 20
284.3100268271808
 30
0.0
 10
300.8447826782515
 20
284.0317651191467
 30
0.0
 10
303.7793725655785
 20
283.4685141170309
 30
0.0
 10
305.2448586018018
 20
283.1835160196296
 30
0.0
 10
308.1720943263149
 20
282.607748412444
 30
0.0
 10
309.6338409679173
 20
282.3169654824459
 30
0.0
 10
311.8236354710607
 20
281.8776787543505
 30
0.0
 10
312.5531511301314
 20
281.7307267198512
 30
0.0
 10
314.0110217535484
 20
281.4361504100358
 30
0.0
 10
314.7391733183277
 20
281.2885668594516
 30
0.0
 10
316.9212784837908
 20
280.8455261845979
 30
0.0
 10
318.3728670254773
 20
280.5497243893339
 30
0.0
 10
321.270064874331
 20
279.961612997733
 30
0.0
 10
322.7156684055949
 20
279.6693003019503
 30
0.0
 10
324.8802441535521
 20
279.2380624016654
 30
0.0
 10
325.6011361581141
 20
279.0955360108381
 30
0.0
 10
326.6816560734222
 20
278.8842737709622
 30
0.0
 10
327.0416933684102
 20
278.814274987591
 30
0.0
 10
327.7615224020146
 20
278.6752467170527
 30
0.0
 10
328.12134729705
 20
278.6062166491412
 30
0.0
 10
329.2003595778425
 20
278.4012758121564
 30
0.0
 10
329.9191271896404
 20
278.2675351006345
 30
0.0
 10
331.3565978181787
 20
278.0084162688159
 30
0.0
 10
332.0753013555929
 20
277.8830350467615
 30
0.0
 10
333.5135712055786
 20
277.6423497923997
 30
0.0
 10
334.2331371967695
 20
277.5270407778371
 30
0.0
 10
335.6738971042422
 20
277.3074639291947
 30
0.0
 10
336.3951017388818
 20
277.2032114042687
 30
0.0
 10
337.8397135865733
 20
277.0060373571098
 30
0.0
 10
338.563055190232
 20
276.9129800902751
 30
0.0
 10
340.0115227361717
 20
276.7367241532617
 30
0.0
 10
340.7366494495787
 20
276.6535295511604
 30
0.0
 10
341.8255404161956
 20
276.535491947142
 30
0.0
 10
342.1887049471567
 20
276.4972740611756
 30
0.0
 10
342.9154204334193
 20
276.4230096313797
 30
0.0
 10
343.2789898054006
 20
276.3869616313792
 30
0.0
 10
344.3698002669664
 20
276.2820083867765
 30
0.0
 10
345.0972905397841
 20
276.2162746487858
 30
0.0
 10
347.2806144110446
 20
276.0310080969645
 30
0.0
 10
348.7372901037775
 20
275.9233886956334
 30
0.0
 10
351.6532522341246
 20
275.7368214100678
 30
0.0
 10
353.1125391698069
 20
275.6578986178766
 30
0.0
 10
355.3039617793753
 20
275.5590528273264
 30
0.0
 10
356.0348756885002
 20
275.5293769630653
 30
0.0
 10
357.4975251416381
 20
275.4760946282178
 30
0.0
 10
358.960966617938
 20
275.4288528843147
 30
0.0
 10
361.1579130949293
 20
275.3747311566857
 30
0.0
 10
363.3559685647202
 20
275.3363744814501
 30
0.0
 10
364.8215746248142
 20
275.320962460783
 30
0.0
 10
366.2870212617273
 20
275.3106254600916
 30
0.0
 10
367.0196648805182
 20
275.3079935137005
 30
0.0
 10
367.7520775397277
 20
275.3079935137005
 30
0.0
  0
SPLINE
  5
1A1
330
1F
100
AcDbEntity
  8
1
100
AcDbSpline
210
0.0
220
0.0
230
1.0
 70
     8
 71
     3
 72
    58
 73
    54
 74
     0
 42
0.000000001
 43
0.0000000001
 40
0.0
 40
0.0
 40
0.0
 40
0.0
 40
0.0604815018848734
 40
0.0604815018848734
 40
0.0940357339604134
 40
0.0940357339604134
 40
0.1108128499981834
 40
0.1108128499981834
 40
0.1275899660359534
 40
0.1275899660359534
 40
0.1946984301870336
 40
0.1946984301870336
 40
0.2618068943381137
 40
0.2618068943381137
 40
0.3289153584891937
 40
0.3289153584891937
 40
0.3960238226402739
 40
0.3960238226402739
 40
0.412800938678044
 40
0.412800938678044
 40
0.429578054715814
 40
0.429578054715814
 40
0.4631322867913541
 40
0.4631322867913541
 40
0.4966865188668941
 40
0.4966865188668941
 40
0.5302407509424345
 40
0.5302407509424345
 40
0.5637949830179744
 40
0.5637949830179744
 40
0.5973492150935145
 40
0.5973492150935145
 40
0.6309034471690547
 40
0.6309034471690547
 40
0.6644576792445948
 40
0.6644576792445948
 40
0.6980119113201349
 40
0.6980119113201349
 40
0.731566143395675
 40
0.731566143395675
 40
0.7986746075467558
 40
0.7986746075467558
 40
0.8322288396222964
 40
0.8322288396222964
 40
0.8657830716978372
 40
0.8657830716978372
 40
0.8993373037733778
 40
0.8993373037733778
 40
0.9328915358489185
 40
0.9328915358489185
 40
0.9664457679244593
 40
0.9664457679244593
 40
1.0
 40
1.0
 40
1.0
 40
1.0
 10
302.3868776823243
 20
302.5079923782657
 30
0.0
 10
303.6095240625304
 20
302.5080827980379
 30
0.0
 10
304.8299131605252
 20
302.5016005328644
 30
0.0
 10
306.72423234571
 20
302.4786356531093
 30
0.0
 10
307.3995565398597
 20
302.46789143838
 30
0.0
 10
308.4117168945148
 20
302.447545822263
 30
0.0
 10
308.7489662588621
 20
302.4400594410928
 30
0.0
 10
309.4232090291969
 20
302.4236158262523
 30
0.0
 10
309.7602263783525
 20
302.4146578316687
 30
0.0
 10
311.4443482383525
 20
302.3660593625299
 30
0.0
 10
312.7885857297489
 20
302.3149231536121
 30
0.0
 10
315.4726055880478
 20
302.1856487945047
 30
0.0
 10
316.8123951388583
 20
302.1074939821472
 30
0.0
 10
319.4896798624944
 20
301.9238140174134
 30
0.0
 10
320.8271869936927
 20
301.8182927143832
 30
0.0
 10
323.5022662246028
 20
301.5819108199164
 30
0.0
 10
324.83985094681
 20
301.4510760374563
 30
0.0
 10
326.5132294152949
 20
301.2741823571764
 30
0.0
 10
326.8479740192388
 20
301.2381395514546
 30
0.0
 10
327.5176300981947
 20
301.1647987123855
 30
0.0
 10
327.852546697809
 20
301.127510321421
 30
0.0
 10
328.8574949363439
 20
301.0137086953691
 30
0.0
 10
329.5277137771289
 20
300.9352449852878
 30
0.0
 10
330.8683507016465
 20
300.7726086376924
 30
0.0
 10
331.5387692792743
 20
300.6884331815312
 30
0.0
 10
332.879662644768
 20
300.5140087907123
 30
0.0
 10
333.5502001186098
 20
300.4237491937163
 30
0.0
 10
334.890675622004
 20
300.2371106487862
 30
0.0
 10
335.560681839398
 20
300.1407237179779
 30
0.0
 10
336.9003332781178
 20
299.941935031812
 30
0.0
 10
337.5699682204108
 20
299.8395059997641
 30
0.0
 10
338.9091800071101
 20
299.6292639055836
 30
0.0
 10
339.5787630273826
 20
299.5214666830859
 30
0.0
 10
340.9181401144791
 20
299.3011657215428
 30
0.0
 10
341.5879334820941
 20
299.188662020242
 30
0.0
 10
342.9278957217389
 20
298.9594449878641
 30
0.0
 10
343.5980640296132
 20
298.8427315705341
 30
0.0
 10
344.9388688951074
 20
298.6054436888016
 30
0.0
 10
345.6094953691632
 20
298.4848704704973
 30
0.0
 10
347.6214491186795
 20
298.1177911924638
 30
0.0
 10
348.9630995709067
 20
297.8659604916997
 30
0.0
 10
350.9759462409346
 20
297.4774749789322
 30
0.0
 10
351.6469518137333
 20
297.3461717434665
 30
0.0
 10
352.9889894886554
 20
297.0796946849269
 30
0.0
 10
353.6600217693483
 20
296.9445221316479
 30
0.0
 10
355.0019820687772
 20
296.6698578220666
 30
0.0
 10
355.6729212709272
 20
296.5304044396813
 30
0.0
 10
357.0144580390389
 20
296.2463021312369
 30
0.0
 10
357.6849361262867
 20
296.1015724294147
 30
0.0
 10
359.0247198318788
 20
295.8054728503637
 30
0.0
 10
359.6940578772948
 20
295.6540861069531
 30
0.0
 10
361.0315101263278
 20
295.3440349109347
 30
0.0
 10
361.6996214364448
 20
295.1853572709657
 30
0.0
 10
362.367224014381
 20
295.0232606403593
 30
0.0
  0
SPLINE
  5
1A2
330
1F
100
AcDbEntity
  8
1
100
AcDbSpline
210
0.0
220
0.0
230
1.0
 70
     8
 71
     3
 72
    40
 73
    36
 74
     0
 42
0.000000001
 43
0.0000000001
 40
0.0
 40
0.0
 40
0.0
 40
0.0
 40
0.060377359124698
 40
0.060377359124698
 40
0.120754718249396
 40
0.120754718249396
 40
0.181132077374094
 40
0.181132077374094
 40
0.2415094364987921
 40
0.2415094364987921
 40
0.2716981160611416
 40
0.2716981160611416
 40
0.3018867956234911
 40
0.3018867956234911
 40
0.3622641547481912
 40
0.3622641547481912
 40
0.4226415138728913
 40
0.4226415138728913
 40
0.4830188729975914
 40
0.4830188729975914
 40
0.6037735912469925
 40
0.6037735912469925
 40
0.6641509503716926
 40
0.6641509503716926
 40
0.7245283094963927
 40
0.7245283094963927
 40
0.7849056686210929
 40
0.7849056686210929
 40
0.8452830277457927
 40
0.8452830277457927
 40
0.9056603868704927
 40
0.9056603868704927
 40
0.9660377459951927
 40
0.9660377459951927
 40
1.0
 40
1.0
 40
1.0
 40
1.0
 10
371.33720349449
 20
302.4078513649627
 30
0.0
 10
370.597635078665
 20
302.4401517915606
 30
0.0
 10
369.8547265453946
 20
302.4632991846242
 30
0.0
 10
368.362117931494
 20
302.4950623531054
 30
0.0
 10
367.6124187289304
 20
302.5036860735787
 30
0.0
 10
366.1065261114726
 20
302.5097655957913
 30
0.0
 10
365.3503337123705
 20
302.5072270566381
 30
0.0
 10
363.8321310865879
 20
302.4937111114551
 30
0.0
 10
363.0701221358659
 20
302.4827374034128
 30
0.0
 10
361.9235114551523
 20
302.4614142313106
 30
0.0
 10
361.5407109286328
 20
302.4534897013164
 30
0.0
 10
360.7740722618106
 20
302.4361710525067
 30
0.0
 10
360.3901857408477
 20
302.4267755880634
 30
0.0
 10
359.2378493699253
 20
302.3965648096867
 30
0.0
 10
358.468557827777
 20
302.373751768095
 30
0.0
 10
356.9289324780872
 20
302.3229707548308
 30
0.0
 10
356.1586071533944
 20
302.2949976561776
 30
0.0
 10
354.618148002723
 20
302.2331607748674
 30
0.0
 10
353.8479643593348
 20
302.1993097012417
 30
0.0
 10
351.5376973379531
 20
302.0887267233905
 30
0.0
 10
349.9979137916707
 20
302.0029855994104
 30
0.0
 10
347.6892975611008
 20
301.8547951101524
 30
0.0
 10
346.9198955522287
 20
301.8021264884899
 30
0.0
 10
345.3816370215171
 20
301.6899544058698
 30
0.0
 10
344.6128802728313
 20
301.6304595022088
 30
0.0
 10
343.0761539056316
 20
301.5043186864671
 30
0.0
 10
342.3081829653965
 20
301.4376754887582
 30
0.0
 10
340.7730881290532
 20
301.2968215488042
 30
0.0
 10
340.0059624342386
 20
301.222615794556
 30
0.0
 10
338.4726845333022
 20
301.0660213595097
 30
0.0
 10
337.7065302381138
 20
300.9836402190797
 30
0.0
 10
336.1754473275732
 20
300.8096935979425
 30
0.0
 10
335.4105413176762
 20
300.7180722518854
 30
0.0
 10
334.2162431929273
 20
300.5674316838026
 30
0.0
 10
333.7864691748751
 20
300.5116833174889
 30
0.0
 10
333.3568516531908
 20
300.4544155801602
 30
0.0
  0
SPLINE
  5
1A3
330
1F
100
AcDbEntity
  8
1
100
AcDbSpline
210
0.0
220
0.0
230
1.0
 70
     8
 71
     3
 72
    30
 73
    26
 74
     0
 42
0.000000001
 43
0.0000000001
 40
0.0
 40
0.0
 40
0.0
 40
0.0
 40
0.0624999999999999
 40
0.0624999999999999
 40
0.1249999999999998
 40
0.1249999999999998
 40
0.1874999999999996
 40
0.1874999999999996
 40
0.2499999999999995
 40
0.2499999999999995
 40
0.3749999999999992
 40
0.3749999999999992
 40
0.4062499999999992
 40
0.4062499999999992
 40
0.4374999999999992
 40
0.4374999999999992
 40
0.4999999999999992
 40
0.4999999999999992
 40
0.6249999999999995
 40
0.6249999999999995
 40
0.7499999999999996
 40
0.7499999999999996
 40
0.8749999999999998
 40
0.8749999999999998
 40
1.0
 40
1.0
 40
1.0
 40
1.0
 10
291.8788856994718
 20
275.5523063238064
 30
0.0
 10
291.6466099956068
 20
275.5553221007015
 30
0.0
 10
291.4175391437952
 20
275.5543891901899
 30
0.0
 10
290.9650611037929
 20
275.5455475746611
 30
0.0
 10
290.7416550658313
 20
275.5376374775715
 30
0.0
 10
290.299928555253
 20
275.5155716537753
 30
0.0
 10
290.0816089054488
 20
275.5014147607089
 30
0.0
 10
289.6496127937716
 20
275.4674355502265
 30
0.0
 10
289.4359369596582
 20
275.447612237811
 30
0.0
 10
288.8013822976562
 20
275.3803379067587
 30
0.0
 10
288.3869359244739
 20
275.3251134702061
 30
0.0
 10
287.8786720322315
 20
275.2448107942953
 30
0.0
 10
287.777512171104
 20
275.2281841346154
 30
0.0
 10
287.5761667888213
 20
275.1938321459683
 30
0.0
 10
287.475908514086
 20
275.1760926530804
 30
0.0
 10
287.1776145712558
 20
275.1214663601492
 30
0.0
 10
286.9817829764598
 20
275.0831301101599
 30
0.0
 10
286.4030343153565
 20
274.9628698830272
 30
0.0
 10
286.0288317489855
 20
274.8757040259316
 30
0.0
 10
285.3028284293206
 20
274.6897074290564
 30
0.0
 10
284.9510413912262
 20
274.5908689226175
 30
0.0
 10
284.2699064508142
 20
274.3836012054997
 30
0.0
 10
283.9405650481828
 20
274.2751673423863
 30
0.0
 10
283.3049156461576
 20
274.0507382070962
 30
0.0
 10
282.9986096373783
 20
273.9347384317062
 30
0.0
 10
282.7043368819076
 20
273.8160135997355
 30
0.0
  0
SPLINE
  5
1A4
330
1F
100
AcDbEntity
  8
1
100
AcDbSpline
210
0.0
220
0.0
230
1.0
 70
     8
 71
     3
 72
    28
 73
    24
 74
     0
 42
0.000000001
 43
0.0000000001
 40
0.0
 40
0.0
 40
0.0
 40
0.0
 40
0.125000000000016
 40
0.125000000000016
 40
0.250000000000032
 40
0.250000000000032
 40
0.3125000000000401
 40
0.3125000000000401
 40
0.3750000000000483
 40
0.3750000000000483
 40
0.5000000000000648
 40
0.5000000000000648
 40
0.6250000000000812
 40
0.6250000000000812
 40
0.6562500000000853
 40
0.6562500000000853
 40
0.6875000000000894
 40
0.6875000000000894
 40
0.7500000000000715
 40
0.7500000000000715
 40
0.8750000000000357
 40
0.8750000000000357
 40
1.0
 40
1.0
 40
1.0
 40
1.0
 10
376.5110789308133
 20
292.7304096114947
 30
0.0
 10
376.4576465801603
 20
292.6901648756116
 30
0.0
 10
376.4028159587866
 20
292.6528722004675
 30
0.0
 10
376.2902884592717
 20
292.5838644333729
 30
0.0
 10
376.2325932330434
 20
292.5521515929437
 30
0.0
 10
376.1437829665731
 20
292.5087324234455
 30
0.0
 10
376.1137591668927
 20
292.4949352752437
 30
0.0
 10
376.0531088693679
 20
292.4688255871746
 30
0.0
 10
376.0225836782276
 20
292.4565539442956
 30
0.0
 10
375.9303598121814
 20
292.4220479904876
 30
0.0
 10
375.8680164158257
 20
292.4021125869749
 30
0.0
 10
375.7412747041172
 20
292.3684083524398
 30
0.0
 10
375.6768752065406
 20
292.3546388887111
 30
0.0
 10
375.5948194113476
 20
292.3415075739131
 30
0.0
 10
375.5782995132673
 20
292.3390823335601
 30
0.0
 10
375.5452783798526
 20
292.3346738709558
 30
0.0
 10
375.5287790304848
 20
292.3326898621356
 30
0.0
 10
375.4793162647479
 20
292.3273928935373
 30
0.0
 10
375.4463883508257
 20
292.3247348367001
 30
0.0
 10
375.3477519883432
 20
292.3193415990487
 30
0.0
 10
375.2821940852788
 20
292.3191840611682
 30
0.0
 10
375.1514261156136
 20
292.3256052706785
 30
0.0
 10
375.0862142045743
 20
292.3321812439273
 30
0.0
 10
375.0211115031369
 20
292.3421250454205
 30
0.0
  0
SPLINE
  5
1A5
330
1F
100
AcDbEntity
  8
1
100
AcDbSpline
210
0.0
220
0.0
230
1.0
 70
     8
 71
     3
 72
     8
 73
     4
 74
     0
 42
0.000000001
 43
0.0000000001
 40
0.0
 40
0.0
 40
0.0
 40
0.0
 40
1.0
 40
1.0
 40
1.0
 40
1.0
 10
375.0209378434617
 20
292.132754555575
 30
0.0
 10
375.0243994373407
 20
292.1329064589569
 30
0.0
 10
375.027861837268
 20
292.133057908104
 30
0.0
 10
375.0313250443749
 20
292.1332089023786
 30
0.0
  0
SPLINE
  5
1A6
330
1F
100
AcDbEntity
  8
1
100
AcDbSpline
210
0.0
220
0.0
230
1.0
 70
     8
 71
     3
 72
    28
 73
    24
 74
     0
 42
0.000000001
 43
0.0000000001
 40
0.0
 40
0.0
 40
0.0
 40
0.0
 40
0.1139520971915624
 40
0.1139520971915624
 40
0.1772412331064514
 40
0.1772412331064514
 40
0.2405303690213404
 40
0.2405303690213404
 40
0.3038195049362294
 40
0.3038195049362294
 40
0.3354640728936737
 40
0.3354640728936737
 40
0.3671086408511183
 40
0.3671086408511183
 40
0.4936869126808946
 40
0.4936869126808946
 40
0.620265184510671
 40
0.620265184510671
 40
0.7468434563404473
 40
0.7468434563404473
 40
0.8734217281702235
 40
0.8734217281702235
 40
1.0
 40
1.0
 40
1.0
 40
1.0
 10
332.1704214531136
 20
277.8774184265588
 30
0.0
 10
331.2586724632443
 20
277.7131436369696
 30
0.0
 10
330.3470219373954
 20
277.5553328753204
 30
0.0
 10
328.9284938246578
 20
277.3213833500243
 30
0.0
 10
328.4218536112018
 20
277.2401330340271
 30
0.0
 10
327.4081271234051
 20
277.0825718575034
 30
0.0
 10
326.9010179322143
 20
277.0062981851385
 30
0.0
 10
325.8862264953801
 20
276.8588389470899
 30
0.0
 10
325.378567567642
 20
276.7876131064455
 30
0.0
 10
324.6167456958095
 20
276.6844075111735
 30
0.0
 10
324.3627492848158
 20
276.6506118513945
 30
0.0
 10
323.8546524052368
 20
276.5842204945399
 30
0.0
 10
323.6005724543881
 20
276.5516276501207
 30
0.0
 10
322.3305500766558
 20
276.3917208796595
 30
0.0
 10
321.3152908238542
 20
276.2734764610255
 30
0.0
 10
319.2863312889079
 20
276.0564203397952
 30
0.0
 10
318.2726318213497
 20
275.9576288978704
 30
0.0
 10
316.2462977756834
 20
275.7803172680349
 30
0.0
 10
315.2336598709283
 20
275.7018190981224
 30
0.0
 10
313.2084489157709
 20
275.5660164408239
 30
0.0
 10
312.1958699167906
 20
275.508729652948
 30
0.0
 10
310.1694165542817
 20
275.4157381069913
 30
0.0
 10
309.1555355050388
 20
275.3800429989726
 30
0.0
 10
308.1402449544075
 20
275.3548551009599
 30
0.0
  0
SPLINE
  5
1A7
330
1F
100
AcDbEntity
  8
1
100
AcDbSpline
210
0.0
220
0.0
230
1.0
 70
     8
 71
     3
 72
    10
 73
     6
 74
     0
 42
0.000000001
 43
0.0000000001
 40
0.0
 40
0.0
 40
0.0
 40
0.0
 40
0.2260896926425205
 40
0.2260896926425205
 40
1.0
 40
1.0
 40
1.0
 40
1.0
 10
373.9868535273568
 20
302.3585122747671
 30
0.0
 10
373.984217661328
 20
302.3599011929537
 30
0.0
 10
373.9818384771158
 20
302.3612941115644
 30
0.0
 10
373.9725354906584
 20
302.3674299115106
 30
0.0
 10
373.9684802002738
 20
302.3721278155378
 30
0.0
 10
373.9676265284328
 20
302.3767664724107
 30
0.0
  0
SPLINE
  5
1A8
330
1F
100
AcDbEntity
  8
1
100
AcDbSpline
210
0.0
220
0.0
230
1.0
 70
     8
 71
     3
 72
    14
 73
    10
 74
     0
 42
0.000000001
 43
0.0000000001
 40
0.0
 40
0.0
 40
0.0
 40
0.0
 40
0.25
 40
0.25
 40
0.5
 40
0.5
 40
0.75
 40
0.75
 40
1.0
 40
1.0
 40
1.0
 40
1.0
 10
308.1402449544078
 20
275.354855100959
 30
0.0
 10
309.082691418674
 20
275.4698921629591
 30
0.0
 10
310.0228153603049
 20
275.6001964911109
 30
0.0
 10
311.9007660410947
 20
275.8898861211388
 30
0.0
 10
312.8386017698255
 20
276.0492612579859
 30
0.0
 10
314.7144002070632
 20
276.3938798634284
 30
0.0
 10
315.6523756900491
 20
276.5790881302947
 30
0.0
 10
317.530618772003
 20
276.9710191489107
 30
0.0
 10
318.4709037937476
 20
277.1776554538017
 30
0.0
 10
319.4130632926326
 20
277.3931510931286
 30
0.0
  0
SPLINE
  5
1A9
330
1F
100
AcDbEntity
  8
1
100
AcDbSpline
210
0.0
220
0.0
230
1.0
 70
     8
 71
     3
 72
    16
 73
    12
 74
     0
 42
0.000000001
 43
0.0000000001
 40
0.0
 40
0.0
 40
0.0
 40
0.0
 40
0.2065049108470374
 40
0.2065049108470374
 40
0.4130098216940747
 40
0.4130098216940747
 40
0.6195147325411121
 40
0.6195147325411121
 40
0.8260196433881494
 40
0.8260196433881494
 40
1.0
 40
1.0
 40
1.0
 40
1.0
 10
319.4130632926326
 20
277.3931510931286
 30
0.0
 10
319.8989119528143
 20
277.5045138747384
 30
0.0
 10
320.3858746422493
 20
277.6147742730449
 30
0.0
 10
321.3620511310044
 20
277.8320252176355
 30
0.0
 10
321.851262442024
 20
277.9390180468051
 30
0.0
 10
322.8317040348081
 20
278.1496756358727
 30
0.0
 10
323.322931383185
 20
278.2533471818107
 30
0.0
 10
324.30700485196
 20
278.4581735649336
 30
0.0
 10
324.7998483135405
 20
278.5593367973695
 30
0.0
 10
325.708959648819
 20
278.7447402144867
 30
0.0
 10
326.1250611145127
 20
278.8291418632399
 30
0.0
 10
326.5414186964589
 20
278.9137079149727
 30
0.0
  0
SPLINE
  5
1AA
330
1F
100
AcDbEntity
  8
1
100
AcDbSpline
210
0.0
220
0.0
230
1.0
 70
    12
 71
     3
 72
     9
 73
     5
 74
     0
 42
0.000000001
 43
0.0000000001
 40
0.0
 40
0.0
 40
0.0
 40
0.0
 40
0.8117721639389955
 40
1.0
 40
1.0
 40
1.0
 40
1.0
 10
319.4130632926326
 20
277.3931510931286
 30
0.0
 41
1.00133349536735
 10
322.0014150799146
 20
277.6306175051172
 30
0.0
 41
1.001377586113854
 10
325.1497928331515
 20
277.9478617772486
 30
0.0
 41
1.001533213819435
 10
328.3408828680892
 20
278.3682032471681
 30
0.0
 41
1.001564446675984
 10
328.9428045469601
 20
278.4517206672843
 30
0.0
 41
1.001567013892035
  0
SPLINE
  5
1AB
330
1F
100
AcDbEntity
  8
1
100
AcDbSpline
210
0.0
220
0.0
230
1.0
 70
     8
 71
     3
 72
    49
 73
    45
 74
     0
 42
0.000000001
 43
0.0000000001
 40
0.0
 40
0.0
 40
0.0
 40
0.0
 40
0.031249999999998
 40
0.031249999999998
 40
0.0624999999999959
 40
0.0624999999999959
 40
0.1249999999999933
 40
0.1249999999999933
 40
0.1874999999999906
 40
0.1874999999999906
 40
0.249999999999988
 40
0.249999999999988
 40
0.3124999999999853
 40
0.3124999999999853
 40
0.3437499999999849
 40
0.3437499999999849
 40
0.3749999999999846
 40
0.3749999999999846
 40
0.4374999999999855
 40
0.4374999999999855
 40
0.4687499999999867
 40
0.4687499999999867
 40
0.499999999999988
 40
0.499999999999988
 40
0.5624999999999906
 40
0.5624999999999906
 40
0.6249999999999933
 40
0.6249999999999933
 40
0.6874999999999958
 40
0.6874999999999958
 40
0.7187499999999965
 40
0.7187499999999965
 40
0.7499999999999972
 40
0.7812499999999978
 40
0.7812499999999978
 40
0.8124999999999984
 40
0.8124999999999984
 40
0.8749999999999996
 40
0.8749999999999996
 40
0.9062499999999992
 40
0.9062499999999992
 40
0.9374999999999989
 40
0.9374999999999989
 40
1.0
 40
1.0
 40
1.0
 40
1.0
 10
381.623694043332
 20
284.1454935137215
 30
0.0
 10
381.6243269947034
 20
284.1240092903568
 30
0.0
 10
381.6250905903573
 20
284.1030509070161
 30
0.0
 10
381.6268792936428
 20
284.0621867196151
 30
0.0
 10
381.6279059720645
 20
284.0422560564583
 30
0.0
 10
381.6313694601968
 20
283.9842529902064
 30
0.0
 10
381.6341838469413
 20
283.9480122802224
 30
0.0
 10
381.6408150424015
 20
283.8803466638445
 30
0.0
 10
381.6446414395348
 20
283.8488849123545
 30
0.0
 10
381.6532202774018
 20
283.7914462531247
 30
0.0
 10
381.6579788010628
 20
283.7653816257975
 30
0.0
 10
381.6684392152366
 20
283.7185909618515
 30
0.0
 10
381.6741077492151
 20
283.6980215148813
 30
0.0
 10
381.6832422406665
 20
283.6714384231379
 30
0.0
 10
381.6863935485659
 20
283.6632861672311
 30
0.0
 10
381.692910361096
 20
283.6484074715646
 30
0.0
 10
381.6962744198861
 20
283.6416880558942
 30
0.0
 10
381.7066226694809
 20
283.6237910905731
 30
0.0
 10
381.7138824883405
 20
283.6148200467312
 30
0.0
 10
381.7253097690681
 20
283.6057716832343
 30
0.0
 10
381.7292086280886
 20
283.6034916841822
 30
0.0
 10
381.7371873175058
 20
283.6004157430236
 30
0.0
 10
381.7412738419769
 20
283.5996202744953
 30
0.0
 10
381.7537549654081
 20
283.5994926581235
 30
0.0
 10
381.7623590822307
 20
283.6024018257398
 30
0.0
 10
381.7801319316349
 20
283.6141862503289
 30
0.0
 10
381.7893218198292
 20
283.6230990377532
 30
0.0
 10
381.8080797130664
 20
283.6467575524149
 30
0.0
 10
381.8176652511581
 20
283.6615030523192
 30
0.0
 10
381.8323560900811
 20
283.6880329968316
 30
0.0
 10
381.8373033908349
 20
283.697611953478
 30
0.0
 10
381.8472471269839
 20
283.7181387341507
 30
0.0
 10
381.8572535391007
 20
283.7400579495929
 30
0.0
 10
381.8673851180792
 20
283.7647579228935
 30
0.0
 10
381.8775796809325
 20
283.7908571715516
 30
0.0
 10
381.8827149818389
 20
283.804625754603
 30
0.0
 10
381.898138183571
 20
283.8478343181162
 30
0.0
 10
381.9084594252806
 20
283.8792068538962
 30
0.0
 10
381.9240000182887
 20
283.9301204667254
 30
0.0
 10
381.9291962878402
 20
283.9477576091853
 30
0.0
 10
381.9395782225287
 20
283.9842276218447
 30
0.0
 10
381.9447568233045
 20
284.0030339882516
 30
0.0
 10
381.9602557219114
 20
284.0611581127931
 30
0.0
 10
381.9705392144588
 20
284.102176348281
 30
0.0
 10
381.9807729487615
 20
284.1454935137008
 30
0.0
  0
SPLINE
  5
1AC
330
1F
100
AcDbEntity
  8
1
100
AcDbSpline
210
0.0
220
0.0
230
1.0
 70
     8
 71
     3
 72
   118
 73
   114
 74
     0
 42
0.000000001
 43
0.0000000001
 40
0.0
 40
0.0
 40
0.0
 40
0.0
 40
0.0312500000000012
 40
0.0312500000000012
 40
0.0468750000000015
 40
0.0468750000000015
 40
0.0625000000000019
 40
0.0625000000000019
 40
0.0781250000000022
 40
0.0781250000000022
 40
0.0937500000000026
 40
0.0937500000000026
 40
0.109375000000003
 40
0.109375000000003
 40
0.1250000000000033
 40
0.1250000000000033
 40
0.1406250000000037
 40
0.1406250000000037
 40
0.156250000000004
 40
0.1718750000000044
 40
0.1718750000000044
 40
0.1875000000000047
 40
0.1875000000000047
 40
0.2031250000000051
 40
0.2031250000000051
 40
0.2109375000000052
 40
0.2109375000000052
 40
0.2187500000000053
 40
0.2187500000000053
 40
0.2500000000000062
 40
0.2500000000000062
 40
0.2656250000000066
 40
0.2656250000000066
 40
0.2734375000000066
 40
0.2734375000000066
 40
0.2812500000000067
 40
0.2812500000000067
 40
0.3125000000000063
 40
0.3125000000000063
 40
0.3281250000000057
 40
0.3281250000000057
 40
0.3437500000000051
 40
0.3437500000000051
 40
0.3593750000000045
 40
0.3593750000000045
 40
0.3750000000000038
 40
0.3750000000000038
 40
0.3906250000000032
 40
0.3906250000000032
 40
0.4062500000000026
 40
0.4218750000000019
 40
0.4218750000000019
 40
0.4375000000000013
 40
0.4375000000000013
 40
0.4531250000000007
 40
0.4531250000000007
 40
0.46875
 40
0.46875
 40
0.4843749999999992
 40
0.4843749999999992
 40
0.4999999999999986
 40
0.4999999999999986
 40
0.5312499999999981
 40
0.5312499999999981
 40
0.5624999999999975
 40
0.5624999999999975
 40
0.5781249999999975
 40
0.5781249999999975
 40
0.5937499999999975
 40
0.5937499999999975
 40
0.6093749999999976
 40
0.6093749999999976
 40
0.6249999999999976
 40
0.6249999999999976
 40
0.6406249999999977
 40
0.6406249999999977
 40
0.6562499999999977
 40
0.6718749999999977
 40
0.6718749999999977
 40
0.6874999999999978
 40
0.6874999999999978
 40
0.7031249999999978
 40
0.7031249999999978
 40
0.7187499999999979
 40
0.7187499999999979
 40
0.7343749999999979
 40
0.7343749999999979
 40
0.7499999999999979
 40
0.7499999999999979
 40
0.7656249999999979
 40
0.7656249999999979
 40
0.7812499999999979
 40
0.7812499999999979
 40
0.8124999999999984
 40
0.8124999999999984
 40
0.8437499999999985
 40
0.8437499999999985
 40
0.8593749999999987
 40
0.8593749999999987
 40
0.8749999999999989
 40
0.8749999999999989
 40
0.8906249999999991
 40
0.8906249999999991
 40
0.9062499999999992
 40
0.9062499999999992
 40
0.9374999999999998
 40
0.9374999999999998
 40
0.953125
 40
0.953125
 40
0.96875
 40
0.984375
 40
0.984375
 40
1.0
 40
1.0
 40
1.0
 40
1.0
 10
381.9807729487615
 20
284.1454935137008
 30
0.0
 10
381.9888269635105
 20
284.2078904152721
 30
0.0
 10
381.9961919450732
 20
284.274235432402
 30
0.0
 10
382.0062048742357
 20
284.3796808235642
 30
0.0
 10
382.0093570126386
 20
284.4156980042324
 30
0.0
 10
382.015269227517
 20
284.4891804637592
 30
0.0
 10
382.0180333342861
 20
284.5266877742055
 30
0.0
 10
382.0231761730632
 20
284.6032400363998
 30
0.0
 10
382.0255542329833
 20
284.6422953978489
 30
0.0
 10
382.0298855526602
 20
284.721303611815
 30
0.0
 10
382.0318444310296
 20
284.7613347898643
 30
0.0
 10
382.0353491632014
 20
284.8424499158273
 30
0.0
 10
382.0368971017655
 20
284.8836139171337
 30
0.0
 10
382.0395567420884
 20
284.9664176271381
 30
0.0
 10
382.0406709768164
 20
285.0080942982078
 30
0.0
 10
382.0424708299267
 20
285.0919940161247
 30
0.0
 10
382.0431571301177
 20
285.1342874028578
 30
0.0
 10
382.0440934333263
 20
285.2190882950067
 30
0.0
 10
382.0445931113338
 20
285.3039246829564
 30
0.0
 10
382.044228425319
 20
285.3888313400826
 30
0.0
 10
382.0434290812043
 20
285.4737733330925
 30
0.0
 10
382.0428139095349
 20
285.516047066823
 30
0.0
 10
382.0411596769441
 20
285.6000906968656
 30
0.0
 10
382.0401204350103
 20
285.6418795124037
 30
0.0
 10
382.0382428242293
 20
285.7042126220142
 30
0.0
 10
382.0375627519577
 20
285.7249578777338
 30
0.0
 10
382.0361037655338
 20
285.7661101249
 30
0.0
 10
382.0353244077629
 20
285.7865365724487
 30
0.0
 10
382.0311822005298
 20
285.8879321497178
 30
0.0
 10
382.027086911367
 20
285.9667027506202
 30
0.0
 10
382.0197989723392
 20
286.0814217450037
 30
0.0
 10
382.0171780739135
 20
286.1190863371215
 30
0.0
 10
382.0129560410123
 20
286.1747106894072
 30
0.0
 10
382.0115002025673
 20
286.1931065776411
 30
0.0
 10
382.0084904055999
 20
286.2296038318195
 30
0.0
 10
382.0069340564883
 20
286.2477311732632
 30
0.0
 10
381.9989406274245
 20
286.3372084467684
 30
0.0
 10
381.9918694391579
 20
286.4051696779057
 30
0.0
 10
381.9802517820107
 20
286.5017009434742
 30
0.0
 10
381.976221474468
 20
286.5328719470621
 30
0.0
 10
381.9678805238218
 20
286.5929687392508
 30
0.0
 10
381.9635650721117
 20
286.6219348957713
 30
0.0
 10
381.9546435972765
 20
286.6776981115464
 30
0.0
 10
381.9500319571849
 20
286.7045188283312
 30
0.0
 10
381.9405864552678
 20
286.7555818844637
 30
0.0
 10
381.9357451715378
 20
286.7798751514047
 30
0.0
 10
381.9258259024111
 20
286.8259889642907
 30
0.0
 10
381.9207384988491
 20
286.8478456417316
 30
0.0
 10
381.9103720637301
 20
286.8888644682069
 30
0.0
 10
381.8998272299672
 20
286.9271511005331
 30
0.0
 10
381.8889274600896
 20
286.9600018486296
 30
0.0
 10
381.877848370694
 20
286.9901062992921
 30
0.0
 10
381.8722430197774
 20
287.0037181287147
 30
0.0
 10
381.8609266843133
 20
287.0280190556043
 30
0.0
 10
381.8552116955581
 20
287.0387191129651
 30
0.0
 10
381.8436673260813
 20
287.0571992731396
 30
0.0
 10
381.8378346622484
 20
287.0649759694219
 30
0.0
 10
381.8261455368737
 20
287.0774720115266
 30
0.0
 10
381.8202779526913
 20
287.0822118027654
 30
0.0
 10
381.8084966251123
 20
287.0886673112738
 30
0.0
 10
381.8025710926714
 20
287.0903817246515
 30
0.0
 10
381.7848248800142
 20
287.0909126536393
 30
0.0
 10
381.7730415427314
 20
287.0851712347538
 30
0.0
 10
381.749575179388
 20
287.0613527902708
 30
0.0
 10
381.7380321374348
 20
287.0434186331948
 30
0.0
 10
381.7210036667162
 20
287.0074520274486
 30
0.0
 10
381.7153798340015
 20
286.993947750094
 30
0.0
 10
381.7043189381482
 20
286.9641086660159
 30
0.0
 10
381.6988705623378
 20
286.9477514716409
 30
0.0
 10
381.6881387512144
 20
286.9121478301057
 30
0.0
 10
381.6828463969703
 20
286.8928613008339
 30
0.0
 10
381.6725059910125
 20
286.8516590402606
 30
0.0
 10
381.6674508561744
 20
286.8297260018415
 30
0.0
 10
381.6575707378467
 20
286.7831959343409
 30
0.0
 10
381.6527374431153
 20
286.7585520928787
 30
0.0
 10
381.6433456577816
 20
286.7067869954153
 30
0.0
 10
381.6342446378897
 20
286.6526486647119
 30
0.0
 10
381.6257223369484
 20
286.5937868185799
 30
0.0
 10
381.6174926738706
 20
286.532536456463
 30
0.0
 10
381.6135470848114
 20
286.5008861107614
 30
0.0
 10
381.6059992195837
 20
286.4356154541718
 30
0.0
 10
381.6023956004825
 20
286.4019851484055
 30
0.0
 10
381.5955311483961
 20
286.3327219684465
 30
0.0
 10
381.5922747190125
 20
286.2971205223461
 30
0.0
 10
381.5861579330758
 20
286.2244937827504
 30
0.0
 10
381.5832906519308
 20
286.1874008083774
 30
0.0
 10
381.5779388300142
 20
286.1116535425928
 30
0.0
 10
381.5754515289043
 20
286.072938571282
 30
0.0
 10
381.5708995588176
 20
285.9945438465469
 30
0.0
 10
381.5688299638024
 20
285.9548046429414
 30
0.0
 10
381.565102098723
 20
285.8742463733817
 30
0.0
 10
381.5634411351512
 20
285.8333444271342
 30
0.0
 10
381.5591053932478
 20
285.7096737194928
 30
0.0
 10
381.5570736462411
 20
285.6260238688876
 30
0.0
 10
381.5547309559288
 20
285.4566083728557
 30
0.0
 10
381.5544318734796
 20
285.3717715743591
 30
0.0
 10
381.5552798341102
 20
285.244324548136
 30
0.0
 10
381.5557795971903
 20
285.2019040755902
 30
0.0
 10
381.5572037670401
 20
285.1176370827171
 30
0.0
 10
381.5581285465449
 20
285.07572286076
 30
0.0
 10
381.5604032756842
 20
284.9923327399987
 30
0.0
 10
381.5617564351624
 20
284.9508079023906
 30
0.0
 10
381.564853017159
 20
284.8691533481598
 30
0.0
 10
381.5665990465944
 20
284.8289045536177
 30
0.0
 10
381.5724175197654
 20
284.7098560823198
 30
0.0
 10
381.5770674291676
 20
284.6327457777956
 30
0.0
 10
381.5852020788702
 20
284.5204732665986
 30
0.0
 10
381.5881094361812
 20
284.4835959479368
 30
0.0
 10
381.5943146577252
 20
284.4110904798575
 30
0.0
 10
381.6008626512812
 20
284.3403854591184
 30
0.0
 10
381.6080880226005
 20
284.2732384388823
 30
0.0
 10
381.6156533175885
 20
284.207876904751
 30
0.0
 10
381.6196039731041
 20
284.1761168019576
 30
0.0
 10
381.6236940433299
 20
284.1454935137215
 30
0.0
  0
SPLINE
  5
1AD
330
1F
100
AcDbEntity
  8
1
100
AcDbSpline
210
0.0
220
0.0
230
1.0
 70
     8
 71
     3
 72
     8
 73
     4
 74
     0
 42
0.000000001
 43
0.0000000001
 40
0.0
 40
0.0
 40
0.0
 40
0.0
 40
1.0
 40
1.0
 40
1.0
 40
1.0
 10
292.6038318185192
 20
275.5299539852671
 30
0.0
 10
292.360197691793
 20
275.5418886810903
 30
0.0
 10
292.1186134856295
 20
275.5491937919894
 30
0.0
 10
291.8788856994718
 20
275.5523063238064
 30
0.0
  0
SPLINE
  5
1AE
330
1F
100
AcDbEntity
  8
1
100
AcDbSpline
210
0.0
220
0.0
230
1.0
 70
     8
 71
     3
 72
    34
 73
    30
 74
     0
 42
0.000000001
 43
0.0000000001
 40
0.0
 40
0.0
 40
0.0
 40
0.0
 40
0.1250000000000484
 40
0.1250000000000484
 40
0.2500000000000969
 40
0.2500000000000969
 40
0.3125000000001305
 40
0.3125000000001305
 40
0.3750000000001641
 40
0.3750000000001641
 40
0.4375000000001977
 40
0.4375000000001977
 40
0.5000000000002313
 40
0.5000000000002313
 40
0.5625000000002648
 40
0.5625000000002648
 40
0.5937500000002717
 40
0.5937500000002717
 40
0.6250000000002786
 40
0.6875000000002959
 40
0.6875000000002959
 40
0.7187500000002851
 40
0.7187500000002851
 40
0.7500000000002744
 40
0.8125000000002062
 40
0.8125000000002062
 40
0.8750000000001382
 40
0.8750000000001382
 40
1.0
 40
1.0
 40
1.0
 40
1.0
 10
368.2010789839821
 20
293.8668998157179
 30
0.0
 10
368.1872575695775
 20
293.8849054516762
 30
0.0
 10
368.1745845376799
 20
293.9035137570808
 30
0.0
 10
368.1521148004817
 20
293.9422339093377
 30
0.0
 10
368.1423047781215
 20
293.9623390586932
 30
0.0
 10
368.1305299386042
 20
293.9940235610482
 30
0.0
 10
368.1270946972226
 20
294.0048802940792
 30
0.0
 10
368.1215253657506
 20
294.0268330940678
 30
0.0
 10
368.1193744697568
 20
294.0379619723748
 30
0.0
 10
368.1165614407721
 20
294.0605746257235
 30
0.0
 10
368.1158974712
 20
294.0720579918354
 30
0.0
 10
368.1163812172133
 20
294.0954522297009
 30
0.0
 10
368.1175326149104
 20
294.107175056876
 30
0.0
 10
368.1218564353772
 20
294.1304857789372
 30
0.0
 10
368.1250280742213
 20
294.1421017975003
 30
0.0
 10
368.1315203735805
 20
294.1594539578487
 30
0.0
 10
368.1339765256729
 20
294.1652202187947
 30
0.0
 10
368.1393812085752
 20
294.1764829286629
 30
0.0
 10
368.1482593672864
 20
294.1930645199138
 30
0.0
 10
368.1594213812675
 20
294.2087179141351
 30
0.0
 10
368.1720949312754
 20
294.223753437231
 30
0.0
 10
368.1765912345716
 20
294.2286796904147
 30
0.0
 10
368.1859186602214
 20
294.2381598691385
 30
0.0
 10
368.2004507968173
 20
294.251875458061
 30
0.0
 10
368.2164835623095
 20
294.264189428315
 30
0.0
 10
368.2390344432719
 20
294.2795092098947
 30
0.0
 10
368.2507929186853
 20
294.2865425137609
 30
0.0
 10
368.2867838966215
 20
294.3058085602032
 30
0.0
 10
368.3119335652309
 20
294.3163761900935
 30
0.0
 10
368.3379196717051
 20
294.3252948847226
 30
0.0
  0
SPLINE
  5
1AF
330
1F
100
AcDbEntity
  8
1
100
AcDbSpline
210
0.0
220
0.0
230
1.0
 70
     8
 71
     3
 72
    21
 73
    17
 74
     0
 42
0.000000001
 43
0.0000000001
 40
0.0
 40
0.0
 40
0.0
 40
0.0
 40
0.1250000000000012
 40
0.2500000000000023
 40
0.3750000000000035
 40
0.3750000000000035
 40
0.5000000000000049
 40
0.5000000000000049
 40
0.562500000000005
 40
0.562500000000005
 40
0.6250000000000052
 40
0.6250000000000052
 40
0.7500000000000035
 40
0.8750000000000015
 40
0.8750000000000015
 40
1.0
 40
1.0
 40
1.0
 40
1.0
 10
279.4048419452957
 20
281.1717319945811
 30
0.0
 10
279.2734502223828
 20
281.0544624598597
 30
0.0
 10
279.0220434391291
 20
280.8129156273323
 30
0.0
 10
278.6781176471599
 20
280.4307987301087
 30
0.0
 10
278.4707482965899
 20
280.1633976764077
 30
0.0
 10
278.2744369637541
 20
279.8898120554842
 30
0.0
 10
278.1818095402119
 20
279.7499271795008
 30
0.0
 10
278.0513997231237
 20
279.5354736200839
 30
0.0
 10
278.0092913364862
 20
279.4630944196222
 30
0.0
 10
277.9286252773576
 20
279.3179770708352
 30
0.0
 10
277.8899922429345
 20
279.2451252941298
 30
0.0
 10
277.7791326500353
 20
279.0257385199656
 30
0.0
 10
277.6447428441993
 20
278.7310100482462
 30
0.0
 10
277.5369423783459
 20
278.4322530929891
 30
0.0
 10
277.4425615446484
 20
278.1316112970266
 30
0.0
 10
277.4020800848564
 20
277.9803481013873
 30
0.0
 10
277.3685042405017
 20
277.8281742250823
 30
0.0
  0
SPLINE
  5
1B0
330
1F
100
AcDbEntity
  8
1
100
AcDbSpline
210
0.0
220
0.0
230
1.0
 70
    28
 71
     3
 72
     8
 73
     4
 74
     0
 42
0.000000001
 43
0.0000000001
 40
0.0
 40
0.0
 40
0.0
 40
0.0
 40
1.0
 40
1.0
 40
1.0
 40
1.0
 10
297.9048419452959
 20
284.4701841590626
 30
0.0
 41
1.0
 10
297.9048419452959
 20
284.5094492918917
 30
0.0
 41
0.9973242895782263
 10
297.9048419452959
 20
284.5485445220778
 30
0.0
 41
0.9946852448718123
 10
297.9048419452959
 20
284.5874641590627
 30
0.0
 41
0.9920828658807579
  0
SPLINE
  5
1B1
330
1F
100
AcDbEntity
  8
1
100
AcDbSpline
210
0.0
220
0.0
230
1.0
 70
     8
 71
     3
 72
    24
 73
    20
 74
     0
 42
0.000000001
 43
0.0000000001
 40
0.0
 40
0.0
 40
0.0
 40
0.0
 40
0.1249999999999996
 40
0.2499999999999992
 40
0.2499999999999992
 40
0.3749999999999988
 40
0.3749999999999988
 40
0.4999999999999986
 40
0.4999999999999986
 40
0.5624999999999983
 40
0.5624999999999983
 40
0.5937499999999983
 40
0.5937499999999983
 40
0.6249999999999983
 40
0.7499999999999988
 40
0.7499999999999988
 40
0.8749999999999994
 40
0.8749999999999994
 40
1.0
 40
1.0
 40
1.0
 40
1.0
 10
282.7043368819074
 20
284.3546806436102
 30
0.0
 10
282.8790979497811
 20
284.4733829158458
 30
0.0
 10
283.2378897408627
 20
284.6985744361417
 30
0.0
 10
283.6155720221368
 20
284.8993365265674
 30
0.0
 10
284.0029978922869
 20
285.0876566372629
 30
0.0
 10
284.2015819647906
 20
285.1755969756031
 30
0.0
 10
284.608928859623
 20
285.3385578332008
 30
0.0
 10
284.8176907228316
 20
285.41358043526
 30
0.0
 10
285.1389150132078
 20
285.5158403057707
 30
0.0
 10
285.2473380436805
 20
285.548212044419
 30
0.0
 10
285.4120644703359
 20
285.5940981684843
 30
0.0
 10
285.4672571799552
 20
285.6089292345814
 30
0.0
 10
285.5779761262344
 20
285.6375922607576
 30
0.0
 10
285.8557850256571
 20
285.7067986602258
 30
0.0
 10
286.1386556625124
 20
285.7637105214774
 30
0.0
 10
286.5978000925285
 20
285.8384583341844
 30
0.0
 10
286.8306484664032
 20
285.8676775684785
 30
0.0
 10
287.3030055181926
 20
285.9088942104161
 30
0.0
 10
287.5425148460254
 20
285.9208927537522
 30
0.0
 10
287.7854185415626
 20
285.9236410538624
 30
0.0
  0
SPLINE
  5
1B2
330
1F
100
AcDbEntity
  8
1
100
AcDbSpline
210
0.0
220
0.0
230
1.0
 70
     8
 71
     3
 72
    20
 73
    16
 74
     0
 42
0.000000001
 43
0.0000000001
 40
0.0
 40
0.0
 40
0.0
 40
0.0
 40
0.2499999999999996
 40
0.2499999999999996
 40
0.4999999999999992
 40
0.4999999999999992
 40
0.624999999999999
 40
0.624999999999999
 40
0.7499999999999987
 40
0.7499999999999987
 40
0.8124999999999985
 40
0.8124999999999985
 40
0.8749999999999985
 40
0.8749999999999985
 40
1.0
 40
1.0
 40
1.0
 40
1.0
 10
282.7043368819074
 20
284.3546806436102
 30
0.0
 10
282.4083439399662
 20
284.1536345227457
 30
0.0
 10
282.116921514174
 20
283.9397289797643
 30
0.0
 10
281.5441155674478
 20
283.4819375373298
 30
0.0
 10
281.2627256102171
 20
283.2380808364019
 30
0.0
 10
280.8488236780367
 20
282.8459730189198
 30
0.0
 10
280.712220629705
 20
282.7108738499187
 30
0.0
 10
280.4418715410946
 20
282.4310581935962
 30
0.0
 10
280.3081250060644
 20
282.286344364614
 30
0.0
 10
280.1097639349959
 20
282.0612984264199
 30
0.0
 10
280.0440202879716
 20
281.9849521447562
 30
0.0
 10
279.913309808837
 20
281.8294438073202
 30
0.0
 10
279.8483212030871
 20
281.7502547269754
 30
0.0
 10
279.6546958275365
 20
281.5083677206007
 30
0.0
 10
279.5283340951092
 20
281.342531974871
 30
0.0
 10
279.4048419452957
 20
281.1717319945811
 30
0.0
  0
SPLINE
  5
1B3
330
1F
100
AcDbEntity
  8
1
100
AcDbSpline
210
0.0
220
0.0
230
1.0
 70
     8
 71
     3
 72
    22
 73
    18
 74
     0
 42
0.000000001
 43
0.0000000001
 40
0.0
 40
0.0
 40
0.0
 40
0.0
 40
0.125
 40
0.125
 40
0.25
 40
0.25
 40
0.375
 40
0.375
 40
0.5
 40
0.5
 40
0.625
 40
0.625
 40
0.75
 40
0.75
 40
0.875
 40
0.875
 40
1.0
 40
1.0
 40
1.0
 40
1.0
 10
377.9552622508429
 20
296.8229176000091
 30
0.0
 10
377.9526376914766
 20
296.8178264397381
 30
0.0
 10
377.9495999531594
 20
296.8129726762175
 30
0.0
 10
377.942828331666
 20
296.8038935659917
 30
0.0
 10
377.9390825227259
 20
296.7996431123107
 30
0.0
 10
377.9308505508517
 20
296.7917379249126
 30
0.0
 10
377.9263585434831
 20
296.7880926131359
 30
0.0
 10
377.9169218856547
 20
296.7816698140448
 30
0.0
 10
377.9119426857847
 20
296.7788554564399
 30
0.0
 10
377.9014407515572
 20
296.7740568856248
 30
0.0
 10
377.8959352183072
 20
296.7720921391773
 30
0.0
 10
377.8847599143875
 20
296.7691662838081
 30
0.0
 10
377.8790444456433
 20
296.7681819776146
 30
0.0
 10
377.8673442940768
 20
296.767226943492
 30
0.0
 10
377.8614485451266
 20
296.7672709083147
 30
0.0
 10
377.8498134618084
 20
296.7683940239635
 30
0.0
 10
377.8440357993932
 20
296.7694691875699
 30
0.0
 10
377.8383009247522
 20
296.7710913402489
 30
0.0
  0
SPLINE
  5
1B4
330
1F
100
AcDbEntity
  8
1
100
AcDbSpline
210
0.0
220
0.0
230
1.0
 70
     8
 71
     3
 72
    20
 73
    16
 74
     0
 42
0.000000001
 43
0.0000000001
 40
0.0
 40
0.0
 40
0.0
 40
0.0
 40
0.1249999999999875
 40
0.1249999999999875
 40
0.2499999999999749
 40
0.2499999999999749
 40
0.3749999999999623
 40
0.3749999999999623
 40
0.4999999999999499
 40
0.4999999999999499
 40
0.6249999999999374
 40
0.6249999999999374
 40
0.7499999999999247
 40
0.7499999999999247
 40
1.0
 40
1.0
 40
1.0
 40
1.0
 10
378.6229841308491
 20
296.597421406616
 30
0.0
 10
378.6170991851379
 20
296.5983706109208
 30
0.0
 10
378.6114005284129
 20
296.5998359021476
 30
0.0
 10
378.6003561930962
 20
296.603742511144
 30
0.0
 10
378.5949606161683
 20
296.6062155068933
 30
0.0
 10
378.5848132784514
 20
296.6120057231316
 30
0.0
 10
378.5800701233557
 20
296.6153031566191
 30
0.0
 10
378.5712127327601
 20
296.6226614233806
 30
0.0
 10
378.5670657246924
 20
296.6267633652673
 30
0.0
 10
378.5595920075421
 20
296.6355541644176
 30
0.0
 10
378.5562850190897
 20
296.6402036081988
 30
0.0
 10
378.5504865968604
 20
296.6499826565645
 30
0.0
 10
378.5479855806245
 20
296.6551383271759
 30
0.0
 10
378.5418103057651
 20
296.6711773120729
 30
0.0
 10
378.5395479727608
 20
296.6822500740336
 30
0.0
 10
378.5391178900887
 20
296.6936958079147
 30
0.0
  0
SPLINE
  5
1B5
330
1F
100
AcDbEntity
  8
1
100
AcDbSpline
210
0.0
220
0.0
230
1.0
 70
     8
 71
     3
 72
    14
 73
    10
 74
     0
 42
0.000000001
 43
0.0000000001
 40
0.0
 40
0.0
 40
0.0
 40
0.0
 40
0.25
 40
0.25
 40
0.5
 40
0.5
 40
0.75
 40
0.75
 40
1.0
 40
1.0
 40
1.0
 40
1.0
 10
377.9552622508433
 20
296.82291760001
 30
0.0
 10
377.9585456000798
 20
296.8292866909147
 30
0.0
 10
377.9624865434318
 20
296.835305828796
 30
0.0
 10
377.9714911378771
 20
296.8463736446072
 30
0.0
 10
377.9765131198737
 20
296.8513892699254
 30
0.0
 10
377.9876096931373
 20
296.8603741403417
 30
0.0
 10
377.9937243854259
 20
296.8643444536719
 30
0.0
 10
378.0065180658954
 20
296.8708261704222
 30
0.0
 10
378.0132539416078
 20
296.8733953206392
 30
0.0
 10
378.020360318596
 20
296.87523490826
 30
0.0
  0
SPLINE
  5
1B6
330
1F
100
AcDbEntity
  8
1
100
AcDbSpline
210
0.0
220
0.0
230
1.0
 70
     8
 71
     3
 72
    14
 73
    10
 74
     0
 42
0.000000001
 43
0.0000000001
 40
0.0
 40
0.0
 40
0.0
 40
0.0
 40
0.25
 40
0.25
 40
0.5
 40
0.5
 40
0.75
 40
0.75
 40
1.0
 40
1.0
 40
1.0
 40
1.0
 10
378.5023951371192
 20
296.7685485993252
 30
0.0
 10
378.5080521580277
 20
296.7638813427776
 30
0.0
 10
378.5131613505878
 20
296.7586015670368
 30
0.0
 10
378.5220017030188
 20
296.7472789328868
 30
0.0
 10
378.5257588709245
 20
296.7412329396652
 30
0.0
 10
378.5319910148635
 20
296.7283929949886
 30
0.0
 10
378.5344427075884
 20
296.7215957342386
 30
0.0
 10
378.5378511307677
 20
296.7078634824535
 30
0.0
 10
378.5388489199152
 20
296.7008538759501
 30
0.0
 10
378.5391178900887
 20
296.6936958079147
 30
0.0
  0
SPLINE
  5
1B7
330
1F
100
AcDbEntity
  8
1
100
AcDbSpline
210
0.0
220
0.0
230
1.0
 70
     8
 71
     3
 72
    21
 73
    17
 74
     0
 42
0.000000001
 43
0.0000000001
 40
0.0
 40
0.0
 40
0.0
 40
0.0
 40
0.2500000000000112
 40
0.2500000000000112
 40
0.3125000000000138
 40
0.3125000000000138
 40
0.3750000000000167
 40
0.3750000000000167
 40
0.5000000000000162
 40
0.6250000000000158
 40
0.6250000000000158
 40
0.6875000000000118
 40
0.6875000000000118
 40
0.7500000000000079
 40
0.7500000000000079
 40
1.0
 40
1.0
 40
1.0
 40
1.0
 10
377.8383009247522
 20
296.7710913402489
 30
0.0
 10
377.7970497948089
 20
296.7827595344362
 30
0.0
 10
377.7577131590931
 20
296.7990216159541
 30
0.0
 10
377.7109389395918
 20
296.825085669147
 30
0.0
 10
377.7016869560504
 20
296.8306023819836
 30
0.0
 10
377.6836344418102
 20
296.8420952318957
 30
0.0
 10
377.6748109887021
 20
296.8480826315517
 30
0.0
 10
377.6489379854646
 20
296.8667545634498
 30
0.0
 10
377.6160298905913
 20
296.8935386760231
 30
0.0
 10
377.5862782443045
 20
296.9240727820919
 30
0.0
 10
377.5651879276738
 20
296.9484269237613
 30
0.0
 10
377.5583778186345
 20
296.956773479035
 30
0.0
 10
377.5453430165156
 20
296.9737320664636
 30
0.0
 10
377.5390958687101
 20
296.9823694692152
 30
0.0
 10
377.5091871267276
 20
297.0263327648222
 30
0.0
 10
377.4894542750991
 20
297.0639570203491
 30
0.0
 10
377.4740289973808
 20
297.1040998144909
 30
0.0
  0
SPLINE
  5
1B8
330
1F
100
AcDbEntity
  8
1
100
AcDbSpline
210
0.0
220
0.0
230
1.0
 70
     8
 71
     3
 72
    21
 73
    17
 74
     0
 42
0.000000001
 43
0.0000000001
 40
0.0
 40
0.0
 40
0.0
 40
0.0
 40
0.2499999999999404
 40
0.2499999999999404
 40
0.3124999999999456
 40
0.3124999999999456
 40
0.3749999999999508
 40
0.3749999999999508
 40
0.4999999999999605
 40
0.62499999999997
 40
0.62499999999997
 40
0.6874999999999765
 40
0.6874999999999765
 40
0.749999999999983
 40
0.749999999999983
 40
1.0
 40
1.0
 40
1.0
 40
1.0
 10
378.020360318596
 20
296.87523490826
 30
0.0
 10
378.06159305336
 20
296.8859085931169
 30
0.0
 10
378.1035227534745
 20
296.8917529076028
 30
0.0
 10
378.1568957296884
 20
296.8928724012452
 30
0.0
 10
378.1676189183027
 20
296.8927829674733
 30
0.0
 10
378.1891670178902
 20
296.891956590321
 30
0.0
 10
378.2000178235928
 20
296.8912148694835
 30
0.0
 10
378.2322413533112
 20
296.8880367397442
 30
0.0
 10
378.2746198302751
 20
296.8812657994247
 30
0.0
 10
378.3158512934182
 20
296.8695395456838
 30
0.0
 10
378.3463375304423
 20
296.8588547711566
 30
0.0
 10
378.356462377092
 20
296.8549618506816
 30
0.0
 10
378.3763737396617
 20
296.8466107608626
 30
0.0
 10
378.3861424764308
 20
296.8421631665954
 30
0.0
 10
378.4340858700169
 20
296.8186090884406
 30
0.0
 10
378.4695957793577
 20
296.7956093119768
 30
0.0
 10
378.5023951371192
 20
296.7685485993252
 30
0.0
  0
SPLINE
  5
1B9
330
1F
100
AcDbEntity
  8
1
100
AcDbSpline
210
0.0
220
0.0
230
1.0
 70
     8
 71
     3
 72
    10
 73
     6
 74
     0
 42
0.000000001
 43
0.0000000001
 40
0.0
 40
0.0
 40
0.0
 40
0.0
 40
0.7930309521505919
 40
0.7930309521505919
 40
1.0
 40
1.0
 40
1.0
 40
1.0
 10
377.4740289973808
 20
297.1040998144909
 30
0.0
 10
377.471881974079
 20
297.1096872350869
 30
0.0
 10
377.4702692607315
 20
297.1153783508401
 30
0.0
 10
377.4688729549792
 20
297.1226781848348
 30
0.0
 10
377.4686185261938
 20
297.1241997540299
 30
0.0
 10
377.4683989203346
 20
297.1257281266312
 30
0.0
  0
SPLINE
  5
1BA
330
1F
100
AcDbEntity
  8
1
100
AcDbSpline
210
0.0
220
0.0
230
1.0
 70
     8
 71
     3
 72
    21
 73
    17
 74
     0
 42
0.000000001
 43
0.0000000001
 40
0.0
 40
0.0
 40
0.0
 40
0.0
 40
0.2500000000000807
 40
0.2500000000000807
 40
0.3125000000000661
 40
0.3125000000000661
 40
0.3750000000000515
 40
0.3750000000000515
 40
0.5000000000000245
 40
0.6249999999999974
 40
0.6249999999999974
 40
0.6874999999999842
 40
0.6874999999999842
 40
0.7499999999999712
 40
0.7499999999999712
 40
1.0
 40
1.0
 40
1.0
 40
1.0
 10
379.0936210001768
 20
296.7456437733109
 30
0.0
 10
379.0626772178616
 20
296.7157617253254
 30
0.0
 10
379.0287647321556
 20
296.6898499328467
 30
0.0
 10
378.9826659251417
 20
296.6624219443385
 30
0.0
 10
378.9732374512689
 20
296.6571782935826
 30
0.0
 10
378.9542150329126
 20
296.6473132265426
 30
0.0
 10
378.9445998348291
 20
296.6426776303718
 30
0.0
 10
378.9154479257222
 20
296.629645419177
 30
0.0
 10
378.8757638412343
 20
296.6145957021765
 30
0.0
 10
378.8344609647179
 20
296.6041674376665
 30
0.0
 10
378.8028565211703
 20
296.5981372224264
 30
0.0
 10
378.7922369803491
 20
296.596432681591
 30
0.0
 10
378.7710670189281
 20
296.5936644493025
 30
0.0
 10
378.7604834006273
 20
296.592594049224
 30
0.0
 10
378.7075722075579
 20
296.5887824506534
 30
0.0
 10
378.6652647922617
 20
296.5906018049082
 30
0.0
 10
378.6229841308491
 20
296.597421406616
 30
0.0
  0
SPLINE
  5
1BB
330
1F
100
AcDbEntity
  8
1
100
AcDbSpline
210
0.0
220
0.0
230
1.0
 70
     8
 71
     3
 72
    36
 73
    32
 74
     0
 42
0.000000001
 43
0.0000000001
 40
0.0
 40
0.0
 40
0.0
 40
0.0
 40
0.1250000000000616
 40
0.1250000000000616
 40
0.1875000000000861
 40
0.1875000000000861
 40
0.2187500000000983
 40
0.2187500000000983
 40
0.2500000000001106
 40
0.2500000000001106
 40
0.3750000000001263
 40
0.3750000000001263
 40
0.4062500000001175
 40
0.4062500000001175
 40
0.4375000000001086
 40
0.4375000000001086
 40
0.5000000000000875
 40
0.5000000000000875
 40
0.6250000000000739
 40
0.6250000000000739
 40
0.6562500000000711
 40
0.6562500000000711
 40
0.6875000000000683
 40
0.7500000000000608
 40
0.8125000000000532
 40
0.8125000000000532
 40
0.84375000000005
 40
0.84375000000005
 40
0.8750000000000467
 40
0.8750000000000467
 40
1.0
 40
1.0
 40
1.0
 40
1.0
 10
383.2074286938657
 20
302.139957935476
 30
0.0
 10
383.2051557885322
 20
302.1907901754226
 30
0.0
 10
383.1977443395962
 20
302.2405146769888
 30
0.0
 10
383.179398125418
 20
302.3135430333137
 30
0.0
 10
383.1720678439694
 20
302.3376239224524
 30
0.0
 10
383.1592240203577
 20
302.3733467881553
 30
0.0
 10
383.1546205737827
 20
302.3852192872121
 30
0.0
 10
383.1448578162543
 20
302.4086574323618
 30
0.0
 10
383.1397051229834
 20
302.420212664216
 30
0.0
 10
383.1126157707106
 20
302.4771881508398
 30
0.0
 10
383.0867407855178
 20
302.5202301391137
 30
0.0
 10
383.0492212389172
 20
302.5709070662703
 30
0.0
 10
383.0414561043773
 20
302.5808847036742
 30
0.0
 10
383.0253954572161
 20
302.6005196951027
 30
0.0
 10
383.0170845765999
 20
302.6101919434744
 30
0.0
 10
382.9916102311132
 20
302.6384284162434
 30
0.0
 10
382.9738356428669
 20
302.6563075599927
 30
0.0
 10
382.9182023196952
 20
302.7071876933279
 30
0.0
 10
382.8780570552983
 20
302.7374588784401
 30
0.0
 10
382.8239232254789
 20
302.7705794129368
 30
0.0
 10
382.812883080627
 20
302.7769709538704
 30
0.0
 10
382.7906407720927
 20
302.7891367480903
 30
0.0
 10
382.756950007754
 20
302.8065128043273
 30
0.0
 10
382.6991900489589
 20
302.8311839023281
 30
0.0
 10
382.6512769154991
 20
302.8463745507505
 30
0.0
 10
382.6146870526381
 20
302.8560211745818
 30
0.0
 10
382.6023810583928
 20
302.8589451102245
 30
0.0
 10
382.5775450725307
 20
302.8641957708493
 30
0.0
 10
382.5649988289115
 20
302.8665236146119
 30
0.0
 10
382.5022891547241
 20
302.8765406867115
 30
0.0
 10
382.4517619656713
 20
302.8795189854845
 30
0.0
 10
382.400863756893
 20
302.8772998464393
 30
0.0
  0
SPLINE
  5
1BC
330
1F
100
AcDbEntity
  8
1
100
AcDbSpline
210
0.0
220
0.0
230
1.0
 70
     8
 71
     3
 72
    36
 73
    32
 74
     0
 42
0.000000001
 43
0.0000000001
 40
0.0
 40
0.0
 40
0.0
 40
0.0
 40
0.1249999999999932
 40
0.1249999999999932
 40
0.1874999999999898
 40
0.1874999999999898
 40
0.2187499999999881
 40
0.2187499999999881
 40
0.2499999999999864
 40
0.2499999999999864
 40
0.3749999999999176
 40
0.3749999999999176
 40
0.4062499999999217
 40
0.4062499999999217
 40
0.437499999999926
 40
0.437499999999926
 40
0.4999999999999596
 40
0.4999999999999596
 40
0.6250000000000037
 40
0.6250000000000037
 40
0.6562500000000093
 40
0.6562500000000093
 40
0.687500000000015
 40
0.7500000000000072
 40
0.8124999999999996
 40
0.8124999999999996
 40
0.8437500000000003
 40
0.8437500000000003
 40
0.8750000000000007
 40
0.8750000000000007
 40
1.0
 40
1.0
 40
1.0
 40
1.0
 10
374.4309718287903
 20
302.5298161375312
 30
0.0
 10
374.3800680125896
 20
302.5275967540048
 30
0.0
 10
374.3302786209603
 20
302.5202451790279
 30
0.0
 10
374.2571623358533
 20
302.5019977121655
 30
0.0
 10
374.233053717899
 20
302.4947018482919
 30
0.0
 10
374.1972916640827
 20
302.4819119359951
 30
0.0
 10
374.1854064716713
 20
302.4773268920413
 30
0.0
 10
374.161943934702
 20
302.4676014421029
 30
0.0
 10
374.1503770129682
 20
302.4624676339197
 30
0.0
 10
374.093345549862
 20
302.4354738373923
 30
0.0
 10
374.0502666203777
 20
302.4096788802427
 30
0.0
 10
373.9995531701461
 20
302.3722637810296
 30
0.0
 10
373.9895687153399
 20
302.3645197586593
 30
0.0
 10
373.9699210783173
 20
302.3485017879794
 30
0.0
 10
373.9602429953086
 20
302.3402125086635
 30
0.0
 10
373.9319906870585
 20
302.3148029811123
 30
0.0
 10
373.9141031412455
 20
302.2970718181981
 30
0.0
 10
373.8632040881624
 20
302.2415693934911
 30
0.0
 10
373.8329286091259
 20
302.2015122184882
 30
0.0
 10
373.7998134649473
 20
302.1474895656145
 30
0.0
 10
373.7934235506682
 20
302.1364717355767
 30
0.0
 10
373.7812620663182
 20
302.1142736815177
 30
0.0
 10
373.7638940655984
 20
302.0806489109527
 30
0.0
 10
373.7392442118
 20
302.0229970350614
 30
0.0
 10
373.7240788459882
 20
301.9751683468496
 30
0.0
 10
373.7144543675306
 20
301.9386410415604
 30
0.0
 10
373.7115383452423
 20
301.9263557702027
 30
0.0
 10
373.7063045999719
 20
301.9015609646193
 30
0.0
 10
373.7039857726434
 20
301.8890352030489
 30
0.0
 10
373.6940161172212
 20
301.8264263050223
 30
0.0
 10
373.6910834196675
 20
301.775975282311
 30
0.0
 10
373.6933560746241
 20
301.7251486419022
 30
0.0
  0
SPLINE
  5
1BD
330
1F
100
AcDbEntity
  8
1
100
AcDbSpline
210
0.0
220
0.0
230
1.0
 70
     8
 71
     3
 72
    36
 73
    32
 74
     0
 42
0.000000001
 43
0.0000000001
 40
0.0
 40
0.0
 40
0.0
 40
0.0
 40
0.1249999999999684
 40
0.1249999999999684
 40
0.1874999999999568
 40
0.1874999999999568
 40
0.218749999999951
 40
0.218749999999951
 40
0.2499999999999453
 40
0.2499999999999453
 40
0.3749999999999721
 40
0.3749999999999721
 40
0.4062499999999696
 40
0.4062499999999696
 40
0.4374999999999668
 40
0.4374999999999668
 40
0.4999999999999631
 40
0.4999999999999631
 40
0.6249999999999826
 40
0.6249999999999826
 40
0.6562499999999866
 40
0.6562499999999866
 40
0.6874999999999906
 40
0.7499999999999996
 40
0.8125000000000085
 40
0.8125000000000085
 40
0.8437500000000127
 40
0.8437500000000127
 40
0.8750000000000168
 40
0.8750000000000168
 40
1.0
 40
1.0
 40
1.0
 40
1.0
 10
374.0492195682248
 20
293.7664632411705
 30
0.0
 10
374.0514924735584
 20
293.7156310012239
 30
0.0
 10
374.0589039224943
 20
293.6659064996578
 30
0.0
 10
374.0772501366725
 20
293.5928781433327
 30
0.0
 10
374.0845804181212
 20
293.5687972541942
 30
0.0
 10
374.0974242417329
 20
293.5330743884912
 30
0.0
 10
374.1020276883079
 20
293.5212018894343
 30
0.0
 10
374.1117904458361
 20
293.4977637442846
 30
0.0
 10
374.1169431391073
 20
293.4862085124306
 30
0.0
 10
374.14403249138
 20
293.4292330258067
 30
0.0
 10
374.1699074765728
 20
293.3861910375328
 30
0.0
 10
374.2074270231734
 20
293.3355141103762
 30
0.0
 10
374.2151921577133
 20
293.3255364729723
 30
0.0
 10
374.2312528048745
 20
293.3059014815439
 30
0.0
 10
374.2395636854908
 20
293.2962292331721
 30
0.0
 10
374.2650380309774
 20
293.2679927604032
 30
0.0
 10
374.2828126192238
 20
293.2501136166538
 30
0.0
 10
374.3384459423954
 20
293.1992334833187
 30
0.0
 10
374.3785912067922
 20
293.1689622982064
 30
0.0
 10
374.4327250366115
 20
293.1358417637097
 30
0.0
 10
374.4437651814637
 20
293.1294502227761
 30
0.0
 10
374.4660074899979
 20
293.1172844285562
 30
0.0
 10
374.4996982543366
 20
293.0999083723192
 30
0.0
 10
374.5574582131316
 20
293.0752372743185
 30
0.0
 10
374.6053713465915
 20
293.060046625896
 30
0.0
 10
374.6419612094525
 20
293.0504000020647
 30
0.0
 10
374.6542672036976
 20
293.047476066422
 30
0.0
 10
374.6791031895598
 20
293.0422254057972
 30
0.0
 10
374.6916494331791
 20
293.0398975620346
 30
0.0
 10
374.7543591073666
 20
293.029880489935
 30
0.0
 10
374.8048862964193
 20
293.026902191162
 30
0.0
 10
374.8557845051976
 20
293.0291213302071
 30
0.0
  0
SPLINE
  5
1BE
330
1F
100
AcDbEntity
  8
1
100
AcDbSpline
210
0.0
220
0.0
230
1.0
 70
     8
 71
     3
 72
    36
 73
    32
 74
     0
 42
0.000000001
 43
0.0000000001
 40
0.0
 40
0.0
 40
0.0
 40
0.0
 40
0.124999999999986
 40
0.124999999999986
 40
0.1874999999999791
 40
0.1874999999999791
 40
0.2187499999999752
 40
0.2187499999999752
 40
0.2499999999999714
 40
0.2499999999999714
 40
0.3749999999998966
 40
0.3749999999998966
 40
0.4062499999998987
 40
0.4062499999998987
 40
0.4374999999999007
 40
0.4374999999999007
 40
0.499999999999878
 40
0.499999999999878
 40
0.6249999999998543
 40
0.6249999999998543
 40
0.6562499999998627
 40
0.6562499999998627
 40
0.6874999999998711
 40
0.7499999999999028
 40
0.8124999999999344
 40
0.8124999999999344
 40
0.8437499999999447
 40
0.8437499999999447
 40
0.8749999999999552
 40
0.8749999999999552
 40
1.0
 40
1.0
 40
1.0
 40
1.0
 10
382.8256764333003
 20
293.3766050391153
 30
0.0
 10
382.8765802495011
 20
293.3788244226415
 30
0.0
 10
382.9263696411302
 20
293.3861759976186
 30
0.0
 10
382.9994859262374
 20
293.4044234644811
 30
0.0
 10
383.0235945441916
 20
293.4117193283546
 30
0.0
 10
383.0593565980079
 20
293.4245092406513
 30
0.0
 10
383.0712417904193
 20
293.4290942846052
 30
0.0
 10
383.0947043273886
 20
293.4388197345436
 30
0.0
 10
383.1062712491224
 20
293.4439535427267
 30
0.0
 10
383.1633027122287
 20
293.4709473392542
 30
0.0
 10
383.2063816417131
 20
293.4967422964038
 30
0.0
 10
383.2570950919443
 20
293.5341573956168
 30
0.0
 10
383.2670795467507
 20
293.5419014179871
 30
0.0
 10
383.2867271837733
 20
293.5579193886671
 30
0.0
 10
383.296405266782
 20
293.566208667983
 30
0.0
 10
383.3246575750319
 20
293.5916181955342
 30
0.0
 10
383.3425451208451
 20
293.6093493584484
 30
0.0
 10
383.3934441739282
 20
293.6648517831553
 30
0.0
 10
383.4237196529646
 20
293.7049089581583
 30
0.0
 10
383.4568347971433
 20
293.758931611032
 30
0.0
 10
383.4632247114224
 20
293.7699494410698
 30
0.0
 10
383.4753861957725
 20
293.7921474951289
 30
0.0
 10
383.4927541964922
 20
293.8257722656938
 30
0.0
 10
383.5174040502907
 20
293.8834241415851
 30
0.0
 10
383.5325694161024
 20
293.9312528297969
 30
0.0
 10
383.5421938945599
 20
293.9677801350862
 30
0.0
 10
383.5451099168483
 20
293.9800654064438
 30
0.0
 10
383.5503436621186
 20
294.0048602120272
 30
0.0
 10
383.5526624894472
 20
294.0173859735976
 30
0.0
 10
383.5626321448694
 20
294.0799948716243
 30
0.0
 10
383.565564842423
 20
294.1304458943355
 30
0.0
 10
383.5632921874665
 20
294.1812725347443
 30
0.0
  0
SPLINE
  5
1BF
330
1F
100
AcDbEntity
  8
1
100
AcDbSpline
210
0.0
220
0.0
230
1.0
 70
     8
 71
     3
 72
     8
 73
     4
 74
     0
 42
0.000000001
 43
0.0000000001
 40
0.0
 40
0.0
 40
0.0
 40
0.0
 40
1.0
 40
1.0
 40
1.0
 40
1.0
 10
368.337920350744
 20
294.3252951314353
 30
0.0
 10
368.3375275764628
 20
294.3251603284354
 30
0.0
 10
368.3371347932678
 20
294.3250255424895
 30
0.0
 10
368.336742001176
 20
294.3248907735983
 30
0.0
  0
SPLINE
  5
1C0
330
1F
100
AcDbEntity
  8
1
100
AcDbSpline
210
0.0
220
0.0
230
1.0
 70
     8
 71
     3
 72
     8
 73
     4
 74
     0
 42
0.000000001
 43
0.0000000001
 40
0.0
 40
0.0
 40
0.0
 40
0.0
 40
1.0
 40
1.0
 40
1.0
 40
1.0
 10
377.5594767046313
 20
297.2965634201687
 30
0.0
 10
377.5587147253812
 20
297.2917137169883
 30
0.0
 10
377.5576008087215
 20
297.2869337084733
 30
0.0
 10
377.5561720198255
 20
297.282294552572
 30
0.0
  0
SPLINE
  5
1C1
330
1F
100
AcDbEntity
  8
1
100
AcDbSpline
210
0.0
220
0.0
230
1.0
 70
     8
 71
     3
 72
    21
 73
    17
 74
     0
 42
0.000000001
 43
0.0000000001
 40
0.0
 40
0.0
 40
0.0
 40
0.0
 40
0.2499999999999517
 40
0.2499999999999517
 40
0.3124999999999564
 40
0.3124999999999564
 40
0.374999999999961
 40
0.374999999999961
 40
0.4999999999999705
 40
0.6249999999999796
 40
0.6249999999999796
 40
0.6874999999999816
 40
0.6874999999999816
 40
0.7499999999999836
 40
0.7499999999999836
 40
1.0
 40
1.0
 40
1.0
 40
1.0
 10
377.4105740371761
 20
297.7666647079719
 30
0.0
 10
377.4400873049146
 20
297.736760984751
 30
0.0
 10
377.4658403052221
 20
297.7037587261246
 30
0.0
 10
377.4932690282834
 20
297.6584572557927
 30
0.0
 10
377.4985134778915
 20
297.6491919765357
 30
0.0
 10
377.5085047694206
 20
297.63023628733
 30
0.0
 10
377.5132604938785
 20
297.6205209731195
 30
0.0
 10
377.526558397741
 20
297.5911600318736
 30
0.0
 10
377.5418548991822
 20
297.5511934721948
 30
0.0
 10
377.5523923508835
 20
297.5096240188649
 30
0.0
 10
377.5584796198425
 20
297.4778362136634
 30
0.0
 10
377.5602099454454
 20
297.4670993990736
 30
0.0
 10
377.5630243557629
 20
297.4456211933887
 30
0.0
 10
377.5641085103611
 20
297.434900959992
 30
0.0
 10
377.5679675788317
 20
297.3813885460992
 30
0.0
 10
377.5661222665333
 20
297.3388598510536
 30
0.0
 10
377.5594767046313
 20
297.2965634201687
 30
0.0
  0
SPLINE
  5
1C2
330
1F
100
AcDbEntity
  8
1
100
AcDbSpline
210
0.0
220
0.0
230
1.0
 70
     8
 71
     3
 72
    14
 73
    10
 74
     0
 42
0.000000001
 43
0.0000000001
 40
0.0
 40
0.0
 40
0.0
 40
0.0
 40
0.25
 40
0.25
 40
0.5
 40
0.5
 40
0.75
 40
0.75
 40
1.0
 40
1.0
 40
1.0
 40
1.0
 10
377.3336891411975
 20
297.7956692467473
 30
0.0
 10
377.3407538089139
 20
297.796120031084
 30
0.0
 10
377.3478451102131
 20
297.7958273963269
 30
0.0
 10
377.3617521518685
 20
297.7937815442035
 30
0.0
 10
377.3685199861673
 20
297.7920470680908
 30
0.0
 10
377.381682721445
 20
297.7871378851243
 30
0.0
 10
377.3880976799206
 20
297.7839296192722
 30
0.0
 10
377.3999611133822
 20
297.7762797551504
 30
0.0
 10
377.4054871834942
 20
297.7718188598577
 30
0.0
 10
377.4105740371761
 20
297.7666647079719
 30
0.0
  0
SPLINE
  5
1C3
330
1F
100
AcDbEntity
  8
1
100
AcDbSpline
210
0.0
220
0.0
230
1.0
 70
     8
 71
     3
 72
    22
 73
    18
 74
     0
 42
0.000000001
 43
0.0000000001
 40
0.0
 40
0.0
 40
0.0
 40
0.0
 40
0.125
 40
0.125
 40
0.25
 40
0.25
 40
0.375
 40
0.375
 40
0.5
 40
0.5
 40
0.625
 40
0.625
 40
0.75
 40
0.75
 40
0.875
 40
0.875
 40
1.0
 40
1.0
 40
1.0
 40
1.0
 10
377.3336891411975
 20
297.7956692467473
 30
0.0
 10
377.3280417606446
 20
297.795308897075
 30
0.0
 10
377.3223927136913
 20
297.7954246568112
 30
0.0
 10
377.3112879559748
 20
297.7965755135152
 30
0.0
 10
377.3058047981668
 20
297.7976079439764
 30
0.0
 10
377.2949819606534
 20
297.8006130247909
 30
0.0
 10
377.2896471266105
 20
297.8025956251651
 30
0.0
 10
377.2794958711858
 20
297.8073937005299
 30
0.0
 10
377.2746308533708
 20
297.810219882255
 30
0.0
 10
377.2653423242335
 20
297.8167633405685
 30
0.0
 10
377.2609436405822
 20
297.8204760969443
 30
0.0
 10
377.2529238446988
 20
297.8285561207625
 30
0.0
 10
377.2492602640568
 20
297.8329507065237
 30
0.0
 10
377.2426674371966
 20
297.8424891280296
 30
0.0
 10
377.2397943820977
 20
297.8475647525966
 30
0.0
 10
377.2350117239199
 20
297.8581109482064
 30
0.0
 10
377.2330796606971
 20
297.8636124989397
 30
0.0
 10
377.231636916964
 20
297.8693569526243
 30
0.0
  0
SPLINE
  5
1C4
330
1F
100
AcDbEntity
  8
1
100
AcDbSpline
210
0.0
220
0.0
230
1.0
 70
     8
 71
     3
 72
    21
 73
    17
 74
     0
 42
0.000000001
 43
0.0000000001
 40
0.0
 40
0.0
 40
0.0
 40
0.0
 40
0.2500000000000917
 40
0.2500000000000917
 40
0.3125000000001069
 40
0.3125000000001069
 40
0.3750000000001222
 40
0.3750000000001222
 40
0.5000000000000978
 40
0.6250000000000734
 40
0.6250000000000734
 40
0.6875000000000611
 40
0.6875000000000611
 40
0.7500000000000489
 40
0.7500000000000489
 40
1.0
 40
1.0
 40
1.0
 40
1.0
 10
379.097853652866
 20
296.9560822929744
 30
0.0
 10
379.1097445850355
 20
296.9972144263847
 30
0.0
 10
379.1260580713444
 20
297.0365043529183
 30
0.0
 10
379.1521205166242
 20
297.0833096625934
 30
0.0
 10
379.1576202295477
 20
297.092553804933
 30
0.0
 10
379.1692133199027
 20
297.1108014783826
 30
0.0
 10
379.1753238485765
 20
297.1198250986812
 30
0.0
 10
379.1942865205433
 20
297.1461272089151
 30
0.0
 10
379.2213931121557
 20
297.1794021683071
 30
0.0
 10
379.2520625365467
 20
297.2091662286321
 30
0.0
 10
379.2764246384382
 20
297.2301505051869
 30
0.0
 10
379.2848036927362
 20
297.2369447284825
 30
0.0
 10
379.3018643220205
 20
297.2499533586461
 30
0.0
 10
379.3105278973837
 20
297.2561576073236
 30
0.0
 10
379.3544938501573
 20
297.2857310714626
 30
0.0
 10
379.3917120994089
 20
297.3048160560548
 30
0.0
 10
379.4309858039337
 20
297.3194972718429
 30
0.0
  0
SPLINE
  5
1C5
330
1F
100
AcDbEntity
  8
1
100
AcDbSpline
210
0.0
220
0.0
230
1.0
 70
     8
 71
     3
 72
    14
 73
    10
 74
     0
 42
0.000000001
 43
0.0000000001
 40
0.0
 40
0.0
 40
0.0
 40
0.0
 40
0.25
 40
0.25
 40
0.5
 40
0.5
 40
0.75
 40
0.75
 40
1.0
 40
1.0
 40
1.0
 40
1.0
 10
379.4309858039337
 20
297.3194972718429
 30
0.0
 10
379.4377594110188
 20
297.3220293677702
 30
0.0
 10
379.444777535613
 20
297.3237779106247
 30
0.0
 10
379.4587706102648
 20
297.3256974353334
 30
0.0
 10
379.4657622668792
 20
297.3258895169467
 30
0.0
 10
379.4797403527436
 20
297.3247865550131
 30
0.0
 10
379.486716241493
 20
297.323469974003
 30
0.0
 10
379.5000407582929
 20
297.3194746488845
 30
0.0
 10
379.5064729219461
 20
297.3167935826912
 30
0.0
 10
379.5126680511467
 20
297.3134069532026
 30
0.0
  0
SPLINE
  5
1C6
330
1F
100
AcDbEntity
  8
1
100
AcDbSpline
210
0.0
220
0.0
230
1.0
 70
     8
 71
     3
 72
    20
 73
    16
 74
     0
 42
0.000000001
 43
0.0000000001
 40
0.0
 40
0.0
 40
0.0
 40
0.0
 40
0.1249999999999656
 40
0.1249999999999656
 40
0.2499999999999312
 40
0.2499999999999312
 40
0.3749999999998966
 40
0.3749999999998966
 40
0.4999999999998622
 40
0.4999999999998622
 40
0.6249999999998277
 40
0.6249999999998277
 40
0.7499999999997931
 40
0.7499999999997931
 40
1.0
 40
1.0
 40
1.0
 40
1.0
 10
379.6359121258569
 20
297.3372309778114
 30
0.0
 10
379.6321838198277
 20
297.3326244619233
 30
0.0
 10
379.6281101886863
 20
297.3284396301378
 30
0.0
 10
379.6193103796361
 20
297.3208681652776
 30
0.0
 10
379.6145324221404
 20
297.3174544208518
 30
0.0
 10
379.6045830741158
 20
297.311611233802
 30
0.0
 10
379.5994313041766
 20
297.3091782905715
 30
0.0
 10
379.5887928667033
 20
297.3052415889645
 30
0.0
 10
379.5832545901445
 20
297.303730249757
 30
0.0
 10
379.5720920227997
 20
297.3017138857263
 30
0.0
 10
379.5665090270067
 20
297.3012055019331
 30
0.0
 10
379.5553416770015
 20
297.3011364619746
 30
0.0
 10
379.5497295453072
 20
297.3015808742989
 30
0.0
 10
379.5330759469256
 20
297.304350345884
 30
0.0
 10
379.5225738833601
 20
297.3079918307092
 30
0.0
 10
379.5126680511467
 20
297.3134069532026
 30
0.0
  0
SPLINE
  5
1C7
330
1F
100
AcDbEntity
  8
1
100
AcDbSpline
210
0.0
220
0.0
230
1.0
 70
     8
 71
     3
 72
    15
 73
    11
 74
     0
 42
0.000000001
 43
0.0000000001
 40
0.0
 40
0.0
 40
0.0
 40
0.0
 40
0.4251019003251373
 40
0.4251019003251373
 40
0.5313773754064176
 40
0.5313773754064176
 40
0.6376528504876982
 40
0.6376528504876982
 40
0.8502038006502449
 40
1.0
 40
1.0
 40
1.0
 40
1.0
 10
377.231636916964
 20
297.8693569526243
 30
0.0
 10
377.2212589401805
 20
297.9106780865208
 30
0.0
 10
377.215782212034
 20
297.9526817136571
 30
0.0
 10
377.2150626054293
 20
298.0060302434363
 30
0.0
 10
377.2152312959611
 20
298.0167652943127
 30
0.0
 10
377.2161878466625
 20
298.0380800060494
 30
0.0
 10
377.2169740565536
 20
298.0486851082817
 30
0.0
 10
377.2202397083906
 20
298.0803464248879
 30
0.0
 10
377.226008000156
 20
298.1159803799841
 30
0.0
 10
377.2352584838953
 20
298.1510228793557
 30
0.0
 10
377.2396918937038
 20
298.1654061853355
 30
0.0
  0
SPLINE
  5
1C8
330
1F
100
AcDbEntity
  8
1
100
AcDbSpline
210
0.0
220
0.0
230
1.0
 70
     8
 71
     3
 72
    14
 73
    10
 74
     0
 42
0.000000001
 43
0.0000000001
 40
0.0
 40
0.0
 40
0.0
 40
0.0
 40
0.0895974066353497
 40
0.0895974066353497
 40
0.2413311721961457
 40
0.2413311721961457
 40
0.393064937756942
 40
0.393064937756942
 40
1.0
 40
1.0
 40
1.0
 40
1.0
 10
379.7338126451158
 20
297.5210840325456
 30
0.0
 10
379.7319590298154
 20
297.5150703966516
 30
0.0
 10
379.7299992813521
 20
297.509077456285
 30
0.0
 10
379.724432063592
 20
297.4929917188918
 30
0.0
 10
379.7206283541727
 20
297.482958936055
 30
0.0
 10
379.7125066726797
 20
297.4632755471132
 30
0.0
 10
379.7081780098249
 20
297.4535929487378
 30
0.0
 10
379.6852198808876
 20
297.4059613723881
 30
0.0
 10
379.6626974185994
 20
297.3703255992345
 30
0.0
 10
379.6359121258571
 20
297.3372309778114
 30
0.0
  0
SPLINE
  5
1C9
330
1F
100
AcDbEntity
  8
1
100
AcDbSpline
210
0.0
220
0.0
230
1.0
 70
     8
 71
     3
 72
    14
 73
    10
 74
     0
 42
0.000000001
 43
0.0000000001
 40
0.0
 40
0.0
 40
0.0
 40
0.0
 40
0.25
 40
0.25
 40
0.5
 40
0.5
 40
0.75
 40
0.75
 40
1.0
 40
1.0
 40
1.0
 40
1.0
 10
377.8660217577092
 20
298.8187306649436
 30
0.0
 10
377.8698480483748
 20
298.8129571074508
 30
0.0
 10
377.8730427095679
 20
298.8067897745406
 30
0.0
 10
377.8780326232745
 20
298.7939583390947
 30
0.0
 10
377.8798205927054
 20
298.787344704743
 30
0.0
 10
377.8819675165115
 20
298.7737140225736
 30
0.0
 10
377.8823071960109
 20
298.7666627437069
 30
0.0
 10
377.8814487047763
 20
298.7527633569507
 30
0.0
 10
377.8802715650376
 20
298.7458398270398
 30
0.0
 10
377.8782810900261
 20
298.7389418923983
 30
0.0
  0
SPLINE
  5
1CA
330
1F
100
AcDbEntity
  8
1
100
AcDbSpline
210
0.0
220
0.0
230
1.0
 70
     8
 71
     3
 72
    12
 73
     8
 74
     0
 42
0.000000001
 43
0.0000000001
 40
0.0
 40
0.0
 40
0.0
 40
0.0
 40
0.3933323418445565
 40
0.3933323418445565
 40
0.7866646836891129
 40
0.7866646836891129
 40
1.0
 40
1.0
 40
1.0
 40
1.0
 10
377.8660217577086
 20
298.8187306649447
 30
0.0
 10
377.8629631914368
 20
298.8233457895548
 30
0.0
 10
377.8603166919427
 20
298.8281998445951
 30
0.0
 10
377.8559140787906
 20
298.8382038360078
 30
0.0
 10
377.8541424144171
 20
298.8433756229278
 30
0.0
 10
377.8520921552707
 20
298.8516211162037
 30
0.0
 10
377.8515045896706
 20
298.8545719190969
 30
0.0
 10
377.8510557873453
 20
298.8575442775737
 30
0.0
  0
SPLINE
  5
1CB
330
1F
100
AcDbEntity
  8
1
100
AcDbSpline
210
0.0
220
0.0
230
1.0
 70
     8
 71
     3
 72
    14
 73
    10
 74
     0
 42
0.000000001
 43
0.0000000001
 40
0.0
 40
0.0
 40
0.0
 40
0.0
 40
0.1005057132135876
 40
0.1005057132135876
 40
0.4003371421423917
 40
0.4003371421423917
 40
0.7001685710711959
 40
0.7001685710711959
 40
1.0
 40
1.0
 40
1.0
 40
1.0
 10
379.419835194996
 20
298.4123158583205
 30
0.0
 10
379.4205327075991
 20
298.4145807015215
 30
0.0
 10
379.4213096058129
 20
298.4168075737287
 30
0.0
 10
379.4247019421713
 20
298.4254917175036
 30
0.0
 10
379.4278978861877
 20
298.4316051200623
 30
0.0
 10
379.4355619723708
 20
298.4430791627032
 30
0.0
 10
379.4400435149135
 20
298.4484198986865
 30
0.0
 10
379.4498732209968
 20
298.4578763034074
 30
0.0
 10
379.4552635222304
 20
298.4620626906231
 30
0.0
 10
379.4611450284132
 20
298.4656901634941
 30
0.0
  0
SPLINE
  5
1CC
330
1F
100
AcDbEntity
  8
1
100
AcDbSpline
210
0.0
220
0.0
230
1.0
 70
     8
 71
     3
 72
     8
 73
     4
 74
     0
 42
0.000000001
 43
0.0000000001
 40
0.0
 40
0.0
 40
0.0
 40
0.0
 40
1.0
 40
1.0
 40
1.0
 40
1.0
 10
379.4799719140584
 20
298.4808645829877
 30
0.0
 10
379.4743755980372
 20
298.4750344932752
 30
0.0
 10
379.4680976748227
 20
298.4699782719223
 30
0.0
 10
379.4611450284132
 20
298.4656901634941
 30
0.0
  0
LINE
  5
1E6
330
1F
100
AcDbEntity
  8
4
100
AcDbLine
 10
269.603832
 20
288.907994
 30
0.0
 11
387.799977
 21
288.907994
 31
0.0
  0
LINE
  5
1E7
330
1F
100
AcDbEntity
  8
SK4
100
AcDbLine
 10
210.504842
 20
288.907994
 30
0.0
 11
277.404842
 21
288.907994
 31
0.0
  0
MTEXT
  5
1E8
330
1F
100
AcDbEntity
  8
SK6
100
AcDbMText
 10
258.520787
 20
241.27662
 30
0.0
 40
3.5
 41
0.0
 71
     7
 72
     5
  1
\W0.7371;803D-1109-332-S125
  7
cesky
 73
     2
 44
0.8433729999999998
  0
MTEXT
  5
2FE
330
1F
100
AcDbEntity
  8
2
100
AcDbMText
 10
399.87099
 20
282.914537
 30
0.0
 40
3.5
 41
0.0
 71
     7
 72
     5
  1
\W0.8459;28,2
  7
cesky
 11
0.0000000000000001
 21
1.0
 31
0.0
 73
     2
 44
0.8433729999999998
  0
MTEXT
  5
2FF
330
1F
100
AcDbEntity
  8
2
100
AcDbMText
 10
399.87099
 20
276.177037
 30
0.0
 40
3.5
 41
0.0
 71
     7
 72
     5
  1
\W3.0115;\H2.63;%%c\H3.50;
  7
cesky
 11
0.0000000000000001
 21
1.0
 31
0.0
 73
     2
 44
0.8433729999999998
  0
LINE
  5
300
330
1F
100
AcDbEntity
  8
2
100
AcDbLine
 10
385.910642
 20
302.992294
 30
0.0
 11
401.058406
 21
302.992294
 31
0.0
  0
LINE
  5
301
330
1F
100
AcDbEntity
  8
2
100
AcDbLine
 10
400.0584059999999
 20
302.992294
 30
0.0
 11
400.0584059999999
 21
276.019537
 31
0.0
  0
SOLID
  5
302
330
1F
100
AcDbEntity
  8
2
100
AcDbTrace
 10
400.0584059999999
 20
302.992294
 30
0.0
 11
400.6755509999999
 21
299.492296
 31
0.0
 12
399.441262
 22
299.492291
 32
0.0
 13
399.441262
 23
299.492291
 33
0.0
  0
MTEXT
  5
303
330
1F
100
AcDbEntity
  8
2
100
AcDbMText
 10
293.555742
 20
340.562135
 30
0.0
 40
3.5
 41
0.0
 71
     7
 72
     5
  1
\W0.8654;169,5
  7
cesky
 73
     2
 44
0.8433729999999998
  0
LINE
  5
304
330
1F
100
AcDbEntity
  8
2
100
AcDbLine
 10
383.910642
 20
304.992294
 30
0.0
 11
383.910642
 21
341.687968
 31
0.0
  0
LINE
  5
305
330
1F
100
AcDbEntity
  8
2
100
AcDbLine
 10
214.404842
 20
303.182994
 30
0.0
 11
214.404842
 21
341.687968
 31
0.0
  0
LINE
  5
306
330
1F
100
AcDbEntity
  8
2
100
AcDbLine
 10
383.910642
 20
340.687968
 30
0.0
 11
214.404842
 21
340.687968
 31
0.0
  0
SOLID
  5
307
330
1F
100
AcDbEntity
  8
2
100
AcDbTrace
 10
383.910642
 20
340.687968
 30
0.0
 11
380.410644
 21
340.070823
 31
0.0
 12
380.41064
 22
341.305112
 32
0.0
 13
380.41064
 23
341.305112
 33
0.0
  0
SOLID
  5
308
330
1F
100
AcDbEntity
  8
2
100
AcDbTrace
 10
214.404842
 20
340.687968
 30
0.0
 11
217.90484
 21
341.305112
 31
0.0
 12
217.904844
 22
340.070823
 32
0.0
 13
217.904844
 23
340.070823
 33
0.0
  0
MTEXT
  5
309
330
1F
100
AcDbEntity
  8
2
100
AcDbMText
 10
242.590342
 20
327.385163
 30
0.0
 40
3.5
 41
0.0
 71
     7
 72
     5
  1
\W0.7045;60
  7
cesky
 73
     2
 44
0.8433729999999998
  0
LINE
  5
30A
330
1F
100
AcDbEntity
  8
2
100
AcDbLine
 10
274.404842
 20
288.907994
 30
0.0
 11
274.404842
 21
328.5109970000001
 31
0.0
  0
LINE
  5
30B
330
1F
100
AcDbEntity
  8
2
100
AcDbLine
 10
214.404842
 20
303.182994
 30
0.0
 11
214.404842
 21
328.5109970000001
 31
0.0
  0
LINE
  5
30C
330
1F
100
AcDbEntity
  8
2
100
AcDbLine
 10
274.404842
 20
327.510997
 30
0.0
 11
214.404842
 21
327.510997
 31
0.0
  0
SOLID
  5
30D
330
1F
100
AcDbEntity
  8
2
100
AcDbTrace
 10
274.404842
 20
327.510997
 30
0.0
 11
270.904844
 21
326.893852
 31
0.0
 12
270.90484
 22
328.128141
 32
0.0
 13
270.90484
 23
328.128141
 33
0.0
  0
SOLID
  5
30E
330
1F
100
AcDbEntity
  8
2
100
AcDbTrace
 10
214.404842
 20
327.510997
 30
0.0
 11
217.90484
 21
328.128141
 31
0.0
 12
217.904844
 22
326.893852
 32
0.0
 13
217.904844
 23
326.893852
 33
0.0
  0
MTEXT
  5
30F
330
1F
100
AcDbEntity
  8
2
100
AcDbMText
 10
334.013789
 20
315.788929
 30
0.0
 40
3.5
 41
0.0
 71
     7
 72
     5
  1
\W1.0616;91,1
  7
cesky
 73
     2
 44
0.8433729999999998
  0
LINE
  5
310
330
1F
100
AcDbEntity
  8
2
100
AcDbLine
 10
383.910642
 20
304.992294
 30
0.0
 11
383.910642
 21
316.914763
 31
0.0
  0
LINE
  5
311
330
1F
100
AcDbEntity
  8
2
100
AcDbLine
 10
292.795937
 20
302.834589
 30
0.0
 11
292.795937
 21
316.914763
 31
0.0
  0
LINE
  5
312
330
1F
100
AcDbEntity
  8
2
100
AcDbLine
 10
383.910642
 20
315.914763
 30
0.0
 11
292.795937
 21
315.914763
 31
0.0
  0
SOLID
  5
313
330
1F
100
AcDbEntity
  8
2
100
AcDbTrace
 10
383.910642
 20
315.914763
 30
0.0
 11
380.410644
 21
315.297618
 31
0.0
 12
380.41064
 22
316.531907
 32
0.0
 13
380.41064
 23
316.531907
 33
0.0
  0
SOLID
  5
314
330
1F
100
AcDbEntity
  8
2
100
AcDbTrace
 10
292.795937
 20
315.914763
 30
0.0
 11
296.295934
 21
316.531907
 31
0.0
 12
296.295939
 22
315.297618
 32
0.0
 13
296.295939
 23
315.297618
 33
0.0
  0
MTEXT
  5
315
330
1F
100
AcDbEntity
  8
2
100
AcDbMText
 10
323.555742
 20
327.385163
 30
0.0
 40
3.5
 41
0.0
 71
     7
 72
     5
  1
\W0.8654;109,5
  7
cesky
 73
     2
 44
0.8433729999999998
  0
LINE
  5
316
330
1F
100
AcDbEntity
  8
2
100
AcDbLine
 10
383.910642
 20
302.992294
 30
0.0
 11
383.910642
 21
328.5109970000001
 31
0.0
  0
LINE
  5
317
330
1F
100
AcDbEntity
  8
2
100
AcDbLine
 10
274.404842
 20
289.907567
 30
0.0
 11
274.404842
 21
328.5109970000001
 31
0.0
  0
LINE
  5
318
330
1F
100
AcDbEntity
  8
2
100
AcDbLine
 10
383.910642
 20
327.510997
 30
0.0
 11
274.404842
 21
327.510997
 31
0.0
  0
SOLID
  5
319
330
1F
100
AcDbEntity
  8
2
100
AcDbTrace
 10
383.910642
 20
327.510997
 30
0.0
 11
380.410644
 21
326.893852
 31
0.0
 12
380.41064
 22
328.128141
 32
0.0
 13
380.41064
 23
328.128141
 33
0.0
  0
SOLID
  5
31A
330
1F
100
AcDbEntity
  8
2
100
AcDbTrace
 10
274.404842
 20
327.510997
 30
0.0
 11
277.90484
 21
328.128141
 31
0.0
 12
277.904844
 22
326.893852
 32
0.0
 13
277.904844
 23
326.893852
 33
0.0
  0
MTEXT
  5
31B
330
1F
100
AcDbEntity
  8
SK2
100
AcDbMText
 10
205.28147
 20
286.646744
 30
0.0
 40
3.5
 41
0.0
 71
     7
 72
     5
  1
\W0.8654;31,75
  7
cesky
 11
0.0000000000000001
 21
1.0
 31
0.0
 73
     2
 44
0.8433729999999998
  0
MTEXT
  5
31C
330
1F
100
AcDbEntity
  8
SK2
100
AcDbMText
 10
205.28147
 20
279.909244
 30
0.0
 40
3.5
 41
0.0
 71
     7
 72
     5
  1
\W3.0115;\H2.63;%%c\H3.50;
  7
cesky
 11
0.0000000000000001
 21
1.0
 31
0.0
 73
     2
 44
0.8433729999999998
  0
LINE
  5
31D
330
1F
100
AcDbEntity
  8
SK2
100
AcDbLine
 10
216.004842
 20
304.782994
 30
0.0
 11
204.468887
 21
304.782994
 31
0.0
  0
LINE
  5
31E
330
1F
100
AcDbEntity
  8
SK2
100
AcDbLine
 10
216.004842
 20
273.032994
 30
0.0
 11
204.468887
 21
273.032994
 31
0.0
  0
LINE
  5
31F
330
1F
100
AcDbEntity
  8
SK2
100
AcDbLine
 10
205.468887
 20
304.782994
 30
0.0
 11
205.468887
 21
273.032994
 31
0.0
  0
SOLID
  5
320
330
1F
100
AcDbEntity
  8
SK2
100
AcDbTrace
 10
205.468887
 20
304.782994
 30
0.0
 11
206.086032
 21
301.282996
 31
0.0
 12
204.851743
 22
301.2829910000001
 32
0.0
 13
204.851743
 23
301.2829910000001
 33
0.0
  0
SOLID
  5
321
330
1F
100
AcDbEntity
  8
SK2
100
AcDbTrace
 10
205.468887
 20
273.032994
 30
0.0
 11
204.851743
 21
276.5329910000001
 31
0.0
 12
206.086032
 22
276.532996
 32
0.0
 13
206.086032
 23
276.532996
 33
0.0
  0
MTEXT
  5
322
330
1F
100
AcDbEntity
  8
SK2
100
AcDbMText
 10
193.332501
 20
290.434244
 30
0.0
 40
3.5
 41
0.0
 71
     7
 72
     5
  1
\W0.7045;42
  7
cesky
 11
0.0000000000000001
 21
1.0
 31
0.0
 73
     2
 44
0.8433729999999998
  0
MTEXT
  5
323
330
1F
100
AcDbEntity
  8
SK2
100
AcDbMText
 10
193.332501
 20
283.696744
 30
0.0
 40
3.5
 41
0.0
 71
     7
 72
     5
  1
\W3.0115;\H2.63;%%c\H3.50;
  7
cesky
 11
0.0000000000000001
 21
1.0
 31
0.0
 73
     2
 44
0.8433729999999998
  0
LINE
  5
324
330
1F
100
AcDbEntity
  8
SK2
100
AcDbLine
 10
274.904842
 20
309.907994
 30
0.0
 11
192.519918
 21
309.907994
 31
0.0
  0
LINE
  5
325
330
1F
100
AcDbEntity
  8
SK2
100
AcDbLine
 10
274.904842
 20
267.907994
 30
0.0
 11
192.519918
 21
267.907994
 31
0.0
  0
LINE
  5
326
330
1F
100
AcDbEntity
  8
SK2
100
AcDbLine
 10
193.519918
 20
309.907994
 30
0.0
 11
193.519918
 21
267.907994
 31
0.0
  0
SOLID
  5
327
330
1F
100
AcDbEntity
  8
SK2
100
AcDbTrace
 10
193.519918
 20
309.907994
 30
0.0
 11
194.137062
 21
306.407996
 31
0.0
 12
192.902773
 22
306.407991
 32
0.0
 13
192.902773
 23
306.407991
 33
0.0
  0
SOLID
  5
328
330
1F
100
AcDbEntity
  8
SK2
100
AcDbTrace
 10
193.519918
 20
267.907994
 30
0.0
 11
192.902773
 21
271.4079910000001
 31
0.0
 12
194.137062
 22
271.407996
 32
0.0
 13
194.137062
 23
271.407996
 33
0.0
  0
LINE
  5
329
330
1F
100
AcDbEntity
  8
CUT
100
AcDbLine
 10
383.8032360653503
 20
295.8831879626113
 30
0.0
 11
383.9106419452958
 21
289.7352586122853
 31
0.0
  0
LINE
  5
32A
330
1F
100
AcDbEntity
  8
CUT
100
AcDbLine
 10
374.4309718287903
 20
302.6244138490194
 30
0.0
 11
382.400863756893
 21
302.9886173205226
 31
0.0
  0
LINE
  5
32B
330
1F
100
AcDbEntity
  8
CUT
100
AcDbLine
 10
383.2074286938659
 20
302.2537871911845
 30
0.0
 11
383.4682485489981
 21
296.4406477560871
 31
0.0
  0
LINE
  5
32C
330
1F
100
AcDbEntity
  8
CUT
100
AcDbLine
 10
383.468248548998
 20
296.4406477560871
 30
0.0
 11
383.8032360653503
 21
295.8831879626113
 31
0.0
  0
LINE
  5
32E
330
1F
100
AcDbEntity
  8
CUT
100
AcDbLine
 10
374.430972
 20
288.907994
 30
0.0
 11
374.430972
 21
302.624414
 31
0.0
  0
LINE
  5
32F
330
1F
100
AcDbEntity
  8
CUT
100
AcDbLine
 10
383.910642
 20
289.735259
 30
0.0
 11
383.910642
 21
288.907994
 31
0.0
  0
LINE
  5
330
330
1F
100
AcDbEntity
  8
CUT
100
AcDbLine
 10
383.910642
 20
288.907994
 30
0.0
 11
374.430972
 21
288.907994
 31
0.0
  0
ARC
  5
331
330
1F
100
AcDbEntity
  8
CUT
100
AcDbCircle
 10
382.4285125516693
 20
302.2082580458251
 30
0.0
 40
0.7808489312658326
100
AcDbArc
 50
7.496696049442795
 51
92.029189516306
  0
ARC
  5
332
330
1F
100
AcDbEntity
  8
CUT
100
AcDbCircle
 10
382.4856045874199
 20
302.2214193305575
 30
0.0
 40
0.7225494578558474
100
AcDbArc
 50
2.567523389236054
 51
7.052626564121845
  0
ENDSEC
  0
SECTION
  2
OBJECTS
  0
DICTIONARY
  5
C
330
0
100
AcDbDictionary
281
     1
  3
ACAD_CIP_PREVIOUS_PRODUCT_INFO
350
2FB
  3
ACAD_COLOR
350
2F6
  3
ACAD_DETAILVIEWSTYLE
350
2F2
  3
ACAD_GROUP
350
D
  3
ACAD_LAYOUT
350
1A
  3
ACAD_MATERIAL
350
43
  3
ACAD_MLEADERSTYLE
350
6B
  3
ACAD_MLINESTYLE
350
17
  3
ACAD_PLOTSETTINGS
350
19
  3
ACAD_PLOTSTYLENAME
350
E
  3
ACAD_SCALELIST
350
47
  3
ACAD_SECTIONVIEWSTYLE
350
2F3
  3
ACAD_TABLESTYLE
350
69
  3
ACAD_VISUALSTYLE
350
2A
  3
ACDB_RECOMPOSE_DATA
350
35E
  3
AcDbVariableDictionary
350
2AF
  0
DICTIONARY
  5
341
330
10
100
AcDbDictionary
280
     1
281
     1
  3
ADSK_XREC_LAYER_RECONCILED
360
342
  0
DICTIONARY
  5
343
330
333
100
AcDbDictionary
280
     1
281
     1
  3
ADSK_XREC_LAYER_RECONCILED
360
344
  0
DICTIONARY
  5
345
330
334
100
AcDbDictionary
280
     1
281
     1
  3
ADSK_XREC_LAYER_RECONCILED
360
346
  0
DICTIONARY
  5
347
330
335
100
AcDbDictionary
280
     1
281
     1
  3
ADSK_XREC_LAYER_RECONCILED
360
348
  0
DICTIONARY
  5
349
330
337
100
AcDbDictionary
280
     1
281
     1
  3
ADSK_XREC_LAYER_RECONCILED
360
34A
  0
DICTIONARY
  5
34B
330
338
100
AcDbDictionary
280
     1
281
     1
  3
ADSK_XREC_LAYER_RECONCILED
360
34C
  0
DICTIONARY
  5
34D
330
33A
100
AcDbDictionary
280
     1
281
     1
  3
ADSK_XREC_LAYER_RECONCILED
360
34E
  0
DICTIONARY
  5
34F
330
33B
100
AcDbDictionary
280
     1
281
     1
  3
ADSK_XREC_LAYER_RECONCILED
360
350
  0
DICTIONARY
  5
351
330
33C
100
AcDbDictionary
280
     1
281
     1
  3
ADSK_XREC_LAYER_RECONCILED
360
352
  0
DICTIONARY
  5
353
330
33D
100
AcDbDictionary
280
     1
281
     1
  3
ADSK_XREC_LAYER_RECONCILED
360
354
  0
DICTIONARY
  5
355
330
33E
100
AcDbDictionary
280
     1
281
     1
  3
ADSK_XREC_LAYER_RECONCILED
360
356
  0
DICTIONARY
  5
357
330
33F
100
AcDbDictionary
280
     1
281
     1
  3
ADSK_XREC_LAYER_RECONCILED
360
358
  0
DICTIONARY
  5
2FC
330
1F
100
AcDbDictionary
280
     1
281
     1
  3
ACAD_SORTENTS
360
2FD
  0
XRECORD
  5
2FB
102
{ACAD_REACTORS
330
C
102
}
330
C
100
AcDbXrecord
280
     1
300
ACD
300
2019
300
87084ACD_2019_0F
  0
DICTIONARY
  5
2F6
102
{ACAD_REACTORS
330
C
102
}
330
C
100
AcDbDictionary
281
     1
  0
DICTIONARY
  5
2F2
102
{ACAD_REACTORS
330
C
102
}
330
C
100
AcDbDictionary
281
     1
  3
Metric50
350
2F8
  0
DICTIONARY
  5
D
102
{ACAD_REACTORS
330
C
102
}
330
C
100
AcDbDictionary
281
     1
  3
NULOVY_BOD
350
340
  0
DICTIONARY
  5
1A
102
{ACAD_REACTORS
330
C
102
}
330
C
100
AcDbDictionary
281
     1
  3
Layout1
350
1E
  3
Layout2
350
26
  3
Model
350
22
  0
DICTIONARY
  5
43
102
{ACAD_REACTORS
330
C
102
}
330
C
100
AcDbDictionary
281
     1
  3
ByBlock
350
45
  3
ByLayer
350
44
  3
Global
350
46
  0
DICTIONARY
  5
6B
102
{ACAD_REACTORS
330
C
102
}
330
C
100
AcDbDictionary
281
     1
  3
Standard
350
6C
  0
DICTIONARY
  5
17
102
{ACAD_REACTORS
330
C
102
}
330
C
100
AcDbDictionary
281
     1
  3
Standard
350
18
  0
DICTIONARY
  5
19
102
{ACAD_REACTORS
330
C
102
}
330
C
100
AcDbDictionary
281
     1
  0
ACDBDICTIONARYWDFLT
  5
E
102
{ACAD_REACTORS
330
C
102
}
330
C
100
AcDbDictionary
281
     1
  3
Normal
350
F
100
AcDbDictionaryWithDefault
340
F
  0
DICTIONARY
  5
47
102
{ACAD_REACTORS
330
C
102
}
330
C
100
AcDbDictionary
281
     1
  3
A0
350
48
  3
A1
350
49
  3
A2
350
4A
  3
A3
350
4B
  3
A4
350
4C
  3
A5
350
4D
  3
A6
350
4E
  3
A7
350
4F
  3
A8
350
50
  3
A9
350
51
  3
B0
350
52
  3
B1
350
53
  3
B2
350
54
  3
B3
350
55
  3
B4
350
56
  3
B5
350
57
  3
B6
350
58
  3
B7
350
59
  3
B8
350
5A
  3
B9
350
5B
  3
C0
350
5C
  3
C1
350
5D
  3
C2
350
5E
  3
C3
350
5F
  3
C4
350
60
  3
C5
350
61
  3
C6
350
62
  3
C7
350
63
  3
C8
350
64
  3
C9
350
65
  3
D0
350
66
  3
D1
350
67
  3
D2
350
68
  0
DICTIONARY
  5
2F3
102
{ACAD_REACTORS
330
C
102
}
330
C
100
AcDbDictionary
281
     1
  3
Metric50
350
2F7
  0
DICTIONARY
  5
69
102
{ACAD_REACTORS
330
C
102
}
330
C
100
AcDbDictionary
281
     1
  3
Standard
350
6A
  0
DICTIONARY
  5
2A
102
{ACAD_REACTORS
330
C
102
}
330
C
100
AcDbDictionary
281
     1
  3
2dWireframe
350
2F
  3
Basic
350
32
  3
Brighten
350
36
  3
ColorChange
350
3A
  3
Conceptual
350
34
  3
Dim
350
35
  3
EdgeColorOff
350
3D
  3
Facepattern
350
39
  3
Flat
350
2B
  3
FlatWithEdges
350
2C
  3
Gouraud
350
2D
  3
GouraudWithEdges
350
2E
  3
Hidden
350
31
  3
JitterOff
350
3B
  3
Linepattern
350
38
  3
OverhangOff
350
3C
  3
Realistic
350
33
  3
Shaded
350
42
  3
Shaded with edges
350
41
  3
Shades of Gray
350
3E
  3
Sketchy
350
3F
  3
Thicken
350
37
  3
Wireframe
350
30
  3
X-Ray
350
40
  0
XRECORD
  5
35E
102
{ACAD_REACTORS
330
C
102
}
330
C
100
AcDbXrecord
280
     1
 90
        1
330
6A
  0
DICTIONARY
  5
2AF
102
{ACAD_REACTORS
330
C
102
}
330
C
100
AcDbDictionary
281
     1
  3
CANNOSCALE
350
2B0
  3
CMLEADERSTYLE
350
2F1
  3
CTABLESTYLE
350
2F0
  3
CVIEWDETAILSTYLE
350
359
  3
CVIEWSECTIONSTYLE
350
35A
  3
MSLTSCALE
350
2B1
  3
XCLIPFRAME
350
35B
  0
XRECORD
  5
342
102
{ACAD_REACTORS
330
341
102
}
330
341
100
AcDbXrecord
280
     1
290
     1
  0
XRECORD
  5
344
102
{ACAD_REACTORS
330
343
102
}
330
343
100
AcDbXrecord
280
     1
290
     1
  0
XRECORD
  5
346
102
{ACAD_REACTORS
330
345
102
}
330
345
100
AcDbXrecord
280
     1
290
     1
  0
XRECORD
  5
348
102
{ACAD_REACTORS
330
347
102
}
330
347
100
AcDbXrecord
280
     1
290
     1
  0
XRECORD
  5
34A
102
{ACAD_REACTORS
330
349
102
}
330
349
100
AcDbXrecord
280
     1
290
     1
  0
XRECORD
  5
34C
102
{ACAD_REACTORS
330
34B
102
}
330
34B
100
AcDbXrecord
280
     1
290
     1
  0
XRECORD
  5
34E
102
{ACAD_REACTORS
330
34D
102
}
330
34D
100
AcDbXrecord
280
     1
290
     1
  0
XRECORD
  5
350
102
{ACAD_REACTORS
330
34F
102
}
330
34F
100
AcDbXrecord
280
     1
290
     1
  0
XRECORD
  5
352
102
{ACAD_REACTORS
330
351
102
}
330
351
100
AcDbXrecord
280
     1
290
     1
  0
XRECORD
  5
354
102
{ACAD_REACTORS
330
353
102
}
330
353
100
AcDbXrecord
280
     1
290
     1
  0
XRECORD
  5
356
102
{ACAD_REACTORS
330
355
102
}
330
355
100
AcDbXrecord
280
     1
290
     1
  0
XRECORD
  5
358
102
{ACAD_REACTORS
330
357
102
}
330
357
100
AcDbXrecord
280
     1
290
     1
  0
SORTENTSTABLE
  5
2FD
102
{ACAD_REACTORS
330
2FC
102
}
330
2FC
100
AcDbSortentsTable
330
1F
331
2FE
  5
209
331
2FF
  5
222
331
300
  5
2FE
331
301
  5
2FF
331
302
  5
300
331
303
  5
311
331
304
  5
312
331
305
  5
313
331
306
  5
314
331
307
  5
315
331
308
  5
316
331
309
  5
317
331
30A
  5
318
331
30B
  5
319
331
30C
  5
31A
331
30D
  5
31B
331
30E
  5
31C
331
30F
  5
31D
331
310
  5
31E
331
311
  5
31F
331
312
  5
320
331
313
  5
321
331
314
  5
322
331
315
  5
323
331
316
  5
324
331
317
  5
325
331
318
  5
326
331
319
  5
327
331
31A
  5
328
331
31B
  5
303
331
31C
  5
304
331
31D
  5
305
331
31E
  5
306
331
31F
  5
307
331
320
  5
308
331
321
  5
309
331
322
  5
30A
331
323
  5
30B
331
324
  5
30C
331
325
  5
30D
331
326
  5
30E
331
327
  5
30F
331
328
  5
310
331
32E
  5
330
331
32F
  5
331
331
330
  5
332
331
331
  5
32E
331
332
  5
32F
  0
ACDBDETAILVIEWSTYLE
  5
2F8
102
{ACAD_XDICTIONARY
360
392
102
}
102
{ACAD_REACTORS
330
2F2
102
}
330
2F2
100
AcDbModelDocViewStyle
 70
     0
  3
Metric50
290
     0
100
AcDbDetailViewStyle
 70
     0
 71
     0
 90
        3
 71
     1
340
11
 62
   256
 40
5.0
340
0
 62
   256
 40
5.0
300

 40
0.0
280
     1
 71
     2
340
16
 90
       25
 62
   256
 71
     3
340
11
 62
   256
 40
5.0
 90
        0
 40
15.0
 90
        1
300
%<\AcVar ViewDetailId>% (%<\AcVar ViewScale \f "%sn">%)
 71
     4
340
16
 90
       25
 62
   256
340
16
 90
       25
 62
   256
280
     0
  0
GROUP
  5
340
102
{ACAD_REACTORS
330
D
102
}
330
D
100
AcDbGroup
300

 70
     0
 71
     1
340
73
  0
LAYOUT
  5
1E
102
{ACAD_REACTORS
330
1A
102
}
330
1A
100
AcDbPlotSettings
  1

  2
none_device
  4

  6

 40
0.0
 41
0.0
 42
0.0
 43
0.0
 44
0.0
 45
0.0
 46
0.0
 47
0.0
 48
0.0
 49
0.0
140
0.0
141
0.0
142
1.0
143
1.0
 70
   688
 72
     0
 73
     0
 74
     5
  7

 75
    16
147
1.0
 76
     0
 77
     2
 78
   300
148
0.0
149
0.0
100
AcDbLayout
  1
Layout1
 70
     1
 71
     1
 10
-0.5
 20
-0.5
 11
5.0
 21
5.0
 12
0.0
 22
0.0
 32
0.0
 14
-0.5
 24
-0.5
 34
-0.5
 15
5.0
 25
5.0
 35
5.0
146
0.0
 13
0.0
 23
0.0
 33
0.0
 16
1.0
 26
0.0
 36
0.0
 17
0.0
 27
1.0
 37
0.0
 76
     0
330
1B
  0
LAYOUT
  5
26
102
{ACAD_REACTORS
330
1A
102
}
330
1A
100
AcDbPlotSettings
  1

  2
none_device
  4

  6

 40
0.0
 41
0.0
 42
0.0
 43
0.0
 44
0.0
 45
0.0
 46
0.0
 47
0.0
 48
0.0
 49
0.0
140
0.0
141
0.0
142
1.0
143
1.0
 70
   688
 72
     0
 73
     0
 74
     5
  7

 75
    16
147
1.0
 76
     0
 77
     2
 78
   300
148
0.0
149
0.0
100
AcDbLayout
  1
Layout2
 70
     1
 71
     2
 10
0.0
 20
0.0
 11
0.0
 21
0.0
 12
0.0
 22
0.0
 32
0.0
 14
0.0
 24
0.0
 34
0.0
 15
0.0
 25
0.0
 35
0.0
146
0.0
 13
0.0
 23
0.0
 33
0.0
 16
1.0
 26
0.0
 36
0.0
 17
0.0
 27
1.0
 37
0.0
 76
     0
330
23
  0
LAYOUT
  5
22
102
{ACAD_REACTORS
330
1A
102
}
330
1A
100
AcDbPlotSettings
  1

  2
none_device
  4
Letter_(8.50_x_11.00_Inches)
  6

 40
6.349999999999999
 41
6.349999999999999
 42
6.350005
 43
6.350005
 44
215.9
 45
279.4
 46
0.0
 47
0.0
 48
0.0
 49
0.0
140
0.0
141
0.0
142
1.0
143
1.0
 70
  1712
 72
     0
 73
     0
 74
     0
  7

 75
     0
147
1.0
 76
     0
 77
     2
 78
   300
148
0.0
149
0.0
100
AcDbLayout
  1
Model
 70
     1
 71
     0
 10
-0.5
 20
-0.5
 11
5.0
 21
5.0
 12
0.0
 22
0.0
 32
0.0
 14
-0.5
 24
-0.5
 34
-0.5
 15
5.0
 25
5.0
 35
5.0
146
0.0
 13
0.0
 23
0.0
 33
0.0
 16
1.0
 26
0.0
 36
0.0
 17
0.0
 27
1.0
 37
0.0
 76
     0
330
1F
331
29
  0
MATERIAL
  5
45
102
{ACAD_XDICTIONARY
360
2E5
102
}
102
{ACAD_REACTORS
330
43
102
}
330
43
100
AcDbMaterial
  1
ByBlock
  0
MATERIAL
  5
44
102
{ACAD_XDICTIONARY
360
2E3
102
}
102
{ACAD_REACTORS
330
43
102
}
330
43
100
AcDbMaterial
  1
ByLayer
  0
MATERIAL
  5
46
102
{ACAD_XDICTIONARY
360
2E7
102
}
102
{ACAD_REACTORS
330
43
102
}
330
43
100
AcDbMaterial
  1
Global
  0
MLEADERSTYLE
  5
6C
102
{ACAD_REACTORS
330
6B
102
}
330
6B
100
AcDbMLeaderStyle
170
     2
171
     1
172
     0
 90
        2
 40
0.0
 41
0.0
173
     1
 91
-1056964608
340
14
 92
       -2
290
     1
 42
0.09
291
     1
 43
0.36
  3
Standard
 44
0.18
300

342
11
174
     1
178
     6
175
     1
176
     0
 93
-1056964608
 45
0.18
292
     0
297
     0
 46
0.18
 94
-1056964608
 47
1.0
 49
1.0
140
1.0
293
     1
141
0.0
294
     1
177
     0
142
1.0
295
     0
296
     0
143
0.125
1001
ACAD_MLEADERVER
1070
     2
  0
MLINESTYLE
  5
18
102
{ACAD_REACTORS
330
17
102
}
330
17
100
AcDbMlineStyle
  2
STANDARD
 70
     0
  3

 62
   256
 51
90.0
 52
90.0
 71
     2
 49
0.5
 62
   256
  6
BYLAYER
 49
-0.5
 62
   256
  6
BYLAYER
  0
ACDBPLACEHOLDER
  5
F
102
{ACAD_REACTORS
330
E
102
}
330
E
  0
SCALE
  5
48
102
{ACAD_REACTORS
330
47
102
}
330
47
100
AcDbScale
 70
     0
300
1:1
140
1.0
141
1.0
290
     1
  0
SCALE
  5
49
102
{ACAD_REACTORS
330
47
102
}
330
47
100
AcDbScale
 70
     0
300
1:2
140
1.0
141
2.0
290
     0
  0
SCALE
  5
4A
102
{ACAD_REACTORS
330
47
102
}
330
47
100
AcDbScale
 70
     0
300
1:4
140
1.0
141
4.0
290
     0
  0
SCALE
  5
4B
102
{ACAD_REACTORS
330
47
102
}
330
47
100
AcDbScale
 70
     0
300
1:5
140
1.0
141
5.0
290
     0
  0
SCALE
  5
4C
102
{ACAD_REACTORS
330
47
102
}
330
47
100
AcDbScale
 70
     0
300
1:8
140
1.0
141
8.0
290
     0
  0
SCALE
  5
4D
102
{ACAD_REACTORS
330
47
102
}
330
47
100
AcDbScale
 70
     0
300
1:10
140
1.0
141
10.0
290
     0
  0
SCALE
  5
4E
102
{ACAD_REACTORS
330
47
102
}
330
47
100
AcDbScale
 70
     0
300
1:16
140
1.0
141
16.0
290
     0
  0
SCALE
  5
4F
102
{ACAD_REACTORS
330
47
102
}
330
47
100
AcDbScale
 70
     0
300
1:20
140
1.0
141
20.0
290
     0
  0
SCALE
  5
50
102
{ACAD_REACTORS
330
47
102
}
330
47
100
AcDbScale
 70
     0
300
1:30
140
1.0
141
30.0
290
     0
  0
SCALE
  5
51
102
{ACAD_REACTORS
330
47
102
}
330
47
100
AcDbScale
 70
     0
300
1:40
140
1.0
141
40.0
290
     0
  0
SCALE
  5
52
102
{ACAD_REACTORS
330
47
102
}
330
47
100
AcDbScale
 70
     0
300
1:50
140
1.0
141
50.0
290
     0
  0
SCALE
  5
53
102
{ACAD_REACTORS
330
47
102
}
330
47
100
AcDbScale
 70
     0
300
1:100
140
1.0
141
100.0
290
     0
  0
SCALE
  5
54
102
{ACAD_REACTORS
330
47
102
}
330
47
100
AcDbScale
 70
     0
300
2:1
140
2.0
141
1.0
290
     0
  0
SCALE
  5
55
102
{ACAD_REACTORS
330
47
102
}
330
47
100
AcDbScale
 70
     0
300
4:1
140
4.0
141
1.0
290
     0
  0
SCALE
  5
56
102
{ACAD_REACTORS
330
47
102
}
330
47
100
AcDbScale
 70
     0
300
8:1
140
8.0
141
1.0
290
     0
  0
SCALE
  5
57
102
{ACAD_REACTORS
330
47
102
}
330
47
100
AcDbScale
 70
     0
300
10:1
140
10.0
141
1.0
290
     0
  0
SCALE
  5
58
102
{ACAD_REACTORS
330
47
102
}
330
47
100
AcDbScale
 70
     0
300
100:1
140
100.0
141
1.0
290
     0
  0
SCALE
  5
59
102
{ACAD_REACTORS
330
47
102
}
330
47
100
AcDbScale
 70
     0
300
1/128" = 1'-0"
140
0.007812
141
12.0
290
     0
  0
SCALE
  5
5A
102
{ACAD_REACTORS
330
47
102
}
330
47
100
AcDbScale
 70
     0
300
1/64" = 1'-0"
140
0.015625
141
12.0
290
     0
  0
SCALE
  5
5B
102
{ACAD_REACTORS
330
47
102
}
330
47
100
AcDbScale
 70
     0
300
1/32" = 1'-0"
140
0.03125
141
12.0
290
     0
  0
SCALE
  5
5C
102
{ACAD_REACTORS
330
47
102
}
330
47
100
AcDbScale
 70
     0
300
1/16" = 1'-0"
140
0.0625
141
12.0
290
     0
  0
SCALE
  5
5D
102
{ACAD_REACTORS
330
47
102
}
330
47
100
AcDbScale
 70
     0
300
3/32" = 1'-0"
140
0.09375
141
12.0
290
     0
  0
SCALE
  5
5E
102
{ACAD_REACTORS
330
47
102
}
330
47
100
AcDbScale
 70
     0
300
1/8" = 1'-0"
140
0.125
141
12.0
290
     0
  0
SCALE
  5
5F
102
{ACAD_REACTORS
330
47
102
}
330
47
100
AcDbScale
 70
     0
300
3/16" = 1'-0"
140
0.1875
141
12.0
290
     0
  0
SCALE
  5
60
102
{ACAD_REACTORS
330
47
102
}
330
47
100
AcDbScale
 70
     0
300
1/4" = 1'-0"
140
0.25
141
12.0
290
     0
  0
SCALE
  5
61
102
{ACAD_REACTORS
330
47
102
}
330
47
100
AcDbScale
 70
     0
300
3/8" = 1'-0"
140
0.375
141
12.0
290
     0
  0
SCALE
  5
62
102
{ACAD_REACTORS
330
47
102
}
330
47
100
AcDbScale
 70
     0
300
1/2" = 1'-0"
140
0.5
141
12.0
290
     0
  0
SCALE
  5
63
102
{ACAD_REACTORS
330
47
102
}
330
47
100
AcDbScale
 70
     0
300
3/4" = 1'-0"
140
0.75
141
12.0
290
     0
  0
SCALE
  5
64
102
{ACAD_REACTORS
330
47
102
}
330
47
100
AcDbScale
 70
     0
300
1" = 1'-0"
140
1.0
141
12.0
290
     0
  0
SCALE
  5
65
102
{ACAD_REACTORS
330
47
102
}
330
47
100
AcDbScale
 70
     0
300
1-1/2" = 1'-0"
140
1.5
141
12.0
290
     0
  0
SCALE
  5
66
102
{ACAD_REACTORS
330
47
102
}
330
47
100
AcDbScale
 70
     0
300
3" = 1'-0"
140
3.0
141
12.0
290
     0
  0
SCALE
  5
67
102
{ACAD_REACTORS
330
47
102
}
330
47
100
AcDbScale
 70
     0
300
6" = 1'-0"
140
6.0
141
12.0
290
     0
  0
SCALE
  5
68
102
{ACAD_REACTORS
330
47
102
}
330
47
100
AcDbScale
 70
     0
300
1'-0" = 1'-0"
140
12.0
141
12.0
290
     0
  0
ACDBSECTIONVIEWSTYLE
  5
2F7
102
{ACAD_XDICTIONARY
360
390
102
}
102
{ACAD_REACTORS
330
2F3
102
}
330
2F3
100
AcDbModelDocViewStyle
 70
     0
  3
Metric50
290
     0
100
AcDbSectionViewStyle
 70
     0
 71
     0
 90
      102
 71
     1
340
11
 62
   256
 40
5.0
340
0
340
0
 62
   256
 40
5.0
300
I, O, Q, S, X, Z
 40
10.0
 90
        0
 40
2.5
 90
        0
 71
     2
340
16
 90
       25
 62
   256
340
16
 90
       50
 62
   256
 40
5.0
 40
2.5
 40
5.0
 71
     3
340
11
 62
   256
 40
5.0
 90
        0
 40
15.0
 90
        1
300
%<\AcVar ViewSectionStartId>%-%<\AcVar ViewSectionEndId>% (%<\AcVar ViewScale \f "%sn">%)
 71
     4
 62
   256
 62
   257
300
ANSI31
 40
1.0
 90
        0
290
     0
290
     0
 90
        6
 40
0.0
 40
1.570796326794896
 40
0.2617993877991494
 40
1.308996938995747
 40
-0.2617993877991494
 40
1.832595714594046
  0
TABLESTYLE
  5
6A
102
{ACAD_XDICTIONARY
360
2E9
102
}
102
{ACAD_REACTORS
330
69
102
}
330
69
100
AcDbTableStyle
  3
Standard
 70
     0
 71
     0
 40
0.06
 41
0.06
280
     0
281
     0
  7
Standard
140
0.18
170
     2
 62
     0
 63
     7
283
     0
274
    -2
284
     1
 64
     0
275
    -2
285
     1
 65
     0
276
    -2
286
     1
 66
     0
277
    -2
287
     1
 67
     0
278
    -2
288
     1
 68
     0
279
    -2
289
     1
 69
     0
  7
Standard
140
0.25
170
     5
 62
     0
 63
     7
283
     0
274
    -2
284
     1
 64
     0
275
    -2
285
     1
 65
     0
276
    -2
286
     1
 66
     0
277
    -2
287
     1
 67
     0
278
    -2
288
     1
 68
     0
279
    -2
289
     1
 69
     0
  7
Standard
140
0.18
170
     5
 62
     0
 63
     7
283
     0
274
    -2
284
     1
 64
     0
275
    -2
285
     1
 65
     0
276
    -2
286
     1
 66
     0
277
    -2
287
     1
 67
     0
278
    -2
288
     1
 68
     0
279
    -2
289
     1
 69
     0
  0
VISUALSTYLE
  5
2F
102
{ACAD_XDICTIONARY
360
367
102
}
102
{ACAD_REACTORS
330
2A
102
}
330
2A
100
AcDbVisualStyle
  2

 70
     4
 71
     0
 72
     2
 73
     0
 90
        0
 40
-0.6
 41
-30.0
 62
     5
 63
     7
421
 16777215
 74
     1
 91
        4
 64
     7
 65
   257
 75
     1
175
     1
 42
1.0
 92
        0
 66
   257
 43
1.0
 76
     1
 77
     6
 78
     2
 67
     7
 79
     5
170
     0
171
     0
290
     0
174
     0
 93
        1
 44
0.0
173
     0
291
     0
 45
0.0
1001
ACAD
1000
AcDbSavedByObjectVersion
1070
     0
  0
VISUALSTYLE
  5
32
102
{ACAD_XDICTIONARY
360
36D
102
}
102
{ACAD_REACTORS
330
2A
102
}
330
2A
100
AcDbVisualStyle
  2

 70
     7
 71
     1
 72
     0
 73
     1
 90
        0
 40
-0.6
 41
-30.0
 62
     5
 63
     7
421
 16777215
 74
     0
 91
        4
 64
     7
 65
   257
 75
     1
175
     1
 42
1.0
 92
        8
 66
     7
 43
1.0
 76
     1
 77
     6
 78
     2
 67
     7
 79
     5
170
     0
171
     0
290
     0
174
     0
 93
        1
 44
0.0
173
     0
291
     1
 45
0.0
1001
ACAD
1000
AcDbSavedByObjectVersion
1070
     0
  0
VISUALSTYLE
  5
36
102
{ACAD_XDICTIONARY
360
375
102
}
102
{ACAD_REACTORS
330
2A
102
}
330
2A
100
AcDbVisualStyle
  2

 70
    12
 71
     2
 72
     2
 73
     0
 90
        0
 40
-0.6
 41
-30.0
 62
     5
 63
     7
421
 16777215
 74
     1
 91
        4
 64
     7
 65
   257
 75
     1
175
     1
 42
1.0
 92
        8
 66
     7
 43
1.0
 76
     1
 77
     6
 78
     2
 67
     7
 79
     5
170
     0
171
     0
290
     0
174
     0
 93
        1
 44
50.0
173
     0
291
     1
 45
0.0
1001
ACAD
1000
AcDbSavedByObjectVersion
1070
     0
  0
VISUALSTYLE
  5
3A
102
{ACAD_XDICTIONARY
360
37D
102
}
102
{ACAD_REACTORS
330
2A
102
}
330
2A
100
AcDbVisualStyle
  2

 70
    16
 71
     2
 72
     2
 73
     3
 90
        0
 40
-0.6
 41
-30.0
 62
     5
 63
     8
421
  8421504
 74
     1
 91
        4
 64
     7
 65
   257
 75
     1
175
     1
 42
1.0
 92
        8
 66
     8
424
  8421504
 43
1.0
 76
     1
 77
     6
 78
     2
 67
     7
 79
     5
170
     0
171
     0
290
     0
174
     0
 93
        1
 44
0.0
173
     0
291
     1
 45
0.0
1001
ACAD
1000
AcDbSavedByObjectVersion
1070
     0
  0
VISUALSTYLE
  5
34
102
{ACAD_XDICTIONARY
360
371
102
}
102
{ACAD_REACTORS
330
2A
102
}
330
2A
100
AcDbVisualStyle
  2

 70
     9
 71
     3
 72
     2
 73
     0
 90
        0
 40
-0.6
 41
-30.0
 62
     5
 63
     7
421
 16777215
 74
     2
 91
        2
 64
     7
 65
   257
 75
     1
175
     1
 42
179.0
 92
        8
 66
     7
 43
1.0
 76
     1
 77
     6
 78
     2
 67
     7
 79
     3
170
     0
171
     0
290
     0
174
     0
 93
        1
 44
0.0
173
     0
291
     0
 45
0.0
1001
ACAD
1000
AcDbSavedByObjectVersion
1070
     0
  0
VISUALSTYLE
  5
35
102
{ACAD_XDICTIONARY
360
373
102
}
102
{ACAD_REACTORS
330
2A
102
}
330
2A
100
AcDbVisualStyle
  2

 70
    11
 71
     2
 72
     2
 73
     0
 90
        0
 40
-0.6
 41
-30.0
 62
     5
 63
     7
421
 16777215
 74
     1
 91
        4
 64
     7
 65
   257
 75
     1
175
     1
 42
1.0
 92
        8
 66
     7
 43
1.0
 76
     1
 77
     6
 78
     2
 67
     7
 79
     5
170
     0
171
     0
290
     0
174
     0
 93
        1
 44
-50.0
173
     0
291
     1
 45
0.0
1001
ACAD
1000
AcDbSavedByObjectVersion
1070
     0
  0
VISUALSTYLE
  5
3D
102
{ACAD_XDICTIONARY
360
383
102
}
102
{ACAD_REACTORS
330
2A
102
}
330
2A
100
AcDbVisualStyle
  2

 70
    22
 71
     2
 72
     2
 73
     0
 90
        0
 40
-0.6
 41
-30.0
 62
     5
 63
     7
421
 16777215
 74
     1
 91
        4
 64
     7
 65
   257
 75
     1
175
     1
 42
1.0
 92
        8
 66
     7
 43
1.0
 76
     1
 77
     6
 78
     2
 67
     7
 79
     5
170
     0
171
     0
290
     0
174
     0
 93
        1
 44
0.0
173
     0
291
     1
 45
0.0
1001
ACAD
1000
AcDbSavedByObjectVersion
1070
     0
  0
VISUALSTYLE
  5
39
102
{ACAD_XDICTIONARY
360
37B
102
}
102
{ACAD_REACTORS
330
2A
102
}
330
2A
100
AcDbVisualStyle
  2

 70
    15
 71
     2
 72
     2
 73
     0
 90
        0
 40
-0.6
 41
-30.0
 62
     5
 63
     7
421
 16777215
 74
     1
 91
        4
 64
     7
 65
   257
 75
     1
175
     1
 42
1.0
 92
        8
 66
     7
 43
1.0
 76
     1
 77
     6
 78
     2
 67
     7
 79
     5
170
     0
171
     0
290
     0
174
     0
 93
        1
 44
0.0
173
     0
291
     1
 45
0.0
1001
ACAD
1000
AcDbSavedByObjectVersion
1070
     0
  0
VISUALSTYLE
  5
2B
102
{ACAD_XDICTIONARY
360
35F
102
}
102
{ACAD_REACTORS
330
2A
102
}
330
2A
100
AcDbVisualStyle
  2

 70
     0
 71
     2
 72
     1
 73
     1
 90
        2
 40
-0.6
 41
30.0
 62
     5
 63
     7
421
 16777215
 74
     0
 91
        0
 64
     7
 65
   257
 75
     1
175
     1
 42
1.0
 92
        8
 66
     7
 43
1.0
 76
     1
 77
     6
 78
     2
 67
     7
 79
     5
170
     0
171
     0
290
     0
174
     0
 93
       13
 44
0.0
173
     0
291
     1
 45
0.0
1001
ACAD
1000
AcDbSavedByObjectVersion
1070
     0
  0
VISUALSTYLE
  5
2C
102
{ACAD_XDICTIONARY
360
361
102
}
102
{ACAD_REACTORS
330
2A
102
}
330
2A
100
AcDbVisualStyle
  2

 70
     1
 71
     2
 72
     1
 73
     1
 90
        2
 40
-0.6
 41
30.0
 62
     5
 63
     7
421
 16777215
 74
     1
 91
        0
 64
     7
 65
   257
 75
     1
175
     1
 42
1.0
 92
        0
 66
   257
 43
1.0
 76
     1
 77
     6
 78
     2
 67
     7
 79
     5
170
     0
171
     0
290
     0
174
     0
 93
       13
 44
0.0
173
     0
291
     1
 45
0.0
1001
ACAD
1000
AcDbSavedByObjectVersion
1070
     0
  0
VISUALSTYLE
  5
2D
102
{ACAD_XDICTIONARY
360
363
102
}
102
{ACAD_REACTORS
330
2A
102
}
330
2A
100
AcDbVisualStyle
  2

 70
     2
 71
     2
 72
     2
 73
     1
 90
        2
 40
-0.6
 41
30.0
 62
     5
 63
     7
421
 16777215
 74
     0
 91
        0
 64
     7
 65
   257
 75
     1
175
     1
 42
1.0
 92
        0
 66
     7
 43
1.0
 76
     1
 77
     6
 78
     2
 67
     7
 79
     5
170
     0
171
     0
290
     0
174
     0
 93
       13
 44
0.0
173
     0
291
     1
 45
0.0
1001
ACAD
1000
AcDbSavedByObjectVersion
1070
     0
  0
VISUALSTYLE
  5
2E
102
{ACAD_XDICTIONARY
360
365
102
}
102
{ACAD_REACTORS
330
2A
102
}
330
2A
100
AcDbVisualStyle
  2

 70
     3
 71
     2
 72
     2
 73
     1
 90
        2
 40
-0.6
 41
30.0
 62
     5
 63
     7
421
 16777215
 74
     1
 91
        0
 64
     7
 65
   257
 75
     1
175
     1
 42
1.0
 92
        0
 66
   257
 43
1.0
 76
     1
 77
     6
 78
     2
 67
     7
 79
     5
170
     0
171
     0
290
     0
174
     0
 93
       13
 44
0.0
173
     0
291
     1
 45
0.0
1001
ACAD
1000
AcDbSavedByObjectVersion
1070
     0
  0
VISUALSTYLE
  5
31
102
{ACAD_XDICTIONARY
360
36B
102
}
102
{ACAD_REACTORS
330
2A
102
}
330
2A
100
AcDbVisualStyle
  2

 70
     6
 71
     1
 72
     2
 73
     2
 90
        0
 40
-0.6
 41
-30.0
 62
     5
 63
     7
421
 16777215
 74
     2
 91
        2
 64
     7
 65
   257
 75
     2
175
     1
 42
40.0
 92
        0
 66
   257
 43
1.0
 76
     1
 77
     6
 78
     2
 67
     7
 79
     3
170
     0
171
     0
290
     0
174
     0
 93
        1
 44
0.0
173
     0
291
     0
 45
0.0
1001
ACAD
1000
AcDbSavedByObjectVersion
1070
     0
  0
VISUALSTYLE
  5
3B
102
{ACAD_XDICTIONARY
360
37F
102
}
102
{ACAD_REACTORS
330
2A
102
}
330
2A
100
AcDbVisualStyle
  2

 70
    20
 71
     2
 72
     2
 73
     0
 90
        0
 40
-0.6
 41
-30.0
 62
     5
 63
     7
421
 16777215
 74
     1
 91
        4
 64
     7
 65
   257
 75
     1
175
     1
 42
1.0
 92
       10
 66
     7
 43
1.0
 76
     1
 77
     6
 78
     2
 67
     7
 79
     5
170
     0
171
     0
290
     0
174
     0
 93
        1
 44
0.0
173
     0
291
     1
 45
0.0
1001
ACAD
1000
AcDbSavedByObjectVersion
1070
     0
  0
VISUALSTYLE
  5
38
102
{ACAD_XDICTIONARY
360
379
102
}
102
{ACAD_REACTORS
330
2A
102
}
330
2A
100
AcDbVisualStyle
  2

 70
    14
 71
     2
 72
     2
 73
     0
 90
        0
 40
-0.6
 41
-30.0
 62
     5
 63
     7
421
 16777215
 74
     1
 91
        4
 64
     7
 65
   257
 75
     7
175
     7
 42
1.0
 92
        8
 66
     7
 43
1.0
 76
     1
 77
     6
 78
     2
 67
     7
 79
     5
170
     0
171
     0
290
     0
174
     0
 93
        1
 44
0.0
173
     0
291
     1
 45
0.0
1001
ACAD
1000
AcDbSavedByObjectVersion
1070
     0
  0
VISUALSTYLE
  5
3C
102
{ACAD_XDICTIONARY
360
381
102
}
102
{ACAD_REACTORS
330
2A
102
}
330
2A
100
AcDbVisualStyle
  2

 70
    21
 71
     2
 72
     2
 73
     0
 90
        0
 40
-0.6
 41
-30.0
 62
     5
 63
     7
421
 16777215
 74
     1
 91
        4
 64
     7
 65
   257
 75
     1
175
     1
 42
1.0
 92
        9
 66
     7
 43
1.0
 76
     1
 77
     6
 78
     2
 67
     7
 79
     5
170
     0
171
     0
290
     0
174
     0
 93
        1
 44
0.0
173
     0
291
     1
 45
0.0
1001
ACAD
1000
AcDbSavedByObjectVersion
1070
     0
  0
VISUALSTYLE
  5
33
102
{ACAD_XDICTIONARY
360
36F
102
}
102
{ACAD_REACTORS
330
2A
102
}
330
2A
100
AcDbVisualStyle
  2

 70
     8
 71
     2
 72
     3
 73
     0
 90
        2
 40
-0.6
 41
30.0
 62
     5
 63
     7
421
 16777215
 74
     0
 91
        0
 64
     7
 65
   257
 75
     1
175
     1
 42
1.0
 92
        8
 66
   257
 43
1.0
 76
     1
 77
     6
 78
     2
 67
     7
 79
     3
170
     0
171
     0
290
     0
174
     0
 93
       13
 44
0.0
173
     0
291
     0
 45
0.0
1001
ACAD
1000
AcDbSavedByObjectVersion
1070
     0
  0
VISUALSTYLE
  5
42
102
{ACAD_XDICTIONARY
360
38D
102
}
102
{ACAD_REACTORS
330
2A
102
}
330
2A
100
AcDbVisualStyle
  2

 70
    27
 71
     2
 72
     2
 73
     1
 90
        2
 40
-0.6
 41
30.0
 62
     5
 63
     7
421
 16777215
 74
     0
 91
        4
 64
     7
 65
   257
 75
     1
175
     1
 42
1.0
 92
        8
 66
   257
 43
1.0
 76
     1
 77
     6
 78
     2
 67
     8
425
  7895160
 79
     3
170
     0
171
     0
290
     0
174
     0
 93
        5
 44
0.0
173
     0
291
     0
 45
0.0
1001
ACAD
1000
AcDbSavedByObjectVersion
1070
     0
  0
VISUALSTYLE
  5
41
102
{ACAD_XDICTIONARY
360
38B
102
}
102
{ACAD_REACTORS
330
2A
102
}
330
2A
100
AcDbVisualStyle
  2

 70
    26
 71
     2
 72
     2
 73
     1
 90
        2
 40
-0.6
 41
30.0
 62
     5
 63
     7
421
 16777215
 74
     1
 91
       10
 64
     7
 65
   257
 75
     2
175
     1
 42
1.0
 92
        8
 66
   257
 43
1.0
 76
     1
 77
     6
 78
     2
 67
     7
 79
     3
170
     0
171
     0
290
     0
174
     0
 93
        5
 44
0.0
173
     0
291
     0
 45
0.0
1001
ACAD
1000
AcDbSavedByObjectVersion
1070
     0
  0
VISUALSTYLE
  5
3E
102
{ACAD_XDICTIONARY
360
385
102
}
102
{ACAD_REACTORS
330
2A
102
}
330
2A
100
AcDbVisualStyle
  2

 70
    23
 71
     2
 72
     2
 73
     3
 90
        0
 40
-0.6
 41
-30.0
 62
     5
 63
     7
421
 16777215
 74
     2
 91
        2
 64
     7
 65
     7
 75
     1
175
     1
 42
40.0
 92
        8
 66
     7
 43
1.0
 76
     1
 77
     6
 78
     2
 67
     7
 79
     3
170
     0
171
     0
290
     0
174
     0
 93
        1
 44
0.0
173
     0
291
     0
 45
0.0
1001
ACAD
1000
AcDbSavedByObjectVersion
1070
     0
  0
VISUALSTYLE
  5
3F
102
{ACAD_XDICTIONARY
360
387
102
}
102
{ACAD_REACTORS
330
2A
102
}
330
2A
100
AcDbVisualStyle
  2

 70
    24
 71
     1
 72
     2
 73
     2
 90
        0
 40
-0.6
 41
-30.0
 62
     5
 63
     7
421
 16777215
 74
     2
 91
        2
 64
     7
 65
     7
 75
     1
175
     1
 42
40.0
 92
       11
 66
     7
 43
1.0
 76
     1
 77
     6
 78
     2
 67
     7
 79
     6
170
     0
171
     0
290
     0
174
     0
 93
        1
 44
0.0
173
     0
291
     0
 45
0.0
1001
ACAD
1000
AcDbSavedByObjectVersion
1070
     0
  0
VISUALSTYLE
  5
37
102
{ACAD_XDICTIONARY
360
377
102
}
102
{ACAD_REACTORS
330
2A
102
}
330
2A
100
AcDbVisualStyle
  2

 70
    13
 71
     2
 72
     2
 73
     0
 90
        0
 40
-0.6
 41
-30.0
 62
     5
 63
     7
421
 16777215
 74
     1
 91
        4
 64
     7
 65
   257
 75
     1
175
     1
 42
1.0
 92
       12
 66
     7
 43
1.0
 76
     1
 77
     6
 78
     2
 67
     7
 79
     5
170
     0
171
     0
290
     0
174
     0
 93
        1
 44
0.0
173
     0
291
     1
 45
0.0
1001
ACAD
1000
AcDbSavedByObjectVersion
1070
     0
  0
VISUALSTYLE
  5
30
102
{ACAD_XDICTIONARY
360
369
102
}
102
{ACAD_REACTORS
330
2A
102
}
330
2A
100
AcDbVisualStyle
  2

 70
     5
 71
     0
 72
     2
 73
     0
 90
        0
 40
-0.6
 41
-30.0
 62
     5
 63
     7
421
 16777215
 74
     1
 91
        4
 64
     7
 65
   257
 75
     1
175
     1
 42
1.0
 92
        0
 66
   257
 43
1.0
 76
     1
 77
     6
 78
     2
 67
     7
 79
     3
170
     0
171
     0
290
     0
174
     0
 93
        1
 44
0.0
173
     0
291
     0
 45
0.0
1001
ACAD
1000
AcDbSavedByObjectVersion
1070
     0
  0
VISUALSTYLE
  5
40
102
{ACAD_XDICTIONARY
360
389
102
}
102
{ACAD_REACTORS
330
2A
102
}
330
2A
100
AcDbVisualStyle
  2

 70
    25
 71
     2
 72
     2
 73
     1
 90
        1
 40
0.5
 41
-30.0
 62
     5
 63
     7
421
 16777215
 74
     1
 91
        0
 64
     7
 65
   257
 75
     1
175
     1
 42
1.0
 92
        8
 66
     7
 43
1.0
 76
     1
 77
     6
 78
     2
 67
     7
 79
     3
170
     0
171
     0
290
     0
174
     0
 93
       13
 44
0.0
173
     0
291
     0
 45
0.0
1001
ACAD
1000
AcDbSavedByObjectVersion
1070
     0
  0
DICTIONARYVAR
  5
2B0
102
{ACAD_REACTORS
330
2AF
102
}
330
2AF
100
DictionaryVariables
280
     0
  1
1:1
  0
DICTIONARYVAR
  5
2F1
102
{ACAD_REACTORS
330
2AF
102
}
330
2AF
100
DictionaryVariables
280
     0
  1
STANDARD
  0
DICTIONARYVAR
  5
2F0
102
{ACAD_REACTORS
330
2AF
102
}
330
2AF
100
DictionaryVariables
280
     0
  1
STANDARD
  0
DICTIONARYVAR
  5
359
102
{ACAD_REACTORS
330
2AF
102
}
330
2AF
100
DictionaryVariables
280
     0
  1
Metric50
  0
DICTIONARYVAR
  5
35A
102
{ACAD_REACTORS
330
2AF
102
}
330
2AF
100
DictionaryVariables
280
     0
  1
Metric50
  0
DICTIONARYVAR
  5
2B1
102
{ACAD_REACTORS
330
2AF
102
}
330
2AF
100
DictionaryVariables
280
     0
  1
1
  0
DICTIONARYVAR
  5
35B
102
{ACAD_REACTORS
330
2AF
102
}
330
2AF
100
DictionaryVariables
280
     0
  1
2
  0
DICTIONARY
  5
392
330
2F8
100
AcDbDictionary
280
     1
281
     1
  3
ACAD_XREC_ROUNDTRIP
360
393
  0
DICTIONARY
  5
2E5
330
45
100
AcDbDictionary
280
     1
281
     1
  3
ACAD_XREC_ROUNDTRIP
360
2E6
  0
DICTIONARY
  5
2E3
330
44
100
AcDbDictionary
280
     1
281
     1
  3
ACAD_XREC_ROUNDTRIP
360
2E4
  0
DICTIONARY
  5
2E7
330
46
100
AcDbDictionary
280
     1
281
     1
  3
ACAD_XREC_ROUNDTRIP
360
2E8
  0
DICTIONARY
  5
390
330
2F7
100
AcDbDictionary
280
     1
281
     1
  3
ACAD_XREC_ROUNDTRIP
360
391
  0
DICTIONARY
  5
2E9
330
6A
100
AcDbDictionary
280
     1
281
     1
  3
ACAD_ROUNDTRIP_2008_TABLESTYLE_CELLSTYLEMAP
360
35D
  3
ACAD_XREC_ROUNDTRIP
360
38F
  0
DICTIONARY
  5
367
330
2F
100
AcDbDictionary
280
     1
281
     1
  3
ACAD_XREC_ROUNDTRIP
360
368
  0
DICTIONARY
  5
36D
330
32
100
AcDbDictionary
280
     1
281
     1
  3
ACAD_XREC_ROUNDTRIP
360
36E
  0
DICTIONARY
  5
375
330
36
100
AcDbDictionary
280
     1
281
     1
  3
ACAD_XREC_ROUNDTRIP
360
376
  0
DICTIONARY
  5
37D
330
3A
100
AcDbDictionary
280
     1
281
     1
  3
ACAD_XREC_ROUNDTRIP
360
37E
  0
DICTIONARY
  5
371
330
34
100
AcDbDictionary
280
     1
281
     1
  3
ACAD_XREC_ROUNDTRIP
360
372
  0
DICTIONARY
  5
373
330
35
100
AcDbDictionary
280
     1
281
     1
  3
ACAD_XREC_ROUNDTRIP
360
374
  0
DICTIONARY
  5
383
330
3D
100
AcDbDictionary
280
     1
281
     1
  3
ACAD_XREC_ROUNDTRIP
360
384
  0
DICTIONARY
  5
37B
330
39
100
AcDbDictionary
280
     1
281
     1
  3
ACAD_XREC_ROUNDTRIP
360
37C
  0
DICTIONARY
  5
35F
330
2B
100
AcDbDictionary
280
     1
281
     1
  3
ACAD_XREC_ROUNDTRIP
360
360
  0
DICTIONARY
  5
361
330
2C
100
AcDbDictionary
280
     1
281
     1
  3
ACAD_XREC_ROUNDTRIP
360
362
  0
DICTIONARY
  5
363
330
2D
100
AcDbDictionary
280
     1
281
     1
  3
ACAD_XREC_ROUNDTRIP
360
364
  0
DICTIONARY
  5
365
330
2E
100
AcDbDictionary
280
     1
281
     1
  3
ACAD_XREC_ROUNDTRIP
360
366
  0
DICTIONARY
  5
36B
330
31
100
AcDbDictionary
280
     1
281
     1
  3
ACAD_XREC_ROUNDTRIP
360
36C
  0
DICTIONARY
  5
37F
330
3B
100
AcDbDictionary
280
     1
281
     1
  3
ACAD_XREC_ROUNDTRIP
360
380
  0
DICTIONARY
  5
379
330
38
100
AcDbDictionary
280
     1
281
     1
  3
ACAD_XREC_ROUNDTRIP
360
37A
  0
DICTIONARY
  5
381
330
3C
100
AcDbDictionary
280
     1
281
     1
  3
ACAD_XREC_ROUNDTRIP
360
382
  0
DICTIONARY
  5
36F
330
33
100
AcDbDictionary
280
     1
281
     1
  3
ACAD_XREC_ROUNDTRIP
360
370
  0
DICTIONARY
  5
38D
330
42
100
AcDbDictionary
280
     1
281
     1
  3
ACAD_XREC_ROUNDTRIP
360
38E
  0
DICTIONARY
  5
38B
330
41
100
AcDbDictionary
280
     1
281
     1
  3
ACAD_XREC_ROUNDTRIP
360
38C
  0
DICTIONARY
  5
385
330
3E
100
AcDbDictionary
280
     1
281
     1
  3
ACAD_XREC_ROUNDTRIP
360
386
  0
DICTIONARY
  5
387
330
3F
100
AcDbDictionary
280
     1
281
     1
  3
ACAD_XREC_ROUNDTRIP
360
388
  0
DICTIONARY
  5
377
330
37
100
AcDbDictionary
280
     1
281
     1
  3
ACAD_XREC_ROUNDTRIP
360
378
  0
DICTIONARY
  5
369
330
30
100
AcDbDictionary
280
     1
281
     1
  3
ACAD_XREC_ROUNDTRIP
360
36A
  0
DICTIONARY
  5
389
330
40
100
AcDbDictionary
280
     1
281
     1
  3
ACAD_XREC_ROUNDTRIP
360
38A
  0
XRECORD
  5
393
102
{ACAD_REACTORS
330
392
102
}
330
392
100
AcDbXrecord
280
     1
102
DISPLAYNAME
  1
Metric50
102
FLAGS
 90
        0
  0
XRECORD
  5
2E6
102
{ACAD_REACTORS
330
2E5
102
}
330
2E5
100
AcDbXrecord
280
     1
102
MATERIAL
148
0.0
149
0.0
149
0.0
 93
        0
 94
      127
282
     0
 72
     1
 77
     1
171
     1
175
     1
179
     1
273
     0
  0
XRECORD
  5
2E4
102
{ACAD_REACTORS
330
2E3
102
}
330
2E3
100
AcDbXrecord
280
     1
102
MATERIAL
148
0.0
149
0.0
149
0.0
 93
        0
 94
      127
282
     0
 72
     1
 77
     1
171
     1
175
     1
179
     1
273
     0
  0
XRECORD
  5
2E8
102
{ACAD_REACTORS
330
2E7
102
}
330
2E7
100
AcDbXrecord
280
     1
102
MATERIAL
148
0.0
149
0.0
149
0.0
 93
        0
 94
      127
282
     0
 72
     1
 77
     1
171
     1
175
     1
179
     1
273
     0
  0
XRECORD
  5
391
102
{ACAD_REACTORS
330
390
102
}
330
390
100
AcDbXrecord
280
     1
102
DISPLAYNAME
  1
Metric50
102
FLAGS
 90
        0
  0
CELLSTYLEMAP
  5
35D
102
{ACAD_REACTORS
330
2E9
102
}
330
2E9
100
AcDbCellStyleMap
 90
        3
300
CELLSTYLE
  1
TABLEFORMAT_BEGIN
 90
        5
170
     1
 91
        0
 92
    32768
 62
   257
 93
        1
300
CONTENTFORMAT
  1
CONTENTFORMAT_BEGIN
 90
        0
 91
        0
 92
        4
 93
        0
300

 40
0.0
140
1.0
 94
        5
 62
     0
340
11
144
0.25
309
CONTENTFORMAT_END
171
     1
301
MARGIN
  1
CELLMARGIN_BEGIN
 40
0.06
 40
0.06
 40
0.06
 40
0.06
 40
0.18
 40
0.18
309
CELLMARGIN_END
 94
        6
 95
        1
302
GRIDFORMAT
  1
GRIDFORMAT_BEGIN
 90
        0
 91
        1
 62
     0
 92
       -2
340
14
 93
        0
 40
0.045
309
GRIDFORMAT_END
 95
        2
302
GRIDFORMAT
  1
GRIDFORMAT_BEGIN
 90
        0
 91
        1
 62
     0
 92
       -2
340
14
 93
        0
 40
0.045
309
GRIDFORMAT_END
 95
        4
302
GRIDFORMAT
  1
GRIDFORMAT_BEGIN
 90
        0
 91
        1
 62
     0
 92
       -2
340
14
 93
        0
 40
0.045
309
GRIDFORMAT_END
 95
        8
302
GRIDFORMAT
  1
GRIDFORMAT_BEGIN
 90
        0
 91
        1
 62
     0
 92
       -2
340
14
 93
        0
 40
0.045
309
GRIDFORMAT_END
 95
       16
302
GRIDFORMAT
  1
GRIDFORMAT_BEGIN
 90
        0
 91
        1
 62
     0
 92
       -2
340
14
 93
        0
 40
0.045
309
GRIDFORMAT_END
 95
       32
302
GRIDFORMAT
  1
GRIDFORMAT_BEGIN
 90
        0
 91
        1
 62
     0
 92
       -2
340
14
 93
        0
 40
0.045
309
GRIDFORMAT_END
309
TABLEFORMAT_END
  1
CELLSTYLE_BEGIN
 90
        1
 91
        1
300
_TITLE
309
CELLSTYLE_END
300
CELLSTYLE
  1
TABLEFORMAT_BEGIN
 90
        5
170
     1
 91
        0
 92
        0
 62
   257
 93
        1
300
CONTENTFORMAT
  1
CONTENTFORMAT_BEGIN
 90
        0
 91
        0
 92
        4
 93
        0
300

 40
0.0
140
1.0
 94
        5
 62
     0
340
11
144
0.18
309
CONTENTFORMAT_END
171
     1
301
MARGIN
  1
CELLMARGIN_BEGIN
 40
0.06
 40
0.06
 40
0.06
 40
0.06
 40
0.18
 40
0.18
309
CELLMARGIN_END
 94
        6
 95
        1
302
GRIDFORMAT
  1
GRIDFORMAT_BEGIN
 90
        0
 91
        1
 62
     0
 92
       -2
340
14
 93
        0
 40
0.045
309
GRIDFORMAT_END
 95
        2
302
GRIDFORMAT
  1
GRIDFORMAT_BEGIN
 90
        0
 91
        1
 62
     0
 92
       -2
340
14
 93
        0
 40
0.045
309
GRIDFORMAT_END
 95
        4
302
GRIDFORMAT
  1
GRIDFORMAT_BEGIN
 90
        0
 91
        1
 62
     0
 92
       -2
340
14
 93
        0
 40
0.045
309
GRIDFORMAT_END
 95
        8
302
GRIDFORMAT
  1
GRIDFORMAT_BEGIN
 90
        0
 91
        1
 62
     0
 92
       -2
340
14
 93
        0
 40
0.045
309
GRIDFORMAT_END
 95
       16
302
GRIDFORMAT
  1
GRIDFORMAT_BEGIN
 90
        0
 91
        1
 62
     0
 92
       -2
340
14
 93
        0
 40
0.045
309
GRIDFORMAT_END
 95
       32
302
GRIDFORMAT
  1
GRIDFORMAT_BEGIN
 90
        0
 91
        1
 62
     0
 92
       -2
340
14
 93
        0
 40
0.045
309
GRIDFORMAT_END
309
TABLEFORMAT_END
  1
CELLSTYLE_BEGIN
 90
        2
 91
        1
300
_HEADER
309
CELLSTYLE_END
300
CELLSTYLE
  1
TABLEFORMAT_BEGIN
 90
        5
170
     1
 91
        0
 92
        0
 62
   257
 93
        1
300
CONTENTFORMAT
  1
CONTENTFORMAT_BEGIN
 90
        0
 91
        0
 92
        4
 93
        0
300

 40
0.0
140
1.0
 94
        2
 62
     0
340
11
144
0.18
309
CONTENTFORMAT_END
171
     1
301
MARGIN
  1
CELLMARGIN_BEGIN
 40
0.06
 40
0.06
 40
0.06
 40
0.06
 40
0.18
 40
0.18
309
CELLMARGIN_END
 94
        6
 95
        1
302
GRIDFORMAT
  1
GRIDFORMAT_BEGIN
 90
        0
 91
        1
 62
     0
 92
       -2
340
14
 93
        0
 40
0.045
309
GRIDFORMAT_END
 95
        2
302
GRIDFORMAT
  1
GRIDFORMAT_BEGIN
 90
        0
 91
        1
 62
     0
 92
       -2
340
14
 93
        0
 40
0.045
309
GRIDFORMAT_END
 95
        4
302
GRIDFORMAT
  1
GRIDFORMAT_BEGIN
 90
        0
 91
        1
 62
     0
 92
       -2
340
14
 93
        0
 40
0.045
309
GRIDFORMAT_END
 95
        8
302
GRIDFORMAT
  1
GRIDFORMAT_BEGIN
 90
        0
 91
        1
 62
     0
 92
       -2
340
14
 93
        0
 40
0.045
309
GRIDFORMAT_END
 95
       16
302
GRIDFORMAT
  1
GRIDFORMAT_BEGIN
 90
        0
 91
        1
 62
     0
 92
       -2
340
14
 93
        0
 40
0.045
309
GRIDFORMAT_END
 95
       32
302
GRIDFORMAT
  1
GRIDFORMAT_BEGIN
 90
        0
 91
        1
 62
     0
 92
       -2
340
14
 93
        0
 40
0.045
309
GRIDFORMAT_END
309
TABLEFORMAT_END
  1
CELLSTYLE_BEGIN
 90
        3
 91
        2
300
_DATA
309
CELLSTYLE_END
  0
XRECORD
  5
38F
102
{ACAD_REACTORS
330
2E9
102
}
330
2E9
100
AcDbXrecord
280
     1
102
ACAD_ROUNDTRIP_PRE2007_TABLESTYLE
 90
        4
 91
        0
  1

 92
        4
 93
        0
  2

 94
        4
 95
        0
  3

  0
XRECORD
  5
368
102
{ACAD_REACTORS
330
367
102
}
330
367
100
AcDbXrecord
280
     1
102
RTVSPost2010Prop28
280
     1
102
RTVSPost2010PropOp28
 70
     1
102
RTVSPost2010Prop29
280
     1
102
RTVSPost2010PropOp29
 70
     1
102
RTVSPost2010Prop30
280
     0
102
RTVSPost2010PropOp30
 70
     1
102
RTVSPost2010Prop31
280
     0
102
RTVSPost2010PropOp31
 70
     1
102
RTVSPost2010Prop32
280
     0
102
RTVSPost2010PropOp32
 70
     1
102
RTVSPost2010Prop33
280
     0
102
RTVSPost2010PropOp33
 70
     1
102
RTVSPost2010Prop34
280
     0
102
RTVSPost2010PropOp34
 70
     1
102
RTVSPost2010Prop35
280
     0
102
RTVSPost2010PropOp35
 70
     1
102
RTVSPost2010Prop36
280
     0
102
RTVSPost2010PropOp36
 70
     1
102
RTVSPost2010Prop37
 90
       50
102
RTVSPost2010PropOp37
 70
     1
102
RTVSPost2010Prop38
140
0.0
102
RTVSPost2010PropOp38
 70
     1
102
RTVSPost2010Prop39
140
1.0
102
RTVSPost2010PropOp39
 70
     1
102
RTVSPost2010Prop40
 90
        0
102
RTVSPost2010PropOp40
 70
     1
102
RTVSPost2010Prop41ColorIndex
 90
       18
102
RTVSPost2010Prop41ColorRGB
 90
        0
102
RTVSPost2010PropOp41
 70
     1
102
RTVSPost2010Prop42
 90
       50
102
RTVSPost2010PropOp42
 70
     1
102
RTVSPost2010Prop43
 90
        3
102
RTVSPost2010PropOp43
 70
     1
102
RTVSPost2010Prop44ColorIndex
 90
        5
102
RTVSPost2010Prop44ColorRGB
 90
      255
102
RTVSPost2010PropOp44
 70
     1
102
RTVSPost2010Prop45
280
     0
102
RTVSPost2010PropOp45
 70
     1
102
RTVSPost2010Prop46
 90
       50
102
RTVSPost2010PropOp46
 70
     1
102
RTVSPost2010Prop47
 90
       50
102
RTVSPost2010PropOp47
 70
     1
102
RTVSPost2010Prop48
 90
       50
102
RTVSPost2010PropOp48
 70
     1
102
RTVSPost2010Prop49
280
     0
102
RTVSPost2010PropOp49
 70
     1
102
RTVSPost2010Prop50
 90
       50
102
RTVSPost2010PropOp50
 70
     1
102
RTVSPost2010Prop51ColorIndex
 90
      256
102
RTVSPost2010Prop51ColorRGB
 90
-16777216
102
RTVSPost2010PropOp51
 70
     0
102
RTVSPost2010Prop52
140
1.0
102
RTVSPost2010PropOp52
 70
     0
102
RTVSPost2010Prop53
 90
        2
102
RTVSPost2010PropOp53
 70
     1
102
RTVSPost2010Prop54
  1
strokes_ogs.tif
102
RTVSPost2010PropOp54
 70
     1
102
RTVSPost2010Prop55
280
     0
102
RTVSPost2010PropOp55
 70
     1
102
RTVSPost2010Prop56
140
1.0
102
RTVSPost2010PropOp56
 70
     1
102
RTVSPost2010Prop57
140
1.0
102
RTVSPost2010PropOp57
 70
     1
102
RTVSPropertyOp0
 70
     1
102
RTVSPropertyOp1
 70
     1
102
RTVSPropertyOp2
 70
     1
102
RTVSPropertyOp3
 70
     1
102
RTVSPropertyOp4
 70
     1
102
RTVSPropertyOp5
 70
     1
102
RTVSPropertyOp6
 70
     1
102
RTVSPropertyOp7
 70
     1
102
RTVSPropertyOp8
 70
     1
102
RTVSPropertyOp9
 70
     1
102
RTVSPropertyOp10
 70
     1
102
RTVSPropertyOp11
 70
     1
102
RTVSPropertyOp12
 70
     1
102
RTVSPropertyOp13
 70
     1
102
RTVSPropertyOp14
 70
     1
102
RTVSPropertyOp15
 70
     1
102
RTVSPropertyOp16
 70
     1
102
RTVSPropertyOp17
 70
     1
102
RTVSPropertyOp18
 70
     1
102
RTVSPropertyOp19
 70
     1
102
RTVSPropertyOp20
 70
     1
102
RTVSPropertyOp21
 70
     1
102
RTVSPropertyOp22
 70
     1
102
RTVSPropertyOp23
 70
     1
102
RTVSPropertyOp24
 70
     1
102
RTVSPropertyOp25
 70
     1
102
RTVSPropertyOp26
 70
     1
102
RTVSPropertyOp27
 70
     1
102
RTVSPropertyOp28
 70
     1
102
RTVSPropertyOp29
 70
     1
102
RTVSPropertyOp30
 70
     1
102
RTVSPropertyOp31
 70
     1
102
RTVSPropertyOp32
 70
     1
102
RTVSPropertyOp33
 70
     1
102
RTVSPropertyOp34
 70
     1
102
RTVSPropertyOp35
 70
     1
102
RTVSPropertyOp36
 70
     1
102
RTVSPropertyOp37
 70
     1
102
RTVSPropertyOp38
 70
     1
102
RTVSPropertyOp39
 70
     1
102
RTVSPropertyOp40
 70
     1
102
RTVSPropertyOp41
 70
     1
102
RTVSPropertyOp42
 70
     1
102
RTVSPropertyOp43
 70
     1
102
RTVSPropertyOp44
 70
     1
102
RTVSPropertyOp45
 70
     1
102
RTVSPropertyOp46
 70
     1
102
RTVSPropertyOp47
 70
     1
102
RTVSPropertyOp48
 70
     1
102
RTVSPropertyOp49
 70
     1
102
RTVSPropertyOp50
 70
     1
102
RTVSPropertyOp51
 70
     0
102
RTVSPropertyOp52
 70
     0
102
RTVSPropertyOp53
 70
     1
102
RTVSPropertyOp54
 70
     1
102
RTVSPropertyOp55
 70
     1
102
RTVSPropertyOp56
 70
     1
102
RTVSPropertyOp57
 70
     1
102
RTVSPropertyOp58
 70
     1
102
RTVSPropertyOp59
 70
     1
102
RTVSPropertyOp60
 70
     1
102
RTVSPropertyOp61
 70
     1
102
RTVSPropertyOp62
 70
     1
  0
XRECORD
  5
36E
102
{ACAD_REACTORS
330
36D
102
}
330
36D
100
AcDbXrecord
280
     1
102
RTVSPost2010Prop28
280
     0
102
RTVSPost2010PropOp28
 70
     1
102
RTVSPost2010Prop29
280
     1
102
RTVSPost2010PropOp29
 70
     1
102
RTVSPost2010Prop30
280
     1
102
RTVSPost2010PropOp30
 70
     1
102
RTVSPost2010Prop31
280
     0
102
RTVSPost2010PropOp31
 70
     1
102
RTVSPost2010Prop32
280
     0
102
RTVSPost2010PropOp32
 70
     1
102
RTVSPost2010Prop33
280
     0
102
RTVSPost2010PropOp33
 70
     1
102
RTVSPost2010Prop34
280
     0
102
RTVSPost2010PropOp34
 70
     1
102
RTVSPost2010Prop35
280
     0
102
RTVSPost2010PropOp35
 70
     1
102
RTVSPost2010Prop36
280
     0
102
RTVSPost2010PropOp36
 70
     1
102
RTVSPost2010Prop37
 90
       50
102
RTVSPost2010PropOp37
 70
     1
102
RTVSPost2010Prop38
140
0.0
102
RTVSPost2010PropOp38
 70
     1
102
RTVSPost2010Prop39
140
1.0
102
RTVSPost2010PropOp39
 70
     1
102
RTVSPost2010Prop40
 90
        0
102
RTVSPost2010PropOp40
 70
     1
102
RTVSPost2010Prop41ColorIndex
 90
       18
102
RTVSPost2010Prop41ColorRGB
 90
        0
102
RTVSPost2010PropOp41
 70
     1
102
RTVSPost2010Prop42
 90
       50
102
RTVSPost2010PropOp42
 70
     1
102
RTVSPost2010Prop43
 90
        3
102
RTVSPost2010PropOp43
 70
     1
102
RTVSPost2010Prop44ColorIndex
 90
        5
102
RTVSPost2010Prop44ColorRGB
 90
      255
102
RTVSPost2010PropOp44
 70
     1
102
RTVSPost2010Prop45
280
     0
102
RTVSPost2010PropOp45
 70
     1
102
RTVSPost2010Prop46
 90
       50
102
RTVSPost2010PropOp46
 70
     1
102
RTVSPost2010Prop47
 90
       50
102
RTVSPost2010PropOp47
 70
     1
102
RTVSPost2010Prop48
 90
       50
102
RTVSPost2010PropOp48
 70
     1
102
RTVSPost2010Prop49
280
     0
102
RTVSPost2010PropOp49
 70
     1
102
RTVSPost2010Prop50
 90
       50
102
RTVSPost2010PropOp50
 70
     1
102
RTVSPost2010Prop51ColorIndex
 90
      256
102
RTVSPost2010Prop51ColorRGB
 90
-16777216
102
RTVSPost2010PropOp51
 70
     0
102
RTVSPost2010Prop52
140
1.0
102
RTVSPost2010PropOp52
 70
     0
102
RTVSPost2010Prop53
 90
        2
102
RTVSPost2010PropOp53
 70
     1
102
RTVSPost2010Prop54
  1
strokes_ogs.tif
102
RTVSPost2010PropOp54
 70
     1
102
RTVSPost2010Prop55
280
     0
102
RTVSPost2010PropOp55
 70
     1
102
RTVSPost2010Prop56
140
1.0
102
RTVSPost2010PropOp56
 70
     1
102
RTVSPost2010Prop57
140
1.0
102
RTVSPost2010PropOp57
 70
     1
102
RTVSPropertyOp0
 70
     1
102
RTVSPropertyOp1
 70
     1
102
RTVSPropertyOp2
 70
     1
102
RTVSPropertyOp3
 70
     1
102
RTVSPropertyOp4
 70
     1
102
RTVSPropertyOp5
 70
     1
102
RTVSPropertyOp6
 70
     1
102
RTVSPropertyOp7
 70
     1
102
RTVSPropertyOp8
 70
     1
102
RTVSPropertyOp9
 70
     1
102
RTVSPropertyOp10
 70
     1
102
RTVSPropertyOp11
 70
     1
102
RTVSPropertyOp12
 70
     1
102
RTVSPropertyOp13
 70
     1
102
RTVSPropertyOp14
 70
     1
102
RTVSPropertyOp15
 70
     1
102
RTVSPropertyOp16
 70
     1
102
RTVSPropertyOp17
 70
     1
102
RTVSPropertyOp18
 70
     1
102
RTVSPropertyOp19
 70
     1
102
RTVSPropertyOp20
 70
     1
102
RTVSPropertyOp21
 70
     1
102
RTVSPropertyOp22
 70
     1
102
RTVSPropertyOp23
 70
     1
102
RTVSPropertyOp24
 70
     1
102
RTVSPropertyOp25
 70
     1
102
RTVSPropertyOp26
 70
     1
102
RTVSPropertyOp27
 70
     1
102
RTVSPropertyOp28
 70
     1
102
RTVSPropertyOp29
 70
     1
102
RTVSPropertyOp30
 70
     1
102
RTVSPropertyOp31
 70
     1
102
RTVSPropertyOp32
 70
     1
102
RTVSPropertyOp33
 70
     1
102
RTVSPropertyOp34
 70
     1
102
RTVSPropertyOp35
 70
     1
102
RTVSPropertyOp36
 70
     1
102
RTVSPropertyOp37
 70
     1
102
RTVSPropertyOp38
 70
     1
102
RTVSPropertyOp39
 70
     1
102
RTVSPropertyOp40
 70
     1
102
RTVSPropertyOp41
 70
     1
102
RTVSPropertyOp42
 70
     1
102
RTVSPropertyOp43
 70
     1
102
RTVSPropertyOp44
 70
     1
102
RTVSPropertyOp45
 70
     1
102
RTVSPropertyOp46
 70
     1
102
RTVSPropertyOp47
 70
     1
102
RTVSPropertyOp48
 70
     1
102
RTVSPropertyOp49
 70
     1
102
RTVSPropertyOp50
 70
     1
102
RTVSPropertyOp51
 70
     0
102
RTVSPropertyOp52
 70
     0
102
RTVSPropertyOp53
 70
     1
102
RTVSPropertyOp54
 70
     1
102
RTVSPropertyOp55
 70
     1
102
RTVSPropertyOp56
 70
     1
102
RTVSPropertyOp57
 70
     1
102
RTVSPropertyOp58
 70
     1
102
RTVSPropertyOp59
 70
     1
102
RTVSPropertyOp60
 70
     1
102
RTVSPropertyOp61
 70
     1
102
RTVSPropertyOp62
 70
     1
  0
XRECORD
  5
376
102
{ACAD_REACTORS
330
375
102
}
330
375
100
AcDbXrecord
280
     1
102
RTVSPost2010Prop28
280
     0
102
RTVSPost2010PropOp28
 70
     1
102
RTVSPost2010Prop29
280
     1
102
RTVSPost2010PropOp29
 70
     1
102
RTVSPost2010Prop30
280
     1
102
RTVSPost2010PropOp30
 70
     1
102
RTVSPost2010Prop31
280
     0
102
RTVSPost2010PropOp31
 70
     1
102
RTVSPost2010Prop32
280
     0
102
RTVSPost2010PropOp32
 70
     1
102
RTVSPost2010Prop33
280
     0
102
RTVSPost2010PropOp33
 70
     1
102
RTVSPost2010Prop34
280
     0
102
RTVSPost2010PropOp34
 70
     1
102
RTVSPost2010Prop35
280
     0
102
RTVSPost2010PropOp35
 70
     1
102
RTVSPost2010Prop36
280
     0
102
RTVSPost2010PropOp36
 70
     1
102
RTVSPost2010Prop37
 90
       50
102
RTVSPost2010PropOp37
 70
     1
102
RTVSPost2010Prop38
140
0.0
102
RTVSPost2010PropOp38
 70
     1
102
RTVSPost2010Prop39
140
1.0
102
RTVSPost2010PropOp39
 70
     1
102
RTVSPost2010Prop40
 90
        0
102
RTVSPost2010PropOp40
 70
     1
102
RTVSPost2010Prop41ColorIndex
 90
       18
102
RTVSPost2010Prop41ColorRGB
 90
        0
102
RTVSPost2010PropOp41
 70
     1
102
RTVSPost2010Prop42
 90
       50
102
RTVSPost2010PropOp42
 70
     1
102
RTVSPost2010Prop43
 90
        3
102
RTVSPost2010PropOp43
 70
     1
102
RTVSPost2010Prop44ColorIndex
 90
        5
102
RTVSPost2010Prop44ColorRGB
 90
      255
102
RTVSPost2010PropOp44
 70
     1
102
RTVSPost2010Prop45
280
     0
102
RTVSPost2010PropOp45
 70
     1
102
RTVSPost2010Prop46
 90
       50
102
RTVSPost2010PropOp46
 70
     1
102
RTVSPost2010Prop47
 90
       50
102
RTVSPost2010PropOp47
 70
     1
102
RTVSPost2010Prop48
 90
       50
102
RTVSPost2010PropOp48
 70
     1
102
RTVSPost2010Prop49
280
     0
102
RTVSPost2010PropOp49
 70
     1
102
RTVSPost2010Prop50
 90
       50
102
RTVSPost2010PropOp50
 70
     1
102
RTVSPost2010Prop51ColorIndex
 90
      256
102
RTVSPost2010Prop51ColorRGB
 90
-16777216
102
RTVSPost2010PropOp51
 70
     0
102
RTVSPost2010Prop52
140
1.0
102
RTVSPost2010PropOp52
 70
     0
102
RTVSPost2010Prop53
 90
        2
102
RTVSPost2010PropOp53
 70
     1
102
RTVSPost2010Prop54
  1
strokes_ogs.tif
102
RTVSPost2010PropOp54
 70
     1
102
RTVSPost2010Prop55
280
     0
102
RTVSPost2010PropOp55
 70
     1
102
RTVSPost2010Prop56
140
1.0
102
RTVSPost2010PropOp56
 70
     1
102
RTVSPost2010Prop57
140
1.0
102
RTVSPost2010PropOp57
 70
     1
102
RTVSPropertyOp0
 70
     1
102
RTVSPropertyOp1
 70
     1
102
RTVSPropertyOp2
 70
     1
102
RTVSPropertyOp3
 70
     1
102
RTVSPropertyOp4
 70
     1
102
RTVSPropertyOp5
 70
     1
102
RTVSPropertyOp6
 70
     1
102
RTVSPropertyOp7
 70
     1
102
RTVSPropertyOp8
 70
     1
102
RTVSPropertyOp9
 70
     1
102
RTVSPropertyOp10
 70
     1
102
RTVSPropertyOp11
 70
     1
102
RTVSPropertyOp12
 70
     1
102
RTVSPropertyOp13
 70
     1
102
RTVSPropertyOp14
 70
     1
102
RTVSPropertyOp15
 70
     1
102
RTVSPropertyOp16
 70
     1
102
RTVSPropertyOp17
 70
     1
102
RTVSPropertyOp18
 70
     1
102
RTVSPropertyOp19
 70
     1
102
RTVSPropertyOp20
 70
     1
102
RTVSPropertyOp21
 70
     1
102
RTVSPropertyOp22
 70
     1
102
RTVSPropertyOp23
 70
     1
102
RTVSPropertyOp24
 70
     1
102
RTVSPropertyOp25
 70
     1
102
RTVSPropertyOp26
 70
     1
102
RTVSPropertyOp27
 70
     1
102
RTVSPropertyOp28
 70
     1
102
RTVSPropertyOp29
 70
     1
102
RTVSPropertyOp30
 70
     1
102
RTVSPropertyOp31
 70
     1
102
RTVSPropertyOp32
 70
     1
102
RTVSPropertyOp33
 70
     1
102
RTVSPropertyOp34
 70
     1
102
RTVSPropertyOp35
 70
     1
102
RTVSPropertyOp36
 70
     1
102
RTVSPropertyOp37
 70
     1
102
RTVSPropertyOp38
 70
     1
102
RTVSPropertyOp39
 70
     1
102
RTVSPropertyOp40
 70
     1
102
RTVSPropertyOp41
 70
     1
102
RTVSPropertyOp42
 70
     1
102
RTVSPropertyOp43
 70
     1
102
RTVSPropertyOp44
 70
     1
102
RTVSPropertyOp45
 70
     1
102
RTVSPropertyOp46
 70
     1
102
RTVSPropertyOp47
 70
     1
102
RTVSPropertyOp48
 70
     1
102
RTVSPropertyOp49
 70
     1
102
RTVSPropertyOp50
 70
     1
102
RTVSPropertyOp51
 70
     0
102
RTVSPropertyOp52
 70
     0
102
RTVSPropertyOp53
 70
     1
102
RTVSPropertyOp54
 70
     1
102
RTVSPropertyOp55
 70
     1
102
RTVSPropertyOp56
 70
     1
102
RTVSPropertyOp57
 70
     1
102
RTVSPropertyOp58
 70
     1
102
RTVSPropertyOp59
 70
     1
102
RTVSPropertyOp60
 70
     1
102
RTVSPropertyOp61
 70
     1
102
RTVSPropertyOp62
 70
     1
  0
XRECORD
  5
37E
102
{ACAD_REACTORS
330
37D
102
}
330
37D
100
AcDbXrecord
280
     1
102
RTVSPost2010Prop28
280
     0
102
RTVSPost2010PropOp28
 70
     1
102
RTVSPost2010Prop29
280
     1
102
RTVSPost2010PropOp29
 70
     1
102
RTVSPost2010Prop30
280
     1
102
RTVSPost2010PropOp30
 70
     1
102
RTVSPost2010Prop31
280
     0
102
RTVSPost2010PropOp31
 70
     1
102
RTVSPost2010Prop32
280
     0
102
RTVSPost2010PropOp32
 70
     1
102
RTVSPost2010Prop33
280
     0
102
RTVSPost2010PropOp33
 70
     1
102
RTVSPost2010Prop34
280
     0
102
RTVSPost2010PropOp34
 70
     1
102
RTVSPost2010Prop35
280
     0
102
RTVSPost2010PropOp35
 70
     1
102
RTVSPost2010Prop36
280
     0
102
RTVSPost2010PropOp36
 70
     1
102
RTVSPost2010Prop37
 90
       50
102
RTVSPost2010PropOp37
 70
     1
102
RTVSPost2010Prop38
140
0.0
102
RTVSPost2010PropOp38
 70
     1
102
RTVSPost2010Prop39
140
1.0
102
RTVSPost2010PropOp39
 70
     1
102
RTVSPost2010Prop40
 90
        0
102
RTVSPost2010PropOp40
 70
     1
102
RTVSPost2010Prop41ColorIndex
 90
       18
102
RTVSPost2010Prop41ColorRGB
 90
        0
102
RTVSPost2010PropOp41
 70
     1
102
RTVSPost2010Prop42
 90
       50
102
RTVSPost2010PropOp42
 70
     1
102
RTVSPost2010Prop43
 90
        3
102
RTVSPost2010PropOp43
 70
     1
102
RTVSPost2010Prop44ColorIndex
 90
        5
102
RTVSPost2010Prop44ColorRGB
 90
      255
102
RTVSPost2010PropOp44
 70
     1
102
RTVSPost2010Prop45
280
     0
102
RTVSPost2010PropOp45
 70
     1
102
RTVSPost2010Prop46
 90
       50
102
RTVSPost2010PropOp46
 70
     1
102
RTVSPost2010Prop47
 90
       50
102
RTVSPost2010PropOp47
 70
     1
102
RTVSPost2010Prop48
 90
       50
102
RTVSPost2010PropOp48
 70
     1
102
RTVSPost2010Prop49
280
     0
102
RTVSPost2010PropOp49
 70
     1
102
RTVSPost2010Prop50
 90
       50
102
RTVSPost2010PropOp50
 70
     1
102
RTVSPost2010Prop51ColorIndex
 90
      256
102
RTVSPost2010Prop51ColorRGB
 90
-16777216
102
RTVSPost2010PropOp51
 70
     0
102
RTVSPost2010Prop52
140
1.0
102
RTVSPost2010PropOp52
 70
     0
102
RTVSPost2010Prop53
 90
        2
102
RTVSPost2010PropOp53
 70
     1
102
RTVSPost2010Prop54
  1
strokes_ogs.tif
102
RTVSPost2010PropOp54
 70
     1
102
RTVSPost2010Prop55
280
     0
102
RTVSPost2010PropOp55
 70
     1
102
RTVSPost2010Prop56
140
1.0
102
RTVSPost2010PropOp56
 70
     1
102
RTVSPost2010Prop57
140
1.0
102
RTVSPost2010PropOp57
 70
     1
102
RTVSPropertyOp0
 70
     1
102
RTVSPropertyOp1
 70
     1
102
RTVSPropertyOp2
 70
     1
102
RTVSPropertyOp3
 70
     1
102
RTVSPropertyOp4
 70
     1
102
RTVSPropertyOp5
 70
     1
102
RTVSPropertyOp6
 70
     1
102
RTVSPropertyOp7
 70
     1
102
RTVSPropertyOp8
 70
     1
102
RTVSPropertyOp9
 70
     1
102
RTVSPropertyOp10
 70
     1
102
RTVSPropertyOp11
 70
     1
102
RTVSPropertyOp12
 70
     1
102
RTVSPropertyOp13
 70
     1
102
RTVSPropertyOp14
 70
     1
102
RTVSPropertyOp15
 70
     1
102
RTVSPropertyOp16
 70
     1
102
RTVSPropertyOp17
 70
     1
102
RTVSPropertyOp18
 70
     1
102
RTVSPropertyOp19
 70
     1
102
RTVSPropertyOp20
 70
     1
102
RTVSPropertyOp21
 70
     1
102
RTVSPropertyOp22
 70
     1
102
RTVSPropertyOp23
 70
     1
102
RTVSPropertyOp24
 70
     1
102
RTVSPropertyOp25
 70
     1
102
RTVSPropertyOp26
 70
     1
102
RTVSPropertyOp27
 70
     1
102
RTVSPropertyOp28
 70
     1
102
RTVSPropertyOp29
 70
     1
102
RTVSPropertyOp30
 70
     1
102
RTVSPropertyOp31
 70
     1
102
RTVSPropertyOp32
 70
     1
102
RTVSPropertyOp33
 70
     1
102
RTVSPropertyOp34
 70
     1
102
RTVSPropertyOp35
 70
     1
102
RTVSPropertyOp36
 70
     1
102
RTVSPropertyOp37
 70
     1
102
RTVSPropertyOp38
 70
     1
102
RTVSPropertyOp39
 70
     1
102
RTVSPropertyOp40
 70
     1
102
RTVSPropertyOp41
 70
     1
102
RTVSPropertyOp42
 70
     1
102
RTVSPropertyOp43
 70
     1
102
RTVSPropertyOp44
 70
     1
102
RTVSPropertyOp45
 70
     1
102
RTVSPropertyOp46
 70
     1
102
RTVSPropertyOp47
 70
     1
102
RTVSPropertyOp48
 70
     1
102
RTVSPropertyOp49
 70
     1
102
RTVSPropertyOp50
 70
     1
102
RTVSPropertyOp51
 70
     0
102
RTVSPropertyOp52
 70
     0
102
RTVSPropertyOp53
 70
     1
102
RTVSPropertyOp54
 70
     1
102
RTVSPropertyOp55
 70
     1
102
RTVSPropertyOp56
 70
     1
102
RTVSPropertyOp57
 70
     1
102
RTVSPropertyOp58
 70
     1
102
RTVSPropertyOp59
 70
     1
102
RTVSPropertyOp60
 70
     1
102
RTVSPropertyOp61
 70
     1
102
RTVSPropertyOp62
 70
     1
  0
XRECORD
  5
372
102
{ACAD_REACTORS
330
371
102
}
330
371
100
AcDbXrecord
280
     1
102
RTVSPost2010Prop28
280
     0
102
RTVSPost2010PropOp28
 70
     1
102
RTVSPost2010Prop29
280
     1
102
RTVSPost2010PropOp29
 70
     1
102
RTVSPost2010Prop30
280
     1
102
RTVSPost2010PropOp30
 70
     1
102
RTVSPost2010Prop31
280
     0
102
RTVSPost2010PropOp31
 70
     1
102
RTVSPost2010Prop32
280
     0
102
RTVSPost2010PropOp32
 70
     1
102
RTVSPost2010Prop33
280
     0
102
RTVSPost2010PropOp33
 70
     1
102
RTVSPost2010Prop34
280
     0
102
RTVSPost2010PropOp34
 70
     1
102
RTVSPost2010Prop35
280
     0
102
RTVSPost2010PropOp35
 70
     1
102
RTVSPost2010Prop36
280
     0
102
RTVSPost2010PropOp36
 70
     1
102
RTVSPost2010Prop37
 90
       50
102
RTVSPost2010PropOp37
 70
     1
102
RTVSPost2010Prop38
140
0.0
102
RTVSPost2010PropOp38
 70
     1
102
RTVSPost2010Prop39
140
1.0
102
RTVSPost2010PropOp39
 70
     1
102
RTVSPost2010Prop40
 90
        0
102
RTVSPost2010PropOp40
 70
     1
102
RTVSPost2010Prop41ColorIndex
 90
       18
102
RTVSPost2010Prop41ColorRGB
 90
        0
102
RTVSPost2010PropOp41
 70
     1
102
RTVSPost2010Prop42
 90
       50
102
RTVSPost2010PropOp42
 70
     1
102
RTVSPost2010Prop43
 90
        3
102
RTVSPost2010PropOp43
 70
     1
102
RTVSPost2010Prop44ColorIndex
 90
        5
102
RTVSPost2010Prop44ColorRGB
 90
      255
102
RTVSPost2010PropOp44
 70
     1
102
RTVSPost2010Prop45
280
     0
102
RTVSPost2010PropOp45
 70
     1
102
RTVSPost2010Prop46
 90
       50
102
RTVSPost2010PropOp46
 70
     1
102
RTVSPost2010Prop47
 90
       50
102
RTVSPost2010PropOp47
 70
     1
102
RTVSPost2010Prop48
 90
       50
102
RTVSPost2010PropOp48
 70
     1
102
RTVSPost2010Prop49
280
     0
102
RTVSPost2010PropOp49
 70
     1
102
RTVSPost2010Prop50
 90
       50
102
RTVSPost2010PropOp50
 70
     1
102
RTVSPost2010Prop51ColorIndex
 90
      256
102
RTVSPost2010Prop51ColorRGB
 90
-16777216
102
RTVSPost2010PropOp51
 70
     0
102
RTVSPost2010Prop52
140
1.0
102
RTVSPost2010PropOp52
 70
     0
102
RTVSPost2010Prop53
 90
        2
102
RTVSPost2010PropOp53
 70
     1
102
RTVSPost2010Prop54
  1
strokes_ogs.tif
102
RTVSPost2010PropOp54
 70
     1
102
RTVSPost2010Prop55
280
     0
102
RTVSPost2010PropOp55
 70
     1
102
RTVSPost2010Prop56
140
1.0
102
RTVSPost2010PropOp56
 70
     1
102
RTVSPost2010Prop57
140
1.0
102
RTVSPost2010PropOp57
 70
     1
102
RTVSPropertyOp0
 70
     1
102
RTVSPropertyOp1
 70
     1
102
RTVSPropertyOp2
 70
     1
102
RTVSPropertyOp3
 70
     1
102
RTVSPropertyOp4
 70
     1
102
RTVSPropertyOp5
 70
     1
102
RTVSPropertyOp6
 70
     1
102
RTVSPropertyOp7
 70
     1
102
RTVSPropertyOp8
 70
     1
102
RTVSPropertyOp9
 70
     1
102
RTVSPropertyOp10
 70
     1
102
RTVSPropertyOp11
 70
     1
102
RTVSPropertyOp12
 70
     1
102
RTVSPropertyOp13
 70
     1
102
RTVSPropertyOp14
 70
     1
102
RTVSPropertyOp15
 70
     1
102
RTVSPropertyOp16
 70
     1
102
RTVSPropertyOp17
 70
     1
102
RTVSPropertyOp18
 70
     1
102
RTVSPropertyOp19
 70
     1
102
RTVSPropertyOp20
 70
     1
102
RTVSPropertyOp21
 70
     1
102
RTVSPropertyOp22
 70
     1
102
RTVSPropertyOp23
 70
     1
102
RTVSPropertyOp24
 70
     1
102
RTVSPropertyOp25
 70
     1
102
RTVSPropertyOp26
 70
     1
102
RTVSPropertyOp27
 70
     1
102
RTVSPropertyOp28
 70
     1
102
RTVSPropertyOp29
 70
     1
102
RTVSPropertyOp30
 70
     1
102
RTVSPropertyOp31
 70
     1
102
RTVSPropertyOp32
 70
     1
102
RTVSPropertyOp33
 70
     1
102
RTVSPropertyOp34
 70
     1
102
RTVSPropertyOp35
 70
     1
102
RTVSPropertyOp36
 70
     1
102
RTVSPropertyOp37
 70
     1
102
RTVSPropertyOp38
 70
     1
102
RTVSPropertyOp39
 70
     1
102
RTVSPropertyOp40
 70
     1
102
RTVSPropertyOp41
 70
     1
102
RTVSPropertyOp42
 70
     1
102
RTVSPropertyOp43
 70
     1
102
RTVSPropertyOp44
 70
     1
102
RTVSPropertyOp45
 70
     1
102
RTVSPropertyOp46
 70
     1
102
RTVSPropertyOp47
 70
     1
102
RTVSPropertyOp48
 70
     1
102
RTVSPropertyOp49
 70
     1
102
RTVSPropertyOp50
 70
     1
102
RTVSPropertyOp51
 70
     0
102
RTVSPropertyOp52
 70
     0
102
RTVSPropertyOp53
 70
     1
102
RTVSPropertyOp54
 70
     1
102
RTVSPropertyOp55
 70
     1
102
RTVSPropertyOp56
 70
     1
102
RTVSPropertyOp57
 70
     1
102
RTVSPropertyOp58
 70
     1
102
RTVSPropertyOp59
 70
     1
102
RTVSPropertyOp60
 70
     1
102
RTVSPropertyOp61
 70
     1
102
RTVSPropertyOp62
 70
     1
  0
XRECORD
  5
374
102
{ACAD_REACTORS
330
373
102
}
330
373
100
AcDbXrecord
280
     1
102
RTVSPost2010Prop28
280
     0
102
RTVSPost2010PropOp28
 70
     1
102
RTVSPost2010Prop29
280
     1
102
RTVSPost2010PropOp29
 70
     1
102
RTVSPost2010Prop30
280
     1
102
RTVSPost2010PropOp30
 70
     1
102
RTVSPost2010Prop31
280
     0
102
RTVSPost2010PropOp31
 70
     1
102
RTVSPost2010Prop32
280
     0
102
RTVSPost2010PropOp32
 70
     1
102
RTVSPost2010Prop33
280
     0
102
RTVSPost2010PropOp33
 70
     1
102
RTVSPost2010Prop34
280
     0
102
RTVSPost2010PropOp34
 70
     1
102
RTVSPost2010Prop35
280
     0
102
RTVSPost2010PropOp35
 70
     1
102
RTVSPost2010Prop36
280
     0
102
RTVSPost2010PropOp36
 70
     1
102
RTVSPost2010Prop37
 90
       50
102
RTVSPost2010PropOp37
 70
     1
102
RTVSPost2010Prop38
140
0.0
102
RTVSPost2010PropOp38
 70
     1
102
RTVSPost2010Prop39
140
1.0
102
RTVSPost2010PropOp39
 70
     1
102
RTVSPost2010Prop40
 90
        0
102
RTVSPost2010PropOp40
 70
     1
102
RTVSPost2010Prop41ColorIndex
 90
       18
102
RTVSPost2010Prop41ColorRGB
 90
        0
102
RTVSPost2010PropOp41
 70
     1
102
RTVSPost2010Prop42
 90
       50
102
RTVSPost2010PropOp42
 70
     1
102
RTVSPost2010Prop43
 90
        3
102
RTVSPost2010PropOp43
 70
     1
102
RTVSPost2010Prop44ColorIndex
 90
        5
102
RTVSPost2010Prop44ColorRGB
 90
      255
102
RTVSPost2010PropOp44
 70
     1
102
RTVSPost2010Prop45
280
     0
102
RTVSPost2010PropOp45
 70
     1
102
RTVSPost2010Prop46
 90
       50
102
RTVSPost2010PropOp46
 70
     1
102
RTVSPost2010Prop47
 90
       50
102
RTVSPost2010PropOp47
 70
     1
102
RTVSPost2010Prop48
 90
       50
102
RTVSPost2010PropOp48
 70
     1
102
RTVSPost2010Prop49
280
     0
102
RTVSPost2010PropOp49
 70
     1
102
RTVSPost2010Prop50
 90
       50
102
RTVSPost2010PropOp50
 70
     1
102
RTVSPost2010Prop51ColorIndex
 90
      256
102
RTVSPost2010Prop51ColorRGB
 90
-16777216
102
RTVSPost2010PropOp51
 70
     0
102
RTVSPost2010Prop52
140
1.0
102
RTVSPost2010PropOp52
 70
     0
102
RTVSPost2010Prop53
 90
        2
102
RTVSPost2010PropOp53
 70
     1
102
RTVSPost2010Prop54
  1
strokes_ogs.tif
102
RTVSPost2010PropOp54
 70
     1
102
RTVSPost2010Prop55
280
     0
102
RTVSPost2010PropOp55
 70
     1
102
RTVSPost2010Prop56
140
1.0
102
RTVSPost2010PropOp56
 70
     1
102
RTVSPost2010Prop57
140
1.0
102
RTVSPost2010PropOp57
 70
     1
102
RTVSPropertyOp0
 70
     1
102
RTVSPropertyOp1
 70
     1
102
RTVSPropertyOp2
 70
     1
102
RTVSPropertyOp3
 70
     1
102
RTVSPropertyOp4
 70
     1
102
RTVSPropertyOp5
 70
     1
102
RTVSPropertyOp6
 70
     1
102
RTVSPropertyOp7
 70
     1
102
RTVSPropertyOp8
 70
     1
102
RTVSPropertyOp9
 70
     1
102
RTVSPropertyOp10
 70
     1
102
RTVSPropertyOp11
 70
     1
102
RTVSPropertyOp12
 70
     1
102
RTVSPropertyOp13
 70
     1
102
RTVSPropertyOp14
 70
     1
102
RTVSPropertyOp15
 70
     1
102
RTVSPropertyOp16
 70
     1
102
RTVSPropertyOp17
 70
     1
102
RTVSPropertyOp18
 70
     1
102
RTVSPropertyOp19
 70
     1
102
RTVSPropertyOp20
 70
     1
102
RTVSPropertyOp21
 70
     1
102
RTVSPropertyOp22
 70
     1
102
RTVSPropertyOp23
 70
     1
102
RTVSPropertyOp24
 70
     1
102
RTVSPropertyOp25
 70
     1
102
RTVSPropertyOp26
 70
     1
102
RTVSPropertyOp27
 70
     1
102
RTVSPropertyOp28
 70
     1
102
RTVSPropertyOp29
 70
     1
102
RTVSPropertyOp30
 70
     1
102
RTVSPropertyOp31
 70
     1
102
RTVSPropertyOp32
 70
     1
102
RTVSPropertyOp33
 70
     1
102
RTVSPropertyOp34
 70
     1
102
RTVSPropertyOp35
 70
     1
102
RTVSPropertyOp36
 70
     1
102
RTVSPropertyOp37
 70
     1
102
RTVSPropertyOp38
 70
     1
102
RTVSPropertyOp39
 70
     1
102
RTVSPropertyOp40
 70
     1
102
RTVSPropertyOp41
 70
     1
102
RTVSPropertyOp42
 70
     1
102
RTVSPropertyOp43
 70
     1
102
RTVSPropertyOp44
 70
     1
102
RTVSPropertyOp45
 70
     1
102
RTVSPropertyOp46
 70
     1
102
RTVSPropertyOp47
 70
     1
102
RTVSPropertyOp48
 70
     1
102
RTVSPropertyOp49
 70
     1
102
RTVSPropertyOp50
 70
     1
102
RTVSPropertyOp51
 70
     0
102
RTVSPropertyOp52
 70
     0
102
RTVSPropertyOp53
 70
     1
102
RTVSPropertyOp54
 70
     1
102
RTVSPropertyOp55
 70
     1
102
RTVSPropertyOp56
 70
     1
102
RTVSPropertyOp57
 70
     1
102
RTVSPropertyOp58
 70
     1
102
RTVSPropertyOp59
 70
     1
102
RTVSPropertyOp60
 70
     1
102
RTVSPropertyOp61
 70
     1
102
RTVSPropertyOp62
 70
     1
  0
XRECORD
  5
384
102
{ACAD_REACTORS
330
383
102
}
330
383
100
AcDbXrecord
280
     1
102
RTVSPost2010Prop28
280
     0
102
RTVSPost2010PropOp28
 70
     0
102
RTVSPost2010Prop29
280
     1
102
RTVSPost2010PropOp29
 70
     0
102
RTVSPost2010Prop30
280
     1
102
RTVSPost2010PropOp30
 70
     0
102
RTVSPost2010Prop31
280
     0
102
RTVSPost2010PropOp31
 70
     0
102
RTVSPost2010Prop32
280
     0
102
RTVSPost2010PropOp32
 70
     0
102
RTVSPost2010Prop33
280
     0
102
RTVSPost2010PropOp33
 70
     0
102
RTVSPost2010Prop34
280
     0
102
RTVSPost2010PropOp34
 70
     0
102
RTVSPost2010Prop35
280
     0
102
RTVSPost2010PropOp35
 70
     0
102
RTVSPost2010Prop36
280
     0
102
RTVSPost2010PropOp36
 70
     0
102
RTVSPost2010Prop37
 90
       50
102
RTVSPost2010PropOp37
 70
     0
102
RTVSPost2010Prop38
140
0.0
102
RTVSPost2010PropOp38
 70
     0
102
RTVSPost2010Prop39
140
1.0
102
RTVSPost2010PropOp39
 70
     0
102
RTVSPost2010Prop40
 90
        0
102
RTVSPost2010PropOp40
 70
     0
102
RTVSPost2010Prop41ColorIndex
 90
       18
102
RTVSPost2010Prop41ColorRGB
 90
        0
102
RTVSPost2010PropOp41
 70
     0
102
RTVSPost2010Prop42
 90
       50
102
RTVSPost2010PropOp42
 70
     0
102
RTVSPost2010Prop43
 90
        3
102
RTVSPost2010PropOp43
 70
     0
102
RTVSPost2010Prop44ColorIndex
 90
        5
102
RTVSPost2010Prop44ColorRGB
 90
      255
102
RTVSPost2010PropOp44
 70
     0
102
RTVSPost2010Prop45
280
     0
102
RTVSPost2010PropOp45
 70
     0
102
RTVSPost2010Prop46
 90
       50
102
RTVSPost2010PropOp46
 70
     0
102
RTVSPost2010Prop47
 90
       50
102
RTVSPost2010PropOp47
 70
     0
102
RTVSPost2010Prop48
 90
       50
102
RTVSPost2010PropOp48
 70
     0
102
RTVSPost2010Prop49
280
     0
102
RTVSPost2010PropOp49
 70
     0
102
RTVSPost2010Prop50
 90
       50
102
RTVSPost2010PropOp50
 70
     0
102
RTVSPost2010Prop51ColorIndex
 90
      256
102
RTVSPost2010Prop51ColorRGB
 90
-16777216
102
RTVSPost2010PropOp51
 70
     0
102
RTVSPost2010Prop52
140
1.0
102
RTVSPost2010PropOp52
 70
     0
102
RTVSPost2010Prop53
 90
        2
102
RTVSPost2010PropOp53
 70
     0
102
RTVSPost2010Prop54
  1
strokes_ogs.tif
102
RTVSPost2010PropOp54
 70
     0
102
RTVSPost2010Prop55
280
     0
102
RTVSPost2010PropOp55
 70
     0
102
RTVSPost2010Prop56
140
1.0
102
RTVSPost2010PropOp56
 70
     0
102
RTVSPost2010Prop57
140
1.0
102
RTVSPost2010PropOp57
 70
     0
102
RTVSPropertyOp0
 70
     0
102
RTVSPropertyOp1
 70
     0
102
RTVSPropertyOp2
 70
     0
102
RTVSPropertyOp3
 70
     0
102
RTVSPropertyOp4
 70
     0
102
RTVSPropertyOp5
 70
     0
102
RTVSPropertyOp6
 70
     0
102
RTVSPropertyOp7
 70
     0
102
RTVSPropertyOp8
 70
     0
102
RTVSPropertyOp9
 70
     0
102
RTVSPropertyOp10
 70
     0
102
RTVSPropertyOp11
 70
     0
102
RTVSPropertyOp12
 70
     0
102
RTVSPropertyOp13
 70
     0
102
RTVSPropertyOp14
 70
     2
102
RTVSPropertyOp15
 70
     0
102
RTVSPropertyOp16
 70
     0
102
RTVSPropertyOp17
 70
     0
102
RTVSPropertyOp18
 70
     0
102
RTVSPropertyOp19
 70
     0
102
RTVSPropertyOp20
 70
     0
102
RTVSPropertyOp21
 70
     0
102
RTVSPropertyOp22
 70
     0
102
RTVSPropertyOp23
 70
     0
102
RTVSPropertyOp24
 70
     0
102
RTVSPropertyOp25
 70
     0
102
RTVSPropertyOp26
 70
     0
102
RTVSPropertyOp27
 70
     0
102
RTVSPropertyOp28
 70
     0
102
RTVSPropertyOp29
 70
     0
102
RTVSPropertyOp30
 70
     0
102
RTVSPropertyOp31
 70
     0
102
RTVSPropertyOp32
 70
     0
102
RTVSPropertyOp33
 70
     0
102
RTVSPropertyOp34
 70
     0
102
RTVSPropertyOp35
 70
     0
102
RTVSPropertyOp36
 70
     0
102
RTVSPropertyOp37
 70
     0
102
RTVSPropertyOp38
 70
     0
102
RTVSPropertyOp39
 70
     0
102
RTVSPropertyOp40
 70
     0
102
RTVSPropertyOp41
 70
     0
102
RTVSPropertyOp42
 70
     0
102
RTVSPropertyOp43
 70
     0
102
RTVSPropertyOp44
 70
     0
102
RTVSPropertyOp45
 70
     0
102
RTVSPropertyOp46
 70
     0
102
RTVSPropertyOp47
 70
     0
102
RTVSPropertyOp48
 70
     0
102
RTVSPropertyOp49
 70
     0
102
RTVSPropertyOp50
 70
     0
102
RTVSPropertyOp51
 70
     0
102
RTVSPropertyOp52
 70
     0
102
RTVSPropertyOp53
 70
     0
102
RTVSPropertyOp54
 70
     0
102
RTVSPropertyOp55
 70
     0
102
RTVSPropertyOp56
 70
     0
102
RTVSPropertyOp57
 70
     0
102
RTVSPropertyOp58
 70
     1
102
RTVSPropertyOp59
 70
     1
102
RTVSPropertyOp60
 70
     1
102
RTVSPropertyOp61
 70
     1
102
RTVSPropertyOp62
 70
     1
  0
XRECORD
  5
37C
102
{ACAD_REACTORS
330
37B
102
}
330
37B
100
AcDbXrecord
280
     1
102
RTVSPost2010Prop28
280
     0
102
RTVSPost2010PropOp28
 70
     1
102
RTVSPost2010Prop29
280
     1
102
RTVSPost2010PropOp29
 70
     1
102
RTVSPost2010Prop30
280
     1
102
RTVSPost2010PropOp30
 70
     1
102
RTVSPost2010Prop31
280
     0
102
RTVSPost2010PropOp31
 70
     1
102
RTVSPost2010Prop32
280
     0
102
RTVSPost2010PropOp32
 70
     1
102
RTVSPost2010Prop33
280
     0
102
RTVSPost2010PropOp33
 70
     1
102
RTVSPost2010Prop34
280
     0
102
RTVSPost2010PropOp34
 70
     1
102
RTVSPost2010Prop35
280
     0
102
RTVSPost2010PropOp35
 70
     1
102
RTVSPost2010Prop36
280
     0
102
RTVSPost2010PropOp36
 70
     1
102
RTVSPost2010Prop37
 90
       50
102
RTVSPost2010PropOp37
 70
     1
102
RTVSPost2010Prop38
140
0.0
102
RTVSPost2010PropOp38
 70
     1
102
RTVSPost2010Prop39
140
1.0
102
RTVSPost2010PropOp39
 70
     1
102
RTVSPost2010Prop40
 90
        0
102
RTVSPost2010PropOp40
 70
     1
102
RTVSPost2010Prop41ColorIndex
 90
       18
102
RTVSPost2010Prop41ColorRGB
 90
        0
102
RTVSPost2010PropOp41
 70
     1
102
RTVSPost2010Prop42
 90
       50
102
RTVSPost2010PropOp42
 70
     1
102
RTVSPost2010Prop43
 90
        3
102
RTVSPost2010PropOp43
 70
     1
102
RTVSPost2010Prop44ColorIndex
 90
        5
102
RTVSPost2010Prop44ColorRGB
 90
      255
102
RTVSPost2010PropOp44
 70
     1
102
RTVSPost2010Prop45
280
     0
102
RTVSPost2010PropOp45
 70
     1
102
RTVSPost2010Prop46
 90
       50
102
RTVSPost2010PropOp46
 70
     1
102
RTVSPost2010Prop47
 90
       50
102
RTVSPost2010PropOp47
 70
     1
102
RTVSPost2010Prop48
 90
       50
102
RTVSPost2010PropOp48
 70
     1
102
RTVSPost2010Prop49
280
     0
102
RTVSPost2010PropOp49
 70
     1
102
RTVSPost2010Prop50
 90
       50
102
RTVSPost2010PropOp50
 70
     1
102
RTVSPost2010Prop51ColorIndex
 90
      256
102
RTVSPost2010Prop51ColorRGB
 90
-16777216
102
RTVSPost2010PropOp51
 70
     0
102
RTVSPost2010Prop52
140
1.0
102
RTVSPost2010PropOp52
 70
     0
102
RTVSPost2010Prop53
 90
        2
102
RTVSPost2010PropOp53
 70
     1
102
RTVSPost2010Prop54
  1
strokes_ogs.tif
102
RTVSPost2010PropOp54
 70
     1
102
RTVSPost2010Prop55
280
     0
102
RTVSPost2010PropOp55
 70
     1
102
RTVSPost2010Prop56
140
1.0
102
RTVSPost2010PropOp56
 70
     1
102
RTVSPost2010Prop57
140
1.0
102
RTVSPost2010PropOp57
 70
     1
102
RTVSPropertyOp0
 70
     1
102
RTVSPropertyOp1
 70
     1
102
RTVSPropertyOp2
 70
     1
102
RTVSPropertyOp3
 70
     1
102
RTVSPropertyOp4
 70
     1
102
RTVSPropertyOp5
 70
     1
102
RTVSPropertyOp6
 70
     1
102
RTVSPropertyOp7
 70
     1
102
RTVSPropertyOp8
 70
     1
102
RTVSPropertyOp9
 70
     1
102
RTVSPropertyOp10
 70
     1
102
RTVSPropertyOp11
 70
     1
102
RTVSPropertyOp12
 70
     1
102
RTVSPropertyOp13
 70
     1
102
RTVSPropertyOp14
 70
     1
102
RTVSPropertyOp15
 70
     1
102
RTVSPropertyOp16
 70
     1
102
RTVSPropertyOp17
 70
     1
102
RTVSPropertyOp18
 70
     1
102
RTVSPropertyOp19
 70
     1
102
RTVSPropertyOp20
 70
     1
102
RTVSPropertyOp21
 70
     1
102
RTVSPropertyOp22
 70
     1
102
RTVSPropertyOp23
 70
     1
102
RTVSPropertyOp24
 70
     1
102
RTVSPropertyOp25
 70
     1
102
RTVSPropertyOp26
 70
     1
102
RTVSPropertyOp27
 70
     1
102
RTVSPropertyOp28
 70
     1
102
RTVSPropertyOp29
 70
     1
102
RTVSPropertyOp30
 70
     1
102
RTVSPropertyOp31
 70
     1
102
RTVSPropertyOp32
 70
     1
102
RTVSPropertyOp33
 70
     1
102
RTVSPropertyOp34
 70
     1
102
RTVSPropertyOp35
 70
     1
102
RTVSPropertyOp36
 70
     1
102
RTVSPropertyOp37
 70
     1
102
RTVSPropertyOp38
 70
     1
102
RTVSPropertyOp39
 70
     1
102
RTVSPropertyOp40
 70
     1
102
RTVSPropertyOp41
 70
     1
102
RTVSPropertyOp42
 70
     1
102
RTVSPropertyOp43
 70
     1
102
RTVSPropertyOp44
 70
     1
102
RTVSPropertyOp45
 70
     1
102
RTVSPropertyOp46
 70
     1
102
RTVSPropertyOp47
 70
     1
102
RTVSPropertyOp48
 70
     1
102
RTVSPropertyOp49
 70
     1
102
RTVSPropertyOp50
 70
     1
102
RTVSPropertyOp51
 70
     0
102
RTVSPropertyOp52
 70
     0
102
RTVSPropertyOp53
 70
     1
102
RTVSPropertyOp54
 70
     1
102
RTVSPropertyOp55
 70
     1
102
RTVSPropertyOp56
 70
     1
102
RTVSPropertyOp57
 70
     1
102
RTVSPropertyOp58
 70
     1
102
RTVSPropertyOp59
 70
     1
102
RTVSPropertyOp60
 70
     1
102
RTVSPropertyOp61
 70
     1
102
RTVSPropertyOp62
 70
     1
  0
XRECORD
  5
360
102
{ACAD_REACTORS
330
35F
102
}
330
35F
100
AcDbXrecord
280
     1
102
RTVSPost2010Prop28
280
     0
102
RTVSPost2010PropOp28
 70
     1
102
RTVSPost2010Prop29
280
     1
102
RTVSPost2010PropOp29
 70
     1
102
RTVSPost2010Prop30
280
     1
102
RTVSPost2010PropOp30
 70
     1
102
RTVSPost2010Prop31
280
     0
102
RTVSPost2010PropOp31
 70
     1
102
RTVSPost2010Prop32
280
     0
102
RTVSPost2010PropOp32
 70
     1
102
RTVSPost2010Prop33
280
     0
102
RTVSPost2010PropOp33
 70
     1
102
RTVSPost2010Prop34
280
     0
102
RTVSPost2010PropOp34
 70
     1
102
RTVSPost2010Prop35
280
     0
102
RTVSPost2010PropOp35
 70
     1
102
RTVSPost2010Prop36
280
     0
102
RTVSPost2010PropOp36
 70
     1
102
RTVSPost2010Prop37
 90
       50
102
RTVSPost2010PropOp37
 70
     1
102
RTVSPost2010Prop38
140
0.0
102
RTVSPost2010PropOp38
 70
     1
102
RTVSPost2010Prop39
140
1.0
102
RTVSPost2010PropOp39
 70
     1
102
RTVSPost2010Prop40
 90
        0
102
RTVSPost2010PropOp40
 70
     1
102
RTVSPost2010Prop41ColorIndex
 90
       18
102
RTVSPost2010Prop41ColorRGB
 90
        0
102
RTVSPost2010PropOp41
 70
     1
102
RTVSPost2010Prop42
 90
       50
102
RTVSPost2010PropOp42
 70
     1
102
RTVSPost2010Prop43
 90
        3
102
RTVSPost2010PropOp43
 70
     1
102
RTVSPost2010Prop44ColorIndex
 90
        5
102
RTVSPost2010Prop44ColorRGB
 90
      255
102
RTVSPost2010PropOp44
 70
     1
102
RTVSPost2010Prop45
280
     0
102
RTVSPost2010PropOp45
 70
     1
102
RTVSPost2010Prop46
 90
       50
102
RTVSPost2010PropOp46
 70
     1
102
RTVSPost2010Prop47
 90
       50
102
RTVSPost2010PropOp47
 70
     1
102
RTVSPost2010Prop48
 90
       50
102
RTVSPost2010PropOp48
 70
     1
102
RTVSPost2010Prop49
280
     0
102
RTVSPost2010PropOp49
 70
     1
102
RTVSPost2010Prop50
 90
       50
102
RTVSPost2010PropOp50
 70
     1
102
RTVSPost2010Prop51ColorIndex
 90
      256
102
RTVSPost2010Prop51ColorRGB
 90
-16777216
102
RTVSPost2010PropOp51
 70
     0
102
RTVSPost2010Prop52
140
1.0
102
RTVSPost2010PropOp52
 70
     0
102
RTVSPost2010Prop53
 90
        2
102
RTVSPost2010PropOp53
 70
     1
102
RTVSPost2010Prop54
  1
strokes_ogs.tif
102
RTVSPost2010PropOp54
 70
     1
102
RTVSPost2010Prop55
280
     0
102
RTVSPost2010PropOp55
 70
     1
102
RTVSPost2010Prop56
140
1.0
102
RTVSPost2010PropOp56
 70
     1
102
RTVSPost2010Prop57
140
1.0
102
RTVSPost2010PropOp57
 70
     1
102
RTVSPropertyOp0
 70
     1
102
RTVSPropertyOp1
 70
     1
102
RTVSPropertyOp2
 70
     1
102
RTVSPropertyOp3
 70
     1
102
RTVSPropertyOp4
 70
     1
102
RTVSPropertyOp5
 70
     1
102
RTVSPropertyOp6
 70
     1
102
RTVSPropertyOp7
 70
     1
102
RTVSPropertyOp8
 70
     1
102
RTVSPropertyOp9
 70
     1
102
RTVSPropertyOp10
 70
     1
102
RTVSPropertyOp11
 70
     1
102
RTVSPropertyOp12
 70
     1
102
RTVSPropertyOp13
 70
     1
102
RTVSPropertyOp14
 70
     1
102
RTVSPropertyOp15
 70
     1
102
RTVSPropertyOp16
 70
     1
102
RTVSPropertyOp17
 70
     1
102
RTVSPropertyOp18
 70
     1
102
RTVSPropertyOp19
 70
     1
102
RTVSPropertyOp20
 70
     1
102
RTVSPropertyOp21
 70
     1
102
RTVSPropertyOp22
 70
     1
102
RTVSPropertyOp23
 70
     1
102
RTVSPropertyOp24
 70
     1
102
RTVSPropertyOp25
 70
     1
102
RTVSPropertyOp26
 70
     1
102
RTVSPropertyOp27
 70
     1
102
RTVSPropertyOp28
 70
     1
102
RTVSPropertyOp29
 70
     1
102
RTVSPropertyOp30
 70
     1
102
RTVSPropertyOp31
 70
     1
102
RTVSPropertyOp32
 70
     1
102
RTVSPropertyOp33
 70
     1
102
RTVSPropertyOp34
 70
     1
102
RTVSPropertyOp35
 70
     1
102
RTVSPropertyOp36
 70
     1
102
RTVSPropertyOp37
 70
     1
102
RTVSPropertyOp38
 70
     1
102
RTVSPropertyOp39
 70
     1
102
RTVSPropertyOp40
 70
     1
102
RTVSPropertyOp41
 70
     1
102
RTVSPropertyOp42
 70
     1
102
RTVSPropertyOp43
 70
     1
102
RTVSPropertyOp44
 70
     1
102
RTVSPropertyOp45
 70
     1
102
RTVSPropertyOp46
 70
     1
102
RTVSPropertyOp47
 70
     1
102
RTVSPropertyOp48
 70
     1
102
RTVSPropertyOp49
 70
     1
102
RTVSPropertyOp50
 70
     1
102
RTVSPropertyOp51
 70
     0
102
RTVSPropertyOp52
 70
     0
102
RTVSPropertyOp53
 70
     1
102
RTVSPropertyOp54
 70
     1
102
RTVSPropertyOp55
 70
     1
102
RTVSPropertyOp56
 70
     1
102
RTVSPropertyOp57
 70
     1
102
RTVSPropertyOp58
 70
     1
102
RTVSPropertyOp59
 70
     1
102
RTVSPropertyOp60
 70
     1
102
RTVSPropertyOp61
 70
     1
102
RTVSPropertyOp62
 70
     1
  0
XRECORD
  5
362
102
{ACAD_REACTORS
330
361
102
}
330
361
100
AcDbXrecord
280
     1
102
RTVSPost2010Prop28
280
     0
102
RTVSPost2010PropOp28
 70
     1
102
RTVSPost2010Prop29
280
     1
102
RTVSPost2010PropOp29
 70
     1
102
RTVSPost2010Prop30
280
     1
102
RTVSPost2010PropOp30
 70
     1
102
RTVSPost2010Prop31
280
     0
102
RTVSPost2010PropOp31
 70
     1
102
RTVSPost2010Prop32
280
     0
102
RTVSPost2010PropOp32
 70
     1
102
RTVSPost2010Prop33
280
     0
102
RTVSPost2010PropOp33
 70
     1
102
RTVSPost2010Prop34
280
     0
102
RTVSPost2010PropOp34
 70
     1
102
RTVSPost2010Prop35
280
     0
102
RTVSPost2010PropOp35
 70
     1
102
RTVSPost2010Prop36
280
     0
102
RTVSPost2010PropOp36
 70
     1
102
RTVSPost2010Prop37
 90
       50
102
RTVSPost2010PropOp37
 70
     1
102
RTVSPost2010Prop38
140
0.0
102
RTVSPost2010PropOp38
 70
     1
102
RTVSPost2010Prop39
140
1.0
102
RTVSPost2010PropOp39
 70
     1
102
RTVSPost2010Prop40
 90
        0
102
RTVSPost2010PropOp40
 70
     1
102
RTVSPost2010Prop41ColorIndex
 90
       18
102
RTVSPost2010Prop41ColorRGB
 90
        0
102
RTVSPost2010PropOp41
 70
     1
102
RTVSPost2010Prop42
 90
       50
102
RTVSPost2010PropOp42
 70
     1
102
RTVSPost2010Prop43
 90
        3
102
RTVSPost2010PropOp43
 70
     1
102
RTVSPost2010Prop44ColorIndex
 90
        5
102
RTVSPost2010Prop44ColorRGB
 90
      255
102
RTVSPost2010PropOp44
 70
     1
102
RTVSPost2010Prop45
280
     0
102
RTVSPost2010PropOp45
 70
     1
102
RTVSPost2010Prop46
 90
       50
102
RTVSPost2010PropOp46
 70
     1
102
RTVSPost2010Prop47
 90
       50
102
RTVSPost2010PropOp47
 70
     1
102
RTVSPost2010Prop48
 90
       50
102
RTVSPost2010PropOp48
 70
     1
102
RTVSPost2010Prop49
280
     0
102
RTVSPost2010PropOp49
 70
     1
102
RTVSPost2010Prop50
 90
       50
102
RTVSPost2010PropOp50
 70
     1
102
RTVSPost2010Prop51ColorIndex
 90
      256
102
RTVSPost2010Prop51ColorRGB
 90
-16777216
102
RTVSPost2010PropOp51
 70
     0
102
RTVSPost2010Prop52
140
1.0
102
RTVSPost2010PropOp52
 70
     0
102
RTVSPost2010Prop53
 90
        2
102
RTVSPost2010PropOp53
 70
     1
102
RTVSPost2010Prop54
  1
strokes_ogs.tif
102
RTVSPost2010PropOp54
 70
     1
102
RTVSPost2010Prop55
280
     0
102
RTVSPost2010PropOp55
 70
     1
102
RTVSPost2010Prop56
140
1.0
102
RTVSPost2010PropOp56
 70
     1
102
RTVSPost2010Prop57
140
1.0
102
RTVSPost2010PropOp57
 70
     1
102
RTVSPropertyOp0
 70
     1
102
RTVSPropertyOp1
 70
     1
102
RTVSPropertyOp2
 70
     1
102
RTVSPropertyOp3
 70
     1
102
RTVSPropertyOp4
 70
     1
102
RTVSPropertyOp5
 70
     1
102
RTVSPropertyOp6
 70
     1
102
RTVSPropertyOp7
 70
     1
102
RTVSPropertyOp8
 70
     1
102
RTVSPropertyOp9
 70
     1
102
RTVSPropertyOp10
 70
     1
102
RTVSPropertyOp11
 70
     1
102
RTVSPropertyOp12
 70
     1
102
RTVSPropertyOp13
 70
     1
102
RTVSPropertyOp14
 70
     1
102
RTVSPropertyOp15
 70
     1
102
RTVSPropertyOp16
 70
     1
102
RTVSPropertyOp17
 70
     1
102
RTVSPropertyOp18
 70
     1
102
RTVSPropertyOp19
 70
     1
102
RTVSPropertyOp20
 70
     1
102
RTVSPropertyOp21
 70
     1
102
RTVSPropertyOp22
 70
     1
102
RTVSPropertyOp23
 70
     1
102
RTVSPropertyOp24
 70
     1
102
RTVSPropertyOp25
 70
     1
102
RTVSPropertyOp26
 70
     1
102
RTVSPropertyOp27
 70
     1
102
RTVSPropertyOp28
 70
     1
102
RTVSPropertyOp29
 70
     1
102
RTVSPropertyOp30
 70
     1
102
RTVSPropertyOp31
 70
     1
102
RTVSPropertyOp32
 70
     1
102
RTVSPropertyOp33
 70
     1
102
RTVSPropertyOp34
 70
     1
102
RTVSPropertyOp35
 70
     1
102
RTVSPropertyOp36
 70
     1
102
RTVSPropertyOp37
 70
     1
102
RTVSPropertyOp38
 70
     1
102
RTVSPropertyOp39
 70
     1
102
RTVSPropertyOp40
 70
     1
102
RTVSPropertyOp41
 70
     1
102
RTVSPropertyOp42
 70
     1
102
RTVSPropertyOp43
 70
     1
102
RTVSPropertyOp44
 70
     1
102
RTVSPropertyOp45
 70
     1
102
RTVSPropertyOp46
 70
     1
102
RTVSPropertyOp47
 70
     1
102
RTVSPropertyOp48
 70
     1
102
RTVSPropertyOp49
 70
     1
102
RTVSPropertyOp50
 70
     1
102
RTVSPropertyOp51
 70
     0
102
RTVSPropertyOp52
 70
     0
102
RTVSPropertyOp53
 70
     1
102
RTVSPropertyOp54
 70
     1
102
RTVSPropertyOp55
 70
     1
102
RTVSPropertyOp56
 70
     1
102
RTVSPropertyOp57
 70
     1
102
RTVSPropertyOp58
 70
     1
102
RTVSPropertyOp59
 70
     1
102
RTVSPropertyOp60
 70
     1
102
RTVSPropertyOp61
 70
     1
102
RTVSPropertyOp62
 70
     1
  0
XRECORD
  5
364
102
{ACAD_REACTORS
330
363
102
}
330
363
100
AcDbXrecord
280
     1
102
RTVSPost2010Prop28
280
     0
102
RTVSPost2010PropOp28
 70
     1
102
RTVSPost2010Prop29
280
     1
102
RTVSPost2010PropOp29
 70
     1
102
RTVSPost2010Prop30
280
     1
102
RTVSPost2010PropOp30
 70
     1
102
RTVSPost2010Prop31
280
     0
102
RTVSPost2010PropOp31
 70
     1
102
RTVSPost2010Prop32
280
     0
102
RTVSPost2010PropOp32
 70
     1
102
RTVSPost2010Prop33
280
     0
102
RTVSPost2010PropOp33
 70
     1
102
RTVSPost2010Prop34
280
     0
102
RTVSPost2010PropOp34
 70
     1
102
RTVSPost2010Prop35
280
     0
102
RTVSPost2010PropOp35
 70
     1
102
RTVSPost2010Prop36
280
     0
102
RTVSPost2010PropOp36
 70
     1
102
RTVSPost2010Prop37
 90
       50
102
RTVSPost2010PropOp37
 70
     1
102
RTVSPost2010Prop38
140
0.0
102
RTVSPost2010PropOp38
 70
     1
102
RTVSPost2010Prop39
140
1.0
102
RTVSPost2010PropOp39
 70
     1
102
RTVSPost2010Prop40
 90
        0
102
RTVSPost2010PropOp40
 70
     1
102
RTVSPost2010Prop41ColorIndex
 90
       18
102
RTVSPost2010Prop41ColorRGB
 90
        0
102
RTVSPost2010PropOp41
 70
     1
102
RTVSPost2010Prop42
 90
       50
102
RTVSPost2010PropOp42
 70
     1
102
RTVSPost2010Prop43
 90
        3
102
RTVSPost2010PropOp43
 70
     1
102
RTVSPost2010Prop44ColorIndex
 90
        5
102
RTVSPost2010Prop44ColorRGB
 90
      255
102
RTVSPost2010PropOp44
 70
     1
102
RTVSPost2010Prop45
280
     0
102
RTVSPost2010PropOp45
 70
     1
102
RTVSPost2010Prop46
 90
       50
102
RTVSPost2010PropOp46
 70
     1
102
RTVSPost2010Prop47
 90
       50
102
RTVSPost2010PropOp47
 70
     1
102
RTVSPost2010Prop48
 90
       50
102
RTVSPost2010PropOp48
 70
     1
102
RTVSPost2010Prop49
280
     0
102
RTVSPost2010PropOp49
 70
     1
102
RTVSPost2010Prop50
 90
       50
102
RTVSPost2010PropOp50
 70
     1
102
RTVSPost2010Prop51ColorIndex
 90
      256
102
RTVSPost2010Prop51ColorRGB
 90
-16777216
102
RTVSPost2010PropOp51
 70
     0
102
RTVSPost2010Prop52
140
1.0
102
RTVSPost2010PropOp52
 70
     0
102
RTVSPost2010Prop53
 90
        2
102
RTVSPost2010PropOp53
 70
     1
102
RTVSPost2010Prop54
  1
strokes_ogs.tif
102
RTVSPost2010PropOp54
 70
     1
102
RTVSPost2010Prop55
280
     0
102
RTVSPost2010PropOp55
 70
     1
102
RTVSPost2010Prop56
140
1.0
102
RTVSPost2010PropOp56
 70
     1
102
RTVSPost2010Prop57
140
1.0
102
RTVSPost2010PropOp57
 70
     1
102
RTVSPropertyOp0
 70
     1
102
RTVSPropertyOp1
 70
     1
102
RTVSPropertyOp2
 70
     1
102
RTVSPropertyOp3
 70
     1
102
RTVSPropertyOp4
 70
     1
102
RTVSPropertyOp5
 70
     1
102
RTVSPropertyOp6
 70
     1
102
RTVSPropertyOp7
 70
     1
102
RTVSPropertyOp8
 70
     1
102
RTVSPropertyOp9
 70
     1
102
RTVSPropertyOp10
 70
     1
102
RTVSPropertyOp11
 70
     1
102
RTVSPropertyOp12
 70
     1
102
RTVSPropertyOp13
 70
     1
102
RTVSPropertyOp14
 70
     1
102
RTVSPropertyOp15
 70
     1
102
RTVSPropertyOp16
 70
     1
102
RTVSPropertyOp17
 70
     1
102
RTVSPropertyOp18
 70
     1
102
RTVSPropertyOp19
 70
     1
102
RTVSPropertyOp20
 70
     1
102
RTVSPropertyOp21
 70
     1
102
RTVSPropertyOp22
 70
     1
102
RTVSPropertyOp23
 70
     1
102
RTVSPropertyOp24
 70
     1
102
RTVSPropertyOp25
 70
     1
102
RTVSPropertyOp26
 70
     1
102
RTVSPropertyOp27
 70
     1
102
RTVSPropertyOp28
 70
     1
102
RTVSPropertyOp29
 70
     1
102
RTVSPropertyOp30
 70
     1
102
RTVSPropertyOp31
 70
     1
102
RTVSPropertyOp32
 70
     1
102
RTVSPropertyOp33
 70
     1
102
RTVSPropertyOp34
 70
     1
102
RTVSPropertyOp35
 70
     1
102
RTVSPropertyOp36
 70
     1
102
RTVSPropertyOp37
 70
     1
102
RTVSPropertyOp38
 70
     1
102
RTVSPropertyOp39
 70
     1
102
RTVSPropertyOp40
 70
     1
102
RTVSPropertyOp41
 70
     1
102
RTVSPropertyOp42
 70
     1
102
RTVSPropertyOp43
 70
     1
102
RTVSPropertyOp44
 70
     1
102
RTVSPropertyOp45
 70
     1
102
RTVSPropertyOp46
 70
     1
102
RTVSPropertyOp47
 70
     1
102
RTVSPropertyOp48
 70
     1
102
RTVSPropertyOp49
 70
     1
102
RTVSPropertyOp50
 70
     1
102
RTVSPropertyOp51
 70
     0
102
RTVSPropertyOp52
 70
     0
102
RTVSPropertyOp53
 70
     1
102
RTVSPropertyOp54
 70
     1
102
RTVSPropertyOp55
 70
     1
102
RTVSPropertyOp56
 70
     1
102
RTVSPropertyOp57
 70
     1
102
RTVSPropertyOp58
 70
     1
102
RTVSPropertyOp59
 70
     1
102
RTVSPropertyOp60
 70
     1
102
RTVSPropertyOp61
 70
     1
102
RTVSPropertyOp62
 70
     1
  0
XRECORD
  5
366
102
{ACAD_REACTORS
330
365
102
}
330
365
100
AcDbXrecord
280
     1
102
RTVSPost2010Prop28
280
     0
102
RTVSPost2010PropOp28
 70
     1
102
RTVSPost2010Prop29
280
     1
102
RTVSPost2010PropOp29
 70
     1
102
RTVSPost2010Prop30
280
     1
102
RTVSPost2010PropOp30
 70
     1
102
RTVSPost2010Prop31
280
     0
102
RTVSPost2010PropOp31
 70
     1
102
RTVSPost2010Prop32
280
     0
102
RTVSPost2010PropOp32
 70
     1
102
RTVSPost2010Prop33
280
     0
102
RTVSPost2010PropOp33
 70
     1
102
RTVSPost2010Prop34
280
     0
102
RTVSPost2010PropOp34
 70
     1
102
RTVSPost2010Prop35
280
     0
102
RTVSPost2010PropOp35
 70
     1
102
RTVSPost2010Prop36
280
     0
102
RTVSPost2010PropOp36
 70
     1
102
RTVSPost2010Prop37
 90
       50
102
RTVSPost2010PropOp37
 70
     1
102
RTVSPost2010Prop38
140
0.0
102
RTVSPost2010PropOp38
 70
     1
102
RTVSPost2010Prop39
140
1.0
102
RTVSPost2010PropOp39
 70
     1
102
RTVSPost2010Prop40
 90
        0
102
RTVSPost2010PropOp40
 70
     1
102
RTVSPost2010Prop41ColorIndex
 90
       18
102
RTVSPost2010Prop41ColorRGB
 90
        0
102
RTVSPost2010PropOp41
 70
     1
102
RTVSPost2010Prop42
 90
       50
102
RTVSPost2010PropOp42
 70
     1
102
RTVSPost2010Prop43
 90
        3
102
RTVSPost2010PropOp43
 70
     1
102
RTVSPost2010Prop44ColorIndex
 90
        5
102
RTVSPost2010Prop44ColorRGB
 90
      255
102
RTVSPost2010PropOp44
 70
     1
102
RTVSPost2010Prop45
280
     0
102
RTVSPost2010PropOp45
 70
     1
102
RTVSPost2010Prop46
 90
       50
102
RTVSPost2010PropOp46
 70
     1
102
RTVSPost2010Prop47
 90
       50
102
RTVSPost2010PropOp47
 70
     1
102
RTVSPost2010Prop48
 90
       50
102
RTVSPost2010PropOp48
 70
     1
102
RTVSPost2010Prop49
280
     0
102
RTVSPost2010PropOp49
 70
     1
102
RTVSPost2010Prop50
 90
       50
102
RTVSPost2010PropOp50
 70
     1
102
RTVSPost2010Prop51ColorIndex
 90
      256
102
RTVSPost2010Prop51ColorRGB
 90
-16777216
102
RTVSPost2010PropOp51
 70
     0
102
RTVSPost2010Prop52
140
1.0
102
RTVSPost2010PropOp52
 70
     0
102
RTVSPost2010Prop53
 90
        2
102
RTVSPost2010PropOp53
 70
     1
102
RTVSPost2010Prop54
  1
strokes_ogs.tif
102
RTVSPost2010PropOp54
 70
     1
102
RTVSPost2010Prop55
280
     0
102
RTVSPost2010PropOp55
 70
     1
102
RTVSPost2010Prop56
140
1.0
102
RTVSPost2010PropOp56
 70
     1
102
RTVSPost2010Prop57
140
1.0
102
RTVSPost2010PropOp57
 70
     1
102
RTVSPropertyOp0
 70
     1
102
RTVSPropertyOp1
 70
     1
102
RTVSPropertyOp2
 70
     1
102
RTVSPropertyOp3
 70
     1
102
RTVSPropertyOp4
 70
     1
102
RTVSPropertyOp5
 70
     1
102
RTVSPropertyOp6
 70
     1
102
RTVSPropertyOp7
 70
     1
102
RTVSPropertyOp8
 70
     1
102
RTVSPropertyOp9
 70
     1
102
RTVSPropertyOp10
 70
     1
102
RTVSPropertyOp11
 70
     1
102
RTVSPropertyOp12
 70
     1
102
RTVSPropertyOp13
 70
     1
102
RTVSPropertyOp14
 70
     1
102
RTVSPropertyOp15
 70
     1
102
RTVSPropertyOp16
 70
     1
102
RTVSPropertyOp17
 70
     1
102
RTVSPropertyOp18
 70
     1
102
RTVSPropertyOp19
 70
     1
102
RTVSPropertyOp20
 70
     1
102
RTVSPropertyOp21
 70
     1
102
RTVSPropertyOp22
 70
     1
102
RTVSPropertyOp23
 70
     1
102
RTVSPropertyOp24
 70
     1
102
RTVSPropertyOp25
 70
     1
102
RTVSPropertyOp26
 70
     1
102
RTVSPropertyOp27
 70
     1
102
RTVSPropertyOp28
 70
     1
102
RTVSPropertyOp29
 70
     1
102
RTVSPropertyOp30
 70
     1
102
RTVSPropertyOp31
 70
     1
102
RTVSPropertyOp32
 70
     1
102
RTVSPropertyOp33
 70
     1
102
RTVSPropertyOp34
 70
     1
102
RTVSPropertyOp35
 70
     1
102
RTVSPropertyOp36
 70
     1
102
RTVSPropertyOp37
 70
     1
102
RTVSPropertyOp38
 70
     1
102
RTVSPropertyOp39
 70
     1
102
RTVSPropertyOp40
 70
     1
102
RTVSPropertyOp41
 70
     1
102
RTVSPropertyOp42
 70
     1
102
RTVSPropertyOp43
 70
     1
102
RTVSPropertyOp44
 70
     1
102
RTVSPropertyOp45
 70
     1
102
RTVSPropertyOp46
 70
     1
102
RTVSPropertyOp47
 70
     1
102
RTVSPropertyOp48
 70
     1
102
RTVSPropertyOp49
 70
     1
102
RTVSPropertyOp50
 70
     1
102
RTVSPropertyOp51
 70
     0
102
RTVSPropertyOp52
 70
     0
102
RTVSPropertyOp53
 70
     1
102
RTVSPropertyOp54
 70
     1
102
RTVSPropertyOp55
 70
     1
102
RTVSPropertyOp56
 70
     1
102
RTVSPropertyOp57
 70
     1
102
RTVSPropertyOp58
 70
     1
102
RTVSPropertyOp59
 70
     1
102
RTVSPropertyOp60
 70
     1
102
RTVSPropertyOp61
 70
     1
102
RTVSPropertyOp62
 70
     1
  0
XRECORD
  5
36C
102
{ACAD_REACTORS
330
36B
102
}
330
36B
100
AcDbXrecord
280
     1
102
RTVSPost2010Prop28
280
     0
102
RTVSPost2010PropOp28
 70
     1
102
RTVSPost2010Prop29
280
     1
102
RTVSPost2010PropOp29
 70
     1
102
RTVSPost2010Prop30
280
     1
102
RTVSPost2010PropOp30
 70
     1
102
RTVSPost2010Prop31
280
     0
102
RTVSPost2010PropOp31
 70
     1
102
RTVSPost2010Prop32
280
     0
102
RTVSPost2010PropOp32
 70
     1
102
RTVSPost2010Prop33
280
     0
102
RTVSPost2010PropOp33
 70
     1
102
RTVSPost2010Prop34
280
     0
102
RTVSPost2010PropOp34
 70
     1
102
RTVSPost2010Prop35
280
     0
102
RTVSPost2010PropOp35
 70
     1
102
RTVSPost2010Prop36
280
     0
102
RTVSPost2010PropOp36
 70
     1
102
RTVSPost2010Prop37
 90
       50
102
RTVSPost2010PropOp37
 70
     1
102
RTVSPost2010Prop38
140
0.0
102
RTVSPost2010PropOp38
 70
     1
102
RTVSPost2010Prop39
140
1.0
102
RTVSPost2010PropOp39
 70
     1
102
RTVSPost2010Prop40
 90
        0
102
RTVSPost2010PropOp40
 70
     1
102
RTVSPost2010Prop41ColorIndex
 90
       18
102
RTVSPost2010Prop41ColorRGB
 90
        0
102
RTVSPost2010PropOp41
 70
     1
102
RTVSPost2010Prop42
 90
       50
102
RTVSPost2010PropOp42
 70
     1
102
RTVSPost2010Prop43
 90
        3
102
RTVSPost2010PropOp43
 70
     1
102
RTVSPost2010Prop44ColorIndex
 90
        5
102
RTVSPost2010Prop44ColorRGB
 90
      255
102
RTVSPost2010PropOp44
 70
     1
102
RTVSPost2010Prop45
280
     0
102
RTVSPost2010PropOp45
 70
     1
102
RTVSPost2010Prop46
 90
       50
102
RTVSPost2010PropOp46
 70
     1
102
RTVSPost2010Prop47
 90
       50
102
RTVSPost2010PropOp47
 70
     1
102
RTVSPost2010Prop48
 90
       50
102
RTVSPost2010PropOp48
 70
     1
102
RTVSPost2010Prop49
280
     0
102
RTVSPost2010PropOp49
 70
     1
102
RTVSPost2010Prop50
 90
       50
102
RTVSPost2010PropOp50
 70
     1
102
RTVSPost2010Prop51ColorIndex
 90
      256
102
RTVSPost2010Prop51ColorRGB
 90
-16777216
102
RTVSPost2010PropOp51
 70
     0
102
RTVSPost2010Prop52
140
1.0
102
RTVSPost2010PropOp52
 70
     0
102
RTVSPost2010Prop53
 90
        2
102
RTVSPost2010PropOp53
 70
     1
102
RTVSPost2010Prop54
  1
strokes_ogs.tif
102
RTVSPost2010PropOp54
 70
     1
102
RTVSPost2010Prop55
280
     0
102
RTVSPost2010PropOp55
 70
     1
102
RTVSPost2010Prop56
140
1.0
102
RTVSPost2010PropOp56
 70
     1
102
RTVSPost2010Prop57
140
1.0
102
RTVSPost2010PropOp57
 70
     1
102
RTVSPropertyOp0
 70
     1
102
RTVSPropertyOp1
 70
     1
102
RTVSPropertyOp2
 70
     1
102
RTVSPropertyOp3
 70
     1
102
RTVSPropertyOp4
 70
     1
102
RTVSPropertyOp5
 70
     1
102
RTVSPropertyOp6
 70
     1
102
RTVSPropertyOp7
 70
     1
102
RTVSPropertyOp8
 70
     1
102
RTVSPropertyOp9
 70
     1
102
RTVSPropertyOp10
 70
     1
102
RTVSPropertyOp11
 70
     1
102
RTVSPropertyOp12
 70
     1
102
RTVSPropertyOp13
 70
     1
102
RTVSPropertyOp14
 70
     1
102
RTVSPropertyOp15
 70
     1
102
RTVSPropertyOp16
 70
     1
102
RTVSPropertyOp17
 70
     1
102
RTVSPropertyOp18
 70
     1
102
RTVSPropertyOp19
 70
     1
102
RTVSPropertyOp20
 70
     1
102
RTVSPropertyOp21
 70
     1
102
RTVSPropertyOp22
 70
     1
102
RTVSPropertyOp23
 70
     1
102
RTVSPropertyOp24
 70
     1
102
RTVSPropertyOp25
 70
     1
102
RTVSPropertyOp26
 70
     1
102
RTVSPropertyOp27
 70
     1
102
RTVSPropertyOp28
 70
     1
102
RTVSPropertyOp29
 70
     1
102
RTVSPropertyOp30
 70
     1
102
RTVSPropertyOp31
 70
     1
102
RTVSPropertyOp32
 70
     1
102
RTVSPropertyOp33
 70
     1
102
RTVSPropertyOp34
 70
     1
102
RTVSPropertyOp35
 70
     1
102
RTVSPropertyOp36
 70
     1
102
RTVSPropertyOp37
 70
     1
102
RTVSPropertyOp38
 70
     1
102
RTVSPropertyOp39
 70
     1
102
RTVSPropertyOp40
 70
     1
102
RTVSPropertyOp41
 70
     1
102
RTVSPropertyOp42
 70
     1
102
RTVSPropertyOp43
 70
     1
102
RTVSPropertyOp44
 70
     1
102
RTVSPropertyOp45
 70
     1
102
RTVSPropertyOp46
 70
     1
102
RTVSPropertyOp47
 70
     1
102
RTVSPropertyOp48
 70
     1
102
RTVSPropertyOp49
 70
     1
102
RTVSPropertyOp50
 70
     1
102
RTVSPropertyOp51
 70
     0
102
RTVSPropertyOp52
 70
     0
102
RTVSPropertyOp53
 70
     1
102
RTVSPropertyOp54
 70
     1
102
RTVSPropertyOp55
 70
     1
102
RTVSPropertyOp56
 70
     1
102
RTVSPropertyOp57
 70
     1
102
RTVSPropertyOp58
 70
     1
102
RTVSPropertyOp59
 70
     1
102
RTVSPropertyOp60
 70
     1
102
RTVSPropertyOp61
 70
     1
102
RTVSPropertyOp62
 70
     1
  0
XRECORD
  5
380
102
{ACAD_REACTORS
330
37F
102
}
330
37F
100
AcDbXrecord
280
     1
102
RTVSPost2010Prop28
280
     0
102
RTVSPost2010PropOp28
 70
     0
102
RTVSPost2010Prop29
280
     1
102
RTVSPost2010PropOp29
 70
     0
102
RTVSPost2010Prop30
280
     1
102
RTVSPost2010PropOp30
 70
     0
102
RTVSPost2010Prop31
280
     0
102
RTVSPost2010PropOp31
 70
     0
102
RTVSPost2010Prop32
280
     0
102
RTVSPost2010PropOp32
 70
     0
102
RTVSPost2010Prop33
280
     0
102
RTVSPost2010PropOp33
 70
     0
102
RTVSPost2010Prop34
280
     0
102
RTVSPost2010PropOp34
 70
     0
102
RTVSPost2010Prop35
280
     0
102
RTVSPost2010PropOp35
 70
     0
102
RTVSPost2010Prop36
280
     0
102
RTVSPost2010PropOp36
 70
     0
102
RTVSPost2010Prop37
 90
       50
102
RTVSPost2010PropOp37
 70
     0
102
RTVSPost2010Prop38
140
0.0
102
RTVSPost2010PropOp38
 70
     0
102
RTVSPost2010Prop39
140
1.0
102
RTVSPost2010PropOp39
 70
     0
102
RTVSPost2010Prop40
 90
        0
102
RTVSPost2010PropOp40
 70
     0
102
RTVSPost2010Prop41ColorIndex
 90
       18
102
RTVSPost2010Prop41ColorRGB
 90
        0
102
RTVSPost2010PropOp41
 70
     0
102
RTVSPost2010Prop42
 90
       50
102
RTVSPost2010PropOp42
 70
     0
102
RTVSPost2010Prop43
 90
        3
102
RTVSPost2010PropOp43
 70
     0
102
RTVSPost2010Prop44ColorIndex
 90
        5
102
RTVSPost2010Prop44ColorRGB
 90
      255
102
RTVSPost2010PropOp44
 70
     0
102
RTVSPost2010Prop45
280
     0
102
RTVSPost2010PropOp45
 70
     0
102
RTVSPost2010Prop46
 90
       50
102
RTVSPost2010PropOp46
 70
     0
102
RTVSPost2010Prop47
 90
       50
102
RTVSPost2010PropOp47
 70
     0
102
RTVSPost2010Prop48
 90
       50
102
RTVSPost2010PropOp48
 70
     0
102
RTVSPost2010Prop49
280
     0
102
RTVSPost2010PropOp49
 70
     0
102
RTVSPost2010Prop50
 90
       50
102
RTVSPost2010PropOp50
 70
     0
102
RTVSPost2010Prop51ColorIndex
 90
      256
102
RTVSPost2010Prop51ColorRGB
 90
-16777216
102
RTVSPost2010PropOp51
 70
     0
102
RTVSPost2010Prop52
140
1.0
102
RTVSPost2010PropOp52
 70
     0
102
RTVSPost2010Prop53
 90
        2
102
RTVSPost2010PropOp53
 70
     0
102
RTVSPost2010Prop54
  1
strokes_ogs.tif
102
RTVSPost2010PropOp54
 70
     0
102
RTVSPost2010Prop55
280
     0
102
RTVSPost2010PropOp55
 70
     0
102
RTVSPost2010Prop56
140
1.0
102
RTVSPost2010PropOp56
 70
     0
102
RTVSPost2010Prop57
140
1.0
102
RTVSPost2010PropOp57
 70
     0
102
RTVSPropertyOp0
 70
     0
102
RTVSPropertyOp1
 70
     0
102
RTVSPropertyOp2
 70
     0
102
RTVSPropertyOp3
 70
     0
102
RTVSPropertyOp4
 70
     0
102
RTVSPropertyOp5
 70
     0
102
RTVSPropertyOp6
 70
     0
102
RTVSPropertyOp7
 70
     0
102
RTVSPropertyOp8
 70
     0
102
RTVSPropertyOp9
 70
     0
102
RTVSPropertyOp10
 70
     0
102
RTVSPropertyOp11
 70
     0
102
RTVSPropertyOp12
 70
     0
102
RTVSPropertyOp13
 70
     0
102
RTVSPropertyOp14
 70
     2
102
RTVSPropertyOp15
 70
     0
102
RTVSPropertyOp16
 70
     0
102
RTVSPropertyOp17
 70
     0
102
RTVSPropertyOp18
 70
     0
102
RTVSPropertyOp19
 70
     0
102
RTVSPropertyOp20
 70
     0
102
RTVSPropertyOp21
 70
     0
102
RTVSPropertyOp22
 70
     0
102
RTVSPropertyOp23
 70
     0
102
RTVSPropertyOp24
 70
     0
102
RTVSPropertyOp25
 70
     0
102
RTVSPropertyOp26
 70
     0
102
RTVSPropertyOp27
 70
     0
102
RTVSPropertyOp28
 70
     0
102
RTVSPropertyOp29
 70
     0
102
RTVSPropertyOp30
 70
     0
102
RTVSPropertyOp31
 70
     0
102
RTVSPropertyOp32
 70
     0
102
RTVSPropertyOp33
 70
     0
102
RTVSPropertyOp34
 70
     0
102
RTVSPropertyOp35
 70
     0
102
RTVSPropertyOp36
 70
     0
102
RTVSPropertyOp37
 70
     0
102
RTVSPropertyOp38
 70
     0
102
RTVSPropertyOp39
 70
     0
102
RTVSPropertyOp40
 70
     0
102
RTVSPropertyOp41
 70
     0
102
RTVSPropertyOp42
 70
     0
102
RTVSPropertyOp43
 70
     0
102
RTVSPropertyOp44
 70
     0
102
RTVSPropertyOp45
 70
     0
102
RTVSPropertyOp46
 70
     0
102
RTVSPropertyOp47
 70
     0
102
RTVSPropertyOp48
 70
     0
102
RTVSPropertyOp49
 70
     0
102
RTVSPropertyOp50
 70
     0
102
RTVSPropertyOp51
 70
     0
102
RTVSPropertyOp52
 70
     0
102
RTVSPropertyOp53
 70
     0
102
RTVSPropertyOp54
 70
     0
102
RTVSPropertyOp55
 70
     0
102
RTVSPropertyOp56
 70
     0
102
RTVSPropertyOp57
 70
     0
102
RTVSPropertyOp58
 70
     1
102
RTVSPropertyOp59
 70
     1
102
RTVSPropertyOp60
 70
     1
102
RTVSPropertyOp61
 70
     1
102
RTVSPropertyOp62
 70
     1
  0
XRECORD
  5
37A
102
{ACAD_REACTORS
330
379
102
}
330
379
100
AcDbXrecord
280
     1
102
RTVSPost2010Prop28
280
     0
102
RTVSPost2010PropOp28
 70
     1
102
RTVSPost2010Prop29
280
     1
102
RTVSPost2010PropOp29
 70
     1
102
RTVSPost2010Prop30
280
     1
102
RTVSPost2010PropOp30
 70
     1
102
RTVSPost2010Prop31
280
     0
102
RTVSPost2010PropOp31
 70
     1
102
RTVSPost2010Prop32
280
     0
102
RTVSPost2010PropOp32
 70
     1
102
RTVSPost2010Prop33
280
     0
102
RTVSPost2010PropOp33
 70
     1
102
RTVSPost2010Prop34
280
     0
102
RTVSPost2010PropOp34
 70
     1
102
RTVSPost2010Prop35
280
     0
102
RTVSPost2010PropOp35
 70
     1
102
RTVSPost2010Prop36
280
     0
102
RTVSPost2010PropOp36
 70
     1
102
RTVSPost2010Prop37
 90
       50
102
RTVSPost2010PropOp37
 70
     1
102
RTVSPost2010Prop38
140
0.0
102
RTVSPost2010PropOp38
 70
     1
102
RTVSPost2010Prop39
140
1.0
102
RTVSPost2010PropOp39
 70
     1
102
RTVSPost2010Prop40
 90
        0
102
RTVSPost2010PropOp40
 70
     1
102
RTVSPost2010Prop41ColorIndex
 90
       18
102
RTVSPost2010Prop41ColorRGB
 90
        0
102
RTVSPost2010PropOp41
 70
     1
102
RTVSPost2010Prop42
 90
       50
102
RTVSPost2010PropOp42
 70
     1
102
RTVSPost2010Prop43
 90
        3
102
RTVSPost2010PropOp43
 70
     1
102
RTVSPost2010Prop44ColorIndex
 90
        5
102
RTVSPost2010Prop44ColorRGB
 90
      255
102
RTVSPost2010PropOp44
 70
     1
102
RTVSPost2010Prop45
280
     0
102
RTVSPost2010PropOp45
 70
     1
102
RTVSPost2010Prop46
 90
       50
102
RTVSPost2010PropOp46
 70
     1
102
RTVSPost2010Prop47
 90
       50
102
RTVSPost2010PropOp47
 70
     1
102
RTVSPost2010Prop48
 90
       50
102
RTVSPost2010PropOp48
 70
     1
102
RTVSPost2010Prop49
280
     0
102
RTVSPost2010PropOp49
 70
     1
102
RTVSPost2010Prop50
 90
       50
102
RTVSPost2010PropOp50
 70
     1
102
RTVSPost2010Prop51ColorIndex
 90
      256
102
RTVSPost2010Prop51ColorRGB
 90
-16777216
102
RTVSPost2010PropOp51
 70
     0
102
RTVSPost2010Prop52
140
1.0
102
RTVSPost2010PropOp52
 70
     0
102
RTVSPost2010Prop53
 90
        2
102
RTVSPost2010PropOp53
 70
     1
102
RTVSPost2010Prop54
  1
strokes_ogs.tif
102
RTVSPost2010PropOp54
 70
     1
102
RTVSPost2010Prop55
280
     0
102
RTVSPost2010PropOp55
 70
     1
102
RTVSPost2010Prop56
140
1.0
102
RTVSPost2010PropOp56
 70
     1
102
RTVSPost2010Prop57
140
1.0
102
RTVSPost2010PropOp57
 70
     1
102
RTVSPropertyOp0
 70
     1
102
RTVSPropertyOp1
 70
     1
102
RTVSPropertyOp2
 70
     1
102
RTVSPropertyOp3
 70
     1
102
RTVSPropertyOp4
 70
     1
102
RTVSPropertyOp5
 70
     1
102
RTVSPropertyOp6
 70
     1
102
RTVSPropertyOp7
 70
     1
102
RTVSPropertyOp8
 70
     1
102
RTVSPropertyOp9
 70
     1
102
RTVSPropertyOp10
 70
     1
102
RTVSPropertyOp11
 70
     1
102
RTVSPropertyOp12
 70
     1
102
RTVSPropertyOp13
 70
     1
102
RTVSPropertyOp14
 70
     1
102
RTVSPropertyOp15
 70
     1
102
RTVSPropertyOp16
 70
     1
102
RTVSPropertyOp17
 70
     1
102
RTVSPropertyOp18
 70
     1
102
RTVSPropertyOp19
 70
     1
102
RTVSPropertyOp20
 70
     1
102
RTVSPropertyOp21
 70
     1
102
RTVSPropertyOp22
 70
     1
102
RTVSPropertyOp23
 70
     1
102
RTVSPropertyOp24
 70
     1
102
RTVSPropertyOp25
 70
     1
102
RTVSPropertyOp26
 70
     1
102
RTVSPropertyOp27
 70
     1
102
RTVSPropertyOp28
 70
     1
102
RTVSPropertyOp29
 70
     1
102
RTVSPropertyOp30
 70
     1
102
RTVSPropertyOp31
 70
     1
102
RTVSPropertyOp32
 70
     1
102
RTVSPropertyOp33
 70
     1
102
RTVSPropertyOp34
 70
     1
102
RTVSPropertyOp35
 70
     1
102
RTVSPropertyOp36
 70
     1
102
RTVSPropertyOp37
 70
     1
102
RTVSPropertyOp38
 70
     1
102
RTVSPropertyOp39
 70
     1
102
RTVSPropertyOp40
 70
     1
102
RTVSPropertyOp41
 70
     1
102
RTVSPropertyOp42
 70
     1
102
RTVSPropertyOp43
 70
     1
102
RTVSPropertyOp44
 70
     1
102
RTVSPropertyOp45
 70
     1
102
RTVSPropertyOp46
 70
     1
102
RTVSPropertyOp47
 70
     1
102
RTVSPropertyOp48
 70
     1
102
RTVSPropertyOp49
 70
     1
102
RTVSPropertyOp50
 70
     1
102
RTVSPropertyOp51
 70
     0
102
RTVSPropertyOp52
 70
     0
102
RTVSPropertyOp53
 70
     1
102
RTVSPropertyOp54
 70
     1
102
RTVSPropertyOp55
 70
     1
102
RTVSPropertyOp56
 70
     1
102
RTVSPropertyOp57
 70
     1
102
RTVSPropertyOp58
 70
     1
102
RTVSPropertyOp59
 70
     1
102
RTVSPropertyOp60
 70
     1
102
RTVSPropertyOp61
 70
     1
102
RTVSPropertyOp62
 70
     1
  0
XRECORD
  5
382
102
{ACAD_REACTORS
330
381
102
}
330
381
100
AcDbXrecord
280
     1
102
RTVSPost2010Prop28
280
     0
102
RTVSPost2010PropOp28
 70
     0
102
RTVSPost2010Prop29
280
     1
102
RTVSPost2010PropOp29
 70
     0
102
RTVSPost2010Prop30
280
     1
102
RTVSPost2010PropOp30
 70
     0
102
RTVSPost2010Prop31
280
     0
102
RTVSPost2010PropOp31
 70
     0
102
RTVSPost2010Prop32
280
     0
102
RTVSPost2010PropOp32
 70
     0
102
RTVSPost2010Prop33
280
     0
102
RTVSPost2010PropOp33
 70
     0
102
RTVSPost2010Prop34
280
     0
102
RTVSPost2010PropOp34
 70
     0
102
RTVSPost2010Prop35
280
     0
102
RTVSPost2010PropOp35
 70
     0
102
RTVSPost2010Prop36
280
     0
102
RTVSPost2010PropOp36
 70
     0
102
RTVSPost2010Prop37
 90
       50
102
RTVSPost2010PropOp37
 70
     0
102
RTVSPost2010Prop38
140
0.0
102
RTVSPost2010PropOp38
 70
     0
102
RTVSPost2010Prop39
140
1.0
102
RTVSPost2010PropOp39
 70
     0
102
RTVSPost2010Prop40
 90
        0
102
RTVSPost2010PropOp40
 70
     0
102
RTVSPost2010Prop41ColorIndex
 90
       18
102
RTVSPost2010Prop41ColorRGB
 90
        0
102
RTVSPost2010PropOp41
 70
     0
102
RTVSPost2010Prop42
 90
       50
102
RTVSPost2010PropOp42
 70
     0
102
RTVSPost2010Prop43
 90
        3
102
RTVSPost2010PropOp43
 70
     0
102
RTVSPost2010Prop44ColorIndex
 90
        5
102
RTVSPost2010Prop44ColorRGB
 90
      255
102
RTVSPost2010PropOp44
 70
     0
102
RTVSPost2010Prop45
280
     0
102
RTVSPost2010PropOp45
 70
     0
102
RTVSPost2010Prop46
 90
       50
102
RTVSPost2010PropOp46
 70
     0
102
RTVSPost2010Prop47
 90
       50
102
RTVSPost2010PropOp47
 70
     0
102
RTVSPost2010Prop48
 90
       50
102
RTVSPost2010PropOp48
 70
     0
102
RTVSPost2010Prop49
280
     0
102
RTVSPost2010PropOp49
 70
     0
102
RTVSPost2010Prop50
 90
       50
102
RTVSPost2010PropOp50
 70
     0
102
RTVSPost2010Prop51ColorIndex
 90
      256
102
RTVSPost2010Prop51ColorRGB
 90
-16777216
102
RTVSPost2010PropOp51
 70
     0
102
RTVSPost2010Prop52
140
1.0
102
RTVSPost2010PropOp52
 70
     0
102
RTVSPost2010Prop53
 90
        2
102
RTVSPost2010PropOp53
 70
     0
102
RTVSPost2010Prop54
  1
strokes_ogs.tif
102
RTVSPost2010PropOp54
 70
     0
102
RTVSPost2010Prop55
280
     0
102
RTVSPost2010PropOp55
 70
     0
102
RTVSPost2010Prop56
140
1.0
102
RTVSPost2010PropOp56
 70
     0
102
RTVSPost2010Prop57
140
1.0
102
RTVSPost2010PropOp57
 70
     0
102
RTVSPropertyOp0
 70
     0
102
RTVSPropertyOp1
 70
     0
102
RTVSPropertyOp2
 70
     0
102
RTVSPropertyOp3
 70
     0
102
RTVSPropertyOp4
 70
     0
102
RTVSPropertyOp5
 70
     0
102
RTVSPropertyOp6
 70
     0
102
RTVSPropertyOp7
 70
     0
102
RTVSPropertyOp8
 70
     0
102
RTVSPropertyOp9
 70
     0
102
RTVSPropertyOp10
 70
     0
102
RTVSPropertyOp11
 70
     0
102
RTVSPropertyOp12
 70
     0
102
RTVSPropertyOp13
 70
     0
102
RTVSPropertyOp14
 70
     2
102
RTVSPropertyOp15
 70
     0
102
RTVSPropertyOp16
 70
     0
102
RTVSPropertyOp17
 70
     0
102
RTVSPropertyOp18
 70
     0
102
RTVSPropertyOp19
 70
     0
102
RTVSPropertyOp20
 70
     0
102
RTVSPropertyOp21
 70
     0
102
RTVSPropertyOp22
 70
     0
102
RTVSPropertyOp23
 70
     0
102
RTVSPropertyOp24
 70
     0
102
RTVSPropertyOp25
 70
     0
102
RTVSPropertyOp26
 70
     0
102
RTVSPropertyOp27
 70
     0
102
RTVSPropertyOp28
 70
     0
102
RTVSPropertyOp29
 70
     0
102
RTVSPropertyOp30
 70
     0
102
RTVSPropertyOp31
 70
     0
102
RTVSPropertyOp32
 70
     0
102
RTVSPropertyOp33
 70
     0
102
RTVSPropertyOp34
 70
     0
102
RTVSPropertyOp35
 70
     0
102
RTVSPropertyOp36
 70
     0
102
RTVSPropertyOp37
 70
     0
102
RTVSPropertyOp38
 70
     0
102
RTVSPropertyOp39
 70
     0
102
RTVSPropertyOp40
 70
     0
102
RTVSPropertyOp41
 70
     0
102
RTVSPropertyOp42
 70
     0
102
RTVSPropertyOp43
 70
     0
102
RTVSPropertyOp44
 70
     0
102
RTVSPropertyOp45
 70
     0
102
RTVSPropertyOp46
 70
     0
102
RTVSPropertyOp47
 70
     0
102
RTVSPropertyOp48
 70
     0
102
RTVSPropertyOp49
 70
     0
102
RTVSPropertyOp50
 70
     0
102
RTVSPropertyOp51
 70
     0
102
RTVSPropertyOp52
 70
     0
102
RTVSPropertyOp53
 70
     0
102
RTVSPropertyOp54
 70
     0
102
RTVSPropertyOp55
 70
     0
102
RTVSPropertyOp56
 70
     0
102
RTVSPropertyOp57
 70
     0
102
RTVSPropertyOp58
 70
     1
102
RTVSPropertyOp59
 70
     1
102
RTVSPropertyOp60
 70
     1
102
RTVSPropertyOp61
 70
     1
102
RTVSPropertyOp62
 70
     1
  0
XRECORD
  5
370
102
{ACAD_REACTORS
330
36F
102
}
330
36F
100
AcDbXrecord
280
     1
102
RTVSPost2010Prop28
280
     0
102
RTVSPost2010PropOp28
 70
     1
102
RTVSPost2010Prop29
280
     1
102
RTVSPost2010PropOp29
 70
     1
102
RTVSPost2010Prop30
280
     1
102
RTVSPost2010PropOp30
 70
     1
102
RTVSPost2010Prop31
280
     0
102
RTVSPost2010PropOp31
 70
     1
102
RTVSPost2010Prop32
280
     0
102
RTVSPost2010PropOp32
 70
     1
102
RTVSPost2010Prop33
280
     0
102
RTVSPost2010PropOp33
 70
     1
102
RTVSPost2010Prop34
280
     0
102
RTVSPost2010PropOp34
 70
     1
102
RTVSPost2010Prop35
280
     0
102
RTVSPost2010PropOp35
 70
     1
102
RTVSPost2010Prop36
280
     0
102
RTVSPost2010PropOp36
 70
     1
102
RTVSPost2010Prop37
 90
       50
102
RTVSPost2010PropOp37
 70
     1
102
RTVSPost2010Prop38
140
0.0
102
RTVSPost2010PropOp38
 70
     1
102
RTVSPost2010Prop39
140
1.0
102
RTVSPost2010PropOp39
 70
     1
102
RTVSPost2010Prop40
 90
        0
102
RTVSPost2010PropOp40
 70
     1
102
RTVSPost2010Prop41ColorIndex
 90
       18
102
RTVSPost2010Prop41ColorRGB
 90
        0
102
RTVSPost2010PropOp41
 70
     1
102
RTVSPost2010Prop42
 90
       50
102
RTVSPost2010PropOp42
 70
     1
102
RTVSPost2010Prop43
 90
        3
102
RTVSPost2010PropOp43
 70
     1
102
RTVSPost2010Prop44ColorIndex
 90
        5
102
RTVSPost2010Prop44ColorRGB
 90
      255
102
RTVSPost2010PropOp44
 70
     1
102
RTVSPost2010Prop45
280
     0
102
RTVSPost2010PropOp45
 70
     1
102
RTVSPost2010Prop46
 90
       50
102
RTVSPost2010PropOp46
 70
     1
102
RTVSPost2010Prop47
 90
       50
102
RTVSPost2010PropOp47
 70
     1
102
RTVSPost2010Prop48
 90
       50
102
RTVSPost2010PropOp48
 70
     1
102
RTVSPost2010Prop49
280
     0
102
RTVSPost2010PropOp49
 70
     1
102
RTVSPost2010Prop50
 90
       50
102
RTVSPost2010PropOp50
 70
     1
102
RTVSPost2010Prop51ColorIndex
 90
      256
102
RTVSPost2010Prop51ColorRGB
 90
-16777216
102
RTVSPost2010PropOp51
 70
     0
102
RTVSPost2010Prop52
140
1.0
102
RTVSPost2010PropOp52
 70
     0
102
RTVSPost2010Prop53
 90
        2
102
RTVSPost2010PropOp53
 70
     1
102
RTVSPost2010Prop54
  1
strokes_ogs.tif
102
RTVSPost2010PropOp54
 70
     1
102
RTVSPost2010Prop55
280
     0
102
RTVSPost2010PropOp55
 70
     1
102
RTVSPost2010Prop56
140
1.0
102
RTVSPost2010PropOp56
 70
     1
102
RTVSPost2010Prop57
140
1.0
102
RTVSPost2010PropOp57
 70
     1
102
RTVSPropertyOp0
 70
     1
102
RTVSPropertyOp1
 70
     1
102
RTVSPropertyOp2
 70
     1
102
RTVSPropertyOp3
 70
     1
102
RTVSPropertyOp4
 70
     1
102
RTVSPropertyOp5
 70
     1
102
RTVSPropertyOp6
 70
     1
102
RTVSPropertyOp7
 70
     1
102
RTVSPropertyOp8
 70
     1
102
RTVSPropertyOp9
 70
     1
102
RTVSPropertyOp10
 70
     1
102
RTVSPropertyOp11
 70
     1
102
RTVSPropertyOp12
 70
     1
102
RTVSPropertyOp13
 70
     1
102
RTVSPropertyOp14
 70
     1
102
RTVSPropertyOp15
 70
     1
102
RTVSPropertyOp16
 70
     1
102
RTVSPropertyOp17
 70
     1
102
RTVSPropertyOp18
 70
     1
102
RTVSPropertyOp19
 70
     1
102
RTVSPropertyOp20
 70
     1
102
RTVSPropertyOp21
 70
     1
102
RTVSPropertyOp22
 70
     1
102
RTVSPropertyOp23
 70
     1
102
RTVSPropertyOp24
 70
     1
102
RTVSPropertyOp25
 70
     1
102
RTVSPropertyOp26
 70
     1
102
RTVSPropertyOp27
 70
     1
102
RTVSPropertyOp28
 70
     1
102
RTVSPropertyOp29
 70
     1
102
RTVSPropertyOp30
 70
     1
102
RTVSPropertyOp31
 70
     1
102
RTVSPropertyOp32
 70
     1
102
RTVSPropertyOp33
 70
     1
102
RTVSPropertyOp34
 70
     1
102
RTVSPropertyOp35
 70
     1
102
RTVSPropertyOp36
 70
     1
102
RTVSPropertyOp37
 70
     1
102
RTVSPropertyOp38
 70
     1
102
RTVSPropertyOp39
 70
     1
102
RTVSPropertyOp40
 70
     1
102
RTVSPropertyOp41
 70
     1
102
RTVSPropertyOp42
 70
     1
102
RTVSPropertyOp43
 70
     1
102
RTVSPropertyOp44
 70
     1
102
RTVSPropertyOp45
 70
     1
102
RTVSPropertyOp46
 70
     1
102
RTVSPropertyOp47
 70
     1
102
RTVSPropertyOp48
 70
     1
102
RTVSPropertyOp49
 70
     1
102
RTVSPropertyOp50
 70
     1
102
RTVSPropertyOp51
 70
     0
102
RTVSPropertyOp52
 70
     0
102
RTVSPropertyOp53
 70
     1
102
RTVSPropertyOp54
 70
     1
102
RTVSPropertyOp55
 70
     1
102
RTVSPropertyOp56
 70
     1
102
RTVSPropertyOp57
 70
     1
102
RTVSPropertyOp58
 70
     1
102
RTVSPropertyOp59
 70
     1
102
RTVSPropertyOp60
 70
     1
102
RTVSPropertyOp61
 70
     1
102
RTVSPropertyOp62
 70
     1
  0
XRECORD
  5
38E
102
{ACAD_REACTORS
330
38D
102
}
330
38D
100
AcDbXrecord
280
     1
102
RTVSPost2010Prop28
280
     0
102
RTVSPost2010PropOp28
 70
     1
102
RTVSPost2010Prop29
280
     1
102
RTVSPost2010PropOp29
 70
     1
102
RTVSPost2010Prop30
280
     1
102
RTVSPost2010PropOp30
 70
     1
102
RTVSPost2010Prop31
280
     0
102
RTVSPost2010PropOp31
 70
     1
102
RTVSPost2010Prop32
280
     0
102
RTVSPost2010PropOp32
 70
     1
102
RTVSPost2010Prop33
280
     0
102
RTVSPost2010PropOp33
 70
     1
102
RTVSPost2010Prop34
280
     0
102
RTVSPost2010PropOp34
 70
     1
102
RTVSPost2010Prop35
280
     0
102
RTVSPost2010PropOp35
 70
     1
102
RTVSPost2010Prop36
280
     0
102
RTVSPost2010PropOp36
 70
     1
102
RTVSPost2010Prop37
 90
       50
102
RTVSPost2010PropOp37
 70
     1
102
RTVSPost2010Prop38
140
0.0
102
RTVSPost2010PropOp38
 70
     1
102
RTVSPost2010Prop39
140
1.0
102
RTVSPost2010PropOp39
 70
     1
102
RTVSPost2010Prop40
 90
        0
102
RTVSPost2010PropOp40
 70
     1
102
RTVSPost2010Prop41ColorIndex
 90
       18
102
RTVSPost2010Prop41ColorRGB
 90
        0
102
RTVSPost2010PropOp41
 70
     1
102
RTVSPost2010Prop42
 90
       50
102
RTVSPost2010PropOp42
 70
     1
102
RTVSPost2010Prop43
 90
        3
102
RTVSPost2010PropOp43
 70
     1
102
RTVSPost2010Prop44ColorIndex
 90
        5
102
RTVSPost2010Prop44ColorRGB
 90
      255
102
RTVSPost2010PropOp44
 70
     1
102
RTVSPost2010Prop45
280
     0
102
RTVSPost2010PropOp45
 70
     1
102
RTVSPost2010Prop46
 90
       50
102
RTVSPost2010PropOp46
 70
     1
102
RTVSPost2010Prop47
 90
       50
102
RTVSPost2010PropOp47
 70
     1
102
RTVSPost2010Prop48
 90
       50
102
RTVSPost2010PropOp48
 70
     1
102
RTVSPost2010Prop49
280
     0
102
RTVSPost2010PropOp49
 70
     1
102
RTVSPost2010Prop50
 90
       50
102
RTVSPost2010PropOp50
 70
     1
102
RTVSPost2010Prop51ColorIndex
 90
      256
102
RTVSPost2010Prop51ColorRGB
 90
-16777216
102
RTVSPost2010PropOp51
 70
     0
102
RTVSPost2010Prop52
140
1.0
102
RTVSPost2010PropOp52
 70
     0
102
RTVSPost2010Prop53
 90
        2
102
RTVSPost2010PropOp53
 70
     1
102
RTVSPost2010Prop54
  1
strokes_ogs.tif
102
RTVSPost2010PropOp54
 70
     1
102
RTVSPost2010Prop55
280
     0
102
RTVSPost2010PropOp55
 70
     1
102
RTVSPost2010Prop56
140
1.0
102
RTVSPost2010PropOp56
 70
     1
102
RTVSPost2010Prop57
140
1.0
102
RTVSPost2010PropOp57
 70
     1
102
RTVSPropertyOp0
 70
     1
102
RTVSPropertyOp1
 70
     1
102
RTVSPropertyOp2
 70
     1
102
RTVSPropertyOp3
 70
     1
102
RTVSPropertyOp4
 70
     1
102
RTVSPropertyOp5
 70
     1
102
RTVSPropertyOp6
 70
     1
102
RTVSPropertyOp7
 70
     1
102
RTVSPropertyOp8
 70
     1
102
RTVSPropertyOp9
 70
     1
102
RTVSPropertyOp10
 70
     1
102
RTVSPropertyOp11
 70
     1
102
RTVSPropertyOp12
 70
     1
102
RTVSPropertyOp13
 70
     1
102
RTVSPropertyOp14
 70
     1
102
RTVSPropertyOp15
 70
     1
102
RTVSPropertyOp16
 70
     1
102
RTVSPropertyOp17
 70
     1
102
RTVSPropertyOp18
 70
     1
102
RTVSPropertyOp19
 70
     1
102
RTVSPropertyOp20
 70
     1
102
RTVSPropertyOp21
 70
     1
102
RTVSPropertyOp22
 70
     1
102
RTVSPropertyOp23
 70
     1
102
RTVSPropertyOp24
 70
     1
102
RTVSPropertyOp25
 70
     1
102
RTVSPropertyOp26
 70
     1
102
RTVSPropertyOp27
 70
     1
102
RTVSPropertyOp28
 70
     1
102
RTVSPropertyOp29
 70
     1
102
RTVSPropertyOp30
 70
     1
102
RTVSPropertyOp31
 70
     1
102
RTVSPropertyOp32
 70
     1
102
RTVSPropertyOp33
 70
     1
102
RTVSPropertyOp34
 70
     1
102
RTVSPropertyOp35
 70
     1
102
RTVSPropertyOp36
 70
     1
102
RTVSPropertyOp37
 70
     1
102
RTVSPropertyOp38
 70
     1
102
RTVSPropertyOp39
 70
     1
102
RTVSPropertyOp40
 70
     1
102
RTVSPropertyOp41
 70
     1
102
RTVSPropertyOp42
 70
     1
102
RTVSPropertyOp43
 70
     1
102
RTVSPropertyOp44
 70
     1
102
RTVSPropertyOp45
 70
     1
102
RTVSPropertyOp46
 70
     1
102
RTVSPropertyOp47
 70
     1
102
RTVSPropertyOp48
 70
     1
102
RTVSPropertyOp49
 70
     1
102
RTVSPropertyOp50
 70
     1
102
RTVSPropertyOp51
 70
     0
102
RTVSPropertyOp52
 70
     0
102
RTVSPropertyOp53
 70
     1
102
RTVSPropertyOp54
 70
     1
102
RTVSPropertyOp55
 70
     1
102
RTVSPropertyOp56
 70
     1
102
RTVSPropertyOp57
 70
     1
102
RTVSPropertyOp58
 70
     1
102
RTVSPropertyOp59
 70
     1
102
RTVSPropertyOp60
 70
     1
102
RTVSPropertyOp61
 70
     1
102
RTVSPropertyOp62
 70
     1
  0
XRECORD
  5
38C
102
{ACAD_REACTORS
330
38B
102
}
330
38B
100
AcDbXrecord
280
     1
102
RTVSPost2010Prop28
280
     0
102
RTVSPost2010PropOp28
 70
     1
102
RTVSPost2010Prop29
280
     1
102
RTVSPost2010PropOp29
 70
     1
102
RTVSPost2010Prop30
280
     1
102
RTVSPost2010PropOp30
 70
     1
102
RTVSPost2010Prop31
280
     0
102
RTVSPost2010PropOp31
 70
     1
102
RTVSPost2010Prop32
280
     0
102
RTVSPost2010PropOp32
 70
     1
102
RTVSPost2010Prop33
280
     0
102
RTVSPost2010PropOp33
 70
     1
102
RTVSPost2010Prop34
280
     0
102
RTVSPost2010PropOp34
 70
     1
102
RTVSPost2010Prop35
280
     0
102
RTVSPost2010PropOp35
 70
     1
102
RTVSPost2010Prop36
280
     0
102
RTVSPost2010PropOp36
 70
     1
102
RTVSPost2010Prop37
 90
       50
102
RTVSPost2010PropOp37
 70
     1
102
RTVSPost2010Prop38
140
0.0
102
RTVSPost2010PropOp38
 70
     1
102
RTVSPost2010Prop39
140
1.0
102
RTVSPost2010PropOp39
 70
     1
102
RTVSPost2010Prop40
 90
        0
102
RTVSPost2010PropOp40
 70
     1
102
RTVSPost2010Prop41ColorIndex
 90
       18
102
RTVSPost2010Prop41ColorRGB
 90
        0
102
RTVSPost2010PropOp41
 70
     1
102
RTVSPost2010Prop42
 90
       50
102
RTVSPost2010PropOp42
 70
     1
102
RTVSPost2010Prop43
 90
        3
102
RTVSPost2010PropOp43
 70
     1
102
RTVSPost2010Prop44ColorIndex
 90
        5
102
RTVSPost2010Prop44ColorRGB
 90
      255
102
RTVSPost2010PropOp44
 70
     1
102
RTVSPost2010Prop45
280
     0
102
RTVSPost2010PropOp45
 70
     1
102
RTVSPost2010Prop46
 90
       50
102
RTVSPost2010PropOp46
 70
     1
102
RTVSPost2010Prop47
 90
       50
102
RTVSPost2010PropOp47
 70
     1
102
RTVSPost2010Prop48
 90
       50
102
RTVSPost2010PropOp48
 70
     1
102
RTVSPost2010Prop49
280
     0
102
RTVSPost2010PropOp49
 70
     1
102
RTVSPost2010Prop50
 90
       50
102
RTVSPost2010PropOp50
 70
     1
102
RTVSPost2010Prop51ColorIndex
 90
      256
102
RTVSPost2010Prop51ColorRGB
 90
-16777216
102
RTVSPost2010PropOp51
 70
     0
102
RTVSPost2010Prop52
140
1.0
102
RTVSPost2010PropOp52
 70
     0
102
RTVSPost2010Prop53
 90
        2
102
RTVSPost2010PropOp53
 70
     1
102
RTVSPost2010Prop54
  1
strokes_ogs.tif
102
RTVSPost2010PropOp54
 70
     1
102
RTVSPost2010Prop55
280
     0
102
RTVSPost2010PropOp55
 70
     1
102
RTVSPost2010Prop56
140
1.0
102
RTVSPost2010PropOp56
 70
     1
102
RTVSPost2010Prop57
140
1.0
102
RTVSPost2010PropOp57
 70
     1
102
RTVSPropertyOp0
 70
     1
102
RTVSPropertyOp1
 70
     1
102
RTVSPropertyOp2
 70
     1
102
RTVSPropertyOp3
 70
     1
102
RTVSPropertyOp4
 70
     1
102
RTVSPropertyOp5
 70
     1
102
RTVSPropertyOp6
 70
     1
102
RTVSPropertyOp7
 70
     1
102
RTVSPropertyOp8
 70
     1
102
RTVSPropertyOp9
 70
     1
102
RTVSPropertyOp10
 70
     1
102
RTVSPropertyOp11
 70
     1
102
RTVSPropertyOp12
 70
     1
102
RTVSPropertyOp13
 70
     1
102
RTVSPropertyOp14
 70
     1
102
RTVSPropertyOp15
 70
     1
102
RTVSPropertyOp16
 70
     1
102
RTVSPropertyOp17
 70
     1
102
RTVSPropertyOp18
 70
     1
102
RTVSPropertyOp19
 70
     1
102
RTVSPropertyOp20
 70
     1
102
RTVSPropertyOp21
 70
     1
102
RTVSPropertyOp22
 70
     1
102
RTVSPropertyOp23
 70
     1
102
RTVSPropertyOp24
 70
     1
102
RTVSPropertyOp25
 70
     1
102
RTVSPropertyOp26
 70
     1
102
RTVSPropertyOp27
 70
     1
102
RTVSPropertyOp28
 70
     1
102
RTVSPropertyOp29
 70
     1
102
RTVSPropertyOp30
 70
     1
102
RTVSPropertyOp31
 70
     1
102
RTVSPropertyOp32
 70
     1
102
RTVSPropertyOp33
 70
     1
102
RTVSPropertyOp34
 70
     1
102
RTVSPropertyOp35
 70
     1
102
RTVSPropertyOp36
 70
     1
102
RTVSPropertyOp37
 70
     1
102
RTVSPropertyOp38
 70
     1
102
RTVSPropertyOp39
 70
     1
102
RTVSPropertyOp40
 70
     1
102
RTVSPropertyOp41
 70
     1
102
RTVSPropertyOp42
 70
     1
102
RTVSPropertyOp43
 70
     1
102
RTVSPropertyOp44
 70
     1
102
RTVSPropertyOp45
 70
     1
102
RTVSPropertyOp46
 70
     1
102
RTVSPropertyOp47
 70
     1
102
RTVSPropertyOp48
 70
     1
102
RTVSPropertyOp49
 70
     1
102
RTVSPropertyOp50
 70
     1
102
RTVSPropertyOp51
 70
     0
102
RTVSPropertyOp52
 70
     0
102
RTVSPropertyOp53
 70
     1
102
RTVSPropertyOp54
 70
     1
102
RTVSPropertyOp55
 70
     1
102
RTVSPropertyOp56
 70
     1
102
RTVSPropertyOp57
 70
     1
102
RTVSPropertyOp58
 70
     1
102
RTVSPropertyOp59
 70
     1
102
RTVSPropertyOp60
 70
     1
102
RTVSPropertyOp61
 70
     1
102
RTVSPropertyOp62
 70
     1
  0
XRECORD
  5
386
102
{ACAD_REACTORS
330
385
102
}
330
385
100
AcDbXrecord
280
     1
102
RTVSPost2010Prop28
280
     0
102
RTVSPost2010PropOp28
 70
     1
102
RTVSPost2010Prop29
280
     1
102
RTVSPost2010PropOp29
 70
     1
102
RTVSPost2010Prop30
280
     1
102
RTVSPost2010PropOp30
 70
     1
102
RTVSPost2010Prop31
280
     0
102
RTVSPost2010PropOp31
 70
     1
102
RTVSPost2010Prop32
280
     0
102
RTVSPost2010PropOp32
 70
     1
102
RTVSPost2010Prop33
280
     0
102
RTVSPost2010PropOp33
 70
     1
102
RTVSPost2010Prop34
280
     0
102
RTVSPost2010PropOp34
 70
     1
102
RTVSPost2010Prop35
280
     0
102
RTVSPost2010PropOp35
 70
     1
102
RTVSPost2010Prop36
280
     0
102
RTVSPost2010PropOp36
 70
     1
102
RTVSPost2010Prop37
 90
       50
102
RTVSPost2010PropOp37
 70
     1
102
RTVSPost2010Prop38
140
0.0
102
RTVSPost2010PropOp38
 70
     1
102
RTVSPost2010Prop39
140
1.0
102
RTVSPost2010PropOp39
 70
     1
102
RTVSPost2010Prop40
 90
        0
102
RTVSPost2010PropOp40
 70
     1
102
RTVSPost2010Prop41ColorIndex
 90
       18
102
RTVSPost2010Prop41ColorRGB
 90
        0
102
RTVSPost2010PropOp41
 70
     1
102
RTVSPost2010Prop42
 90
       50
102
RTVSPost2010PropOp42
 70
     1
102
RTVSPost2010Prop43
 90
        3
102
RTVSPost2010PropOp43
 70
     1
102
RTVSPost2010Prop44ColorIndex
 90
        5
102
RTVSPost2010Prop44ColorRGB
 90
      255
102
RTVSPost2010PropOp44
 70
     1
102
RTVSPost2010Prop45
280
     0
102
RTVSPost2010PropOp45
 70
     1
102
RTVSPost2010Prop46
 90
       50
102
RTVSPost2010PropOp46
 70
     1
102
RTVSPost2010Prop47
 90
       50
102
RTVSPost2010PropOp47
 70
     1
102
RTVSPost2010Prop48
 90
       50
102
RTVSPost2010PropOp48
 70
     1
102
RTVSPost2010Prop49
280
     0
102
RTVSPost2010PropOp49
 70
     1
102
RTVSPost2010Prop50
 90
       50
102
RTVSPost2010PropOp50
 70
     1
102
RTVSPost2010Prop51ColorIndex
 90
      256
102
RTVSPost2010Prop51ColorRGB
 90
-16777216
102
RTVSPost2010PropOp51
 70
     0
102
RTVSPost2010Prop52
140
1.0
102
RTVSPost2010PropOp52
 70
     0
102
RTVSPost2010Prop53
 90
        2
102
RTVSPost2010PropOp53
 70
     1
102
RTVSPost2010Prop54
  1
strokes_ogs.tif
102
RTVSPost2010PropOp54
 70
     1
102
RTVSPost2010Prop55
280
     0
102
RTVSPost2010PropOp55
 70
     1
102
RTVSPost2010Prop56
140
1.0
102
RTVSPost2010PropOp56
 70
     1
102
RTVSPost2010Prop57
140
1.0
102
RTVSPost2010PropOp57
 70
     1
102
RTVSPropertyOp0
 70
     1
102
RTVSPropertyOp1
 70
     1
102
RTVSPropertyOp2
 70
     1
102
RTVSPropertyOp3
 70
     1
102
RTVSPropertyOp4
 70
     1
102
RTVSPropertyOp5
 70
     1
102
RTVSPropertyOp6
 70
     1
102
RTVSPropertyOp7
 70
     1
102
RTVSPropertyOp8
 70
     1
102
RTVSPropertyOp9
 70
     1
102
RTVSPropertyOp10
 70
     1
102
RTVSPropertyOp11
 70
     1
102
RTVSPropertyOp12
 70
     1
102
RTVSPropertyOp13
 70
     1
102
RTVSPropertyOp14
 70
     1
102
RTVSPropertyOp15
 70
     1
102
RTVSPropertyOp16
 70
     1
102
RTVSPropertyOp17
 70
     1
102
RTVSPropertyOp18
 70
     1
102
RTVSPropertyOp19
 70
     1
102
RTVSPropertyOp20
 70
     1
102
RTVSPropertyOp21
 70
     1
102
RTVSPropertyOp22
 70
     1
102
RTVSPropertyOp23
 70
     1
102
RTVSPropertyOp24
 70
     1
102
RTVSPropertyOp25
 70
     1
102
RTVSPropertyOp26
 70
     1
102
RTVSPropertyOp27
 70
     1
102
RTVSPropertyOp28
 70
     1
102
RTVSPropertyOp29
 70
     1
102
RTVSPropertyOp30
 70
     1
102
RTVSPropertyOp31
 70
     1
102
RTVSPropertyOp32
 70
     1
102
RTVSPropertyOp33
 70
     1
102
RTVSPropertyOp34
 70
     1
102
RTVSPropertyOp35
 70
     1
102
RTVSPropertyOp36
 70
     1
102
RTVSPropertyOp37
 70
     1
102
RTVSPropertyOp38
 70
     1
102
RTVSPropertyOp39
 70
     1
102
RTVSPropertyOp40
 70
     1
102
RTVSPropertyOp41
 70
     1
102
RTVSPropertyOp42
 70
     1
102
RTVSPropertyOp43
 70
     1
102
RTVSPropertyOp44
 70
     1
102
RTVSPropertyOp45
 70
     1
102
RTVSPropertyOp46
 70
     1
102
RTVSPropertyOp47
 70
     1
102
RTVSPropertyOp48
 70
     1
102
RTVSPropertyOp49
 70
     1
102
RTVSPropertyOp50
 70
     1
102
RTVSPropertyOp51
 70
     0
102
RTVSPropertyOp52
 70
     0
102
RTVSPropertyOp53
 70
     1
102
RTVSPropertyOp54
 70
     1
102
RTVSPropertyOp55
 70
     1
102
RTVSPropertyOp56
 70
     1
102
RTVSPropertyOp57
 70
     1
102
RTVSPropertyOp58
 70
     1
102
RTVSPropertyOp59
 70
     1
102
RTVSPropertyOp60
 70
     1
102
RTVSPropertyOp61
 70
     1
102
RTVSPropertyOp62
 70
     1
  0
XRECORD
  5
388
102
{ACAD_REACTORS
330
387
102
}
330
387
100
AcDbXrecord
280
     1
102
RTVSPost2010Prop28
280
     0
102
RTVSPost2010PropOp28
 70
     1
102
RTVSPost2010Prop29
280
     1
102
RTVSPost2010PropOp29
 70
     1
102
RTVSPost2010Prop30
280
     1
102
RTVSPost2010PropOp30
 70
     1
102
RTVSPost2010Prop31
280
     0
102
RTVSPost2010PropOp31
 70
     1
102
RTVSPost2010Prop32
280
     0
102
RTVSPost2010PropOp32
 70
     1
102
RTVSPost2010Prop33
280
     0
102
RTVSPost2010PropOp33
 70
     1
102
RTVSPost2010Prop34
280
     0
102
RTVSPost2010PropOp34
 70
     1
102
RTVSPost2010Prop35
280
     0
102
RTVSPost2010PropOp35
 70
     1
102
RTVSPost2010Prop36
280
     0
102
RTVSPost2010PropOp36
 70
     1
102
RTVSPost2010Prop37
 90
       50
102
RTVSPost2010PropOp37
 70
     1
102
RTVSPost2010Prop38
140
0.0
102
RTVSPost2010PropOp38
 70
     1
102
RTVSPost2010Prop39
140
1.0
102
RTVSPost2010PropOp39
 70
     1
102
RTVSPost2010Prop40
 90
        0
102
RTVSPost2010PropOp40
 70
     1
102
RTVSPost2010Prop41ColorIndex
 90
       18
102
RTVSPost2010Prop41ColorRGB
 90
        0
102
RTVSPost2010PropOp41
 70
     1
102
RTVSPost2010Prop42
 90
       50
102
RTVSPost2010PropOp42
 70
     1
102
RTVSPost2010Prop43
 90
        3
102
RTVSPost2010PropOp43
 70
     1
102
RTVSPost2010Prop44ColorIndex
 90
        5
102
RTVSPost2010Prop44ColorRGB
 90
      255
102
RTVSPost2010PropOp44
 70
     1
102
RTVSPost2010Prop45
280
     0
102
RTVSPost2010PropOp45
 70
     1
102
RTVSPost2010Prop46
 90
       50
102
RTVSPost2010PropOp46
 70
     1
102
RTVSPost2010Prop47
 90
       50
102
RTVSPost2010PropOp47
 70
     1
102
RTVSPost2010Prop48
 90
       50
102
RTVSPost2010PropOp48
 70
     1
102
RTVSPost2010Prop49
280
     0
102
RTVSPost2010PropOp49
 70
     1
102
RTVSPost2010Prop50
 90
       50
102
RTVSPost2010PropOp50
 70
     1
102
RTVSPost2010Prop51ColorIndex
 90
      256
102
RTVSPost2010Prop51ColorRGB
 90
-16777216
102
RTVSPost2010PropOp51
 70
     0
102
RTVSPost2010Prop52
140
1.0
102
RTVSPost2010PropOp52
 70
     0
102
RTVSPost2010Prop53
 90
        2
102
RTVSPost2010PropOp53
 70
     1
102
RTVSPost2010Prop54
  1
strokes_ogs.tif
102
RTVSPost2010PropOp54
 70
     1
102
RTVSPost2010Prop55
280
     0
102
RTVSPost2010PropOp55
 70
     1
102
RTVSPost2010Prop56
140
1.0
102
RTVSPost2010PropOp56
 70
     1
102
RTVSPost2010Prop57
140
1.0
102
RTVSPost2010PropOp57
 70
     1
102
RTVSPropertyOp0
 70
     1
102
RTVSPropertyOp1
 70
     1
102
RTVSPropertyOp2
 70
     1
102
RTVSPropertyOp3
 70
     1
102
RTVSPropertyOp4
 70
     1
102
RTVSPropertyOp5
 70
     1
102
RTVSPropertyOp6
 70
     1
102
RTVSPropertyOp7
 70
     1
102
RTVSPropertyOp8
 70
     1
102
RTVSPropertyOp9
 70
     1
102
RTVSPropertyOp10
 70
     1
102
RTVSPropertyOp11
 70
     1
102
RTVSPropertyOp12
 70
     1
102
RTVSPropertyOp13
 70
     1
102
RTVSPropertyOp14
 70
     1
102
RTVSPropertyOp15
 70
     1
102
RTVSPropertyOp16
 70
     1
102
RTVSPropertyOp17
 70
     1
102
RTVSPropertyOp18
 70
     1
102
RTVSPropertyOp19
 70
     1
102
RTVSPropertyOp20
 70
     1
102
RTVSPropertyOp21
 70
     1
102
RTVSPropertyOp22
 70
     1
102
RTVSPropertyOp23
 70
     1
102
RTVSPropertyOp24
 70
     1
102
RTVSPropertyOp25
 70
     1
102
RTVSPropertyOp26
 70
     1
102
RTVSPropertyOp27
 70
     1
102
RTVSPropertyOp28
 70
     1
102
RTVSPropertyOp29
 70
     1
102
RTVSPropertyOp30
 70
     1
102
RTVSPropertyOp31
 70
     1
102
RTVSPropertyOp32
 70
     1
102
RTVSPropertyOp33
 70
     1
102
RTVSPropertyOp34
 70
     1
102
RTVSPropertyOp35
 70
     1
102
RTVSPropertyOp36
 70
     1
102
RTVSPropertyOp37
 70
     1
102
RTVSPropertyOp38
 70
     1
102
RTVSPropertyOp39
 70
     1
102
RTVSPropertyOp40
 70
     1
102
RTVSPropertyOp41
 70
     1
102
RTVSPropertyOp42
 70
     1
102
RTVSPropertyOp43
 70
     1
102
RTVSPropertyOp44
 70
     1
102
RTVSPropertyOp45
 70
     1
102
RTVSPropertyOp46
 70
     1
102
RTVSPropertyOp47
 70
     1
102
RTVSPropertyOp48
 70
     1
102
RTVSPropertyOp49
 70
     1
102
RTVSPropertyOp50
 70
     1
102
RTVSPropertyOp51
 70
     0
102
RTVSPropertyOp52
 70
     0
102
RTVSPropertyOp53
 70
     1
102
RTVSPropertyOp54
 70
     1
102
RTVSPropertyOp55
 70
     1
102
RTVSPropertyOp56
 70
     1
102
RTVSPropertyOp57
 70
     1
102
RTVSPropertyOp58
 70
     1
102
RTVSPropertyOp59
 70
     1
102
RTVSPropertyOp60
 70
     1
102
RTVSPropertyOp61
 70
     1
102
RTVSPropertyOp62
 70
     1
  0
XRECORD
  5
378
102
{ACAD_REACTORS
330
377
102
}
330
377
100
AcDbXrecord
280
     1
102
RTVSPost2010Prop28
280
     0
102
RTVSPost2010PropOp28
 70
     1
102
RTVSPost2010Prop29
280
     1
102
RTVSPost2010PropOp29
 70
     1
102
RTVSPost2010Prop30
280
     1
102
RTVSPost2010PropOp30
 70
     1
102
RTVSPost2010Prop31
280
     0
102
RTVSPost2010PropOp31
 70
     1
102
RTVSPost2010Prop32
280
     0
102
RTVSPost2010PropOp32
 70
     1
102
RTVSPost2010Prop33
280
     0
102
RTVSPost2010PropOp33
 70
     1
102
RTVSPost2010Prop34
280
     0
102
RTVSPost2010PropOp34
 70
     1
102
RTVSPost2010Prop35
280
     0
102
RTVSPost2010PropOp35
 70
     1
102
RTVSPost2010Prop36
280
     0
102
RTVSPost2010PropOp36
 70
     1
102
RTVSPost2010Prop37
 90
       50
102
RTVSPost2010PropOp37
 70
     1
102
RTVSPost2010Prop38
140
0.0
102
RTVSPost2010PropOp38
 70
     1
102
RTVSPost2010Prop39
140
1.0
102
RTVSPost2010PropOp39
 70
     1
102
RTVSPost2010Prop40
 90
        0
102
RTVSPost2010PropOp40
 70
     1
102
RTVSPost2010Prop41ColorIndex
 90
       18
102
RTVSPost2010Prop41ColorRGB
 90
        0
102
RTVSPost2010PropOp41
 70
     1
102
RTVSPost2010Prop42
 90
       50
102
RTVSPost2010PropOp42
 70
     1
102
RTVSPost2010Prop43
 90
        3
102
RTVSPost2010PropOp43
 70
     1
102
RTVSPost2010Prop44ColorIndex
 90
        5
102
RTVSPost2010Prop44ColorRGB
 90
      255
102
RTVSPost2010PropOp44
 70
     1
102
RTVSPost2010Prop45
280
     0
102
RTVSPost2010PropOp45
 70
     1
102
RTVSPost2010Prop46
 90
       50
102
RTVSPost2010PropOp46
 70
     1
102
RTVSPost2010Prop47
 90
       50
102
RTVSPost2010PropOp47
 70
     1
102
RTVSPost2010Prop48
 90
       50
102
RTVSPost2010PropOp48
 70
     1
102
RTVSPost2010Prop49
280
     0
102
RTVSPost2010PropOp49
 70
     1
102
RTVSPost2010Prop50
 90
       50
102
RTVSPost2010PropOp50
 70
     1
102
RTVSPost2010Prop51ColorIndex
 90
      256
102
RTVSPost2010Prop51ColorRGB
 90
-16777216
102
RTVSPost2010PropOp51
 70
     0
102
RTVSPost2010Prop52
140
1.0
102
RTVSPost2010PropOp52
 70
     0
102
RTVSPost2010Prop53
 90
        2
102
RTVSPost2010PropOp53
 70
     1
102
RTVSPost2010Prop54
  1
strokes_ogs.tif
102
RTVSPost2010PropOp54
 70
     1
102
RTVSPost2010Prop55
280
     0
102
RTVSPost2010PropOp55
 70
     1
102
RTVSPost2010Prop56
140
1.0
102
RTVSPost2010PropOp56
 70
     1
102
RTVSPost2010Prop57
140
1.0
102
RTVSPost2010PropOp57
 70
     1
102
RTVSPropertyOp0
 70
     1
102
RTVSPropertyOp1
 70
     1
102
RTVSPropertyOp2
 70
     1
102
RTVSPropertyOp3
 70
     1
102
RTVSPropertyOp4
 70
     1
102
RTVSPropertyOp5
 70
     1
102
RTVSPropertyOp6
 70
     1
102
RTVSPropertyOp7
 70
     1
102
RTVSPropertyOp8
 70
     1
102
RTVSPropertyOp9
 70
     1
102
RTVSPropertyOp10
 70
     1
102
RTVSPropertyOp11
 70
     1
102
RTVSPropertyOp12
 70
     1
102
RTVSPropertyOp13
 70
     1
102
RTVSPropertyOp14
 70
     1
102
RTVSPropertyOp15
 70
     1
102
RTVSPropertyOp16
 70
     1
102
RTVSPropertyOp17
 70
     1
102
RTVSPropertyOp18
 70
     1
102
RTVSPropertyOp19
 70
     1
102
RTVSPropertyOp20
 70
     1
102
RTVSPropertyOp21
 70
     1
102
RTVSPropertyOp22
 70
     1
102
RTVSPropertyOp23
 70
     1
102
RTVSPropertyOp24
 70
     1
102
RTVSPropertyOp25
 70
     1
102
RTVSPropertyOp26
 70
     1
102
RTVSPropertyOp27
 70
     1
102
RTVSPropertyOp28
 70
     1
102
RTVSPropertyOp29
 70
     1
102
RTVSPropertyOp30
 70
     1
102
RTVSPropertyOp31
 70
     1
102
RTVSPropertyOp32
 70
     1
102
RTVSPropertyOp33
 70
     1
102
RTVSPropertyOp34
 70
     1
102
RTVSPropertyOp35
 70
     1
102
RTVSPropertyOp36
 70
     1
102
RTVSPropertyOp37
 70
     1
102
RTVSPropertyOp38
 70
     1
102
RTVSPropertyOp39
 70
     1
102
RTVSPropertyOp40
 70
     1
102
RTVSPropertyOp41
 70
     1
102
RTVSPropertyOp42
 70
     1
102
RTVSPropertyOp43
 70
     1
102
RTVSPropertyOp44
 70
     1
102
RTVSPropertyOp45
 70
     1
102
RTVSPropertyOp46
 70
     1
102
RTVSPropertyOp47
 70
     1
102
RTVSPropertyOp48
 70
     1
102
RTVSPropertyOp49
 70
     1
102
RTVSPropertyOp50
 70
     1
102
RTVSPropertyOp51
 70
     0
102
RTVSPropertyOp52
 70
     0
102
RTVSPropertyOp53
 70
     1
102
RTVSPropertyOp54
 70
     1
102
RTVSPropertyOp55
 70
     1
102
RTVSPropertyOp56
 70
     1
102
RTVSPropertyOp57
 70
     1
102
RTVSPropertyOp58
 70
     1
102
RTVSPropertyOp59
 70
     1
102
RTVSPropertyOp60
 70
     1
102
RTVSPropertyOp61
 70
     1
102
RTVSPropertyOp62
 70
     1
  0
XRECORD
  5
36A
102
{ACAD_REACTORS
330
369
102
}
330
369
100
AcDbXrecord
280
     1
102
RTVSPost2010Prop28
280
     0
102
RTVSPost2010PropOp28
 70
     1
102
RTVSPost2010Prop29
280
     1
102
RTVSPost2010PropOp29
 70
     1
102
RTVSPost2010Prop30
280
     1
102
RTVSPost2010PropOp30
 70
     1
102
RTVSPost2010Prop31
280
     0
102
RTVSPost2010PropOp31
 70
     1
102
RTVSPost2010Prop32
280
     0
102
RTVSPost2010PropOp32
 70
     1
102
RTVSPost2010Prop33
280
     0
102
RTVSPost2010PropOp33
 70
     1
102
RTVSPost2010Prop34
280
     0
102
RTVSPost2010PropOp34
 70
     1
102
RTVSPost2010Prop35
280
     0
102
RTVSPost2010PropOp35
 70
     1
102
RTVSPost2010Prop36
280
     0
102
RTVSPost2010PropOp36
 70
     1
102
RTVSPost2010Prop37
 90
       50
102
RTVSPost2010PropOp37
 70
     1
102
RTVSPost2010Prop38
140
0.0
102
RTVSPost2010PropOp38
 70
     1
102
RTVSPost2010Prop39
140
1.0
102
RTVSPost2010PropOp39
 70
     1
102
RTVSPost2010Prop40
 90
        0
102
RTVSPost2010PropOp40
 70
     1
102
RTVSPost2010Prop41ColorIndex
 90
       18
102
RTVSPost2010Prop41ColorRGB
 90
        0
102
RTVSPost2010PropOp41
 70
     1
102
RTVSPost2010Prop42
 90
       50
102
RTVSPost2010PropOp42
 70
     1
102
RTVSPost2010Prop43
 90
        3
102
RTVSPost2010PropOp43
 70
     1
102
RTVSPost2010Prop44ColorIndex
 90
        5
102
RTVSPost2010Prop44ColorRGB
 90
      255
102
RTVSPost2010PropOp44
 70
     1
102
RTVSPost2010Prop45
280
     0
102
RTVSPost2010PropOp45
 70
     1
102
RTVSPost2010Prop46
 90
       50
102
RTVSPost2010PropOp46
 70
     1
102
RTVSPost2010Prop47
 90
       50
102
RTVSPost2010PropOp47
 70
     1
102
RTVSPost2010Prop48
 90
       50
102
RTVSPost2010PropOp48
 70
     1
102
RTVSPost2010Prop49
280
     0
102
RTVSPost2010PropOp49
 70
     1
102
RTVSPost2010Prop50
 90
       50
102
RTVSPost2010PropOp50
 70
     1
102
RTVSPost2010Prop51ColorIndex
 90
      256
102
RTVSPost2010Prop51ColorRGB
 90
-16777216
102
RTVSPost2010PropOp51
 70
     0
102
RTVSPost2010Prop52
140
1.0
102
RTVSPost2010PropOp52
 70
     0
102
RTVSPost2010Prop53
 90
        2
102
RTVSPost2010PropOp53
 70
     1
102
RTVSPost2010Prop54
  1
strokes_ogs.tif
102
RTVSPost2010PropOp54
 70
     1
102
RTVSPost2010Prop55
280
     0
102
RTVSPost2010PropOp55
 70
     1
102
RTVSPost2010Prop56
140
1.0
102
RTVSPost2010PropOp56
 70
     1
102
RTVSPost2010Prop57
140
1.0
102
RTVSPost2010PropOp57
 70
     1
102
RTVSPropertyOp0
 70
     1
102
RTVSPropertyOp1
 70
     1
102
RTVSPropertyOp2
 70
     1
102
RTVSPropertyOp3
 70
     1
102
RTVSPropertyOp4
 70
     1
102
RTVSPropertyOp5
 70
     1
102
RTVSPropertyOp6
 70
     1
102
RTVSPropertyOp7
 70
     1
102
RTVSPropertyOp8
 70
     1
102
RTVSPropertyOp9
 70
     1
102
RTVSPropertyOp10
 70
     1
102
RTVSPropertyOp11
 70
     1
102
RTVSPropertyOp12
 70
     1
102
RTVSPropertyOp13
 70
     1
102
RTVSPropertyOp14
 70
     1
102
RTVSPropertyOp15
 70
     1
102
RTVSPropertyOp16
 70
     1
102
RTVSPropertyOp17
 70
     1
102
RTVSPropertyOp18
 70
     1
102
RTVSPropertyOp19
 70
     1
102
RTVSPropertyOp20
 70
     1
102
RTVSPropertyOp21
 70
     1
102
RTVSPropertyOp22
 70
     1
102
RTVSPropertyOp23
 70
     1
102
RTVSPropertyOp24
 70
     1
102
RTVSPropertyOp25
 70
     1
102
RTVSPropertyOp26
 70
     1
102
RTVSPropertyOp27
 70
     1
102
RTVSPropertyOp28
 70
     1
102
RTVSPropertyOp29
 70
     1
102
RTVSPropertyOp30
 70
     1
102
RTVSPropertyOp31
 70
     1
102
RTVSPropertyOp32
 70
     1
102
RTVSPropertyOp33
 70
     1
102
RTVSPropertyOp34
 70
     1
102
RTVSPropertyOp35
 70
     1
102
RTVSPropertyOp36
 70
     1
102
RTVSPropertyOp37
 70
     1
102
RTVSPropertyOp38
 70
     1
102
RTVSPropertyOp39
 70
     1
102
RTVSPropertyOp40
 70
     1
102
RTVSPropertyOp41
 70
     1
102
RTVSPropertyOp42
 70
     1
102
RTVSPropertyOp43
 70
     1
102
RTVSPropertyOp44
 70
     1
102
RTVSPropertyOp45
 70
     1
102
RTVSPropertyOp46
 70
     1
102
RTVSPropertyOp47
 70
     1
102
RTVSPropertyOp48
 70
     1
102
RTVSPropertyOp49
 70
     1
102
RTVSPropertyOp50
 70
     1
102
RTVSPropertyOp51
 70
     0
102
RTVSPropertyOp52
 70
     0
102
RTVSPropertyOp53
 70
     1
102
RTVSPropertyOp54
 70
     1
102
RTVSPropertyOp55
 70
     1
102
RTVSPropertyOp56
 70
     1
102
RTVSPropertyOp57
 70
     1
102
RTVSPropertyOp58
 70
     1
102
RTVSPropertyOp59
 70
     1
102
RTVSPropertyOp60
 70
     1
102
RTVSPropertyOp61
 70
     1
102
RTVSPropertyOp62
 70
     1
  0
XRECORD
  5
38A
102
{ACAD_REACTORS
330
389
102
}
330
389
100
AcDbXrecord
280
     1
102
RTVSPost2010Prop28
280
     0
102
RTVSPost2010PropOp28
 70
     1
102
RTVSPost2010Prop29
280
     1
102
RTVSPost2010PropOp29
 70
     1
102
RTVSPost2010Prop30
280
     1
102
RTVSPost2010PropOp30
 70
     1
102
RTVSPost2010Prop31
280
     0
102
RTVSPost2010PropOp31
 70
     1
102
RTVSPost2010Prop32
280
     0
102
RTVSPost2010PropOp32
 70
     1
102
RTVSPost2010Prop33
280
     0
102
RTVSPost2010PropOp33
 70
     1
102
RTVSPost2010Prop34
280
     0
102
RTVSPost2010PropOp34
 70
     1
102
RTVSPost2010Prop35
280
     0
102
RTVSPost2010PropOp35
 70
     1
102
RTVSPost2010Prop36
280
     0
102
RTVSPost2010PropOp36
 70
     1
102
RTVSPost2010Prop37
 90
       50
102
RTVSPost2010PropOp37
 70
     1
102
RTVSPost2010Prop38
140
0.0
102
RTVSPost2010PropOp38
 70
     1
102
RTVSPost2010Prop39
140
1.0
102
RTVSPost2010PropOp39
 70
     1
102
RTVSPost2010Prop40
 90
        0
102
RTVSPost2010PropOp40
 70
     1
102
RTVSPost2010Prop41ColorIndex
 90
       18
102
RTVSPost2010Prop41ColorRGB
 90
        0
102
RTVSPost2010PropOp41
 70
     1
102
RTVSPost2010Prop42
 90
       50
102
RTVSPost2010PropOp42
 70
     1
102
RTVSPost2010Prop43
 90
        3
102
RTVSPost2010PropOp43
 70
     1
102
RTVSPost2010Prop44ColorIndex
 90
        5
102
RTVSPost2010Prop44ColorRGB
 90
      255
102
RTVSPost2010PropOp44
 70
     1
102
RTVSPost2010Prop45
280
     0
102
RTVSPost2010PropOp45
 70
     1
102
RTVSPost2010Prop46
 90
       50
102
RTVSPost2010PropOp46
 70
     1
102
RTVSPost2010Prop47
 90
       50
102
RTVSPost2010PropOp47
 70
     1
102
RTVSPost2010Prop48
 90
       50
102
RTVSPost2010PropOp48
 70
     1
102
RTVSPost2010Prop49
280
     0
102
RTVSPost2010PropOp49
 70
     1
102
RTVSPost2010Prop50
 90
       50
102
RTVSPost2010PropOp50
 70
     1
102
RTVSPost2010Prop51ColorIndex
 90
      256
102
RTVSPost2010Prop51ColorRGB
 90
-16777216
102
RTVSPost2010PropOp51
 70
     0
102
RTVSPost2010Prop52
140
1.0
102
RTVSPost2010PropOp52
 70
     0
102
RTVSPost2010Prop53
 90
        2
102
RTVSPost2010PropOp53
 70
     1
102
RTVSPost2010Prop54
  1
strokes_ogs.tif
102
RTVSPost2010PropOp54
 70
     1
102
RTVSPost2010Prop55
280
     0
102
RTVSPost2010PropOp55
 70
     1
102
RTVSPost2010Prop56
140
1.0
102
RTVSPost2010PropOp56
 70
     1
102
RTVSPost2010Prop57
140
1.0
102
RTVSPost2010PropOp57
 70
     1
102
RTVSPropertyOp0
 70
     1
102
RTVSPropertyOp1
 70
     1
102
RTVSPropertyOp2
 70
     1
102
RTVSPropertyOp3
 70
     1
102
RTVSPropertyOp4
 70
     1
102
RTVSPropertyOp5
 70
     1
102
RTVSPropertyOp6
 70
     1
102
RTVSPropertyOp7
 70
     1
102
RTVSPropertyOp8
 70
     1
102
RTVSPropertyOp9
 70
     1
102
RTVSPropertyOp10
 70
     1
102
RTVSPropertyOp11
 70
     1
102
RTVSPropertyOp12
 70
     1
102
RTVSPropertyOp13
 70
     1
102
RTVSPropertyOp14
 70
     1
102
RTVSPropertyOp15
 70
     1
102
RTVSPropertyOp16
 70
     1
102
RTVSPropertyOp17
 70
     1
102
RTVSPropertyOp18
 70
     1
102
RTVSPropertyOp19
 70
     1
102
RTVSPropertyOp20
 70
     1
102
RTVSPropertyOp21
 70
     1
102
RTVSPropertyOp22
 70
     1
102
RTVSPropertyOp23
 70
     1
102
RTVSPropertyOp24
 70
     1
102
RTVSPropertyOp25
 70
     1
102
RTVSPropertyOp26
 70
     1
102
RTVSPropertyOp27
 70
     1
102
RTVSPropertyOp28
 70
     1
102
RTVSPropertyOp29
 70
     1
102
RTVSPropertyOp30
 70
     1
102
RTVSPropertyOp31
 70
     1
102
RTVSPropertyOp32
 70
     1
102
RTVSPropertyOp33
 70
     1
102
RTVSPropertyOp34
 70
     1
102
RTVSPropertyOp35
 70
     1
102
RTVSPropertyOp36
 70
     1
102
RTVSPropertyOp37
 70
     1
102
RTVSPropertyOp38
 70
     1
102
RTVSPropertyOp39
 70
     1
102
RTVSPropertyOp40
 70
     1
102
RTVSPropertyOp41
 70
     1
102
RTVSPropertyOp42
 70
     1
102
RTVSPropertyOp43
 70
     1
102
RTVSPropertyOp44
 70
     1
102
RTVSPropertyOp45
 70
     1
102
RTVSPropertyOp46
 70
     1
102
RTVSPropertyOp47
 70
     1
102
RTVSPropertyOp48
 70
     1
102
RTVSPropertyOp49
 70
     1
102
RTVSPropertyOp50
 70
     1
102
RTVSPropertyOp51
 70
     0
102
RTVSPropertyOp52
 70
     0
102
RTVSPropertyOp53
 70
     1
102
RTVSPropertyOp54
 70
     1
102
RTVSPropertyOp55
 70
     1
102
RTVSPropertyOp56
 70
     1
102
RTVSPropertyOp57
 70
     1
102
RTVSPropertyOp58
 70
     1
102
RTVSPropertyOp59
 70
     1
102
RTVSPropertyOp60
 70
     1
102
RTVSPropertyOp61
 70
     1
102
RTVSPropertyOp62
 70
     1
  0
ENDSEC
  0
EOF
