  0
SECTION
  2
HEADER
  9
$ACADVER
  1
AC1018
  9
$ACADMAINTVER
 70
   104
  9
$DWGCODEPAGE
  3
ANSI_1250
  9
$LASTSAVEDBY
  1
wq7085
  9
$INSBASE
 10
0.0
 20
0.0
 30
0.0
  9
$EXTMIN
 10
188.6658343333333
 20
122.034924
 30
0.0
  9
$EXTMAX
 10
360.577272
 20
345.2288016666668
 30
0.0
  9
$LIMMIN
 10
-0.5
 20
-0.5
  9
$LIMMAX
 10
5.0
 20
5.0
  9
$ORTHOMODE
 70
     0
  9
$REGENMODE
 70
     1
  9
$FILLMODE
 70
     1
  9
$QTEXTMODE
 70
     0
  9
$MIRRTEXT
 70
     1
  9
$LTSCALE
 40
1.0
  9
$ATTMODE
 70
     1
  9
$TEXTSIZE
 40
0.2
  9
$TRACEWID
 40
0.05
  9
$TEXTSTYLE
  7
Standard
  9
$CLAYER
  8
0
  9
$CELTYPE
  6
ByLayer
  9
$CECOLOR
 62
   256
  9
$CELTSCALE
 40
1.0
  9
$DISPSILH
 70
     0
  9
$DIMSCALE
 40
1.0
  9
$DIMASZ
 40
0.18
  9
$DIMEXO
 40
0.0625
  9
$DIMDLI
 40
0.38
  9
$DIMRND
 40
0.0
  9
$DIMDLE
 40
0.0
  9
$DIMEXE
 40
0.18
  9
$DIMTP
 40
0.0
  9
$DIMTM
 40
0.0
  9
$DIMTXT
 40
0.18
  9
$DIMCEN
 40
0.09
  9
$DIMTSZ
 40
0.0
  9
$DIMTOL
 70
     0
  9
$DIMLIM
 70
     0
  9
$DIMTIH
 70
     1
  9
$DIMTOH
 70
     1
  9
$DIMSE1
 70
     0
  9
$DIMSE2
 70
     0
  9
$DIMTAD
 70
     0
  9
$DIMZIN
 70
     0
  9
$DIMBLK
  1

  9
$DIMASO
 70
     1
  9
$DIMSHO
 70
     1
  9
$DIMPOST
  1

  9
$DIMAPOST
  1

  9
$DIMALT
 70
     0
  9
$DIMALTD
 70
     2
  9
$DIMALTF
 40
25.4
  9
$DIMLFAC
 40
1.0
  9
$DIMTOFL
 70
     0
  9
$DIMTVP
 40
0.0
  9
$DIMTIX
 70
     0
  9
$DIMSOXD
 70
     0
  9
$DIMSAH
 70
     0
  9
$DIMBLK1
  1

  9
$DIMBLK2
  1

  9
$DIMSTYLE
  2
Standard
  9
$DIMCLRD
 70
     0
  9
$DIMCLRE
 70
     0
  9
$DIMCLRT
 70
     0
  9
$DIMTFAC
 40
1.0
  9
$DIMGAP
 40
0.09
  9
$DIMJUST
 70
     0
  9
$DIMSD1
 70
     0
  9
$DIMSD2
 70
     0
  9
$DIMTOLJ
 70
     1
  9
$DIMTZIN
 70
     0
  9
$DIMALTZ
 70
     0
  9
$DIMALTTZ
 70
     0
  9
$DIMUPT
 70
     0
  9
$DIMDEC
 70
     4
  9
$DIMTDEC
 70
     4
  9
$DIMALTU
 70
     2
  9
$DIMALTTD
 70
     2
  9
$DIMTXSTY
  7
Standard
  9
$DIMAUNIT
 70
     0
  9
$DIMADEC
 70
     0
  9
$DIMALTRND
 40
0.0
  9
$DIMAZIN
 70
     0
  9
$DIMDSEP
 70
    46
  9
$DIMATFIT
 70
     3
  9
$DIMFRAC
 70
     0
  9
$DIMLDRBLK
  1

  9
$DIMLUNIT
 70
     2
  9
$DIMLWD
 70
    -2
  9
$DIMLWE
 70
    -2
  9
$DIMTMOVE
 70
     0
  9
$LUNITS
 70
     2
  9
$LUPREC
 70
     4
  9
$SKETCHINC
 40
0.1
  9
$FILLETRAD
 40
0.5
  9
$AUNITS
 70
     0
  9
$AUPREC
 70
     0
  9
$MENU
  1
.
  9
$ELEVATION
 40
0.0
  9
$PELEVATION
 40
0.0
  9
$THICKNESS
 40
0.0
  9
$LIMCHECK
 70
     0
  9
$CHAMFERA
 40
0.0
  9
$CHAMFERB
 40
0.0
  9
$CHAMFERC
 40
0.0
  9
$CHAMFERD
 40
0.0
  9
$SKPOLY
 70
     0
  9
$TDCREATE
 40
2458976.495231481
  9
$TDUCREATE
 40
2458976.411904803
  9
$TDUPDATE
 40
2458976.496539352
  9
$TDUUPDATE
 40
2458976.413206019
  9
$TDINDWG
 40
0.0005092708
  9
$TDUSRTIMER
 40
0.0005092708
  9
$USRTIMER
 70
     1
  9
$ANGBASE
 50
0.0
  9
$ANGDIR
 70
     0
  9
$PDMODE
 70
     0
  9
$PDSIZE
 40
0.0
  9
$PLINEWID
 40
0.0
  9
$SPLFRAME
 70
     0
  9
$SPLINETYPE
 70
     6
  9
$SPLINESEGS
 70
     8
  9
$HANDSEED
  5
38E
  9
$SURFTAB1
 70
     6
  9
$SURFTAB2
 70
     6
  9
$SURFTYPE
 70
     6
  9
$SURFU
 70
     6
  9
$SURFV
 70
     6
  9
$UCSBASE
  2

  9
$UCSNAME
  2

  9
$UCSORG
 10
274.404842
 20
288.907994
 30
0.0
  9
$UCSXDIR
 10
1.0
 20
0.0
 30
0.0
  9
$UCSYDIR
 10
0.0
 20
1.0
 30
0.0
  9
$UCSORTHOREF
  2

  9
$UCSORTHOVIEW
 70
     0
  9
$UCSORGTOP
 10
0.0
 20
0.0
 30
0.0
  9
$UCSORGBOTTOM
 10
0.0
 20
0.0
 30
0.0
  9
$UCSORGLEFT
 10
0.0
 20
0.0
 30
0.0
  9
$UCSORGRIGHT
 10
0.0
 20
0.0
 30
0.0
  9
$UCSORGFRONT
 10
0.0
 20
0.0
 30
0.0
  9
$UCSORGBACK
 10
0.0
 20
0.0
 30
0.0
  9
$PUCSBASE
  2

  9
$PUCSNAME
  2

  9
$PUCSORG
 10
0.0
 20
0.0
 30
0.0
  9
$PUCSXDIR
 10
1.0
 20
0.0
 30
0.0
  9
$PUCSYDIR
 10
0.0
 20
1.0
 30
0.0
  9
$PUCSORTHOREF
  2

  9
$PUCSORTHOVIEW
 70
     0
  9
$PUCSORGTOP
 10
0.0
 20
0.0
 30
0.0
  9
$PUCSORGBOTTOM
 10
0.0
 20
0.0
 30
0.0
  9
$PUCSORGLEFT
 10
0.0
 20
0.0
 30
0.0
  9
$PUCSORGRIGHT
 10
0.0
 20
0.0
 30
0.0
  9
$PUCSORGFRONT
 10
0.0
 20
0.0
 30
0.0
  9
$PUCSORGBACK
 10
0.0
 20
0.0
 30
0.0
  9
$USERI1
 70
     0
  9
$USERI2
 70
     0
  9
$USERI3
 70
     0
  9
$USERI4
 70
     0
  9
$USERI5
 70
     0
  9
$USERR1
 40
0.0
  9
$USERR2
 40
0.0
  9
$USERR3
 40
0.0
  9
$USERR4
 40
0.0
  9
$USERR5
 40
0.0
  9
$WORLDVIEW
 70
     1
  9
$SHADEDGE
 70
     3
  9
$SHADEDIF
 70
    70
  9
$TILEMODE
 70
     1
  9
$MAXACTVP
 70
    64
  9
$PINSBASE
 10
0.0
 20
0.0
 30
0.0
  9
$PLIMCHECK
 70
     0
  9
$PEXTMIN
 10
-0.5
 20
-0.5
 30
-0.5
  9
$PEXTMAX
 10
5.0
 20
5.0
 30
5.0
  9
$PLIMMIN
 10
-0.5
 20
-0.5
  9
$PLIMMAX
 10
5.0
 20
5.0
  9
$UNITMODE
 70
     0
  9
$VISRETAIN
 70
     1
  9
$PLINEGEN
 70
     0
  9
$PSLTSCALE
 70
     1
  9
$TREEDEPTH
 70
  3020
  9
$CMLSTYLE
  2
Standard
  9
$CMLJUST
 70
     0
  9
$CMLSCALE
 40
1.0
  9
$PROXYGRAPHICS
 70
     1
  9
$MEASUREMENT
 70
     1
  9
$CELWEIGHT
370
    13
  9
$ENDCAPS
280
     0
  9
$JOINSTYLE
280
     0
  9
$LWDISPLAY
290
     0
  9
$INSUNITS
 70
     4
  9
$HYPERLINKBASE
  1

  9
$STYLESHEET
  1

  9
$XEDIT
290
     1
  9
$CEPSNTYPE
380
     0
  9
$PSTYLEMODE
290
     1
  9
$FINGERPRINTGUID
  2
{D9EBE6ED-D660-4C11-9520-1E84B05B70E4}
  9
$VERSIONGUID
  2
{447E40F3-2C43-C642-8425-7A0C8EBE4442}
  9
$EXTNAMES
290
     1
  9
$PSVPSCALE
 40
0.0
  9
$OLESTARTUP
290
     0
  9
$SORTENTS
280
   127
  9
$INDEXCTL
280
     0
  9
$HIDETEXT
280
     1
  9
$XCLIPFRAME
290
     0
  9
$HALOGAP
280
     0
  9
$OBSCOLOR
 70
   257
  9
$OBSLTYPE
280
     0
  9
$INTERSECTIONDISPLAY
280
     0
  9
$INTERSECTIONCOLOR
 70
   257
  9
$DIMASSOC
280
     2
  9
$PROJECTNAME
  1

  0
ENDSEC
  0
SECTION
  2
CLASSES
  0
CLASS
  1
ACDBDICTIONARYWDFLT
  2
AcDbDictionaryWithDefault
  3
ObjectDBX Classes
 90
        0
 91
        1
280
     0
281
     0
  0
CLASS
  1
VISUALSTYLE
  2
AcDbVisualStyle
  3
ObjectDBX Classes
 90
     4095
 91
       24
280
     0
281
     0
  0
CLASS
  1
MATERIAL
  2
AcDbMaterial
  3
ObjectDBX Classes
 90
     1153
 91
        3
280
     0
281
     0
  0
CLASS
  1
SCALE
  2
AcDbScale
  3
ObjectDBX Classes
 90
     1153
 91
       33
280
     0
281
     0
  0
CLASS
  1
TABLESTYLE
  2
AcDbTableStyle
  3
ObjectDBX Classes
 90
     4095
 91
        1
280
     0
281
     0
  0
CLASS
  1
MLEADERSTYLE
  2
AcDbMLeaderStyle
  3
ACDB_MLEADERSTYLE_CLASS
 90
     4095
 91
        1
280
     0
281
     0
  0
CLASS
  1
SUN
  2
AcDbSun
  3
SCENEOE
 90
     1153
 91
        0
280
     0
281
     0
  0
CLASS
  1
DIMASSOC
  2
AcDbDimAssoc
  3
"AcDbDimAssoc|Product Desc:     AcDim ARX App For Dimension|Company:          Autodesk, Inc.|WEB Address:      www.autodesk.com"
 90
        0
 91
        7
280
     0
281
     0
  0
CLASS
  1
DICTIONARYVAR
  2
AcDbDictionaryVar
  3
ObjectDBX Classes
 90
        0
 91
        8
280
     0
281
     0
  0
CLASS
  1
CELLSTYLEMAP
  2
AcDbCellStyleMap
  3
ObjectDBX Classes
 90
     1152
 91
        2
280
     0
281
     0
  0
CLASS
  1
ACDBSECTIONVIEWSTYLE
  2
AcDbSectionViewStyle
  3
ObjectDBX Classes
 90
     1025
 91
        1
280
     0
281
     0
  0
CLASS
  1
ACDBDETAILVIEWSTYLE
  2
AcDbDetailViewStyle
  3
ObjectDBX Classes
 90
     1025
 91
        1
280
     0
281
     0
  0
CLASS
  1
SORTENTSTABLE
  2
AcDbSortentsTable
  3
ObjectDBX Classes
 90
        0
 91
        1
280
     0
281
     0
  0
ENDSEC
  0
SECTION
  2
TABLES
  0
TABLE
  2
VPORT
  5
8
330
0
100
AcDbSymbolTable
 70
    16
  0
VPORT
  5
29
330
8
100
AcDbSymbolTableRecord
100
AcDbViewportTableRecord
  2
*Active
 70
     0
 10
0.0
 20
0.0
 11
1.0
 21
1.0
 12
285.2753104922505
 22
285.6089932549643
 13
0.0
 23
0.0
 14
0.5
 24
0.5
 15
0.5
 25
0.5
 16
0.0
 26
0.0
 36
1.0
 17
0.0
 27
0.0
 37
0.0
 40
206.777904551776
 41
2.283154121863799
 42
50.0
 43
360.633207
 44
-360.633207
 50
0.0
 51
0.0
 71
     0
 72
   100
 73
     1
 74
     3
 75
     0
 76
     0
 77
     0
 78
     0
281
     0
 65
     1
110
274.404842
120
288.907994
130
0.0
111
1.0
121
0.0
131
0.0
112
0.0
122
1.0
132
0.0
 79
     0
146
0.0
1001
ACAD_NAV_VCDISPLAY
1070
     3
  0
VPORT
  5
295
330
8
100
AcDbSymbolTableRecord
100
AcDbViewportTableRecord
  2
L1
 70
     0
 10
0.0
 20
0.0
 11
1.0
 21
1.0
 12
274.117348
 22
233.498014
 13
0.0
 23
0.0
 14
0.5
 24
0.5
 15
0.5
 25
0.5
 16
0.0
 26
0.0
 36
1.0
 17
0.0
 27
0.0
 37
0.0
 40
207.433333
 41
0.085602
 42
50.0
 43
360.633207
 44
-360.633207
 50
0.0
 51
0.0
 71
     0
 72
   100
 73
     1
 74
     3
 75
     0
 76
     0
 77
     0
 78
     0
281
     0
 65
     1
110
0.0
120
0.0
130
0.0
111
1.0
121
0.0
131
0.0
112
0.0
122
1.0
132
0.0
 79
     0
146
0.0
  0
VPORT
  5
296
330
8
100
AcDbSymbolTableRecord
100
AcDbViewportTableRecord
  2
L2
 70
     0
 10
0.0
 20
0.0
 11
0.5
 21
1.0
 12
0.0
 22
0.0
 13
0.0
 23
0.0
 14
0.5
 24
0.5
 15
0.5
 25
0.5
 16
0.0
 26
-1.0
 36
0.0
 17
0.0
 27
0.0
 37
0.0
 40
1319.735116
 41
0.013455
 42
50.0
 43
679.920199
 44
-679.920199
 50
0.0
 51
0.0
 71
     0
 72
   100
 73
     1
 74
     3
 75
     0
 76
     0
 77
     0
 78
     0
281
     0
 65
     1
110
0.0
120
0.0
130
0.0
111
1.0
121
0.0
131
0.0
112
0.0
122
1.0
132
0.0
 79
     0
146
0.0
  0
VPORT
  5
297
330
8
100
AcDbSymbolTableRecord
100
AcDbViewportTableRecord
  2
L2
 70
     0
 10
0.5
 20
0.0
 11
1.0
 21
1.0
 12
0.0
 22
0.0
 13
0.0
 23
0.0
 14
0.5
 24
0.5
 15
0.5
 25
0.5
 16
1.0
 26
0.0
 36
0.0
 17
0.0
 27
0.0
 37
0.0
 40
1319.735116
 41
0.013455
 42
50.0
 43
667.9688169999999
 44
-667.9688169999999
 50
0.0
 51
0.0
 71
     0
 72
   100
 73
     1
 74
     3
 75
     0
 76
     0
 77
     0
 78
     0
281
     0
 65
     1
110
0.0
120
0.0
130
0.0
111
1.0
121
0.0
131
0.0
112
0.0
122
1.0
132
0.0
 79
     0
146
0.0
  0
VPORT
  5
298
330
8
100
AcDbSymbolTableRecord
100
AcDbViewportTableRecord
  2
L3
 70
     0
 10
0.0
 20
0.5
 11
1.0
 21
1.0
 12
274.117348
 22
233.498014
 13
0.0
 23
0.0
 14
0.5
 24
0.5
 15
0.5
 25
0.5
 16
0.0
 26
0.0
 36
1.0
 17
0.0
 27
0.0
 37
0.0
 40
207.433333
 41
0.085602
 42
50.0
 43
360.633207
 44
-360.633207
 50
0.0
 51
0.0
 71
     0
 72
   100
 73
     1
 74
     3
 75
     0
 76
     0
 77
     0
 78
     0
281
     0
 65
     1
110
0.0
120
0.0
130
0.0
111
1.0
121
0.0
131
0.0
112
0.0
122
1.0
132
0.0
 79
     0
146
0.0
  0
VPORT
  5
299
330
8
100
AcDbSymbolTableRecord
100
AcDbViewportTableRecord
  2
L3
 70
     0
 10
0.0
 20
0.0
 11
1.0
 21
0.5
 12
0.0
 22
0.0
 13
0.0
 23
0.0
 14
0.5
 24
0.5
 15
0.5
 25
0.5
 16
0.0
 26
-1.0
 36
0.0
 17
0.0
 27
0.0
 37
0.0
 40
1319.735116
 41
0.013455
 42
50.0
 43
679.920199
 44
-679.920199
 50
0.0
 51
0.0
 71
     0
 72
   100
 73
     1
 74
     3
 75
     0
 76
     0
 77
     0
 78
     0
281
     0
 65
     1
110
0.0
120
0.0
130
0.0
111
1.0
121
0.0
131
0.0
112
0.0
122
1.0
132
0.0
 79
     0
146
0.0
  0
VPORT
  5
29A
330
8
100
AcDbSymbolTableRecord
100
AcDbViewportTableRecord
  2
L4
 70
     0
 10
0.0
 20
0.5
 11
0.5
 21
1.0
 12
274.117348
 22
233.498014
 13
0.0
 23
0.0
 14
0.5
 24
0.5
 15
0.5
 25
0.5
 16
0.0
 26
0.0
 36
1.0
 17
0.0
 27
0.0
 37
0.0
 40
207.433333
 41
0.085602
 42
50.0
 43
360.633207
 44
-360.633207
 50
0.0
 51
0.0
 71
     0
 72
   100
 73
     1
 74
     3
 75
     0
 76
     0
 77
     0
 78
     0
281
     0
 65
     1
110
0.0
120
0.0
130
0.0
111
1.0
121
0.0
131
0.0
112
0.0
122
1.0
132
0.0
 79
     0
146
0.0
  0
VPORT
  5
29B
330
8
100
AcDbSymbolTableRecord
100
AcDbViewportTableRecord
  2
L4
 70
     0
 10
0.0
 20
0.0
 11
0.5
 21
0.5
 12
0.0
 22
0.0
 13
0.0
 23
0.0
 14
0.5
 24
0.5
 15
0.5
 25
0.5
 16
0.0
 26
-1.0
 36
0.0
 17
0.0
 27
0.0
 37
0.0
 40
1319.735116
 41
0.013455
 42
50.0
 43
679.920199
 44
-679.920199
 50
0.0
 51
0.0
 71
     0
 72
   100
 73
     1
 74
     3
 75
     0
 76
     0
 77
     0
 78
     0
281
     0
 65
     1
110
0.0
120
0.0
130
0.0
111
1.0
121
0.0
131
0.0
112
0.0
122
1.0
132
0.0
 79
     0
146
0.0
  0
VPORT
  5
29C
330
8
100
AcDbSymbolTableRecord
100
AcDbViewportTableRecord
  2
L4
 70
     0
 10
0.5
 20
0.0
 11
1.0
 21
0.5
 12
0.0
 22
0.0
 13
0.0
 23
0.0
 14
0.5
 24
0.5
 15
0.5
 25
0.5
 16
1.0
 26
0.0
 36
0.0
 17
0.0
 27
0.0
 37
0.0
 40
1319.735116
 41
0.013455
 42
50.0
 43
667.9688169999999
 44
-667.9688169999999
 50
0.0
 51
0.0
 71
     0
 72
   100
 73
     1
 74
     3
 75
     0
 76
     0
 77
     0
 78
     0
281
     0
 65
     1
110
0.0
120
0.0
130
0.0
111
1.0
121
0.0
131
0.0
112
0.0
122
1.0
132
0.0
 79
     0
146
0.0
  0
VPORT
  5
29D
330
8
100
AcDbSymbolTableRecord
100
AcDbViewportTableRecord
  2
L4
 70
     0
 10
0.5
 20
0.5
 11
1.0
 21
1.0
 12
0.0
 22
0.0
 13
0.0
 23
0.0
 14
0.5
 24
0.5
 15
0.5
 25
0.5
 16
0.5773502691896259
 26
-0.5773502691896259
 36
0.5773502691896259
 17
0.0
 27
0.0
 37
0.0
 40
1296.074958
 41
0.0137
 42
50.0
 43
675.1032679999999
 44
-675.1032679999999
 50
0.0
 51
0.0
 71
     0
 72
   100
 73
     1
 74
     3
 75
     0
 76
     0
 77
     0
 78
     0
281
     0
 65
     1
110
0.0
120
0.0
130
0.0
111
1.0
121
0.0
131
0.0
112
0.0
122
1.0
132
0.0
 79
     0
146
0.0
  0
VPORT
  5
29E
330
8
100
AcDbSymbolTableRecord
100
AcDbViewportTableRecord
  2
L6
 70
     0
 10
0.0
 20
0.5
 11
0.333333
 21
1.0
 12
0.0
 22
0.0
 13
0.0
 23
0.0
 14
0.5
 24
0.5
 15
0.5
 25
0.5
 16
0.7188730927569434
 26
-0.5850486126764433
 36
0.3754192287502549
 17
0.0
 27
0.0
 37
0.0
 40
1367.812327
 41
0.012982
 42
50.0
 43
708.2012429999999
 44
-708.2012429999999
 50
0.0
 51
0.0
 71
     0
 72
   100
 73
     1
 74
     3
 75
     0
 76
     0
 77
     0
 78
     0
281
     0
 65
     1
110
0.0
120
0.0
130
0.0
111
1.0
121
0.0
131
0.0
112
0.0
122
1.0
132
0.0
 79
     0
146
0.0
  0
VPORT
  5
29F
330
8
100
AcDbSymbolTableRecord
100
AcDbViewportTableRecord
  2
L6
 70
     0
 10
0.0
 20
0.0
 11
0.333333
 21
0.5
 12
0.0
 22
0.0
 13
0.0
 23
0.0
 14
0.5
 24
0.5
 15
0.5
 25
0.5
 16
-1.0
 26
0.0
 36
0.0
 17
0.0
 27
0.0
 37
0.0
 40
1319.735116
 41
0.013455
 42
50.0
 43
667.9688169999999
 44
-667.9688169999999
 50
0.0
 51
0.0
 71
     0
 72
   100
 73
     1
 74
     3
 75
     0
 76
     0
 77
     0
 78
     0
281
     0
 65
     1
110
0.0
120
0.0
130
0.0
111
1.0
121
0.0
131
0.0
112
0.0
122
1.0
132
0.0
 79
     0
146
0.0
  0
VPORT
  5
2A0
330
8
100
AcDbSymbolTableRecord
100
AcDbViewportTableRecord
  2
L6
 70
     0
 10
0.333333
 20
0.5
 11
0.666667
 21
1.0
 12
274.117348
 22
233.498014
 13
0.0
 23
0.0
 14
0.5
 24
0.5
 15
0.5
 25
0.5
 16
0.0
 26
0.0
 36
1.0
 17
0.0
 27
0.0
 37
0.0
 40
207.433333
 41
0.085602
 42
50.0
 43
360.633207
 44
-360.633207
 50
0.0
 51
0.0
 71
     0
 72
   100
 73
     1
 74
     3
 75
     0
 76
     0
 77
     0
 78
     0
281
     0
 65
     1
110
0.0
120
0.0
130
0.0
111
1.0
121
0.0
131
0.0
112
0.0
122
1.0
132
0.0
 79
     0
146
0.0
  0
VPORT
  5
2A1
330
8
100
AcDbSymbolTableRecord
100
AcDbViewportTableRecord
  2
L6
 70
     0
 10
0.333333
 20
0.0
 11
0.666667
 21
0.5
 12
0.0
 22
0.0
 13
0.0
 23
0.0
 14
0.5
 24
0.5
 15
0.5
 25
0.5
 16
0.0
 26
-1.0
 36
0.0
 17
0.0
 27
0.0
 37
0.0
 40
1319.735116
 41
0.013455
 42
50.0
 43
679.920199
 44
-679.920199
 50
0.0
 51
0.0
 71
     0
 72
   100
 73
     1
 74
     3
 75
     0
 76
     0
 77
     0
 78
     0
281
     0
 65
     1
110
0.0
120
0.0
130
0.0
111
1.0
121
0.0
131
0.0
112
0.0
122
1.0
132
0.0
 79
     0
146
0.0
  0
VPORT
  5
2A2
330
8
100
AcDbSymbolTableRecord
100
AcDbViewportTableRecord
  2
L6
 70
     0
 10
0.666667
 20
0.5
 11
1.0
 21
1.0
 12
0.0
 22
0.0
 13
0.0
 23
0.0
 14
0.5
 24
0.5
 15
0.5
 25
0.5
 16
0.5773502691896259
 26
-0.5773502691896259
 36
0.5773502691896259
 17
0.0
 27
0.0
 37
0.0
 40
1296.074958
 41
0.0137
 42
50.0
 43
675.1032679999999
 44
-675.1032679999999
 50
0.0
 51
0.0
 71
     0
 72
   100
 73
     1
 74
     3
 75
     0
 76
     0
 77
     0
 78
     0
281
     0
 65
     1
110
0.0
120
0.0
130
0.0
111
1.0
121
0.0
131
0.0
112
0.0
122
1.0
132
0.0
 79
     0
146
0.0
  0
VPORT
  5
2A3
330
8
100
AcDbSymbolTableRecord
100
AcDbViewportTableRecord
  2
L6
 70
     0
 10
0.666667
 20
0.0
 11
1.0
 21
0.5
 12
0.0
 22
0.0
 13
0.0
 23
0.0
 14
0.5
 24
0.5
 15
0.5
 25
0.5
 16
1.0
 26
0.0
 36
0.0
 17
0.0
 27
0.0
 37
0.0
 40
1319.735116
 41
0.013455
 42
50.0
 43
667.9688169999999
 44
-667.9688169999999
 50
0.0
 51
0.0
 71
     0
 72
   100
 73
     1
 74
     3
 75
     0
 76
     0
 77
     0
 78
     0
281
     0
 65
     1
110
0.0
120
0.0
130
0.0
111
1.0
121
0.0
131
0.0
112
0.0
122
1.0
132
0.0
 79
     0
146
0.0
  0
ENDTAB
  0
TABLE
  2
LTYPE
  5
5
330
0
100
AcDbSymbolTable
 70
     7
  0
LTYPE
  5
14
330
5
100
AcDbSymbolTableRecord
100
AcDbLinetypeTableRecord
  2
ByBlock
 70
     0
  3

 72
    65
 73
     0
 40
0.0
  0
LTYPE
  5
15
330
5
100
AcDbSymbolTableRecord
100
AcDbLinetypeTableRecord
  2
ByLayer
 70
     0
  3

 72
    65
 73
     0
 40
0.0
  0
LTYPE
  5
16
330
5
100
AcDbSymbolTableRecord
100
AcDbLinetypeTableRecord
  2
Continuous
 70
     0
  3
Solid line
 72
    65
 73
     0
 40
0.0
  0
LTYPE
  5
6E
330
5
100
AcDbSymbolTableRecord
100
AcDbLinetypeTableRecord
  2
CENTER
 70
     0
  3
____ _ ____ _ ____ _ ____
 72
    65
 73
     4
 40
47.4
 49
22.0
 74
     4
 75
     0
340
0
 46
0.0
 50
0.0
 44
0.0
 45
0.0
 49
-8.5
 74
     4
 75
     0
340
0
 46
0.0
 50
0.0
 44
0.0
 45
0.0
 49
8.5
 74
     4
 75
     0
340
0
 46
0.0
 50
0.0
 44
0.0
 45
0.0
 49
-8.5
 74
     4
 75
     0
340
0
 46
0.0
 50
0.0
 44
0.0
 45
0.0
  0
LTYPE
  5
6F
330
5
100
AcDbSymbolTableRecord
100
AcDbLinetypeTableRecord
  2
DASHDOT
 70
     0
  3
_._._._._._._._._._._._._._._._.
 72
    65
 73
     4
 40
70.0
 49
31.0
 74
     4
 75
     0
340
0
 46
0.0
 50
0.0
 44
0.0
 45
0.0
 49
-13.0
 74
     4
 75
     0
340
0
 46
0.0
 50
0.0
 44
0.0
 45
0.0
 49
13.0
 74
     4
 75
     0
340
0
 46
0.0
 50
0.0
 44
0.0
 45
0.0
 49
-13.0
 74
     4
 75
     0
340
0
 46
0.0
 50
0.0
 44
0.0
 45
0.0
  0
LTYPE
  5
70
330
5
100
AcDbSymbolTableRecord
100
AcDbLinetypeTableRecord
  2
DASHED
 70
     0
  3
__ __ __ __ __ __ __ __ __
 72
    65
 73
     2
 40
25.72
 49
12.86
 74
     4
 75
     0
340
0
 46
0.0
 50
0.0
 44
0.0
 45
0.0
 49
-12.86
 74
     4
 75
     0
340
0
 46
0.0
 50
0.0
 44
0.0
 45
0.0
  0
LTYPE
  5
71
330
5
100
AcDbSymbolTableRecord
100
AcDbLinetypeTableRecord
  2
DOT
 70
     0
  3
.........................
 72
    65
 73
     2
 40
10.0
 49
0.0
 74
     4
 75
     0
340
0
 46
0.0
 50
0.0
 44
0.0
 45
0.0
 49
-10.0
 74
     4
 75
     0
340
0
 46
0.0
 50
0.0
 44
0.0
 45
0.0
  0
LTYPE
  5
72
330
5
100
AcDbSymbolTableRecord
100
AcDbLinetypeTableRecord
  2
PHANTOM
 70
     0
  3
____ _ _ ____ _ _ _____ _ _ ____
 72
    65
 73
     6
 40
50.5
 49
18.0
 74
     4
 75
     0
340
0
 46
0.0
 50
0.0
 44
0.0
 45
0.0
 49
-6.5
 74
     4
 75
     0
340
0
 46
0.0
 50
0.0
 44
0.0
 45
0.0
 49
6.5
 74
     4
 75
     0
340
0
 46
0.0
 50
0.0
 44
0.0
 45
0.0
 49
-6.5
 74
     4
 75
     0
340
0
 46
0.0
 50
0.0
 44
0.0
 45
0.0
 49
6.5
 74
     4
 75
     0
340
0
 46
0.0
 50
0.0
 44
0.0
 45
0.0
 49
-6.5
 74
     4
 75
     0
340
0
 46
0.0
 50
0.0
 44
0.0
 45
0.0
  0
LTYPE
  5
330
330
5
100
AcDbSymbolTableRecord
100
AcDbLinetypeTableRecord
  2
CENTER2
 70
     0
  3
Center (.5x) ___ _ ___ _ ___ _ ___ _ ___ _ ___
 72
    65
 73
     4
 40
1.125
 49
0.75
 74
     0
 49
-0.125
 74
     0
 49
0.125
 74
     0
 49
-0.125
 74
     0
  0
ENDTAB
  0
TABLE
  2
LAYER
  5
2
330
0
100
AcDbSymbolTable
 70
    22
  0
LAYER
  5
10
102
{ACAD_XDICTIONARY
360
33B
102
}
330
2
100
AcDbSymbolTableRecord
100
AcDbLayerTableRecord
  2
0
 70
     0
 62
     7
  6
Continuous
370
    -3
390
F
  0
LAYER
  5
1EF
330
2
100
AcDbSymbolTableRecord
100
AcDbLayerTableRecord
  2
Defpoints
 70
     0
 62
     7
  6
Continuous
290
     0
370
    -3
390
F
  0
LAYER
  5
32D
102
{ACAD_XDICTIONARY
360
33D
102
}
330
2
100
AcDbSymbolTableRecord
100
AcDbLayerTableRecord
  2
1
 70
     0
 62
     4
  6
Continuous
370
    -3
390
F
  0
LAYER
  5
32E
102
{ACAD_XDICTIONARY
360
33F
102
}
330
2
100
AcDbSymbolTableRecord
100
AcDbLayerTableRecord
  2
2
 70
     0
 62
     7
  6
Continuous
370
    -3
390
F
  0
LAYER
  5
32F
102
{ACAD_XDICTIONARY
360
341
102
}
330
2
100
AcDbSymbolTableRecord
100
AcDbLayerTableRecord
  2
4
 70
     0
 62
     2
  6
CENTER2
370
    -3
390
F
  0
LAYER
  5
331
102
{ACAD_XDICTIONARY
360
343
102
}
330
2
100
AcDbSymbolTableRecord
100
AcDbLayerTableRecord
  2
SK1
 70
     0
 62
     4
  6
Continuous
370
    -3
390
F
  0
LAYER
  5
332
102
{ACAD_XDICTIONARY
360
345
102
}
330
2
100
AcDbSymbolTableRecord
100
AcDbLayerTableRecord
  2
SK2
 70
     0
 62
     7
  6
Continuous
370
    -3
390
F
  0
LAYER
  5
334
102
{ACAD_XDICTIONARY
360
347
102
}
330
2
100
AcDbSymbolTableRecord
100
AcDbLayerTableRecord
  2
SK4
 70
     0
 62
     2
  6
CENTER2
370
    -3
390
F
  0
LAYER
  5
335
102
{ACAD_XDICTIONARY
360
349
102
}
330
2
100
AcDbSymbolTableRecord
100
AcDbLayerTableRecord
  2
SK6
 70
     0
 62
     5
  6
Continuous
370
    -3
390
F
  0
LAYER
  5
336
102
{ACAD_XDICTIONARY
360
34B
102
}
330
2
100
AcDbSymbolTableRecord
100
AcDbLayerTableRecord
  2
CUT
 70
     0
 62
     1
  6
Continuous
370
    -3
390
F
  0
LAYER
  5
337
102
{ACAD_XDICTIONARY
360
34D
102
}
330
2
100
AcDbSymbolTableRecord
100
AcDbLayerTableRecord
  2
NOCUT
 70
     0
 62
     7
  6
Continuous
370
    -3
390
F
  0
LAYER
  5
338
102
{ACAD_XDICTIONARY
360
34F
102
}
330
2
100
AcDbSymbolTableRecord
100
AcDbLayerTableRecord
  2
80
 70
     0
 62
     6
  6
Continuous
370
    -3
390
F
  0
LAYER
  5
339
102
{ACAD_XDICTIONARY
360
351
102
}
330
2
100
AcDbSymbolTableRecord
100
AcDbLayerTableRecord
  2
81
 70
     0
 62
     3
  6
Continuous
370
    -3
390
F
  0
ENDTAB
  0
TABLE
  2
STYLE
  5
3
330
0
100
AcDbSymbolTable
 70
     3
  0
STYLE
  5
11
330
3
100
AcDbSymbolTableRecord
100
AcDbTextStyleTableRecord
  2
Standard
 70
     0
 40
0.0
 41
1.0
 50
0.0
 71
     0
 42
0.2
  3
txt
  4

  0
STYLE
  5
1E8
330
3
100
AcDbSymbolTableRecord
100
AcDbTextStyleTableRecord
  2
cesky
 70
     0
 40
0.0
 41
1.0
 50
0.0
 71
     0
 42
0.2
  3
simplex.shx
  4

  0
STYLE
  5
1E9
330
3
100
AcDbSymbolTableRecord
100
AcDbTextStyleTableRecord
  2
DWGDirectTextStyle
 70
     0
 40
0.0
 41
1.0
 50
0.0
 71
     0
 42
0.2
  3
simplex
  4

  0
ENDTAB
  0
TABLE
  2
VIEW
  5
6
330
0
100
AcDbSymbolTable
 70
     0
  0
ENDTAB
  0
TABLE
  2
UCS
  5
7
330
0
100
AcDbSymbolTable
 70
     0
  0
ENDTAB
  0
TABLE
  2
APPID
  5
9
330
0
100
AcDbSymbolTable
 70
     7
  0
APPID
  5
12
330
9
100
AcDbSymbolTableRecord
100
AcDbRegAppTableRecord
  2
ACAD
 70
     0
  0
APPID
  5
1EB
330
9
100
AcDbSymbolTableRecord
100
AcDbRegAppTableRecord
  2
ACAD_DSTYLE_DIMBREAK
 70
     0
  0
APPID
  5
2A4
330
9
100
AcDbSymbolTableRecord
100
AcDbRegAppTableRecord
  2
ACAD_DSTYLE_DIM_LINETYPE
 70
     0
  0
APPID
  5
2A5
330
9
100
AcDbSymbolTableRecord
100
AcDbRegAppTableRecord
  2
ACAD_DSTYLE_DIM_EXT1_LINETYPE
 70
     0
  0
APPID
  5
2A6
330
9
100
AcDbSymbolTableRecord
100
AcDbRegAppTableRecord
  2
ACAD_DSTYLE_DIM_EXT2_LINETYPE
 70
     0
  0
APPID
  5
2E6
330
9
100
AcDbSymbolTableRecord
100
AcDbRegAppTableRecord
  2
ACAD_MLEADERVER
 70
     0
  0
APPID
  5
356
330
9
100
AcDbSymbolTableRecord
100
AcDbRegAppTableRecord
  2
ACAD_NAV_VCDISPLAY
 70
     0
  0
ENDTAB
  0
TABLE
  2
DIMSTYLE
  5
A
330
0
100
AcDbSymbolTable
 70
     1
100
AcDbDimStyleTable
 71
     0
  0
DIMSTYLE
105
27
330
A
100
AcDbSymbolTableRecord
100
AcDbDimStyleTableRecord
  2
Standard
 70
     0
340
11
1001
ACAD_DSTYLE_DIMBREAK
1070
   391
1040
6.349999999999999
  0
ENDTAB
  0
TABLE
  2
BLOCK_RECORD
  5
1
330
0
100
AcDbSymbolTable
 70
    16
  0
BLOCK_RECORD
  5
1F
102
{ACAD_XDICTIONARY
360
2F6
102
}
330
1
100
AcDbSymbolTableRecord
100
AcDbBlockTableRecord
  2
*Model_Space
340
22
  0
BLOCK_RECORD
  5
1B
330
1
100
AcDbSymbolTableRecord
100
AcDbBlockTableRecord
  2
*Paper_Space
340
1E
  0
BLOCK_RECORD
  5
23
330
1
100
AcDbSymbolTableRecord
100
AcDbBlockTableRecord
  2
*Paper_Space0
340
26
  0
BLOCK_RECORD
  5
1E2
330
1
100
AcDbSymbolTableRecord
100
AcDbBlockTableRecord
  2
ASSORTED_DRAFT1
340
0
  0
BLOCK_RECORD
  5
1F0
330
1
100
AcDbSymbolTableRecord
100
AcDbBlockTableRecord
  2
*D2
340
0
  0
BLOCK_RECORD
  5
1FC
330
1
100
AcDbSymbolTableRecord
100
AcDbBlockTableRecord
  2
_U0
340
0
  0
BLOCK_RECORD
  5
208
330
1
100
AcDbSymbolTableRecord
100
AcDbBlockTableRecord
  2
*D4
340
0
  0
BLOCK_RECORD
  5
214
330
1
100
AcDbSymbolTableRecord
100
AcDbBlockTableRecord
  2
_U1
340
0
  0
BLOCK_RECORD
  5
220
330
1
100
AcDbSymbolTableRecord
100
AcDbBlockTableRecord
  2
*D6
340
0
  0
BLOCK_RECORD
  5
22C
330
1
100
AcDbSymbolTableRecord
100
AcDbBlockTableRecord
  2
_U2
340
0
  0
BLOCK_RECORD
  5
238
330
1
100
AcDbSymbolTableRecord
100
AcDbBlockTableRecord
  2
*D8
340
0
  0
BLOCK_RECORD
  5
244
330
1
100
AcDbSymbolTableRecord
100
AcDbBlockTableRecord
  2
_U3
340
0
  0
BLOCK_RECORD
  5
250
330
1
100
AcDbSymbolTableRecord
100
AcDbBlockTableRecord
  2
*D10
340
0
  0
BLOCK_RECORD
  5
25B
330
1
100
AcDbSymbolTableRecord
100
AcDbBlockTableRecord
  2
_U4
340
0
  0
BLOCK_RECORD
  5
266
330
1
100
AcDbSymbolTableRecord
100
AcDbBlockTableRecord
  2
*D12
340
0
  0
BLOCK_RECORD
  5
272
330
1
100
AcDbSymbolTableRecord
100
AcDbBlockTableRecord
  2
_U5
340
0
  0
BLOCK_RECORD
  5
27F
330
1
100
AcDbSymbolTableRecord
100
AcDbBlockTableRecord
  2
*D14
340
0
  0
BLOCK_RECORD
  5
28B
330
1
100
AcDbSymbolTableRecord
100
AcDbBlockTableRecord
  2
_U6
340
0
  0
ENDTAB
  0
ENDSEC
  0
SECTION
  2
BLOCKS
  0
BLOCK
  5
20
330
1F
100
AcDbEntity
  8
0
100
AcDbBlockBegin
  2
*Model_Space
 70
     0
 10
0.0
 20
0.0
 30
0.0
  3
*Model_Space
  1

  0
ENDBLK
  5
21
330
1F
100
AcDbEntity
  8
0
100
AcDbBlockEnd
  0
BLOCK
  5
1C
330
1B
100
AcDbEntity
 67
     1
  8
0
100
AcDbBlockBegin
  2
*Paper_Space
 70
     0
 10
0.0
 20
0.0
 30
0.0
  3
*Paper_Space
  1

  0
ENDBLK
  5
1D
330
1B
100
AcDbEntity
 67
     1
  8
0
100
AcDbBlockEnd
  0
BLOCK
  5
24
330
23
100
AcDbEntity
 67
     1
  8
0
100
AcDbBlockBegin
  2
*Paper_Space0
 70
     0
 10
0.0
 20
0.0
 30
0.0
  3
*Paper_Space0
  1

  0
ENDBLK
  5
25
330
23
100
AcDbEntity
 67
     1
  8
0
100
AcDbBlockEnd
  0
BLOCK
  5
1E5
330
1E2
100
AcDbEntity
  8
0
100
AcDbBlockBegin
  2
ASSORTED_DRAFT1
 70
     0
 10
0.0
 20
0.0
 30
0.0
  3
ASSORTED_DRAFT1
  1

  0
SOLID
  5
1E3
330
1E2
100
AcDbEntity
  8
0
 62
   254
370
    13
100
AcDbTrace
 10
270.185042
 20
161.915984
 30
0.0
 11
265.185046
 21
160.80751
 31
0.0
 12
265.1850379999999
 22
163.024457
 32
0.0
 13
270.185042
 23
161.915984
 33
0.0
  0
ENDBLK
  5
1E6
330
1E2
100
AcDbEntity
  8
0
100
AcDbBlockEnd
  0
BLOCK
  5
1F1
330
1F0
100
AcDbEntity
  8
0
100
AcDbBlockBegin
  2
*D2
 70
     1
 10
0.0
 20
0.0
 30
0.0
  3
*D2
  1

  0
LINE
  5
1F3
330
1F0
100
AcDbEntity
  8
0
 62
   254
370
    -2
100
AcDbLine
 10
344.667642
 20
296.451794
 30
0.0
 11
344.667642
 21
328.5109970000001
 31
0.0
  0
LINE
  5
1F4
330
1F0
100
AcDbEntity
  8
0
 62
   254
370
    -2
100
AcDbLine
 10
274.404842
 20
288.907994
 30
0.0
 11
274.404842
 21
328.5109970000001
 31
0.0
  0
LINE
  5
1F5
330
1F0
100
AcDbEntity
  8
0
 62
   254
370
    -2
100
AcDbLine
 10
341.167642
 20
327.510997
 30
0.0
 11
277.904842
 21
327.510997
 31
0.0
  0
SOLID
  5
1F6
330
1F0
100
AcDbEntity
  8
0
 62
   254
100
AcDbTrace
 10
341.167642
 20
326.927663
 30
0.0
 11
341.167642
 21
328.09433
 31
0.0
 12
344.667642
 22
327.510997
 32
0.0
 13
344.667642
 23
327.510997
 33
0.0
  0
SOLID
  5
1F7
330
1F0
100
AcDbEntity
  8
0
 62
   254
100
AcDbTrace
 10
277.904842
 20
328.09433
 30
0.0
 11
277.904842
 21
326.927663
 31
0.0
 12
274.404842
 22
327.510997
 32
0.0
 13
274.404842
 23
327.510997
 33
0.0
  0
MTEXT
  5
1F8
330
1F0
100
AcDbEntity
  8
0
 62
   254
370
    13
100
AcDbMText
 10
309.536242
 20
332.7609970000001
 30
0.0
 40
3.5
 41
0.0
 71
     5
 72
     1
  1
\A1;70.3
  7
cesky
 73
     1
 44
1.0
  0
POINT
  5
1F9
330
1F0
100
AcDbEntity
  8
Defpoints
 62
     0
100
AcDbPoint
 10
344.667642
 20
296.451794
 30
0.0
  0
POINT
  5
1FA
330
1F0
100
AcDbEntity
  8
Defpoints
 62
     0
100
AcDbPoint
 10
274.404842
 20
288.907994
 30
0.0
  0
POINT
  5
1FB
330
1F0
100
AcDbEntity
  8
Defpoints
 62
     0
100
AcDbPoint
 10
274.404842
 20
327.510997
 30
0.0
  0
ENDBLK
  5
1F2
330
1F0
100
AcDbEntity
  8
0
100
AcDbBlockEnd
  0
BLOCK
  5
203
330
1FC
100
AcDbEntity
  8
0
100
AcDbBlockBegin
  2
_U0
 70
     0
 10
0.0
 20
0.0
 30
0.0
  3
_U0
  1

  0
ENDBLK
  5
204
330
1FC
100
AcDbEntity
  8
0
100
AcDbBlockEnd
  0
BLOCK
  5
209
330
208
100
AcDbEntity
  8
0
100
AcDbBlockBegin
  2
*D4
 70
     1
 10
0.0
 20
0.0
 30
0.0
  3
*D4
  1

  0
LINE
  5
20B
330
208
100
AcDbEntity
  8
0
 62
   254
370
    -2
100
AcDbLine
 10
344.667642
 20
298.451794
 30
0.0
 11
344.667642
 21
341.687968
 31
0.0
  0
LINE
  5
20C
330
208
100
AcDbEntity
  8
0
 62
   254
370
    -2
100
AcDbLine
 10
217.404842
 20
300.007994
 30
0.0
 11
217.404842
 21
341.687968
 31
0.0
  0
LINE
  5
20D
330
208
100
AcDbEntity
  8
0
 62
   254
370
    -2
100
AcDbLine
 10
341.167642
 20
340.687968
 30
0.0
 11
220.904842
 21
340.687968
 31
0.0
  0
SOLID
  5
20E
330
208
100
AcDbEntity
  8
0
 62
   254
100
AcDbTrace
 10
341.167642
 20
340.104634
 30
0.0
 11
341.167642
 21
341.271301
 31
0.0
 12
344.667642
 22
340.687968
 32
0.0
 13
344.667642
 23
340.687968
 33
0.0
  0
SOLID
  5
20F
330
208
100
AcDbEntity
  8
0
 62
   254
100
AcDbTrace
 10
220.904842
 20
341.271301
 30
0.0
 11
220.904842
 21
340.104634
 31
0.0
 12
217.404842
 22
340.687968
 32
0.0
 13
217.404842
 23
340.687968
 33
0.0
  0
MTEXT
  5
210
330
208
100
AcDbEntity
  8
0
 62
   254
370
    13
100
AcDbMText
 10
281.036242
 20
345.937968
 30
0.0
 40
3.5
 41
0.0
 71
     5
 72
     1
  1
\A1;127.3
  7
cesky
 73
     1
 44
1.0
  0
POINT
  5
211
330
208
100
AcDbEntity
  8
Defpoints
 62
     0
100
AcDbPoint
 10
344.667642
 20
298.451794
 30
0.0
  0
POINT
  5
212
330
208
100
AcDbEntity
  8
Defpoints
 62
     0
100
AcDbPoint
 10
217.404842
 20
300.007994
 30
0.0
  0
POINT
  5
213
330
208
100
AcDbEntity
  8
Defpoints
 62
     0
100
AcDbPoint
 10
217.404842
 20
340.687968
 30
0.0
  0
ENDBLK
  5
20A
330
208
100
AcDbEntity
  8
0
100
AcDbBlockEnd
  0
BLOCK
  5
21B
330
214
100
AcDbEntity
  8
0
100
AcDbBlockBegin
  2
_U1
 70
     0
 10
0.0
 20
0.0
 30
0.0
  3
_U1
  1

  0
ENDBLK
  5
21C
330
214
100
AcDbEntity
  8
0
100
AcDbBlockEnd
  0
BLOCK
  5
221
330
220
100
AcDbEntity
  8
0
100
AcDbBlockBegin
  2
*D6
 70
     1
 10
0.0
 20
0.0
 30
0.0
  3
*D6
  1

  0
LINE
  5
223
330
220
100
AcDbEntity
  8
0
 62
   254
370
    -2
100
AcDbLine
 10
274.404842
 20
288.907994
 30
0.0
 11
274.404842
 21
328.5109970000001
 31
0.0
  0
LINE
  5
224
330
220
100
AcDbEntity
  8
0
 62
   254
370
    -2
100
AcDbLine
 10
217.404842
 20
294.457994
 30
0.0
 11
217.404842
 21
328.5109970000001
 31
0.0
  0
LINE
  5
225
330
220
100
AcDbEntity
  8
0
 62
   254
370
    -2
100
AcDbLine
 10
270.904842
 20
327.510997
 30
0.0
 11
220.904842
 21
327.510997
 31
0.0
  0
SOLID
  5
226
330
220
100
AcDbEntity
  8
0
 62
   254
100
AcDbTrace
 10
270.904842
 20
326.927663
 30
0.0
 11
270.904842
 21
328.09433
 31
0.0
 12
274.404842
 22
327.510997
 32
0.0
 13
274.404842
 23
327.510997
 33
0.0
  0
SOLID
  5
227
330
220
100
AcDbEntity
  8
0
 62
   254
100
AcDbTrace
 10
220.904842
 20
328.09433
 30
0.0
 11
220.904842
 21
326.927663
 31
0.0
 12
217.404842
 22
327.510997
 32
0.0
 13
217.404842
 23
327.510997
 33
0.0
  0
MTEXT
  5
228
330
220
100
AcDbEntity
  8
0
 62
   254
370
    13
100
AcDbMText
 10
245.904842
 20
332.7609970000001
 30
0.0
 40
3.5
 41
0.0
 71
     5
 72
     1
  1
\A1;57
  7
cesky
 73
     1
 44
1.0
  0
POINT
  5
229
330
220
100
AcDbEntity
  8
Defpoints
 62
     0
100
AcDbPoint
 10
274.404842
 20
288.907994
 30
0.0
  0
POINT
  5
22A
330
220
100
AcDbEntity
  8
Defpoints
 62
     0
100
AcDbPoint
 10
217.404842
 20
294.457994
 30
0.0
  0
POINT
  5
22B
330
220
100
AcDbEntity
  8
Defpoints
 62
     0
100
AcDbPoint
 10
217.404842
 20
327.510997
 30
0.0
  0
ENDBLK
  5
222
330
220
100
AcDbEntity
  8
0
100
AcDbBlockEnd
  0
BLOCK
  5
233
330
22C
100
AcDbEntity
  8
0
100
AcDbBlockBegin
  2
_U2
 70
     0
 10
0.0
 20
0.0
 30
0.0
  3
_U2
  1

  0
ENDBLK
  5
234
330
22C
100
AcDbEntity
  8
0
100
AcDbBlockEnd
  0
BLOCK
  5
239
330
238
100
AcDbEntity
  8
0
100
AcDbBlockBegin
  2
*D8
 70
     1
 10
0.0
 20
0.0
 30
0.0
  3
*D8
  1

  0
LINE
  5
23B
330
238
100
AcDbEntity
  8
0
 62
   254
370
    -2
100
AcDbLine
 10
344.667642
 20
296.451794
 30
0.0
 11
344.667642
 21
316.914763
 31
0.0
  0
LINE
  5
23C
330
238
100
AcDbEntity
  8
0
 62
   254
370
    -2
100
AcDbLine
 10
295.402037
 20
295.733944
 30
0.0
 11
295.402037
 21
316.914763
 31
0.0
  0
LINE
  5
23D
330
238
100
AcDbEntity
  8
0
 62
   254
370
    -2
100
AcDbLine
 10
341.167642
 20
315.914763
 30
0.0
 11
298.902037
 21
315.914763
 31
0.0
  0
SOLID
  5
23E
330
238
100
AcDbEntity
  8
0
 62
   254
100
AcDbTrace
 10
341.167642
 20
315.331429
 30
0.0
 11
341.167642
 21
316.498096
 31
0.0
 12
344.667642
 22
315.914763
 32
0.0
 13
344.667642
 23
315.914763
 33
0.0
  0
SOLID
  5
23F
330
238
100
AcDbEntity
  8
0
 62
   254
100
AcDbTrace
 10
298.902037
 20
316.498096
 30
0.0
 11
298.902037
 21
315.331429
 31
0.0
 12
295.402037
 22
315.914763
 32
0.0
 13
295.402037
 23
315.914763
 33
0.0
  0
MTEXT
  5
240
330
238
100
AcDbEntity
  8
0
 62
   254
370
    13
100
AcDbMText
 10
320.03484
 20
321.164763
 30
0.0
 40
3.5
 41
0.0
 71
     5
 72
     1
  1
\A1;49.3
  7
cesky
 73
     1
 44
1.0
  0
POINT
  5
241
330
238
100
AcDbEntity
  8
Defpoints
 62
     0
100
AcDbPoint
 10
344.667642
 20
296.451794
 30
0.0
  0
POINT
  5
242
330
238
100
AcDbEntity
  8
Defpoints
 62
     0
100
AcDbPoint
 10
295.402037
 20
295.733944
 30
0.0
  0
POINT
  5
243
330
238
100
AcDbEntity
  8
Defpoints
 62
     0
100
AcDbPoint
 10
295.402037
 20
315.914763
 30
0.0
  0
ENDBLK
  5
23A
330
238
100
AcDbEntity
  8
0
100
AcDbBlockEnd
  0
BLOCK
  5
24B
330
244
100
AcDbEntity
  8
0
100
AcDbBlockBegin
  2
_U3
 70
     0
 10
0.0
 20
0.0
 30
0.0
  3
_U3
  1

  0
ENDBLK
  5
24C
330
244
100
AcDbEntity
  8
0
100
AcDbBlockEnd
  0
BLOCK
  5
251
330
250
100
AcDbEntity
  8
0
100
AcDbBlockBegin
  2
*D10
 70
     1
 10
0.0
 20
0.0
 30
0.0
  3
*D10
  1

  0
LINE
  5
253
330
250
100
AcDbEntity
  8
0
 62
   254
370
    -2
100
AcDbLine
 10
295.289618
 20
288.907994
 30
0.0
 11
360.577272
 21
288.907994
 31
0.0
  0
LINE
  5
254
330
250
100
AcDbEntity
  8
0
 62
   254
370
    -2
100
AcDbLine
 10
330.83929
 20
296.451794
 30
0.0
 11
360.577272
 21
296.451794
 31
0.0
  0
LINE
  5
255
330
250
100
AcDbEntity
  8
0
 62
   254
370
    -2
100
AcDbLine
 10
359.577272
 20
299.951794
 30
0.0
 11
359.577272
 21
303.451794
 31
0.0
  0
SOLID
  5
256
330
250
100
AcDbEntity
  8
0
 62
   254
100
AcDbTrace
 10
358.993939
 20
299.951794
 30
0.0
 11
360.160606
 21
299.951794
 31
0.0
 12
359.577272
 22
296.451794
 32
0.0
 13
359.577272
 23
296.451794
 33
0.0
  0
MTEXT
  5
257
330
250
100
AcDbEntity
  8
0
 62
   254
370
    13
100
AcDbMText
 10
354.327272
 20
274.157994
 30
0.0
 40
3.5
 41
0.0
 71
     5
 72
     1
  1
\A1;15.1
  7
cesky
 11
0.0
 21
1.0
 31
0.0
 73
     1
 44
1.0
  0
POINT
  5
258
330
250
100
AcDbEntity
  8
Defpoints
 62
     0
100
AcDbPoint
 10
295.289618
 20
288.907994
 30
0.0
  0
POINT
  5
259
330
250
100
AcDbEntity
  8
Defpoints
 62
     0
100
AcDbPoint
 10
330.83929
 20
296.451794
 30
0.0
  0
POINT
  5
25A
330
250
100
AcDbEntity
  8
Defpoints
 62
     0
100
AcDbPoint
 10
359.577272
 20
296.451794
 30
0.0
  0
ENDBLK
  5
252
330
250
100
AcDbEntity
  8
0
100
AcDbBlockEnd
  0
BLOCK
  5
261
330
25B
100
AcDbEntity
  8
0
100
AcDbBlockBegin
  2
_U4
 70
     0
 10
0.0
 20
0.0
 30
0.0
  3
_U4
  1

  0
ENDBLK
  5
262
330
25B
100
AcDbEntity
  8
0
100
AcDbBlockEnd
  0
BLOCK
  5
267
330
266
100
AcDbEntity
  8
0
100
AcDbBlockBegin
  2
*D12
 70
     1
 10
0.0
 20
0.0
 30
0.0
  3
*D12
  1

  0
LINE
  5
269
330
266
100
AcDbEntity
  8
0
 62
    95
370
    -2
100
AcDbLine
 10
219.004842
 20
301.607994
 30
0.0
 11
204.531213
 21
301.607994
 31
0.0
  0
LINE
  5
26A
330
266
100
AcDbEntity
  8
0
 62
    95
370
    -2
100
AcDbLine
 10
219.004842
 20
276.207994
 30
0.0
 11
204.531213
 21
276.207994
 31
0.0
  0
LINE
  5
26B
330
266
100
AcDbEntity
  8
0
 62
    95
370
    -2
100
AcDbLine
 10
205.531213
 20
298.107994
 30
0.0
 11
205.531213
 21
279.707994
 31
0.0
  0
SOLID
  5
26C
330
266
100
AcDbEntity
  8
0
 62
    95
100
AcDbTrace
 10
206.114547
 20
298.107994
 30
0.0
 11
204.94788
 21
298.107994
 31
0.0
 12
205.531213
 22
301.607994
 32
0.0
 13
205.531213
 23
301.607994
 33
0.0
  0
SOLID
  5
26D
330
266
100
AcDbEntity
  8
0
 62
    95
100
AcDbTrace
 10
204.94788
 20
279.707994
 30
0.0
 11
206.114547
 21
279.707994
 31
0.0
 12
205.531213
 22
276.207994
 32
0.0
 13
205.531213
 23
276.207994
 33
0.0
  0
MTEXT
  5
26E
330
266
100
AcDbEntity
  8
0
 62
    95
370
    13
100
AcDbMText
 10
200.281213
 20
288.907994
 30
0.0
 40
3.5
 41
0.0
 71
     5
 72
     1
  1
\A1;25.4
  7
cesky
 11
0.0
 21
1.0
 31
0.0
 73
     1
 44
1.0
  0
POINT
  5
26F
330
266
100
AcDbEntity
  8
Defpoints
 62
     0
100
AcDbPoint
 10
219.004842
 20
301.607994
 30
0.0
  0
POINT
  5
270
330
266
100
AcDbEntity
  8
Defpoints
 62
     0
100
AcDbPoint
 10
219.004842
 20
276.207994
 30
0.0
  0
POINT
  5
271
330
266
100
AcDbEntity
  8
Defpoints
 62
     0
100
AcDbPoint
 10
205.531213
 20
276.207994
 30
0.0
  0
ENDBLK
  5
268
330
266
100
AcDbEntity
  8
0
100
AcDbBlockEnd
  0
BLOCK
  5
27A
330
272
100
AcDbEntity
  8
0
100
AcDbBlockBegin
  2
_U5
 70
     0
 10
0.0
 20
0.0
 30
0.0
  3
_U5
  1

  0
ENDBLK
  5
27B
330
272
100
AcDbEntity
  8
0
100
AcDbBlockEnd
  0
BLOCK
  5
280
330
27F
100
AcDbEntity
  8
0
100
AcDbBlockBegin
  2
*D14
 70
     1
 10
0.0
 20
0.0
 30
0.0
  3
*D14
  1

  0
LINE
  5
282
330
27F
100
AcDbEntity
  8
0
 62
    95
370
    -2
100
AcDbLine
 10
277.154842
 20
306.407994
 30
0.0
 11
192.519918
 21
306.407994
 31
0.0
  0
LINE
  5
283
330
27F
100
AcDbEntity
  8
0
 62
    95
370
    -2
100
AcDbLine
 10
277.154842
 20
271.407994
 30
0.0
 11
192.519918
 21
271.407994
 31
0.0
  0
LINE
  5
284
330
27F
100
AcDbEntity
  8
0
 62
    95
370
    -2
100
AcDbLine
 10
193.519918
 20
302.907994
 30
0.0
 11
193.519918
 21
274.907994
 31
0.0
  0
SOLID
  5
285
330
27F
100
AcDbEntity
  8
0
 62
    95
100
AcDbTrace
 10
194.103251
 20
302.907994
 30
0.0
 11
192.936584
 21
302.907994
 31
0.0
 12
193.519918
 22
306.407994
 32
0.0
 13
193.519918
 23
306.407994
 33
0.0
  0
SOLID
  5
286
330
27F
100
AcDbEntity
  8
0
 62
    95
100
AcDbTrace
 10
192.936584
 20
274.907994
 30
0.0
 11
194.103251
 21
274.907994
 31
0.0
 12
193.519918
 22
271.407994
 32
0.0
 13
193.519918
 23
271.407994
 33
0.0
  0
MTEXT
  5
287
330
27F
100
AcDbEntity
  8
0
 62
    95
370
    13
100
AcDbMText
 10
188.269918
 20
288.907994
 30
0.0
 40
3.5
 41
0.0
 71
     5
 72
     1
  1
\A1;35
  7
cesky
 11
0.0
 21
1.0
 31
0.0
 73
     1
 44
1.0
  0
POINT
  5
288
330
27F
100
AcDbEntity
  8
Defpoints
 62
     0
100
AcDbPoint
 10
277.154842
 20
306.407994
 30
0.0
  0
POINT
  5
289
330
27F
100
AcDbEntity
  8
Defpoints
 62
     0
100
AcDbPoint
 10
277.154842
 20
271.407994
 30
0.0
  0
POINT
  5
28A
330
27F
100
AcDbEntity
  8
Defpoints
 62
     0
100
AcDbPoint
 10
193.519918
 20
271.407994
 30
0.0
  0
ENDBLK
  5
281
330
27F
100
AcDbEntity
  8
0
100
AcDbBlockEnd
  0
BLOCK
  5
293
330
28B
100
AcDbEntity
  8
0
100
AcDbBlockBegin
  2
_U6
 70
     0
 10
0.0
 20
0.0
 30
0.0
  3
_U6
  1

  0
ENDBLK
  5
294
330
28B
100
AcDbEntity
  8
0
100
AcDbBlockEnd
  0
ENDSEC
  0
SECTION
  2
ENTITIES
  0
POINT
  5
73
102
{ACAD_REACTORS
330
33A
102
}
330
1F
100
AcDbEntity
  8
80
100
AcDbPoint
 10
274.404842
 20
288.907994
 30
0.0
  0
POINT
  5
76
330
1F
100
AcDbEntity
  8
SK4
 60
     1
100
AcDbPoint
 10
219.004842
 20
288.907994
 30
0.0
  0
POINT
  5
78
330
1F
100
AcDbEntity
  8
SK4
 60
     1
100
AcDbPoint
 10
274.404842
 20
288.907994
 30
0.0
  0
POINT
  5
79
330
1F
100
AcDbEntity
  8
4
 60
     1
100
AcDbPoint
 10
295.289618
 20
288.907994
 30
0.0
  0
POINT
  5
7A
330
1F
100
AcDbEntity
  8
4
 60
     1
100
AcDbPoint
 10
343.874689
 20
288.907994
 30
0.0
  0
POINT
  5
7B
330
1F
100
AcDbEntity
  8
SK6
 60
     1
100
AcDbPoint
 10
274.404842
 20
288.907994
 30
0.0
  0
POINT
  5
7C
330
1F
100
AcDbEntity
  8
SK6
 60
     1
100
AcDbPoint
 10
295.402037
 20
295.733944
 30
0.0
  0
LINE
  5
7D
330
1F
100
AcDbEntity
  8
1
100
AcDbLine
 10
340.539543
 20
293.847645
 30
0.0
 11
340.520917
 21
293.787211
 31
0.0
  0
LINE
  5
7F
330
1F
100
AcDbEntity
  8
1
100
AcDbLine
 10
340.608114
 20
293.7754
 30
0.0
 11
340.588899
 21
293.713056
 31
0.0
  0
LINE
  5
80
330
1F
100
AcDbEntity
  8
1
100
AcDbLine
 10
342.270879
 20
293.339201
 30
0.0
 11
342.290114
 21
293.401609
 31
0.0
  0
LINE
  5
81
330
1F
100
AcDbEntity
  8
1
100
AcDbLine
 10
340.642487
 20
292.8834319999999
 30
0.0
 11
340.623342
 21
292.821315
 31
0.0
  0
LINE
  5
82
330
1F
100
AcDbEntity
  8
1
100
AcDbLine
 10
340.599616
 20
292.863207
 30
0.0
 11
340.580761
 21
292.802031
 31
0.0
  0
LINE
  5
83
330
1F
100
AcDbEntity
  8
1
100
AcDbLine
 10
341.864551
 20
292.547717
 30
0.0
 11
341.883714
 21
292.609892
 31
0.0
  0
LINE
  5
84
330
1F
100
AcDbEntity
  8
1
100
AcDbLine
 10
341.901692
 20
292.50694
 30
0.0
 11
341.920508
 21
292.567989
 31
0.0
  0
LINE
  5
87
330
1F
100
AcDbEntity
  8
1
100
AcDbLine
 10
344.15537
 20
295.947377
 30
0.0
 11
344.368655
 21
291.177386
 31
0.0
  0
LINE
  5
89
330
1F
100
AcDbEntity
  8
1
100
AcDbLine
 10
338.974948
 20
296.108181
 30
0.0
 11
343.751655
 21
296.316443
 31
0.0
  0
LINE
  5
8A
330
1F
100
AcDbEntity
  8
1
100
AcDbLine
 10
338.819029
 20
290.935425
 30
0.0
 11
338.605744
 21
295.705415
 31
0.0
  0
LINE
  5
8B
330
1F
100
AcDbEntity
  8
1
100
AcDbLine
 10
343.999451
 20
290.77462
 30
0.0
 11
339.222744
 21
290.566358
 31
0.0
  0
LINE
  5
8C
330
1F
100
AcDbEntity
  8
1
100
AcDbLine
 10
339.554197
 20
295.197628
 30
0.0
 11
343.249952
 21
295.3587609999999
 31
0.0
  0
LINE
  5
8D
330
1F
100
AcDbEntity
  8
1
100
AcDbLine
 10
339.719216
 20
291.507069
 30
0.0
 11
339.554197
 21
295.197628
 31
0.0
  0
LINE
  5
8E
330
1F
100
AcDbEntity
  8
1
100
AcDbLine
 10
343.414971
 20
291.668202
 30
0.0
 11
339.719216
 21
291.507069
 31
0.0
  0
LINE
  5
8F
330
1F
100
AcDbEntity
  8
1
100
AcDbLine
 10
343.249952
 20
295.3587609999999
 30
0.0
 11
343.414971
 21
291.668202
 31
0.0
  0
LINE
  5
90
330
1F
100
AcDbEntity
  8
1
100
AcDbLine
 10
338.655382
 20
295.907994
 30
0.0
 11
331.412321
 21
295.907994
 31
0.0
  0
LINE
  5
92
330
1F
100
AcDbEntity
  8
SK1
100
AcDbLine
 10
219.004842
 20
301.607994
 30
0.0
 11
219.004842
 21
276.207994
 31
0.0
  0
LINE
  5
93
330
1F
100
AcDbEntity
  8
SK1
100
AcDbLine
 10
217.404842
 20
300.007994
 30
0.0
 11
217.404842
 21
277.807994
 31
0.0
  0
LINE
  5
94
330
1F
100
AcDbEntity
  8
SK1
100
AcDbLine
 10
217.404842
 20
277.807994
 30
0.0
 11
219.004842
 21
276.207994
 31
0.0
  0
LINE
  5
95
330
1F
100
AcDbEntity
  8
SK1
100
AcDbLine
 10
219.004842
 20
301.607994
 30
0.0
 11
217.404842
 21
300.007994
 31
0.0
  0
LINE
  5
96
330
1F
100
AcDbEntity
  8
1
100
AcDbLine
 10
339.940943
 20
293.807625
 30
0.0
 11
339.92796
 21
293.7655
 31
0.0
  0
LINE
  5
97
330
1F
100
AcDbEntity
  8
1
100
AcDbLine
 10
342.842664
 20
292.867168
 30
0.0
 11
342.855647
 21
292.909293
 31
0.0
  0
LINE
  5
98
330
1F
100
AcDbEntity
  8
1
100
AcDbLine
 10
340.963143
 20
292.50437
 30
0.0
 11
340.982259
 21
292.566394
 31
0.0
  0
LINE
  5
99
330
1F
100
AcDbEntity
  8
1
100
AcDbLine
 10
341.446597
 20
292.477899
 30
0.0
 11
341.427398
 21
292.415605
 31
0.0
  0
LINE
  5
9A
330
1F
100
AcDbEntity
  8
1
100
AcDbLine
 10
340.601156
 20
293.444633
 30
0.0
 11
340.620996
 21
293.509004
 31
0.0
  0
LINE
  5
9B
330
1F
100
AcDbEntity
  8
1
100
AcDbLine
 10
342.183851
 20
293.234701
 30
0.0
 11
342.16405
 21
293.170455
 31
0.0
  0
LINE
  5
9C
330
1F
100
AcDbEntity
  8
1
100
AcDbLine
 10
341.337808
 20
294.199483
 30
0.0
 11
341.357008
 21
294.261778
 31
0.0
  0
LINE
  5
9D
330
1F
100
AcDbEntity
  8
1
100
AcDbLine
 10
341.8172160000001
 20
294.159881
 30
0.0
 11
341.802063
 21
294.110718
 31
0.0
  0
LINE
  5
9E
330
1F
100
AcDbEntity
  8
1
100
AcDbLine
 10
344.609722
 20
284.9568109999999
 30
0.0
 11
344.194993
 21
284.266587
 31
0.0
  0
LINE
  5
9F
330
1F
100
AcDbEntity
  8
1
100
AcDbLine
 10
344.242376
 20
285.062146
 30
0.0
 11
344.609722
 21
284.9568109999999
 31
0.0
  0
LINE
  5
A0
330
1F
100
AcDbEntity
  8
1
100
AcDbLine
 10
344.667642
 20
288.275032
 30
0.0
 11
344.609722
 21
284.9568109999999
 31
0.0
  0
LINE
  5
A1
330
1F
100
AcDbEntity
  8
1
100
AcDbLine
 10
344.296843
 20
288.182581
 30
0.0
 11
344.667642
 21
288.275032
 31
0.0
  0
LINE
  5
A2
330
1F
100
AcDbEntity
  8
1
100
AcDbLine
 10
344.264009
 20
289.003204
 30
0.0
 11
344.667642
 21
288.275032
 31
0.0
  0
LINE
  5
A3
330
1F
100
AcDbEntity
  8
1
100
AcDbLine
 10
343.92953
 20
284.541483
 30
0.0
 11
344.194993
 21
284.266587
 31
0.0
  0
LINE
  5
A4
330
1F
100
AcDbEntity
  8
1
100
AcDbLine
 10
344.194993
 20
284.266587
 30
0.0
 11
343.546874
 21
283.907328
 31
0.0
  0
LINE
  5
A5
330
1F
100
AcDbEntity
  8
1
100
AcDbLine
 10
343.384824
 20
284.191823
 30
0.0
 11
343.440508
 21
283.9684870000001
 31
0.0
  0
LINE
  5
A6
330
1F
100
AcDbEntity
  8
1
100
AcDbLine
 10
343.989113
 20
288.737741
 30
0.0
 11
344.264009
 21
289.003204
 31
0.0
  0
LINE
  5
A7
330
1F
100
AcDbEntity
  8
1
100
AcDbLine
 10
343.819256
 20
289.270439
 30
0.0
 11
344.264009
 21
289.003204
 31
0.0
  0
LINE
  5
A8
330
1F
100
AcDbEntity
  8
1
100
AcDbLine
 10
343.92953
 20
284.541483
 30
0.0
 11
343.388874
 21
284.241792
 31
0.0
  0
LINE
  5
A9
330
1F
100
AcDbEntity
  8
1
100
AcDbLine
 10
343.989113
 20
288.737741
 30
0.0
 11
344.296843
 21
288.182581
 31
0.0
  0
LINE
  5
AA
330
1F
100
AcDbEntity
  8
1
100
AcDbLine
 10
344.296843
 20
288.182581
 30
0.0
 11
343.710707
 21
288.036441
 31
0.0
  0
LINE
  5
AB
330
1F
100
AcDbEntity
  8
1
100
AcDbLine
 10
344.296843
 20
288.182581
 30
0.0
 11
344.242376
 21
285.062146
 31
0.0
  0
LINE
  5
AC
330
1F
100
AcDbEntity
  8
1
100
AcDbLine
 10
344.242376
 20
285.062146
 30
0.0
 11
343.661697
 21
285.228653
 31
0.0
  0
LINE
  5
AD
330
1F
100
AcDbEntity
  8
1
100
AcDbLine
 10
343.92953
 20
284.541483
 30
0.0
 11
343.5099
 21
284.976021
 31
0.0
  0
LINE
  5
AE
330
1F
100
AcDbEntity
  8
1
100
AcDbLine
 10
344.242376
 20
285.062146
 30
0.0
 11
343.92953
 21
284.541483
 31
0.0
  0
LINE
  5
AF
330
1F
100
AcDbEntity
  8
1
100
AcDbLine
 10
343.989113
 20
288.737741
 30
0.0
 11
343.589107
 21
288.351459
 31
0.0
  0
LINE
  5
B0
330
1F
100
AcDbEntity
  8
1
100
AcDbLine
 10
343.592124
 20
288.976276
 30
0.0
 11
343.989113
 21
288.737741
 31
0.0
  0
LINE
  5
B1
330
1F
100
AcDbEntity
  8
1
100
AcDbLine
 10
343.463913
 20
284.95053
 30
0.0
 11
343.5099
 21
284.976021
 31
0.0
  0
LINE
  5
B2
330
1F
100
AcDbEntity
  8
1
100
AcDbLine
 10
343.5099
 20
284.976021
 30
0.0
 11
343.661697
 21
285.228653
 31
0.0
  0
LINE
  5
B3
330
1F
100
AcDbEntity
  8
1
100
AcDbLine
 10
343.661697
 20
285.228653
 30
0.0
 11
343.710707
 21
288.036441
 31
0.0
  0
LINE
  5
B4
330
1F
100
AcDbEntity
  8
1
100
AcDbLine
 10
343.710707
 20
288.036441
 30
0.0
 11
343.589102
 21
288.255823
 31
0.0
  0
LINE
  5
B5
330
1F
100
AcDbEntity
  8
1
100
AcDbLine
 10
274.404842
 20
305.907994
 30
0.0
 11
274.404842
 21
288.907994
 31
0.0
  0
LINE
  5
B6
330
1F
100
AcDbEntity
  8
1
100
AcDbLine
 10
274.404842
 20
288.907994
 30
0.0
 11
274.404842
 21
271.907994
 31
0.0
  0
LINE
  5
B7
330
1F
100
AcDbEntity
  8
SK1
100
AcDbLine
 10
274.404842
 20
301.607994
 30
0.0
 11
219.004842
 21
301.607994
 31
0.0
  0
LINE
  5
B8
330
1F
100
AcDbEntity
  8
1
100
AcDbLine
 10
274.904842
 20
271.407994
 30
0.0
 11
274.404842
 21
271.907994
 31
0.0
  0
LINE
  5
B9
330
1F
100
AcDbEntity
  8
1
100
AcDbLine
 10
274.404842
 20
305.907994
 30
0.0
 11
274.904842
 21
306.407994
 31
0.0
  0
LINE
  5
BA
330
1F
100
AcDbEntity
  8
1
100
AcDbLine
 10
279.404842
 20
306.407994
 30
0.0
 11
274.904842
 21
306.407994
 31
0.0
  0
LINE
  5
BD
330
1F
100
AcDbEntity
  8
80
100
AcDbLine
 10
275.404416
 20
288.907994
 30
0.0
 11
273.405268
 21
288.907994
 31
0.0
  0
LINE
  5
BE
330
1F
100
AcDbEntity
  8
1
100
AcDbLine
 10
343.491392
 20
286.129994
 30
0.0
 11
343.589101
 21
286.129994
 31
0.0
  0
LINE
  5
BF
330
1F
100
AcDbEntity
  8
1
100
AcDbLine
 10
343.631263
 20
289.164197
 30
0.0
 11
343.739456
 21
289.162309
 31
0.0
  0
LINE
  5
C0
330
1F
100
AcDbEntity
  8
1
100
AcDbLine
 10
343.89548
 20
289.612348
 30
0.0
 11
343.937642
 21
289.611613
 31
0.0
  0
LINE
  5
C1
330
1F
100
AcDbEntity
  8
1
100
AcDbLine
 10
342.960322
 20
289.709209
 30
0.0
 11
343.733725
 21
290.051358
 31
0.0
  0
LINE
  5
C2
330
1F
100
AcDbEntity
  8
1
100
AcDbLine
 10
343.391613
 20
284.269306
 30
0.0
 11
343.589101
 21
286.129994
 31
0.0
  0
LINE
  5
C3
330
1F
100
AcDbEntity
  8
1
100
AcDbLine
 10
343.589101
 20
286.129994
 30
0.0
 11
343.589101
 21
288.864887
 31
0.0
  0
LINE
  5
C4
330
1F
100
AcDbEntity
  8
1
100
AcDbLine
 10
343.64299
 20
283.751098
 30
0.0
 11
343.509922
 21
283.967374
 31
0.0
  0
LINE
  5
C5
330
1F
100
AcDbEntity
  8
1
100
AcDbLine
 10
343.64299
 20
283.751098
 30
0.0
 11
343.617709
 21
283.512897
 31
0.0
  0
LINE
  5
C6
330
1F
100
AcDbEntity
  8
1
100
AcDbLine
 10
343.739456
 20
289.162309
 30
0.0
 11
343.89548
 21
289.373738
 31
0.0
  0
LINE
  5
C7
330
1F
100
AcDbEntity
  8
1
100
AcDbLine
 10
343.89548
 20
289.612348
 30
0.0
 11
343.89548
 21
289.373738
 31
0.0
  0
LINE
  5
C8
330
1F
100
AcDbEntity
  8
1
100
AcDbLine
 10
343.489531
 20
281.907994
 30
0.0
 11
343.659799
 21
283.512224
 31
0.0
  0
LINE
  5
C9
330
1F
100
AcDbEntity
  8
1
100
AcDbLine
 10
343.489531
 20
281.907994
 30
0.0
 11
334.799446
 21
281.907994
 31
0.0
  0
LINE
  5
CA
330
1F
100
AcDbEntity
  8
1
100
AcDbLine
 10
343.937642
 20
290.771908
 30
0.0
 11
343.937642
 21
289.611613
 31
0.0
  0
LINE
  5
CB
330
1F
100
AcDbEntity
  8
1
100
AcDbLine
 10
274.904842
 20
271.407994
 30
0.0
 11
274.904842
 21
288.907994
 31
0.0
  0
LINE
  5
CC
330
1F
100
AcDbEntity
  8
1
100
AcDbLine
 10
274.904842
 20
288.907994
 30
0.0
 11
274.904842
 21
306.407994
 31
0.0
  0
LINE
  5
CD
330
1F
100
AcDbEntity
  8
1
100
AcDbLine
 10
279.404842
 20
271.407994
 30
0.0
 11
279.404842
 21
274.6830930000001
 31
0.0
  0
LINE
  5
CE
330
1F
100
AcDbEntity
  8
1
100
AcDbLine
 10
279.404842
 20
306.407994
 30
0.0
 11
279.404842
 21
278.378904
 31
0.0
  0
LINE
  5
CF
330
1F
100
AcDbEntity
  8
1
100
AcDbLine
 10
279.404842
 20
271.407994
 30
0.0
 11
286.09723
 21
278.100382
 31
0.0
  0
LINE
  5
D0
330
1F
100
AcDbEntity
  8
1
100
AcDbLine
 10
286.09723
 20
299.715605
 30
0.0
 11
279.404842
 21
306.407994
 31
0.0
  0
LINE
  5
D1
330
1F
100
AcDbEntity
  8
1
100
AcDbLine
 10
343.034644
 20
286.129994
 30
0.0
 11
343.224113
 21
286.129994
 31
0.0
  0
LINE
  5
D2
330
1F
100
AcDbEntity
  8
1
100
AcDbLine
 10
340.029531
 20
290.396074
 30
0.0
 11
343.771823
 21
290.559236
 31
0.0
  0
LINE
  5
D3
330
1F
100
AcDbEntity
  8
1
100
AcDbLine
 10
343.773329
 20
290.369646
 30
0.0
 11
343.771823
 21
290.559236
 31
0.0
  0
LINE
  5
D4
330
1F
100
AcDbEntity
  8
1
100
AcDbLine
 10
343.813808
 20
290.57781
 30
0.0
 11
340.034762
 21
290.413046
 31
0.0
  0
LINE
  5
D5
330
1F
100
AcDbEntity
  8
1
100
AcDbLine
 10
340.029531
 20
290.396074
 30
0.0
 11
340.034762
 21
290.413046
 31
0.0
  0
LINE
  5
D6
330
1F
100
AcDbEntity
  8
1
100
AcDbLine
 10
338.567826
 20
292.046836
 30
0.0
 11
338.562595
 21
292.029864
 31
0.0
  0
LINE
  5
D7
330
1F
100
AcDbEntity
  8
1
100
AcDbLine
 10
338.567826
 20
292.046836
 30
0.0
 11
338.4044629999999
 21
295.823564
 31
0.0
  0
LINE
  5
D8
330
1F
100
AcDbEntity
  8
1
100
AcDbLine
 10
338.4008
 20
295.770341
 30
0.0
 11
338.562595
 21
292.029864
 31
0.0
  0
LINE
  5
D9
330
1F
100
AcDbEntity
  8
1
100
AcDbLine
 10
343.813808
 20
290.57781
 30
0.0
 11
343.812309
 21
290.766459
 31
0.0
  0
LINE
  5
DA
330
1F
100
AcDbEntity
  8
1
100
AcDbLine
 10
343.813808
 20
290.57781
 30
0.0
 11
343.771823
 21
290.559236
 31
0.0
  0
LINE
  5
DB
330
1F
100
AcDbEntity
  8
1
100
AcDbLine
 10
343.659799
 20
283.512224
 30
0.0
 11
343.617709
 21
283.512897
 31
0.0
  0
LINE
  5
DC
330
1F
100
AcDbEntity
  8
1
100
AcDbLine
 10
343.509922
 20
283.967374
 30
0.0
 11
343.401912
 21
283.969103
 31
0.0
  0
LINE
  5
DD
330
1F
100
AcDbEntity
  8
1
100
AcDbLine
 10
343.745411
 20
290.068611
 30
0.0
 11
341.754266
 21
289.981798
 31
0.0
  0
LINE
  5
DE
330
1F
100
AcDbEntity
  8
1
100
AcDbLine
 10
289.904842
 20
295.515008
 30
0.0
 11
289.904842
 21
286.804443
 31
0.0
  0
LINE
  5
DF
330
1F
100
AcDbEntity
  8
80
100
AcDbLine
 10
274.404842
 20
287.90842
 30
0.0
 11
274.404842
 21
289.907567
 31
0.0
  0
LINE
  5
E0
330
1F
100
AcDbEntity
  8
81
100
AcDbLine
 10
344.667642
 20
298.451794
 30
0.0
 11
344.667642
 21
294.451794
 31
0.0
  0
LINE
  5
E1
330
1F
100
AcDbEntity
  8
81
100
AcDbLine
 10
342.667642
 20
296.451794
 30
0.0
 11
346.667642
 21
296.451794
 31
0.0
  0
LINE
  5
E2
330
1F
100
AcDbEntity
  8
SK1
100
AcDbLine
 10
219.004842
 20
276.207994
 30
0.0
 11
274.404842
 21
276.207994
 31
0.0
  0
LINE
  5
E3
330
1F
100
AcDbEntity
  8
1
100
AcDbLine
 10
274.904842
 20
271.407994
 30
0.0
 11
279.404842
 21
271.407994
 31
0.0
  0
LINE
  5
116
330
1F
100
AcDbEntity
  8
NOCUT
100
AcDbLine
 10
274.404842
 20
301.607994
 30
0.0
 11
274.404842
 21
305.907994
 31
0.0
  0
LINE
  5
117
330
1F
100
AcDbEntity
  8
NOCUT
100
AcDbLine
 10
274.404842
 20
305.907994
 30
0.0
 11
274.904842
 21
306.407994
 31
0.0
  0
LINE
  5
118
330
1F
100
AcDbEntity
  8
NOCUT
100
AcDbLine
 10
279.404842
 20
306.407994
 30
0.0
 11
286.09723
 21
299.715605
 31
0.0
  0
LINE
  5
119
330
1F
100
AcDbEntity
  8
NOCUT
100
AcDbLine
 10
295.289618
 20
295.907994
 30
0.0
 11
343.721272
 21
295.907994
 31
0.0
  0
LINE
  5
11A
330
1F
100
AcDbEntity
  8
NOCUT
100
AcDbLine
 10
343.721272
 20
295.907994
 30
0.0
 11
343.937642
 21
290.993133
 31
0.0
  0
LINE
  5
11B
330
1F
100
AcDbEntity
  8
NOCUT
100
AcDbLine
 10
343.937642
 20
290.993133
 30
0.0
 11
343.937642
 21
288.907994
 31
0.0
  0
LINE
  5
11C
330
1F
100
AcDbEntity
  8
NOCUT
100
AcDbLine
 10
217.404842
 20
300.007994
 30
0.0
 11
219.004842
 21
301.607994
 31
0.0
  0
LINE
  5
11D
330
1F
100
AcDbEntity
  8
NOCUT
100
AcDbLine
 10
343.937642
 20
288.907994
 30
0.0
 11
217.404842
 21
288.907994
 31
0.0
  0
LINE
  5
11E
330
1F
100
AcDbEntity
  8
NOCUT
100
AcDbLine
 10
274.404842
 20
301.607994
 30
0.0
 11
219.004842
 21
301.607994
 31
0.0
  0
LINE
  5
11F
330
1F
100
AcDbEntity
  8
NOCUT
100
AcDbLine
 10
279.404842
 20
306.407994
 30
0.0
 11
274.904842
 21
306.407994
 31
0.0
  0
LINE
  5
120
330
1F
100
AcDbEntity
  8
NOCUT
100
AcDbLine
 10
217.404842
 20
300.007994
 30
0.0
 11
217.404842
 21
288.907994
 31
0.0
  0
ARC
  5
129
330
1F
100
AcDbEntity
  8
1
100
AcDbCircle
 10
295.289618
 20
268.907994
 30
0.0
 40
13.0
100
AcDbArc
 50
109.576708
 51
135.0
  0
ARC
  5
12A
330
1F
100
AcDbEntity
  8
1
100
AcDbCircle
 10
295.289618
 20
308.907994
 30
0.0
 40
13.0
100
AcDbArc
 50
225.0
 51
234.503377
  0
CIRCLE
  5
12B
330
1F
100
AcDbEntity
  8
1
100
AcDbCircle
 10
341.762953
 20
286.771133
 30
0.0
 40
0.7
  0
ARC
  5
12C
330
1F
100
AcDbEntity
  8
1
100
AcDbCircle
 10
341.762953
 20
286.771133
 30
0.0
 40
1.1
100
AcDbArc
 50
75.0
 51
345.0
  0
ARC
  5
13A
330
1F
100
AcDbEntity
  8
NOCUT
100
AcDbCircle
 10
295.289618
 20
308.907994
 30
0.0
 40
13.0
100
AcDbArc
 50
225.0
 51
270.0
  0
ELLIPSE
  5
13B
330
1F
100
AcDbEntity
  8
1
100
AcDbEllipse
 10
341.496789
 20
293.472515
 30
0.0
 11
1.530648770584677
 21
-0.4717564706416958
 31
0.0
210
0.0
220
0.0
230
1.0
 40
0.9982459999999997
 41
2.057817286929511
 42
3.287456170126513
  0
ELLIPSE
  5
13C
330
1F
100
AcDbEntity
  8
1
100
AcDbEllipse
 10
341.496789
 20
293.472515
 30
0.0
 11
1.530648770584677
 21
-0.4717564706416958
 31
0.0
210
0.0
220
0.0
230
1.0
 40
0.9982459999999997
 41
5.4964863972894
 42
6.283185307179585
  0
ELLIPSE
  5
13D
330
1F
100
AcDbEntity
  8
1
100
AcDbEllipse
 10
341.496789
 20
293.472515
 30
0.0
 11
1.530648770584677
 21
-0.4717564706416958
 31
0.0
210
0.0
220
0.0
230
1.0
 40
0.9982459999999997
 41
0.0
 42
1.083727041570857
  0
ELLIPSE
  5
13E
330
1F
100
AcDbEntity
  8
1
100
AcDbEllipse
 10
339.262849
 20
290.984808
 30
0.0
 11
0.7633832149012309
 21
0.8339145969099387
 31
0.0
210
0.0
220
0.0
230
1.0
 40
0.017942
 41
0.9105606122608184
 42
1.532929101064254
  0
ELLIPSE
  5
13F
330
1F
100
AcDbEntity
  8
1
100
AcDbEllipse
 10
341.487461
 20
293.442249
 30
0.0
 11
1.557443178832915
 21
-0.4800146914112412
 31
0.0
210
0.0
220
0.0
230
1.0
 40
0.9982459999999999
 41
1.913892982936071
 42
3.499415381311296
  0
ELLIPSE
  5
140
330
1F
100
AcDbEntity
  8
1
100
AcDbEllipse
 10
341.487461
 20
293.442249
 30
0.0
 11
1.557443178832915
 21
-0.4800146914112412
 31
0.0
210
0.0
220
0.0
230
1.0
 40
0.9982459999999999
 41
5.161416418428101
 42
6.283185307179585
  0
ELLIPSE
  5
141
330
1F
100
AcDbEntity
  8
1
100
AcDbEllipse
 10
341.487461
 20
293.442249
 30
0.0
 11
1.557443178832915
 21
-0.4800146914112412
 31
0.0
210
0.0
220
0.0
230
1.0
 40
0.9982459999999999
 41
0.0
 42
1.913893118417955
  0
ELLIPSE
  5
142
330
1F
100
AcDbEntity
  8
1
100
AcDbEllipse
 10
339.05623
 20
295.605725
 30
0.0
 11
0.8343780316309683
 21
-0.7638074529229734
 31
0.0
210
0.0
220
0.0
230
0.9999999999999998
 40
0.037843
 41
0.9663482755254237
 42
1.588716764016371
  0
ELLIPSE
  5
143
330
1F
100
AcDbEntity
  8
1
100
AcDbEllipse
 10
343.683653
 20
295.807478
 30
0.0
 11
0.7633832156663303
 21
0.8339145977447879
 31
0.0
210
0.0
220
0.0
230
1.0
 40
0.017942
 41
1.532929101133353
 42
2.155297589337385
  0
ELLIPSE
  5
144
330
1F
100
AcDbEntity
  8
1
100
AcDbEllipse
 10
343.8902720000001
 20
291.186562
 30
0.0
 11
0.8343780317258433
 21
-0.7638074530213443
 31
0.0
210
0.0
220
0.0
230
0.9999999999999998
 40
0.037843
 41
1.588716764218002
 42
2.21108525264273
  0
ELLIPSE
  5
145
330
1F
100
AcDbEntity
  8
1
100
AcDbEllipse
 10
341.484584
 20
293.432915
 30
0.0
 11
-1.6484801809041
 21
0.5080729211111201
 31
0.0
210
0.0
220
0.0
230
1.0
 40
0.9982459999999999
 41
0.0
 42
6.283185307179585
  0
ELLIPSE
  5
146
330
1F
100
AcDbEntity
  8
1
100
AcDbEllipse
 10
316.346712
 20
288.907913
 30
0.0
 11
156.8037506002741
 21
6.989503426004507
 31
0.0
210
0.0
220
0.0
230
1.0
 40
0.002486
 41
4.874397415921301
 42
4.882829359054361
  0
ELLIPSE
  5
147
330
1F
100
AcDbEntity
  8
1
100
AcDbEllipse
 10
297.626496
 20
273.725695
 30
0.0
 11
-19.41780513279756
 21
1.810165537945979
 31
0.0
210
0.0
220
0.0
230
0.9999999999999998
 40
0.659701
 41
6.142267097190323
 42
6.201995337708332
  0
ELLIPSE
  5
148
330
1F
100
AcDbEntity
  8
1
100
AcDbEllipse
 10
341.398295
 20
293.358459
 30
0.0
 11
-1.457352043987681
 21
0.4491659157649028
 31
0.0
210
0.0
220
0.0
230
1.0
 40
0.9982459999999999
 41
3.141666695640184
 42
6.283161002260186
  0
ELLIPSE
  5
149
330
1F
100
AcDbEntity
  8
1
100
AcDbEllipse
 10
341.385312
 20
293.316334
 30
0.0
 11
1.457352043987681
 21
-0.4491659157649035
 31
0.0
210
0.0
220
0.0
230
0.9999999999999998
 40
0.9982459999999999
 41
0.0
 42
6.283185307179585
  0
ELLIPSE
  5
14A
330
1F
100
AcDbEntity
  8
1
100
AcDbEllipse
 10
342.240216
 20
292.956727
 30
0.0
 11
-0.0804880251332459
 21
0.0248069625086336
 31
0.0
210
0.0
220
0.0
230
1.0
 40
0.9982459999999999
 41
0.5512659300219563
 42
1.39029412219948
  0
ELLIPSE
  5
14B
330
1F
100
AcDbEntity
  8
1
100
AcDbEllipse
 10
342.162594
 20
292.807551
 30
0.0
 11
-0.080488025133246
 21
0.0248069625086336
 31
0.0
210
0.0
220
0.0
230
1.0
 40
0.9982459999999999
 41
3.169259808013256
 42
4.531886775789264
  0
ELLIPSE
  5
14C
330
1F
100
AcDbEntity
  8
1
100
AcDbEllipse
 10
341.827581
 20
292.900756
 30
0.0
 11
-0.4128001152130107
 21
0.1272278325216228
 31
0.0
210
0.0
220
0.0
230
1.0
 40
0.9982459999999999
 41
2.22932231437715
 42
3.169259808013271
  0
ELLIPSE
  5
14D
330
1F
100
AcDbEntity
  8
1
100
AcDbEllipse
 10
341.950078
 20
292.575716
 30
0.0
 11
-0.0804880251332458
 21
0.0248069625086335
 31
0.0
210
0.0
220
0.0
230
1.0
 40
0.9982459999999999
 41
0.8666953466011699
 42
2.229322314377326
  0
ELLIPSE
  5
14E
330
1F
100
AcDbEntity
  8
1
100
AcDbEllipse
 10
341.808121
 20
292.485354
 30
0.0
 11
-0.0804880251332458
 21
0.0248069625086335
 31
0.0
210
0.0
220
0.0
230
1.0
 40
0.9982459999999999
 41
4.008288000191054
 42
4.847316192368698
  0
ELLIPSE
  5
14F
330
1F
100
AcDbEntity
  8
1
100
AcDbEllipse
 10
341.751511
 20
292.142862
 30
0.0
 11
-0.4128001152130106
 21
0.1272278325216227
 31
0.0
210
0.0
220
0.0
230
1.0
 40
0.9982459999999999
 41
4.84731619236867
 42
5.787253686004762
  0
ELLIPSE
  5
150
330
1F
100
AcDbEntity
  8
1
100
AcDbEllipse
 10
341.507886
 20
292.390798
 30
0.0
 11
-0.0804880251332459
 21
0.0248069625086336
 31
0.0
210
0.0
220
0.0
230
1.0
 40
0.9982459999999999
 41
5.787253686004815
 42
6.626281878182413
  0
ELLIPSE
  5
151
330
1F
100
AcDbEntity
  8
1
100
AcDbEllipse
 10
341.339631
 20
292.383462
 30
0.0
 11
-0.080488025133246
 21
0.0248069625086336
 31
0.0
210
0.0
220
0.0
230
1.0
 40
0.9982459999999999
 41
2.122062256816727
 42
3.484689224592671
  0
ELLIPSE
  5
152
330
1F
100
AcDbEntity
  8
1
100
AcDbEllipse
 10
341.252672
 20
292.719694
 30
0.0
 11
-0.4128001152130107
 21
0.1272278325216228
 31
0.0
210
0.0
220
0.0
230
1.0
 40
0.9982459999999999
 41
1.182124763180594
 42
2.122062256816663
  0
ELLIPSE
  5
153
330
1F
100
AcDbEntity
  8
1
100
AcDbEllipse
 10
341.032124
 20
292.451521
 30
0.0
 11
-0.0804880251332458
 21
0.0248069625086335
 31
0.0
210
0.0
220
0.0
230
1.0
 40
0.9982459999999999
 41
6.102683102584046
 42
7.465310070360128
  0
ELLIPSE
  5
154
330
1F
100
AcDbEntity
  8
1
100
AcDbEllipse
 10
340.882655
 20
292.529177
 30
0.0
 11
-0.0804880251332458
 21
0.0248069625086335
 31
0.0
210
0.0
220
0.0
230
1.0
 40
0.9982459999999999
 41
2.961090448994549
 42
3.800118641172207
  0
ELLIPSE
  5
155
330
1F
100
AcDbEntity
  8
1
100
AcDbEllipse
 10
340.557264
 20
292.407179
 30
0.0
 11
-0.4128001152130106
 21
0.1272278325216227
 31
0.0
210
0.0
220
0.0
230
1.0
 40
0.9982459999999999
 41
3.800118641172078
 42
4.740056134808173
  0
ELLIPSE
  5
156
330
1F
100
AcDbEntity
  8
1
100
AcDbEllipse
 10
340.650273
 20
292.7416149999999
 30
0.0
 11
-0.0804880251332459
 21
0.0248069625086336
 31
0.0
210
0.0
220
0.0
230
1.0
 40
0.9982459999999999
 41
4.740056134808318
 42
5.579084326986004
  0
ELLIPSE
  5
157
330
1F
100
AcDbEntity
  8
1
100
AcDbEllipse
 10
340.559639
 20
292.883455
 30
0.0
 11
-0.080488025133246
 21
0.0248069625086336
 31
0.0
210
0.0
220
0.0
230
1.0
 40
0.9982459999999999
 41
1.074864705620024
 42
2.437491673395855
  0
ELLIPSE
  5
158
330
1F
100
AcDbEntity
  8
1
100
AcDbEllipse
 10
340.807694
 20
293.126482
 30
0.0
 11
-0.4128001152130107
 21
0.1272278325216228
 31
0.0
210
0.0
220
0.0
230
1.0
 40
0.9982459999999999
 41
0.1349272119839976
 42
1.07486470562011
  0
ELLIPSE
  5
159
330
1F
100
AcDbEntity
  8
1
100
AcDbEllipse
 10
340.464649
 20
293.183349
 30
0.0
 11
-0.0804880251332458
 21
0.0248069625086335
 31
0.0
210
0.0
220
0.0
230
1.0
 40
0.9982459999999999
 41
5.055485551387856
 42
6.418112519163563
  0
ELLIPSE
  5
15A
330
1F
100
AcDbEntity
  8
1
100
AcDbEllipse
 10
340.457137
 20
293.351367
 30
0.0
 11
-0.0804880251332458
 21
0.0248069625086335
 31
0.0
210
0.0
220
0.0
230
1.0
 40
0.9982459999999999
 41
1.91389289779776
 42
2.752921089975556
  0
ELLIPSE
  5
15B
330
1F
100
AcDbEntity
  8
1
100
AcDbEllipse
 10
340.188356
 20
293.571861
 30
0.0
 11
-0.4128001152130106
 21
0.1272278325216227
 31
0.0
210
0.0
220
0.0
230
1.0
 40
0.9982459999999999
 41
2.752921089975488
 42
3.692858583611591
  0
ELLIPSE
  5
15C
330
1F
100
AcDbEntity
  8
1
100
AcDbEllipse
 10
340.52499
 20
293.658361
 30
0.0
 11
-0.0804880251332459
 21
0.0248069625086336
 31
0.0
210
0.0
220
0.0
230
1.0
 40
0.9982459999999999
 41
3.692858583611545
 42
4.531886775789415
  0
ELLIPSE
  5
15D
330
1F
100
AcDbEntity
  8
1
100
AcDbEllipse
 10
340.602612
 20
293.807537
 30
0.0
 11
-0.080488025133246
 21
0.0248069625086336
 31
0.0
210
0.0
220
0.0
230
1.0
 40
0.9982459999999999
 41
0.0276671544233788
 42
1.390294122199448
  0
ELLIPSE
  5
15E
330
1F
100
AcDbEntity
  8
1
100
AcDbEllipse
 10
340.937625
 20
293.714332
 30
0.0
 11
-0.4128001152130107
 21
0.1272278325216228
 31
0.0
210
0.0
220
0.0
230
1.0
 40
0.9982459999999999
 41
5.370914967967002
 42
6.310852461603088
  0
ELLIPSE
  5
15F
330
1F
100
AcDbEntity
  8
1
100
AcDbEllipse
 10
340.815128
 20
294.039372
 30
0.0
 11
-0.0804880251332458
 21
0.0248069625086335
 31
0.0
210
0.0
220
0.0
230
1.0
 40
0.9982459999999999
 41
4.008288000190991
 42
5.370914967966974
  0
ELLIPSE
  5
160
330
1F
100
AcDbEntity
  8
1
100
AcDbEllipse
 10
340.957085
 20
294.129734
 30
0.0
 11
-0.0804880251332458
 21
0.0248069625086335
 31
0.0
210
0.0
220
0.0
230
1.0
 40
0.9982459999999999
 41
0.8666953466012712
 42
1.705723538779084
  0
ELLIPSE
  5
161
330
1F
100
AcDbEntity
  8
1
100
AcDbEllipse
 10
341.013695
 20
294.472226
 30
0.0
 11
-0.4128001152130106
 21
0.1272278325216227
 31
0.0
210
0.0
220
0.0
230
1.0
 40
0.9982459999999999
 41
1.705723538778896
 42
2.645661032414976
  0
ELLIPSE
  5
162
330
1F
100
AcDbEntity
  8
1
100
AcDbEllipse
 10
341.25732
 20
294.22429
 30
0.0
 11
-0.0804880251332459
 21
0.0248069625086336
 31
0.0
210
0.0
220
0.0
230
1.0
 40
0.9982459999999999
 41
2.645661032415016
 42
3.484689224592767
  0
ELLIPSE
  5
163
330
1F
100
AcDbEntity
  8
1
100
AcDbEllipse
 10
341.425575
 20
294.231626
 30
0.0
 11
-0.080488025133246
 21
0.0248069625086336
 31
0.0
210
0.0
220
0.0
230
1.0
 40
0.9982459999999999
 41
5.263654910406471
 42
6.626281878182532
  0
ELLIPSE
  5
164
330
1F
100
AcDbEntity
  8
1
100
AcDbEllipse
 10
341.5125339999999
 20
293.895394
 30
0.0
 11
-0.4128001152130107
 21
0.1272278325216228
 31
0.0
210
0.0
220
0.0
230
1.0
 40
0.9982459999999999
 41
4.323717416770408
 42
5.263654910406523
  0
ELLIPSE
  5
165
330
1F
100
AcDbEntity
  8
1
100
AcDbEllipse
 10
341.733082
 20
294.163567
 30
0.0
 11
-0.0804880251332458
 21
0.0248069625086335
 31
0.0
210
0.0
220
0.0
230
1.0
 40
0.9982459999999999
 41
2.961090448994383
 42
4.323717416770271
  0
ELLIPSE
  5
166
330
1F
100
AcDbEntity
  8
1
100
AcDbEllipse
 10
341.882551
 20
294.085911
 30
0.0
 11
-0.0804880251332458
 21
0.0248069625086335
 31
0.0
210
0.0
220
0.0
230
1.0
 40
0.9982459999999999
 41
6.102683102584172
 42
6.941711294761915
  0
ELLIPSE
  5
167
330
1F
100
AcDbEntity
  8
1
100
AcDbEllipse
 10
342.207942
 20
294.207909
 30
0.0
 11
-0.4128001152130106
 21
0.1272278325216227
 31
0.0
210
0.0
220
0.0
230
1.0
 40
0.9982459999999999
 41
0.6585259875823045
 42
1.598463481218414
  0
ELLIPSE
  5
168
330
1F
100
AcDbEntity
  8
1
100
AcDbEllipse
 10
342.114933
 20
293.873473
 30
0.0
 11
-0.0804880251332459
 21
0.0248069625086336
 31
0.0
210
0.0
220
0.0
230
1.0
 40
0.9982459999999999
 41
1.598463481218353
 42
2.43749167339617
  0
ELLIPSE
  5
169
330
1F
100
AcDbEntity
  8
1
100
AcDbEllipse
 10
342.205567
 20
293.731633
 30
0.0
 11
-0.080488025133246
 21
0.0248069625086336
 31
0.0
210
0.0
220
0.0
230
1.0
 40
0.9982459999999999
 41
4.216457359209944
 42
5.579084326985931
  0
ELLIPSE
  5
16A
330
1F
100
AcDbEntity
  8
1
100
AcDbEllipse
 10
341.957512
 20
293.488606
 30
0.0
 11
-0.4128001152130107
 21
0.1272278325216228
 31
0.0
210
0.0
220
0.0
230
1.0
 40
0.9982459999999999
 41
3.276519865573779
 42
4.216457359209882
  0
ELLIPSE
  5
16B
330
1F
100
AcDbEntity
  8
1
100
AcDbEllipse
 10
342.300557
 20
293.431739
 30
0.0
 11
-0.0804880251332458
 21
0.0248069625086335
 31
0.0
210
0.0
220
0.0
230
1.0
 40
0.9982459999999999
 41
1.913892897797811
 42
3.276519865573834
  0
ELLIPSE
  5
16C
330
1F
100
AcDbEntity
  8
1
100
AcDbEllipse
 10
342.30807
 20
293.263721
 30
0.0
 11
-0.0804880251332458
 21
0.0248069625086335
 31
0.0
210
0.0
220
0.0
230
1.0
 40
0.9982459999999999
 41
5.055485551387524
 42
5.894513743565317
  0
ELLIPSE
  5
16D
330
1F
100
AcDbEntity
  8
1
100
AcDbEllipse
 10
342.57685
 20
293.043227
 30
0.0
 11
-0.4128001152130106
 21
0.1272278325216227
 31
0.0
210
0.0
220
0.0
230
1.0
 40
0.9982459999999999
 41
5.89451374356529
 42
6.834451237201401
  0
ELLIPSE
  5
16E
330
1F
100
AcDbEntity
  8
1
100
AcDbEllipse
 10
341.382603
 20
293.307544
 30
0.0
 11
1.098986787269399
 21
-0.3387152807407467
 31
0.0
210
0.0
220
0.0
230
0.9999999999999998
 40
0.9982459999999999
 41
0.0
 42
6.283185307179585
  0
ELLIPSE
  5
16F
330
1F
100
AcDbEntity
  8
1
100
AcDbEllipse
 10
343.731344
 20
290.351072
 30
0.0
 11
0.0002246563697825
 21
0.3002890065805328
 31
0.0
210
0.0
220
0.0
230
0.9999999999999998
 40
0.140039
 41
3.203590848633096
 42
4.774387175432532
  0
ELLIPSE
  5
170
330
1F
100
AcDbEntity
  8
1
100
AcDbEllipse
 10
320.567045
 20
288.907993
 30
0.0
 11
100.1043682868367
 21
-5.261983590078374
 31
0.0
210
0.0
220
0.0
230
1.0
 40
0.046116
 41
4.459539653167523
 42
4.486448269506746
  0
ELLIPSE
  5
171
330
1F
100
AcDbEntity
  8
1
100
AcDbEllipse
 10
344.232491
 20
288.907994
 30
0.0
 11
0.7576713859410943
 21
6.999208336472191
 31
0.0
210
0.0
220
0.0
230
1.0
 40
0.138944
 41
1.993926332138574
 42
3.156632395651116
  0
ELLIPSE
  5
172
330
1F
100
AcDbEntity
  8
1
100
AcDbEllipse
 10
343.937642
 20
288.907994
 30
0.0
 11
0.0
 21
7.000000000158047
 31
0.0
210
0.0
220
0.0
230
1.0
 40
0.140541
 41
1.456085602687611
 42
1.978886590068329
  0
ELLIPSE
  5
173
330
1F
100
AcDbEntity
  8
1
100
AcDbEllipse
 10
341.189149
 20
302.582734
 30
0.0
 11
-12.0888546599634
 21
3.725868088148212
 31
0.0
210
0.0
220
0.0
230
0.9999999999999998
 40
0.9982459999999999
 41
1.446897304019834
 42
1.913892897797799
  0
ELLIPSE
  5
174
330
1F
100
AcDbEntity
  8
1
100
AcDbEllipse
 10
297.904842
 20
283.961429
 30
0.0
 11
-0.4193610688767413
 21
-3.977956296128772
 31
0.0
210
0.0
220
0.0
230
1.0
 40
0.092037
 41
4.298067943637831
 42
5.215431479901337
  0
ELLIPSE
  5
175
330
1F
100
AcDbEntity
  8
1
100
AcDbEllipse
 10
343.433703
 20
284.268632
 30
0.0
 11
0.0323262014611191
 21
0.2994966855051334
 31
0.0
210
0.0
220
0.0
230
0.9999999999999998
 40
0.139171
 41
1.583568179246971
 42
3.154364506043109
  0
ELLIPSE
  5
176
330
1F
100
AcDbEntity
  8
1
100
AcDbEllipse
 10
343.631263
 20
288.864151
 30
0.0
 11
0.0001054973289096
 21
-0.3000466005961885
 31
0.0
210
0.0
220
0.0
230
0.9999999999999998
 40
0.140519
 41
3.139090475968276
 42
4.709886802775486
  0
ELLIPSE
  5
177
330
1F
100
AcDbEntity
  8
1
100
AcDbEllipse
 10
339.340625
 20
291.252855
 30
0.0
 11
1.051204753040295
 21
-0.3239885294041925
 31
0.0
210
0.0
220
0.0
230
0.9999999999999998
 40
0.9982459999999999
 41
2.655094477394286
 42
4.106715103339377
  0
ELLIPSE
  5
178
330
1F
100
AcDbEntity
  8
1
100
AcDbEllipse
 10
339.345855
 20
291.269827
 30
0.0
 11
-1.051204753040295
 21
0.3239885294041924
 31
0.0
210
0.0
220
0.0
230
1.0
 40
0.9982459999999999
 41
2.546164416123326
 42
2.79664757374189
  0
ELLIPSE
  5
179
330
1F
100
AcDbEntity
  8
1
100
AcDbEllipse
 10
339.385609
 20
291.398811
 30
0.0
 11
-1.051204753040295
 21
0.3239885294041922
 31
0.0
210
0.0
220
0.0
230
1.0
 40
0.9982459999999999
 41
0.0695815624906754
 42
1.913892576062008
  0
ELLIPSE
  5
17A
330
1F
100
AcDbEntity
  8
1
100
AcDbEllipse
 10
339.385609
 20
291.398811
 30
0.0
 11
-1.051204753040295
 21
0.3239885294041922
 31
0.0
210
0.0
220
0.0
230
1.0
 40
0.9982459999999999
 41
1.913892576062008
 42
2.635477434917115
  0
ELLIPSE
  5
17B
330
1F
100
AcDbEntity
  8
1
100
AcDbEllipse
 10
339.345855
 20
291.269827
 30
0.0
 11
-1.051204753040295
 21
0.3239885294041924
 31
0.0
210
0.0
220
0.0
230
1.0
 40
0.9982459999999999
 41
5.570026078279799
 42
5.796687130984079
  0
ELLIPSE
  5
17C
330
1F
100
AcDbEntity
  8
1
100
AcDbEllipse
 10
339.340625
 20
291.252855
 30
0.0
 11
1.051204753040295
 21
-0.3239885294041925
 31
0.0
210
0.0
220
0.0
230
0.9999999999999998
 40
0.9982459999999999
 41
5.591643853407318
 42
5.687757069713101
  0
ELLIPSE
  5
17D
330
1F
100
AcDbEntity
  8
1
100
AcDbEllipse
 10
338.717441
 20
288.907998
 30
0.0
 11
0.2951308252961464
 21
-6.999993083796094
 31
0.0
210
0.0
220
0.0
230
0.9999999999999998
 40
0.01982
 41
3.296228932880231
 42
3.33939957634231
  0
ELLIPSE
  5
17E
330
1F
100
AcDbEntity
  8
1
100
AcDbEllipse
 10
281.5820490000001
 20
288.908335
 30
0.0
 11
401.4005254801218
 21
-0.3962221978786141
 31
0.0
210
0.0
220
0.0
230
1.0
 40
0.01741
 41
1.428785231080279
 42
1.431803277978274
  0
ELLIPSE
  5
17F
330
1F
100
AcDbEntity
  8
1
100
AcDbEllipse
 10
341.1943799999999
 20
302.599706
 30
0.0
 11
12.08885465996339
 21
-3.725868088148214
 31
0.0
210
0.0
220
0.0
230
1.0
 40
0.9982459999999999
 41
4.694965631050802
 42
5.05514520873938
  0
SPLINE
  5
189
330
1F
100
AcDbEntity
  8
1
100
AcDbSpline
210
0.0
220
0.0
230
1.0
 70
     8
 71
     3
 72
    29
 73
    25
 74
     0
 42
0.000000001
 43
0.0000000001
 40
0.0
 40
0.0
 40
0.0
 40
0.0
 40
0.1249999999999781
 40
0.1249999999999781
 40
0.1874999999999672
 40
0.1874999999999672
 40
0.2499999999999563
 40
0.2499999999999563
 40
0.3749999999999344
 40
0.3749999999999344
 40
0.4374999999999237
 40
0.4374999999999237
 40
0.4999999999999126
 40
0.4999999999999126
 40
0.6249999999998909
 40
0.6249999999998909
 40
0.687499999999909
 40
0.687499999999909
 40
0.7499999999999272
 40
0.8124999999999452
 40
0.8124999999999452
 40
0.8749999999999634
 40
0.8749999999999634
 40
1.0
 40
1.0
 40
1.0
 40
1.0
 10
344.1553702678368
 20
295.9473765091887
 30
0.0
 10
344.1542325035953
 20
295.9728219617905
 30
0.0
 10
344.1505276565666
 20
295.997714049067
 30
0.0
 10
344.1413544608045
 20
296.0342727241555
 30
0.0
 10
344.1376890866421
 20
296.0463279646494
 30
0.0
 10
344.1291250954161
 20
296.0701726054147
 30
0.0
 10
344.1242133676919
 20
296.0819703743151
 30
0.0
 10
344.1079517540608
 20
296.1162021442941
 30
0.0
 10
344.0950060301203
 20
296.1377514271019
 30
0.0
 10
344.0724766746879
 20
296.1681954271524
 30
0.0
 10
344.0643996430516
 20
296.1780756625319
 30
0.0
 10
344.0473972252142
 20
296.1969263383793
 30
0.0
 10
344.038499471165
 20
296.2058775521771
 30
0.0
 10
344.0106496271252
 20
296.2313483411877
 30
0.0
 10
343.990552454131
 20
296.2464988125169
 30
0.0
 10
343.9580329469108
 20
296.2663863783244
 30
0.0
 10
343.9468423112021
 20
296.2725017699636
 30
0.0
 10
343.9241360294577
 20
296.2835210567943
 30
0.0
 10
343.9010008030085
 20
296.2933942265417
 30
0.0
 10
343.8770133485968
 20
296.3009902892035
 30
0.0
 10
343.8525896566355
 20
296.3074207486942
 30
0.0
 10
343.8401000076924
 20
296.3100614716185
 30
0.0
 10
343.8024276439519
 20
296.3160683070352
 30
0.0
 10
343.777133649783
 20
296.317553920474
 30
0.0
 10
343.7516550589399
 20
296.3164430653553
 30
0.0
  0
SPLINE
  5
18A
330
1F
100
AcDbEntity
  8
1
100
AcDbSpline
210
0.0
220
0.0
230
1.0
 70
     8
 71
     3
 72
    29
 73
    25
 74
     0
 42
0.000000001
 43
0.0000000001
 40
0.0
 40
0.0
 40
0.0
 40
0.0
 40
0.1249999999999249
 40
0.1249999999999249
 40
0.1874999999999208
 40
0.1874999999999208
 40
0.2499999999999167
 40
0.2499999999999167
 40
0.3749999999999085
 40
0.3749999999999085
 40
0.4374999999999031
 40
0.4374999999999031
 40
0.4999999999998977
 40
0.4999999999998977
 40
0.6249999999998901
 40
0.6249999999998901
 40
0.687499999999906
 40
0.687499999999906
 40
0.7499999999999219
 40
0.8124999999999376
 40
0.8124999999999376
 40
0.8749999999999534
 40
0.8749999999999534
 40
1.0
 40
1.0
 40
1.0
 40
1.0
 10
338.9749479111626
 20
296.1081807788587
 30
0.0
 10
338.9494666291308
 20
296.1070698064054
 30
0.0
 10
338.9245420526251
 20
296.1033949245663
 30
0.0
 10
338.8879393486117
 20
296.0942711465584
 30
0.0
 10
338.8758702224528
 20
296.090622996142
 30
0.0
 10
338.8519994150114
 20
296.08209497693
 30
0.0
 10
338.8401893659011
 20
296.0772020247429
 30
0.0
 10
338.8059239504412
 20
296.0609978020811
 30
0.0
 10
338.7843561640787
 20
296.0480921320433
 30
0.0
 10
338.7538902126419
 20
296.0256255079828
 30
0.0
 10
338.7440036095033
 20
296.01756994427
 30
0.0
 10
338.7251423576744
 20
296.0006107927262
 30
0.0
 10
338.7161869362732
 20
295.991734778005
 30
0.0
 10
338.6907066755596
 20
295.9639504616422
 30
0.0
 10
338.6755540599092
 20
295.9438973836112
 30
0.0
 10
338.6556697448958
 20
295.9114446544439
 30
0.0
 10
338.6495565296562
 20
295.9002762787729
 30
0.0
 10
338.638543676191
 20
295.8776137910111
 30
0.0
 10
338.628678979447
 20
295.8545218658816
 30
0.0
 10
338.6210956362177
 20
295.8305766613786
 30
0.0
 10
338.6146799713025
 20
295.8061947179773
 30
0.0
 10
338.6120477545053
 20
295.7937257782264
 30
0.0
 10
338.6060694200498
 20
295.7561139442881
 30
0.0
 10
338.6046066423941
 20
295.730858073851
 30
0.0
 10
338.6057442864713
 20
295.7054153086537
 30
0.0
  0
SPLINE
  5
18B
330
1F
100
AcDbEntity
  8
1
100
AcDbSpline
210
0.0
220
0.0
230
1.0
 70
     8
 71
     3
 72
    29
 73
    25
 74
     0
 42
0.000000001
 43
0.0000000001
 40
0.0
 40
0.0
 40
0.0
 40
0.0
 40
0.1249999999999627
 40
0.1249999999999627
 40
0.187499999999943
 40
0.187499999999943
 40
0.2499999999999233
 40
0.2499999999999233
 40
0.3749999999999133
 40
0.3749999999999133
 40
0.4374999999999293
 40
0.4374999999999293
 40
0.4999999999999451
 40
0.4999999999999451
 40
0.6249999999999761
 40
0.6249999999999761
 40
0.6874999999999912
 40
0.6874999999999912
 40
0.7500000000000064
 40
0.8125000000000216
 40
0.8125000000000216
 40
0.8750000000000369
 40
0.8750000000000369
 40
1.0
 40
1.0
 40
1.0
 40
1.0
 10
338.8190289468974
 20
290.9354247261547
 30
0.0
 10
338.820166711139
 20
290.9099792735528
 30
0.0
 10
338.8238715581678
 20
290.8850871862764
 30
0.0
 10
338.83304475393
 20
290.848528511188
 30
0.0
 10
338.8367101280922
 20
290.8364732706941
 30
0.0
 10
338.8452741193182
 20
290.8126286299287
 30
0.0
 10
338.8501858470424
 20
290.8008308610284
 30
0.0
 10
338.8664474606736
 20
290.7665990910493
 30
0.0
 10
338.8793931846141
 20
290.7450498082415
 30
0.0
 10
338.9019225400464
 20
290.7146058081909
 30
0.0
 10
338.9099995716827
 20
290.7047255728116
 30
0.0
 10
338.9270019895201
 20
290.685874896964
 30
0.0
 10
338.9358997435694
 20
290.6769236831663
 30
0.0
 10
338.9637495876091
 20
290.6514528941557
 30
0.0
 10
338.9838467606033
 20
290.6363024228265
 30
0.0
 10
339.0163662678235
 20
290.616414857019
 30
0.0
 10
339.0275569035321
 20
290.6102994653799
 30
0.0
 10
339.0502631852765
 20
290.599280178549
 30
0.0
 10
339.0733984117259
 20
290.5894070088017
 30
0.0
 10
339.0973858661376
 20
290.5818109461399
 30
0.0
 10
339.1218095580989
 20
290.5753804866492
 30
0.0
 10
339.1342992070419
 20
290.5727397637249
 30
0.0
 10
339.1719715707824
 20
290.5667329283082
 30
0.0
 10
339.1972655649514
 20
290.5652473148694
 30
0.0
 10
339.2227441557944
 20
290.5663581699881
 30
0.0
  0
SPLINE
  5
18C
330
1F
100
AcDbEntity
  8
1
100
AcDbSpline
210
0.0
220
0.0
230
1.0
 70
     8
 71
     3
 72
    29
 73
    25
 74
     0
 42
0.000000001
 43
0.0000000001
 40
0.0
 40
0.0
 40
0.0
 40
0.0
 40
0.1250000000000268
 40
0.1250000000000268
 40
0.1875000000000069
 40
0.1875000000000069
 40
0.249999999999987
 40
0.249999999999987
 40
0.3750000000000095
 40
0.3750000000000095
 40
0.437500000000021
 40
0.437500000000021
 40
0.5000000000000322
 40
0.5000000000000322
 40
0.6250000000000549
 40
0.6250000000000549
 40
0.6875000000000476
 40
0.6875000000000476
 40
0.7500000000000401
 40
0.8125000000000326
 40
0.8125000000000326
 40
0.8750000000000254
 40
0.8750000000000254
 40
1.0
 40
1.0
 40
1.0
 40
1.0
 10
343.9994513035717
 20
290.7746204564847
 30
0.0
 10
344.0249325856035
 20
290.7757314289381
 30
0.0
 10
344.0498571621092
 20
290.7794063107772
 30
0.0
 10
344.0864598661226
 20
290.7885300887851
 30
0.0
 10
344.0985289922813
 20
290.7921782392015
 30
0.0
 10
344.1223997997229
 20
290.8007062584134
 30
0.0
 10
344.1342098488332
 20
290.8055992106006
 30
0.0
 10
344.1684752642931
 20
290.8218034332623
 30
0.0
 10
344.1900430506556
 20
290.8347091033002
 30
0.0
 10
344.2205090020924
 20
290.8571757273606
 30
0.0
 10
344.2303956052309
 20
290.8652312910735
 30
0.0
 10
344.2492568570598
 20
290.8821904426172
 30
0.0
 10
344.2582122784612
 20
290.8910664573385
 30
0.0
 10
344.2836925391748
 20
290.9188507737013
 30
0.0
 10
344.298845154825
 20
290.9389038517323
 30
0.0
 10
344.3187294698384
 20
290.9713565808995
 30
0.0
 10
344.3248426850782
 20
290.9825249565706
 30
0.0
 10
344.3358555385434
 20
291.0051874443324
 30
0.0
 10
344.3457201866082
 20
291.0282793876689
 30
0.0
 10
344.3533035785166
 20
291.0522245739648
 30
0.0
 10
344.3597192434319
 20
291.076606517366
 30
0.0
 10
344.362351460229
 20
291.089075457117
 30
0.0
 10
344.3683297946844
 20
291.1266872910553
 30
0.0
 10
344.3697925723402
 20
291.1519431614925
 30
0.0
 10
344.3686549282628
 20
291.1773859266897
 30
0.0
  0
SPLINE
  5
18D
330
1F
100
AcDbEntity
  8
1
100
AcDbSpline
210
0.0
220
0.0
230
1.0
 70
     8
 71
     3
 72
    10
 73
     6
 74
     0
 42
0.000000001
 43
0.0000000001
 40
0.0
 40
0.0
 40
0.0
 40
0.0
 40
0.4412625248615587
 40
0.4412625248615587
 40
1.0
 40
1.0
 40
1.0
 40
1.0
 10
314.4218087058307
 20
283.3487056197107
 30
0.0
 10
314.2774601794946
 20
283.3202010447441
 30
0.0
 10
314.1326826041257
 20
283.2928720833958
 30
0.0
 10
313.80308143805
 20
283.2344268115141
 30
0.0
 10
313.6178633902647
 20
283.2042304599825
 30
0.0
 10
313.4308919003578
 20
283.1775287773427
 30
0.0
  0
SPLINE
  5
18E
330
1F
100
AcDbEntity
  8
1
100
AcDbSpline
210
0.0
220
0.0
230
1.0
 70
     8
 71
     3
 72
     8
 73
     4
 74
     0
 42
0.000000001
 43
0.0000000001
 40
0.0
 40
0.0
 40
0.0
 40
0.0
 40
1.0
 40
1.0
 40
1.0
 40
1.0
 10
313.4308919003592
 20
283.17752877734
 30
0.0
 10
313.6164135079359
 20
283.262217170897
 30
0.0
 10
313.8035224660496
 20
283.344389324377
 30
0.0
 10
313.9919907161058
 20
283.4241500599789
 30
0.0
  0
SPLINE
  5
18F
330
1F
100
AcDbEntity
  8
1
100
AcDbSpline
210
0.0
220
0.0
230
1.0
 70
     8
 71
     3
 72
   103
 73
    99
 74
     0
 42
0.000000001
 43
0.0000000001
 40
0.0
 40
0.0
 40
0.0
 40
0.0
 40
0.0156249999999998
 40
0.0156249999999998
 40
0.0312499999999996
 40
0.0312499999999996
 40
0.0468749999999995
 40
0.0468749999999995
 40
0.0624999999999993
 40
0.0624999999999993
 40
0.0937499999999977
 40
0.0937499999999977
 40
0.1093749999999969
 40
0.1093749999999969
 40
0.1249999999999961
 40
0.1249999999999961
 40
0.1406249999999953
 40
0.1406249999999953
 40
0.1562499999999945
 40
0.1718749999999938
 40
0.1718749999999938
 40
0.187499999999993
 40
0.187499999999993
 40
0.2031249999999922
 40
0.2031249999999922
 40
0.2187499999999914
 40
0.2187499999999914
 40
0.2499999999999898
 40
0.2499999999999898
 40
0.2656249999999891
 40
0.2656249999999891
 40
0.2812499999999883
 40
0.2812499999999883
 40
0.3124999999999861
 40
0.3124999999999861
 40
0.3281249999999848
 40
0.3281249999999848
 40
0.3437499999999836
 40
0.3437499999999836
 40
0.3593749999999823
 40
0.3593749999999823
 40
0.3749999999999811
 40
0.3749999999999811
 40
0.4062499999999789
 40
0.4062499999999789
 40
0.4218749999999785
 40
0.4218749999999785
 40
0.4374999999999779
 40
0.4374999999999779
 40
0.4687499999999766
 40
0.4687499999999766
 40
0.4843749999999753
 40
0.4843749999999753
 40
0.4999999999999741
 40
0.4999999999999741
 40
0.5312499999999711
 40
0.5312499999999711
 40
0.5468749999999695
 40
0.5468749999999695
 40
0.5624999999999682
 40
0.5624999999999682
 40
0.5937499999999658
 40
0.5937499999999658
 40
0.6093749999999654
 40
0.6093749999999654
 40
0.624999999999965
 40
0.624999999999965
 40
0.6562499999999658
 40
0.6562499999999658
 40
0.6874999999999668
 40
0.6874999999999668
 40
0.703124999999968
 40
0.703124999999968
 40
0.7187499999999693
 40
0.7187499999999693
 40
0.749999999999972
 40
0.749999999999972
 40
0.7656249999999732
 40
0.7656249999999732
 40
0.7812499999999744
 40
0.7812499999999744
 40
0.8124999999999781
 40
0.8124999999999781
 40
0.8437499999999818
 40
0.8437499999999818
 40
0.8593749999999836
 40
0.8593749999999836
 40
0.8749999999999852
 40
0.8749999999999852
 40
0.9062499999999889
 40
0.9062499999999889
 40
0.9218749999999907
 40
0.9218749999999907
 40
0.9374999999999927
 40
0.9374999999999927
 40
0.9687499999999964
 40
0.9687499999999964
 40
1.0
 40
1.0
 40
1.0
 40
1.0
 10
343.2241129309846
 20
286.129993513701
 30
0.0
 10
343.2202775804549
 20
286.1094431806061
 30
0.0
 10
343.2164971868943
 20
286.0884961484242
 30
0.0
 10
343.2090471460821
 20
286.0458026775364
 30
0.0
 10
343.2053755969957
 20
286.0240415185355
 30
0.0
 10
343.1981978684527
 20
285.9800362028591
 30
0.0
 10
343.1946848340193
 20
285.9577539831538
 30
0.0
 10
343.1878104650678
 20
285.9126302716602
 30
0.0
 10
343.1844452536441
 20
285.8897613484209
 30
0.0
 10
343.1746063404145
 20
285.8204891919003
 30
0.0
 10
343.1684260218935
 20
285.7736978212116
 30
0.0
 10
343.1597233380832
 20
285.7025968981261
 30
0.0
 10
343.1569177771283
 20
285.6787423118567
 30
0.0
 10
343.1515387615181
 20
285.6310830691124
 30
0.0
 10
343.1489597210509
 20
285.6072339380432
 30
0.0
 10
343.1440222624706
 20
285.5594967116695
 30
0.0
 10
343.1416604060569
 20
285.5355715382732
 30
0.0
 10
343.1371765540754
 20
285.4878609328157
 30
0.0
 10
343.1329400727924
 20
285.4403784822265
 30
0.0
 10
343.1291940266868
 20
285.3933483696632
 30
0.0
 10
343.1256942640901
 20
285.3465454092316
 30
0.0
 10
343.124069401528
 20
285.3232758788374
 30
0.0
 10
343.1210893043826
 20
285.277303826717
 30
0.0
 10
343.1197308260619
 20
285.254559128995
 30
0.0
 10
343.1172762756069
 20
285.2095510433291
 30
0.0
 10
343.1161786227667
 20
285.1872494881025
 30
0.0
 10
343.1132960470695
 20
285.1213775020626
 30
0.0
 10
343.1119207974232
 20
285.0789063645486
 30
0.0
 10
343.1106725709581
 20
285.0173515897155
 30
0.0
 10
343.1103944762575
 20
284.9972468753627
 30
0.0
 10
343.1101125171824
 20
284.9581625446502
 30
0.0
 10
343.1101076007837
 20
284.939134758588
 30
0.0
 10
343.110493240612
 20
284.8835650493258
 30
0.0
 10
343.1112825406275
 20
284.8485305553255
 30
0.0
 10
343.1132644094079
 20
284.798995302777
 30
0.0
 10
343.1140584303283
 20
284.7829878557853
 30
0.0
 10
343.115918329117
 20
284.7520007022035
 30
0.0
 10
343.1169834191555
 20
284.7370504594309
 30
0.0
 10
343.119364081477
 20
284.7084918932172
 30
0.0
 10
343.1206818313725
 20
284.6948448101504
 30
0.0
 10
343.1235713005993
 20
284.6688107372669
 30
0.0
 10
343.1251457043633
 20
284.6564059305404
 30
0.0
 10
343.1302334991064
 20
284.6212325820281
 30
0.0
 10
343.134098534703
 20
284.6005536612947
 30
0.0
 10
343.1406013870923
 20
284.5736641405199
 30
0.0
 10
343.142887226708
 20
284.5653955547471
 30
0.0
 10
343.1476621728846
 20
284.5503547083587
 30
0.0
 10
343.1501550255113
 20
284.5435656796362
 30
0.0
 10
343.1579486372535
 20
284.5253852480774
 30
0.0
 10
343.1635819278392
 20
284.5161703275124
 30
0.0
 10
343.1725483986878
 20
284.5069236482905
 30
0.0
 10
343.1756266950836
 20
284.5045939075257
 30
0.0
 10
343.1819624824798
 20
284.5014414918099
 30
0.0
 10
343.185225425577
 20
284.5006191033083
 30
0.0
 10
343.1952461053249
 20
284.5004427072873
 30
0.0
 10
343.2022147545271
 20
284.5033588071259
 30
0.0
 10
343.2131003836212
 20
284.5122873052137
 30
0.0
 10
343.216802420236
 20
284.5160292883541
 30
0.0
 10
343.2242995709903
 20
284.5249889337331
 30
0.0
 10
343.2281010085907
 20
284.5302108513804
 30
0.0
 10
343.2396639547729
 20
284.5481035449516
 30
0.0
 10
343.2476040864888
 20
284.5630519722808
 30
0.0
 10
343.2596737892748
 20
284.5896710314333
 30
0.0
 10
343.2637291549388
 20
284.5992509368251
 30
0.0
 10
343.2719045606581
 20
284.6198335738094
 30
0.0
 10
343.2760309434264
 20
284.6308556597236
 30
0.0
 10
343.2884271556194
 20
284.6658576129996
 30
0.0
 10
343.2967324690284
 20
284.6918037060215
 30
0.0
 10
343.3134264456061
 20
284.7489826071416
 30
0.0
 10
343.3217406739518
 20
284.7799652659435
 30
0.0
 10
343.33412689895
 20
284.8299001892089
 30
0.0
 10
343.3382507539032
 20
284.8471635684663
 30
0.0
 10
343.3464250230944
 20
284.8826686207976
 30
0.0
 10
343.350477273186
 20
284.9009149537065
 30
0.0
 10
343.3625295174024
 20
284.9571332854014
 30
0.0
 10
343.3704509432945
 20
284.9967256009215
 30
0.0
 10
343.3819686595206
 20
285.0583430639209
 30
0.0
 10
343.3857510922145
 20
285.0792694986972
 30
0.0
 10
343.393201844258
 20
285.1219003464402
 30
0.0
 10
343.3968766921033
 20
285.1436458557107
 30
0.0
 10
343.4076625924837
 20
285.209668414214
 30
0.0
 10
343.4145435071514
 20
285.2547582419319
 30
0.0
 10
343.4276814175736
 20
285.3471032581006
 30
0.0
 10
343.4338785963646
 20
285.3939451162288
 30
0.0
 10
343.4425886743582
 20
285.4649791366959
 30
0.0
 10
343.4454002864486
 20
285.4888396614185
 30
0.0
 10
343.4507934159875
 20
285.5365331022853
 30
0.0
 10
343.4533780365868
 20
285.5603879576868
 30
0.0
 10
343.4607975990671
 20
285.6319768173783
 30
0.0
 10
343.465309414991
 20
285.6798771387143
 30
0.0
 10
343.471314156089
 20
285.7507940692017
 30
0.0
 10
343.4731921102732
 20
285.7743086784852
 30
0.0
 10
343.476700471747
 20
285.8210888656637
 30
0.0
 10
343.4783326561916
 20
285.8443866141064
 30
0.0
 10
343.4828234491053
 20
285.913424201552
 30
0.0
 10
343.4852896829135
 20
285.9584556528636
 30
0.0
 10
343.4891620605057
 20
286.0464479889561
 30
0.0
 10
343.4905485634144
 20
286.0889558011984
 30
0.0
 10
343.491392122843
 20
286.1299935137012
 30
0.0
  0
SPLINE
  5
190
330
1F
100
AcDbEntity
  8
1
100
AcDbSpline
210
0.0
220
0.0
230
1.0
 70
     8
 71
     3
 72
    54
 73
    50
 74
     0
 42
0.000000001
 43
0.0000000001
 40
0.0
 40
0.0
 40
0.0
 40
0.0
 40
0.062499999999998
 40
0.062499999999998
 40
0.0937499999999972
 40
0.0937499999999972
 40
0.1249999999999964
 40
0.1249999999999964
 40
0.1874999999999951
 40
0.1874999999999951
 40
0.2187499999999947
 40
0.2187499999999947
 40
0.2499999999999943
 40
0.2499999999999943
 40
0.3124999999999934
 40
0.3749999999999925
 40
0.3749999999999925
 40
0.4062499999999933
 40
0.4062499999999933
 40
0.4374999999999942
 40
0.4374999999999942
 40
0.4999999999999933
 40
0.4999999999999933
 40
0.5312499999999934
 40
0.5312499999999934
 40
0.5624999999999935
 40
0.5624999999999935
 40
0.6249999999999925
 40
0.6249999999999925
 40
0.6562499999999931
 40
0.6562499999999931
 40
0.6874999999999938
 40
0.6874999999999938
 40
0.7187499999999945
 40
0.7187499999999945
 40
0.7499999999999949
 40
0.7812499999999957
 40
0.7812499999999957
 40
0.8124999999999962
 40
0.8124999999999962
 40
0.8437499999999969
 40
0.8437499999999969
 40
0.8749999999999976
 40
0.8749999999999976
 40
0.9374999999999985
 40
0.9374999999999985
 40
0.9687499999999992
 40
0.9687499999999992
 40
1.0
 40
1.0
 40
1.0
 40
1.0
 10
343.491392122843
 20
286.1299935137012
 30
0.0
 10
343.4879047521897
 20
286.1712804357944
 30
0.0
 10
343.4840611411935
 20
286.2107962200554
 30
0.0
 10
343.4777809051997
 20
286.2673074736371
 30
0.0
 10
343.4755973381272
 20
286.2857151118268
 30
0.0
 10
343.4710828663743
 20
286.3213982274459
 30
0.0
 10
343.4687500007241
 20
286.3386949275027
 30
0.0
 10
343.4615257693113
 20
286.3889594947773
 30
0.0
 10
343.4563948922883
 20
286.4203694503515
 30
0.0
 10
343.4483418859751
 20
286.463647103841
 30
0.0
 10
343.4455951938192
 20
286.4774555473644
 30
0.0
 10
343.4399767894487
 20
286.503834516367
 30
0.0
 10
343.4371004029324
 20
286.5164201936989
 30
0.0
 10
343.4283672230025
 20
286.551964110419
 30
0.0
 10
343.4163988836288
 20
286.5937186261015
 30
0.0
 10
343.4037964848304
 20
286.6244443372981
 30
0.0
 10
343.3941002538063
 20
286.6432369814827
 30
0.0
 10
343.3908215473426
 20
286.6487953595133
 30
0.0
 10
343.3842458895648
 20
286.6583600944025
 30
0.0
 10
343.3809420864492
 20
286.6623824502734
 30
0.0
 10
343.3709827937403
 20
286.6721713538412
 30
0.0
 10
343.3642584346576
 20
286.6756572312147
 30
0.0
 10
343.3542039556584
 20
286.6762102185096
 30
0.0
 10
343.3508542830808
 20
286.6756211847532
 30
0.0
 10
343.3441585974405
 20
286.6728884599224
 30
0.0
 10
343.3408065750743
 20
286.6707386084723
 30
0.0
 10
343.3308097294144
 20
286.6619675561758
 30
0.0
 10
343.3242243094193
 20
286.6530500885518
 30
0.0
 10
343.31446603092
 20
286.635024677681
 30
0.0
 10
343.3112378358524
 20
286.6282441011658
 30
0.0
 10
343.3048673435965
 20
286.6132179824152
 30
0.0
 10
343.3017197176742
 20
286.6049630453227
 30
0.0
 10
343.2955000272986
 20
286.586963084389
 30
0.0
 10
343.2924227939573
 20
286.577199610931
 30
0.0
 10
343.2863719521918
 20
286.5562517102313
 30
0.0
 10
343.2804309444265
 20
286.5339115703838
 30
0.0
 10
343.2747089820264
 20
286.5087948446694
 30
0.0
 10
343.2690976574118
 20
286.4822756911457
 30
0.0
 10
343.2663502367274
 20
286.4683246066461
 30
0.0
 10
343.2610065712074
 20
286.4392186531126
 30
0.0
 10
343.2584053377844
 20
286.4240409036806
 30
0.0
 10
343.253344482103
 20
286.3924322091306
 30
0.0
 10
343.2508806626209
 20
286.3759704301434
 30
0.0
 10
343.2437384247314
 20
286.324918802201
 30
0.0
 10
343.2393153281174
 20
286.2887409821732
 30
0.0
 10
343.2331904141233
 20
286.2312456081682
 30
0.0
 10
343.2312378003095
 20
286.2115712491282
 30
0.0
 10
343.2275312763931
 20
286.1714260104492
 30
0.0
 10
343.2257740350773
 20
286.1509244786705
 30
0.0
 10
343.2241129309846
 20
286.129993513701
 30
0.0
  0
SPLINE
  5
191
330
1F
100
AcDbEntity
  8
1
100
AcDbSpline
210
0.0
220
0.0
230
1.0
 70
     8
 71
     3
 72
    59
 73
    55
 74
     0
 42
0.000000001
 43
0.0000000001
 40
0.0
 40
0.0
 40
0.0
 40
0.0
 40
0.0624999999999523
 40
0.0624999999999523
 40
0.1249999999999046
 40
0.1249999999999046
 40
0.1562499999998808
 40
0.1562499999998808
 40
0.1718749999998728
 40
0.1718749999998728
 40
0.1874999999998647
 40
0.1874999999998647
 40
0.2499999999998553
 40
0.2499999999998553
 40
0.3124999999998458
 40
0.3124999999998458
 40
0.3281249999998466
 40
0.3281249999998466
 40
0.3437499999998473
 40
0.3437499999998473
 40
0.3749999999998484
 40
0.3749999999998484
 40
0.4374999999998512
 40
0.4374999999998512
 40
0.4999999999998537
 40
0.4999999999998537
 40
0.5156249999998565
 40
0.5156249999998565
 40
0.5312499999998592
 40
0.5624999999998664
 40
0.5624999999998664
 40
0.6249999999998819
 40
0.6249999999998819
 40
0.6406249999998862
 40
0.6406249999998862
 40
0.6562499999998904
 40
0.6562499999998904
 40
0.6874999999998978
 40
0.6874999999998978
 40
0.7499999999999123
 40
0.7499999999999123
 40
0.7812499999999194
 40
0.7812499999999194
 40
0.8124999999999264
 40
0.8124999999999264
 40
0.8749999999999358
 40
0.8749999999999358
 40
0.9062499999999433
 40
0.9062499999999433
 40
0.9218749999999504
 40
0.9218749999999504
 40
0.9374999999999575
 40
0.9374999999999575
 40
1.0
 40
1.0
 40
1.0
 40
1.0
 10
339.1116419456062
 20
289.9967633542317
 30
0.0
 10
339.1995660166133
 20
289.9808597371166
 30
0.0
 10
339.2856229467113
 20
289.9659591579104
 30
0.0
 10
339.4539471448994
 20
289.9379225317253
 30
0.0
 10
339.5362152569832
 20
289.9247870736797
 30
0.0
 10
339.6565972770022
 20
289.9062319354948
 30
0.0
 10
339.6962197687768
 20
289.9002382291278
 30
0.0
 10
339.7548583249484
 20
289.8915120319144
 30
0.0
 10
339.7743008401297
 20
289.8886431374553
 30
0.0
 10
339.8127224616634
 20
289.8830172982706
 30
0.0
 10
339.831708883931
 20
289.8802591777012
 30
0.0
 10
339.9255156959063
 20
289.8667271923773
 30
0.0
 10
339.9969741288721
 20
289.8567278747857
 30
0.0
 10
340.1324132821136
 20
289.8380125676439
 30
0.0
 10
340.1963978809239
 20
289.8292973543728
 30
0.0
 10
340.2712633239298
 20
289.8189880212402
 30
0.0
 10
340.2859794510486
 20
289.8169554056666
 30
0.0
 10
340.3148813672959
 20
289.8129432392371
 30
0.0
 10
340.3290642559555
 20
289.8109640141173
 30
0.0
 10
340.3704485545722
 20
289.8051460865886
 30
0.0
 10
340.3966095545203
 20
289.8014099298557
 30
0.0
 10
340.4707926146065
 20
289.7905476460237
 30
0.0
 10
340.5145345792223
 20
289.7837650509746
 30
0.0
 10
340.590064830554
 20
289.7707568942127
 30
0.0
 10
340.6218611882943
 20
289.7645315260064
 30
0.0
 10
340.6533561999745
 20
289.7569249302894
 30
0.0
 10
340.6592247824607
 20
289.7554158532068
 30
0.0
 10
340.6700109292235
 20
289.7524417021332
 30
0.0
 10
340.684806474518
 20
289.7480363139873
 30
0.0
 10
340.695489970135
 20
289.7437805629667
 30
0.0
 10
340.7114071491053
 20
289.7354367651717
 30
0.0
 10
340.7147779386675
 20
289.7300924610298
 30
0.0
 10
340.7096714938856
 20
289.7236604426914
 30
0.0
 10
340.7081821708654
 20
289.7223868836795
 30
0.0
 10
340.7042522069946
 20
289.7198666042974
 30
0.0
 10
340.701804584222
 20
289.7186177222709
 30
0.0
 10
340.6930955191385
 20
289.7149471686125
 30
0.0
 10
340.6854622022489
 20
289.7125918124174
 30
0.0
 10
340.6572739692155
 20
289.7058174441063
 30
0.0
 10
340.6314539599334
 20
289.701684931821
 30
0.0
 10
340.5824905759534
 20
289.6962253401024
 30
0.0
 10
340.5644417387772
 20
289.6945287101226
 30
0.0
 10
340.5249686540279
 20
289.6914332271364
 30
0.0
 10
340.5037543915601
 20
289.6900505235657
 30
0.0
 10
340.4359083331188
 20
289.6864418943498
 30
0.0
 10
340.3850917289771
 20
289.6847519949999
 30
0.0
 10
340.3010100020326
 20
289.6835327199997
 30
0.0
 10
340.2716683580575
 20
289.6833464185434
 30
0.0
 10
340.2257090653526
 20
289.6834355488327
 30
0.0
 10
340.2100462148663
 20
289.683527054054
 30
0.0
 10
340.1782431535661
 20
289.6838380185449
 30
0.0
 10
340.1620878010025
 20
289.6840573695705
 30
0.0
 10
340.080072287741
 20
289.6854839873356
 30
0.0
 10
340.010512498855
 20
289.6876778562289
 30
0.0
 10
339.9372512202433
 20
289.6910824975064
 30
0.0
  0
SPLINE
  5
192
330
1F
100
AcDbEntity
  8
1
100
AcDbSpline
210
0.0
220
0.0
230
1.0
 70
     8
 71
     3
 72
     9
 73
     5
 74
     0
 42
0.000000001
 43
0.0000000001
 40
0.0
 40
0.0
 40
0.0
 40
0.0
 40
0.5
 40
1.0
 40
1.0
 40
1.0
 40
1.0
 10
341.6564133978303
 20
289.6505422009862
 30
0.0
 10
341.3679496548123
 20
289.637566509251
 30
0.0
 10
340.7929849129447
 20
289.6316115182452
 30
0.0
 10
340.2218584440961
 20
289.664780615823
 30
0.0
 10
339.9372512202433
 20
289.6910824975064
 30
0.0
  0
SPLINE
  5
193
330
1F
100
AcDbEntity
  8
1
100
AcDbSpline
210
0.0
220
0.0
230
1.0
 70
     8
 71
     3
 72
    10
 73
     6
 74
     0
 42
0.000000001
 43
0.0000000001
 40
0.0
 40
0.0
 40
0.0
 40
0.0
 40
0.5
 40
0.5
 40
1.0
 40
1.0
 40
1.0
 40
1.0
 10
339.9372512202433
 20
289.6910824975064
 30
0.0
 10
339.8024431548398
 20
289.6621153485985
 30
0.0
 10
339.6662566680993
 20
289.6402000761682
 30
0.0
 10
339.3910827554331
 20
289.610748124347
 30
0.0
 10
339.2520957848141
 20
289.6032091621685
 30
0.0
 10
339.1116419457797
 20
289.6032091621512
 30
0.0
  0
SPLINE
  5
194
330
1F
100
AcDbEntity
  8
1
100
AcDbSpline
210
0.0
220
0.0
230
1.0
 70
     8
 71
     3
 72
    32
 73
    28
 74
     0
 42
0.000000001
 43
0.0000000001
 40
0.0
 40
0.0
 40
0.0
 40
0.0
 40
0.0410548818990041
 40
0.0410548818990041
 40
0.2008790682491635
 40
0.2008790682491635
 40
0.3607032545993229
 40
0.3607032545993229
 40
0.380681277893094
 40
0.380681277893094
 40
0.4006593011868648
 40
0.4006593011868648
 40
0.4406153477744071
 40
0.4406153477744071
 40
0.5205274409494926
 40
0.5205274409494926
 40
0.6803516272996627
 40
0.6803516272996627
 40
0.8401758136498324
 40
0.8401758136498324
 40
0.8601538369436038
 40
0.8601538369436038
 40
0.8801318602373752
 40
0.8801318602373752
 40
0.9200879068249168
 40
0.9200879068249168
 40
1.0
 40
1.0
 40
1.0
 40
1.0
 10
287.7400186858793
 20
298.3248121553482
 30
0.0
 10
287.8259446788633
 20
298.2635026939659
 30
0.0
 10
287.9126417232941
 20
298.2028728727627
 30
0.0
 10
288.3406257196877
 20
297.9095637678911
 30
0.0
 10
288.6928436813874
 20
297.6865603603504
 30
0.0
 10
289.4218781245917
 20
297.263086466699
 30
0.0
 10
289.7986831241209
 20
297.0625965153583
 30
0.0
 10
290.2377899785336
 20
296.851684229968
 30
0.0
 10
290.2867917134608
 20
296.8284541958806
 30
0.0
 10
290.3852258595634
 20
296.7824127878186
 30
0.0
 10
290.4346550091744
 20
296.759603463753
 30
0.0
 10
290.5832144898051
 20
296.6919899601261
 30
0.0
 10
290.6827419734203
 20
296.6479409899613
 30
0.0
 10
290.9828029227649
 20
296.5189479857447
 30
0.0
 10
291.1848136211505
 20
296.437154118631
 30
0.0
 10
291.7969208005548
 20
296.2051002771639
 30
0.0
 10
292.213068916453
 20
296.0681033603374
 30
0.0
 10
293.0629161741343
 20
295.8348641269879
 30
0.0
 10
293.4966046699624
 20
295.7386071389718
 30
0.0
 10
293.9956470639215
 20
295.6574967097237
 30
0.0
 10
294.0512516928901
 20
295.6488635667976
 30
0.0
 10
294.1627776642277
 20
295.6323733135566
 30
0.0
 10
294.2187300858425
 20
295.6245123164372
 30
0.0
 10
294.3867352224399
 20
295.6021644071021
 30
0.0
 10
294.498988440423
 20
295.5889026404173
 30
0.0
 10
294.8365089482606
 20
295.5541603980417
 30
0.0
 10
295.0625360816669
 20
295.5377203166527
 30
0.0
 10
295.289618256146
 20
295.5283859293013
 30
0.0
  0
SPLINE
  5
195
330
1F
100
AcDbEntity
  8
1
100
AcDbSpline
210
0.0
220
0.0
230
1.0
 70
     8
 71
     3
 72
    20
 73
    16
 74
     0
 42
0.000000001
 43
0.0000000001
 40
0.0
 40
0.0
 40
0.0
 40
0.0
 40
0.2499999999999963
 40
0.2499999999999963
 40
0.3749999999999944
 40
0.3749999999999944
 40
0.4374999999999928
 40
0.4687499999999927
 40
0.4687499999999927
 40
0.4999999999999923
 40
0.4999999999999923
 40
0.6249999999999943
 40
0.7499999999999961
 40
0.874999999999998
 40
1.0
 40
1.0
 40
1.0
 40
1.0
 10
279.4048419452957
 20
278.37890413381
 30
0.0
 10
279.252612945589
 20
278.247533698657
 30
0.0
 10
279.1161246948276
 20
278.1093093784599
 30
0.0
 10
278.9344833783833
 20
277.8928268524365
 30
0.0
 10
278.8778051966958
 20
277.8191317018201
 30
0.0
 10
278.7987120818908
 20
277.7063444034761
 30
0.0
 10
278.760648525441
 20
277.6493887595892
 30
0.0
 10
278.7248509754831
 20
277.5915928709103
 30
0.0
 10
278.7014955245046
 20
277.5528752898121
 30
0.0
 10
278.690058835721
 20
277.533398414145
 30
0.0
 10
278.6344016908723
 20
277.4359655857878
 30
0.0
 10
278.5549230168131
 20
277.2795182678269
 30
0.0
 10
278.463635378899
 20
277.0435736841626
 30
0.0
 10
278.4000842041228
 20
276.8066403493609
 30
0.0
 10
278.3764619341186
 20
276.6481537517501
 30
0.0
 10
278.369502688359
 20
276.5687947658756
 30
0.0
  0
SPLINE
  5
196
330
1F
100
AcDbEntity
  8
1
100
AcDbSpline
210
0.0
220
0.0
230
1.0
 70
     8
 71
     3
 72
    32
 73
    28
 74
     0
 42
0.000000001
 43
0.0000000001
 40
0.0
 40
0.0
 40
0.0
 40
0.0
 40
0.1249999999999999
 40
0.1249999999999999
 40
0.2499999999999999
 40
0.2499999999999999
 40
0.3749999999999998
 40
0.3749999999999998
 40
0.4999999999999999
 40
0.4999999999999999
 40
0.5625
 40
0.5625
 40
0.59375
 40
0.59375
 40
0.6249999999999999
 40
0.6249999999999999
 40
0.75
 40
0.75
 40
0.8125
 40
0.8125
 40
0.875
 40
0.875
 40
0.90625
 40
0.90625
 40
0.9375
 40
0.9375
 40
1.0
 40
1.0
 40
1.0
 40
1.0
 10
285.1229307936596
 20
283.1499719360502
 30
0.0
 10
284.8757227892204
 20
282.9981750452235
 30
0.0
 10
284.6286141968006
 20
282.8451737786687
 30
0.0
 10
284.1349813207015
 20
282.5337612435417
 30
0.0
 10
283.8884584177453
 20
282.3753457696682
 30
0.0
 10
283.3963807195321
 20
282.0496029397057
 30
0.0
 10
283.1508270584459
 20
281.882277823737
 30
0.0
 10
282.6610289505989
 20
281.5347694529289
 30
0.0
 10
282.4167854724644
 20
281.3545986168003
 30
0.0
 10
282.0516027130718
 20
281.0712538956984
 30
0.0
 10
281.930071544218
 20
280.9746181462415
 30
0.0
 10
281.7480873625478
 20
280.8258698404503
 30
0.0
 10
281.6875267507928
 20
280.7756926867638
 30
0.0
 10
281.566869665186
 20
280.6742858785349
 30
0.0
 10
281.5067370250825
 20
280.623026797233
 30
0.0
 10
281.2070989689861
 20
280.3637867075296
 30
0.0
 10
280.9706586394562
 20
280.147035760212
 30
0.0
 10
280.6218753112546
 20
279.804032076958
 30
0.0
 10
280.5065954796947
 20
279.6867065748231
 30
0.0
 10
280.2782023846756
 20
279.4452044726729
 30
0.0
 10
280.1650880837962
 20
279.3210325045403
 30
0.0
 10
279.9972353310982
 20
279.1287819471416
 30
0.0
 10
279.9415880543684
 20
279.0636971078317
 30
0.0
 10
279.83094182067
 20
278.9313407819148
 30
0.0
 10
279.7761660977707
 20
278.8643349459796
 30
0.0
 10
279.6137283468649
 20
278.660847898738
 30
0.0
 10
279.5078829265617
 20
278.5218353758012
 30
0.0
 10
279.4048419452957
 20
278.37890413381
 30
0.0
  0
SPLINE
  5
197
330
1F
100
AcDbEntity
  8
1
100
AcDbSpline
210
0.0
220
0.0
230
1.0
 70
     8
 71
     3
 72
     8
 73
     4
 74
     0
 42
0.000000001
 43
0.0000000001
 40
0.0
 40
0.0
 40
0.0
 40
0.0
 40
1.0
 40
1.0
 40
1.0
 40
1.0
 10
286.0972301007209
 20
283.7488505304992
 30
0.0
 10
285.7726323762764
 20
283.5491041095352
 30
0.0
 10
285.4478516978737
 20
283.3494880606845
 30
0.0
 10
285.1229307936779
 20
283.1499719360614
 30
0.0
  0
SPLINE
  5
198
330
1F
100
AcDbEntity
  8
1
100
AcDbSpline
210
0.0
220
0.0
230
1.0
 70
     8
 71
     3
 72
    19
 73
    15
 74
     0
 42
0.000000001
 43
0.0000000001
 40
0.0
 40
0.0
 40
0.0
 40
0.0
 40
0.2500000000002178
 40
0.2500000000002178
 40
0.3750000000002757
 40
0.3750000000002757
 40
0.5000000000003335
 40
0.6250000000003915
 40
0.6250000000003915
 40
0.6875000000003717
 40
0.6875000000003717
 40
0.7500000000003522
 40
0.7500000000003522
 40
1.0
 40
1.0
 40
1.0
 40
1.0
 10
341.3791757833518
 20
292.3619944418051
 30
0.0
 10
341.3461851262155
 20
292.3533424532964
 30
0.0
 10
341.3126967458158
 20
292.3486946146156
 30
0.0
 10
341.2617252084596
 20
292.3476958115874
 30
0.0
 10
341.2445873153411
 20
292.3483860259426
 30
0.0
 10
341.2109105962491
 20
292.3517542231467
 30
0.0
 10
341.1776178205787
 20
292.3570962222896
 30
0.0
 10
341.1450842592901
 20
292.3663412605314
 30
0.0
 10
341.1209775729399
 20
292.3747838044519
 30
0.0
 10
341.112985297279
 20
292.3778547464419
 30
0.0
 10
341.0973157455261
 20
292.3844184121494
 30
0.0
 10
341.0896108392453
 20
292.3879200429498
 30
0.0
 10
341.0517230648523
 20
292.4065056474567
 30
0.0
 10
341.0234242381189
 20
292.4247778784709
 30
0.0
 10
340.9971892744188
 20
292.446537568432
 30
0.0
  0
SPLINE
  5
199
330
1F
100
AcDbEntity
  8
1
100
AcDbSpline
210
0.0
220
0.0
230
1.0
 70
     8
 71
     3
 72
    16
 73
    12
 74
     0
 42
0.000000001
 43
0.0000000001
 40
0.0
 40
0.0
 40
0.0
 40
0.0
 40
0.1792230374882025
 40
0.1792230374882025
 40
0.3584460749764051
 40
0.3584460749764051
 40
0.5376691124646075
 40
0.5376691124646075
 40
0.7168921499528099
 40
0.7168921499528099
 40
1.0
 40
1.0
 40
1.0
 40
1.0
 10
340.9971892744188
 20
292.446537568432
 30
0.0
 10
340.9933393433221
 20
292.449730761607
 30
0.0
 10
340.9898357905657
 20
292.4532178334681
 30
0.0
 10
340.9834858780131
 20
292.4607489697814
 30
0.0
 10
340.9806173074573
 20
292.4648373770022
 30
0.0
 10
340.9757024777364
 20
292.4733313216119
 30
0.0
 10
340.9736460811282
 20
292.4777317819317
 30
0.0
 10
340.9702985570372
 20
292.4868244699442
 30
0.0
 10
340.9690006742255
 20
292.4915627145015
 30
0.0
 10
340.9667295357285
 20
292.503864711439
 30
0.0
 10
340.9663528371809
 20
292.5114471923737
 30
0.0
 10
340.9669618409576
 20
292.5189889830063
 30
0.0
  0
SPLINE
  5
19A
330
1F
100
AcDbEntity
  8
1
100
AcDbSpline
210
0.0
220
0.0
230
1.0
 70
     8
 71
     3
 72
    14
 73
    10
 74
     0
 42
0.000000001
 43
0.0000000001
 40
0.0
 40
0.0
 40
0.0
 40
0.0
 40
0.2020958761946378
 40
0.2020958761946378
 40
0.4680639174630918
 40
0.4680639174630918
 40
0.7340319587315458
 40
0.7340319587315458
 40
1.0
 40
1.0
 40
1.0
 40
1.0
 10
341.4245339679342
 20
292.3920428347278
 30
0.0
 10
341.4222610065225
 20
292.3891204547508
 30
0.0
 10
341.4197931783248
 20
292.3863354639113
 30
0.0
 10
341.4137183430281
 20
292.3803174009205
 30
0.0
 10
341.4099751746708
 20
292.3771867155828
 30
0.0
 10
341.4018722957862
 20
292.3715385915256
 30
0.0
 10
341.3975753107912
 20
292.3690717866988
 30
0.0
 10
341.3886594011533
 20
292.3649432805579
 30
0.0
 10
341.3840161645616
 20
292.3632638594597
 30
0.0
 10
341.3791757833518
 20
292.3619944418051
 30
0.0
  0
SPLINE
  5
19B
330
1F
100
AcDbEntity
  8
1
100
AcDbSpline
210
0.0
220
0.0
230
1.0
 70
     8
 71
     3
 72
    14
 73
    10
 74
     0
 42
0.000000001
 43
0.0000000001
 40
0.0
 40
0.0
 40
0.0
 40
0.0
 40
0.3196824873895807
 40
0.3196824873895807
 40
0.6393649747791614
 40
0.6393649747791614
 40
0.9590474621687421
 40
0.9590474621687421
 40
1.0
 40
1.0
 40
1.0
 40
1.0
 10
340.9808813197901
 20
292.621719060132
 30
0.0
 10
340.9829978997295
 20
292.6159563573732
 30
0.0
 10
340.9844741753016
 20
292.6099855260728
 30
0.0
 10
340.98613522298
 20
292.5980824263555
 30
0.0
 10
340.9863385858479
 20
292.5921272925629
 30
0.0
 10
340.9855252406635
 20
292.5802072410307
 30
0.0
 10
340.9844921101197
 20
292.5742586465151
 30
0.0
 10
340.9826938682694
 20
292.5678381559814
 30
0.0
 10
340.9824804326866
 20
292.5671121432878
 30
0.0
 10
340.9822577253517
 20
292.5663892199787
 30
0.0
  0
SPLINE
  5
19C
330
1F
100
AcDbEntity
  8
1
100
AcDbSpline
210
0.0
220
0.0
230
1.0
 70
     8
 71
     3
 72
    12
 73
     8
 74
     0
 42
0.000000001
 43
0.0000000001
 40
0.0
 40
0.0
 40
0.0
 40
0.0
 40
0.149216829496434
 40
0.149216829496434
 40
0.5746084147482171
 40
0.5746084147482171
 40
1.0
 40
1.0
 40
1.0
 40
1.0
 10
341.4465936513848
 20
292.4778906154358
 30
0.0
 10
341.4472065708213
 20
292.4798790534638
 30
0.0
 10
341.4478918609933
 20
292.4818489144245
 30
0.0
 10
341.4508109316077
 20
292.4893627729474
 30
0.0
 10
341.4535883018643
 20
292.4947850282012
 30
0.0
 10
341.4601414761293
 20
292.5048294165262
 30
0.0
 10
341.4639356006985
 20
292.5095171508568
 30
0.0
 10
341.4682932410573
 20
292.5138426644596
 30
0.0
  0
SPLINE
  5
19D
330
1F
100
AcDbEntity
  8
1
100
AcDbSpline
210
0.0
220
0.0
230
1.0
 70
     8
 71
     3
 72
    20
 73
    16
 74
     0
 42
0.000000001
 43
0.0000000001
 40
0.0
 40
0.0
 40
0.0
 40
0.0
 40
0.2499999999997538
 40
0.2499999999997538
 40
0.3749999999997947
 40
0.3749999999997947
 40
0.4999999999998358
 40
0.4999999999998358
 40
0.6249999999998769
 40
0.6249999999998769
 40
0.7499999999999179
 40
0.7499999999999179
 40
0.8749999999999589
 40
0.8749999999999589
 40
1.0
 40
1.0
 40
1.0
 40
1.0
 10
340.6239764765364
 20
292.8742471529592
 30
0.0
 10
340.6159850329217
 20
292.8690044424097
 30
0.0
 10
340.6073866276222
 20
292.8651977486658
 30
0.0
 10
340.5935829201491
 20
292.8616401781583
 30
0.0
 10
340.5888398216916
 20
292.860832665025
 30
0.0
 10
340.5793790345457
 20
292.8600324998847
 30
0.0
 10
340.5746203012462
 20
292.8600274572044
 30
0.0
 10
340.5650450177875
 20
292.8608444349912
 30
0.0
 10
340.560258271752
 20
292.8616720409507
 30
0.0
 10
340.5509664273749
 20
292.8641240242427
 30
0.0
 10
340.5464210697179
 20
292.8657503994571
 30
0.0
 10
340.5375448799975
 20
292.869851438469
 30
0.0
 10
340.5332898073301
 20
292.8722972586451
 30
0.0
 10
340.5253046259972
 20
292.8778812700787
 30
0.0
 10
340.521547699992
 20
292.8810311660235
 30
0.0
 10
340.5180421336508
 20
292.8845621492332
 30
0.0
  0
SPLINE
  5
19E
330
1F
100
AcDbEntity
  8
1
100
AcDbSpline
210
0.0
220
0.0
230
1.0
 70
     8
 71
     3
 72
    14
 73
    10
 74
     0
 42
0.000000001
 43
0.0000000001
 40
0.0
 40
0.0
 40
0.0
 40
0.0
 40
0.25
 40
0.25
 40
0.5
 40
0.5
 40
0.75
 40
0.75
 40
1.0
 40
1.0
 40
1.0
 40
1.0
 10
340.6239764765364
 20
292.8742471529594
 30
0.0
 10
340.6289500264656
 20
292.87751000307
 30
0.0
 10
340.6342540759842
 20
292.8802549536981
 30
0.0
 10
340.6452476189482
 20
292.8845819914316
 30
0.0
 10
340.6509083120036
 20
292.8861639381787
 30
0.0
 10
340.6625644722877
 20
292.8881482156074
 30
0.0
 10
340.6685824224638
 20
292.8885345385262
 30
0.0
 10
340.6804373004355
 20
292.8880303121402
 30
0.0
 10
340.6863392824065
 20
292.8871577000868
 30
0.0
 10
340.6922155294946
 20
292.8856102556072
 30
0.0
  0
SPLINE
  5
19F
330
1F
100
AcDbEntity
  8
1
100
AcDbSpline
210
0.0
220
0.0
230
1.0
 70
     8
 71
     3
 72
    20
 73
    16
 74
     0
 42
0.000000001
 43
0.0000000001
 40
0.0
 40
0.0
 40
0.0
 40
0.0
 40
0.1250000000000103
 40
0.1250000000000103
 40
0.2500000000000209
 40
0.3124999999999817
 40
0.3124999999999817
 40
0.3749999999999426
 40
0.3749999999999426
 40
0.4999999999999446
 40
0.6249999999999445
 40
0.6249999999999445
 40
0.7499999999999443
 40
0.7499999999999443
 40
1.0
 40
1.0
 40
1.0
 40
1.0
 10
340.6922155294943
 20
292.8856102556075
 30
0.0
 10
340.7084471108634
 20
292.8813358487268
 30
0.0
 10
340.7244704728935
 20
292.8760781122768
 30
0.0
 10
340.7556468641342
 20
292.8637383590474
 30
0.0
 10
340.7784669282072
 20
292.8530952417444
 30
0.0
 10
340.8004348095697
 20
292.8403126275412
 30
0.0
 10
340.8148854473983
 20
292.8312991848737
 30
0.0
 10
340.8220401290387
 20
292.8265272234135
 30
0.0
 10
340.8429496061682
 20
292.811630213339
 30
0.0
 10
340.8693962115843
 20
292.7902188684265
 30
0.0
 10
340.8930546041769
 20
292.7657926136991
 30
0.0
 10
340.9152989767317
 20
292.7398378904064
 30
0.0
 10
340.9257335181891
 20
292.7260385417821
 30
0.0
 10
340.9540041808862
 20
292.6835815743778
 30
0.0
 10
340.9692015581095
 20
292.6535189433312
 30
0.0
 10
340.9808813197901
 20
292.621719060132
 30
0.0
  0
SPLINE
  5
1A0
330
1F
100
AcDbEntity
  8
1
100
AcDbSpline
210
0.0
220
0.0
230
1.0
 70
     8
 71
     3
 72
    18
 73
    14
 74
     0
 42
0.000000001
 43
0.0000000001
 40
0.0
 40
0.0
 40
0.0
 40
0.0
 40
0.1249999999999213
 40
0.1249999999999213
 40
0.2499999999998425
 40
0.2499999999998425
 40
0.3749999999997637
 40
0.3749999999997637
 40
0.4999999999996849
 40
0.4999999999996849
 40
0.7499999999998425
 40
0.7499999999998425
 40
1.0
 40
1.0
 40
1.0
 40
1.0
 10
341.9982306523493
 20
292.5569595704993
 30
0.0
 10
341.9935682355551
 20
292.5552361445306
 30
0.0
 10
341.9888314925608
 20
292.5539611448689
 30
0.0
 10
341.9792177080798
 20
292.5522617796056
 30
0.0
 10
341.9742917271732
 20
292.5518405585567
 30
0.0
 10
341.9645872624902
 20
292.5518708400521
 30
0.0
 10
341.9598079665528
 20
292.5523109902948
 30
0.0
 10
341.9503898576925
 20
292.5540018421881
 30
0.0
 10
341.9457085500197
 20
292.5552699277428
 30
0.0
 10
341.9322224041006
 20
292.5602061131185
 30
0.0
 10
341.923989757744
 20
292.5649457555468
 30
0.0
 10
341.9092948404617
 20
292.5770389887325
 30
0.0
 10
341.9031243037765
 20
292.5841282806502
 30
0.0
 10
341.8981198135128
 20
292.5922475038625
 30
0.0
  0
SPLINE
  5
1A1
330
1F
100
AcDbEntity
  8
1
100
AcDbSpline
210
0.0
220
0.0
230
1.0
 70
     8
 71
     3
 72
    20
 73
    16
 74
     0
 42
0.000000001
 43
0.0000000001
 40
0.0
 40
0.0
 40
0.0
 40
0.0
 40
0.1249999999999475
 40
0.1249999999999475
 40
0.249999999999895
 40
0.3124999999999122
 40
0.3124999999999122
 40
0.3749999999999292
 40
0.3749999999999292
 40
0.4999999999999634
 40
0.6249999999999976
 40
0.6249999999999976
 40
0.7500000000000318
 40
0.7500000000000318
 40
1.0
 40
1.0
 40
1.0
 40
1.0
 10
341.468293241057
 20
292.5138426644595
 30
0.0
 10
341.4803294471279
 20
292.5257901334561
 30
0.0
 10
341.4930935211497
 20
292.5370602661372
 30
0.0
 10
341.519716523737
 20
292.5579221097963
 30
0.0
 10
341.5405688434286
 20
292.5723781941481
 30
0.0
 10
341.5627876464947
 20
292.5850112340018
 30
0.0
 10
341.5779144443173
 20
292.5930152660644
 30
0.0
 10
341.585665220396
 20
292.5968216675353
 30
0.0
 10
341.6091199763041
 20
292.6074646448558
 30
0.0
 10
341.6409551557302
 20
292.6196256405804
 30
0.0
 10
341.6738830466024
 20
292.627835742709
 30
0.0
 10
341.7073657741738
 20
292.6340427262326
 30
0.0
 10
341.7244435700226
 20
292.6361323002347
 30
0.0
 10
341.7749980321961
 20
292.6392288067014
 30
0.0
 10
341.8082925010044
 20
292.6372310963635
 30
0.0
 10
341.8412474920397
 20
292.6313008691863
 30
0.0
  0
SPLINE
  5
1A2
330
1F
100
AcDbEntity
  8
1
100
AcDbSpline
210
0.0
220
0.0
230
1.0
 70
     8
 71
     3
 72
    14
 73
    10
 74
     0
 42
0.000000001
 43
0.0000000001
 40
0.0
 40
0.0
 40
0.0
 40
0.0
 40
0.25
 40
0.25
 40
0.5
 40
0.5
 40
0.75
 40
0.75
 40
1.0
 40
1.0
 40
1.0
 40
1.0
 10
341.8412474920397
 20
292.6313008691863
 30
0.0
 10
341.8472194923284
 20
292.6302262119857
 30
0.0
 10
341.8530414803597
 20
292.6284910871002
 30
0.0
 10
341.8639944403935
 20
292.6239203505783
 30
0.0
 10
341.8691543109882
 20
292.6210893170576
 30
0.0
 10
341.8788612007166
 20
292.6143644578455
 30
0.0
 10
341.8833860053962
 20
292.6104646346158
 30
0.0
 10
341.8914281623246
 20
292.6019521935329
 30
0.0
 10
341.8950037942106
 20
292.5973028951044
 30
0.0
 10
341.8981198135128
 20
292.5922475038625
 30
0.0
  0
SPLINE
  5
1A3
330
1F
100
AcDbEntity
  8
1
100
AcDbSpline
210
0.0
220
0.0
230
1.0
 70
     8
 71
     3
 72
    19
 73
    15
 74
     0
 42
0.000000001
 43
0.0000000001
 40
0.0
 40
0.0
 40
0.0
 40
0.0
 40
0.2656574159403371
 40
0.2656574159403371
 40
0.3984861239105029
 40
0.3984861239105029
 40
0.5313148318806686
 40
0.6641435398508344
 40
0.6641435398508344
 40
0.7305578938359037
 40
0.7305578938359037
 40
0.7969722478209733
 40
0.7969722478209733
 40
1.0
 40
1.0
 40
1.0
 40
1.0
 10
340.5180421336508
 20
292.8845621492332
 30
0.0
 10
340.4941500250785
 20
292.9086274859018
 30
0.0
 10
340.4734469269691
 20
292.9351590929266
 30
0.0
 10
340.4471537559453
 20
292.9786289177022
 30
0.0
 10
340.4391943845454
 20
292.9937662712977
 30
0.0
 10
340.4252821326302
 20
293.0245339932326
 30
0.0
 10
340.4132570402471
 20
293.0559731319605
 30
0.0
 10
340.4049637053763
 20
293.0887397270981
 30
0.0
 10
340.4001861474554
 20
293.1138278688541
 30
0.0
 10
340.39883573891
 20
293.1222838908332
 30
0.0
 10
340.3966544015661
 20
293.1391385056118
 30
0.0
 10
340.3958173363804
 20
293.1475654287952
 30
0.0
 10
340.3934300393337
 20
293.181751795415
 30
0.0
 10
340.3939249217779
 20
293.2075081238303
 30
0.0
 10
340.3967563003172
 20
293.2332607106212
 30
0.0
  0
SPLINE
  5
1A4
330
1F
100
AcDbEntity
  8
1
100
AcDbSpline
210
0.0
220
0.0
230
1.0
 70
     8
 71
     3
 72
    19
 73
    15
 74
     0
 42
0.000000001
 43
0.0000000001
 40
0.0
 40
0.0
 40
0.0
 40
0.0
 40
0.1498404211887862
 40
0.1498404211887862
 40
0.291533684324004
 40
0.291533684324004
 40
0.4332269474592219
 40
0.5749202105944398
 40
0.5749202105944398
 40
0.6457668421620499
 40
0.6457668421620499
 40
0.7166134737296599
 40
0.7166134737296599
 40
1.0
 40
1.0
 40
1.0
 40
1.0
 10
342.2468294985079
 20
292.7994800802745
 30
0.0
 10
342.2401601011103
 20
292.7828702882933
 30
0.0
 10
342.2324667481845
 20
292.7667030897182
 30
0.0
 10
342.2155114973982
 20
292.7361067072506
 30
0.0
 10
342.2063217163949
 20
292.7216235653509
 30
0.0
 10
342.1865424244985
 20
292.6941767343195
 30
0.0
 10
342.1652675560616
 20
292.6680561096882
 30
0.0
 10
342.1410347272119
 20
292.6445581944731
 30
0.0
 10
342.1217169389969
 20
292.6279484646131
 30
0.0
 10
342.1150796702215
 20
292.6225785572758
 30
0.0
 10
342.1016024283059
 20
292.6123237402565
 30
0.0
 10
342.0947409900952
 20
292.6074194162917
 30
0.0
 10
342.0598319542152
 20
292.5839914939179
 30
0.0
 10
342.0300032004636
 20
292.5687040448636
 30
0.0
 10
341.9982306523493
 20
292.5569595704993
 30
0.0
  0
SPLINE
  5
1A5
330
1F
100
AcDbEntity
  8
1
100
AcDbSpline
210
0.0
220
0.0
230
1.0
 70
     8
 71
     3
 72
    16
 73
    12
 74
     0
 42
0.000000001
 43
0.0000000001
 40
0.0
 40
0.0
 40
0.0
 40
0.0
 40
0.2133898091371281
 40
0.2133898091371281
 40
0.4267796182742562
 40
0.5334745228428199
 40
0.5334745228428199
 40
0.6401694274113839
 40
0.6401694274113839
 40
0.8535592365485287
 40
1.0
 40
1.0
 40
1.0
 40
1.0
 10
340.625940312129
 20
293.7423049277145
 30
0.0
 10
340.6302042304598
 20
293.7263054390864
 30
0.0
 10
340.6335257245411
 20
293.7099794736421
 30
0.0
 10
340.6381875875609
 20
293.6771297886111
 30
0.0
 10
340.6402251169885
 20
293.6522569023982
 30
0.0
 10
340.6400247035857
 20
293.6270051135315
 30
0.0
 10
340.6393776585567
 20
293.6100821434791
 30
0.0
 10
340.6387938800196
 20
293.601543789553
 30
0.0
 10
340.636278272289
 20
293.5760998637443
 30
0.0
 10
340.6317515924322
 20
293.5478475736805
 30
0.0
 10
340.6244380239686
 20
293.5201698304294
 30
0.0
 10
340.6209954426735
 20
293.5090020533315
 30
0.0
  0
SPLINE
  5
1A6
330
1F
100
AcDbEntity
  8
1
100
AcDbSpline
210
0.0
220
0.0
230
1.0
 70
     8
 71
     3
 72
    14
 73
    10
 74
     0
 42
0.000000001
 43
0.0000000001
 40
0.0
 40
0.0
 40
0.0
 40
0.0
 40
0.25
 40
0.25
 40
0.5
 40
0.5
 40
0.75
 40
0.75
 40
1.0
 40
1.0
 40
1.0
 40
1.0
 10
340.5828212145434
 20
293.7946612687003
 30
0.0
 10
340.5880560149949
 20
293.792081475917
 30
0.0
 10
340.5930071006477
 20
293.7889574366214
 30
0.0
 10
340.6020985807979
 20
293.7817905389223
 30
0.0
 10
340.6062245121215
 20
293.777772321056
 30
0.0
 10
340.6136263883658
 20
293.768851839267
 30
0.0
 10
340.6168997424379
 20
293.7639220600313
 30
0.0
 10
340.6222613055717
 20
293.7535677570074
 30
0.0
 10
340.6243967082126
 20
293.7480969883004
 30
0.0
 10
340.625940312129
 20
293.7423049277141
 30
0.0
  0
SPLINE
  5
1A7
330
1F
100
AcDbEntity
  8
1
100
AcDbSpline
210
0.0
220
0.0
230
1.0
 70
     8
 71
     3
 72
    20
 73
    16
 74
     0
 42
0.000000001
 43
0.0000000001
 40
0.0
 40
0.0
 40
0.0
 40
0.0
 40
0.2499999999998385
 40
0.2499999999998385
 40
0.3749999999998654
 40
0.3749999999998654
 40
0.4999999999998924
 40
0.4999999999998924
 40
0.6249999999999192
 40
0.6249999999999192
 40
0.7499999999999462
 40
0.7499999999999462
 40
0.8749999999999731
 40
0.8749999999999731
 40
1.0
 40
1.0
 40
1.0
 40
1.0
 10
340.5828212145434
 20
293.7946612687003
 30
0.0
 10
340.5744099490877
 20
293.7988064738749
 30
0.0
 10
340.5669364833666
 20
293.8041973919278
 30
0.0
 10
340.5571340481725
 20
293.8141470766045
 30
0.0
 10
340.5541221667309
 20
293.8177767484083
 30
0.0
 10
340.5488118381516
 20
293.8254273921574
 30
0.0
 10
340.5464825976328
 20
293.8294770869271
 30
0.0
 10
340.5425073426878
 20
293.8380446253329
 30
0.0
 10
340.5408804837513
 20
293.8425404732608
 30
0.0
 10
340.5384502087699
 20
293.8516954126596
 30
0.0
 10
340.5376287666652
 20
293.8563899191282
 30
0.0
 10
340.5368208336501
 20
293.8660253464536
 30
0.0
 10
340.5368465393561
 20
293.8708879391817
 30
0.0
 10
340.5377507333351
 20
293.8805153769303
 30
0.0
 10
340.5386261546813
 20
293.8853092976154
 30
0.0
 10
340.5399525556147
 20
293.8900816903352
 30
0.0
  0
SPLINE
  5
1A8
330
1F
100
AcDbEntity
  8
1
100
AcDbSpline
210
0.0
220
0.0
230
1.0
 70
     8
 71
     3
 72
    12
 73
     8
 74
     0
 42
0.000000001
 43
0.0000000001
 40
0.0
 40
0.0
 40
0.0
 40
0.0
 40
0.0926592492993445
 40
0.0926592492993445
 40
0.3951061661995983
 40
0.3951061661995983
 40
1.0
 40
1.0
 40
1.0
 40
1.0
 10
342.1840035236235
 20
293.2351962946208
 30
0.0
 10
342.1855364937732
 20
293.2401538097001
 30
0.0
 10
342.1871605391605
 20
293.2450861678493
 30
0.0
 10
342.1944756829915
 20
293.2660104556196
 30
0.0
 10
342.2010891486735
 20
293.2818028593437
 30
0.0
 10
342.2232582918488
 20
293.3269850836253
 30
0.0
 10
342.2412456105691
 20
293.3546938725885
 30
0.0
 10
342.2623841959412
 20
293.3801191456207
 30
0.0
  0
SPLINE
  5
1A9
330
1F
100
AcDbEntity
  8
1
100
AcDbSpline
210
0.0
220
0.0
230
1.0
 70
     8
 71
     3
 72
    14
 73
    10
 74
     0
 42
0.000000001
 43
0.0000000001
 40
0.0
 40
0.0
 40
0.0
 40
0.0
 40
0.25
 40
0.25
 40
0.5
 40
0.5
 40
0.75
 40
0.75
 40
1.0
 40
1.0
 40
1.0
 40
1.0
 10
342.2623841959413
 20
293.3801191456207
 30
0.0
 10
342.2662149177729
 20
293.384726698433
 30
0.0
 10
342.2705325222529
 20
293.3888711458432
 30
0.0
 10
342.27976502038
 20
293.3960087121663
 30
0.0
 10
342.2846894534893
 20
293.3990284880307
 30
0.0
 10
342.2951408181639
 20
293.4040027271171
 30
0.0
 10
342.3006636781429
 20
293.405935653403
 30
0.0
 10
342.3118222371812
 20
293.4085723687739
 30
0.0
 10
342.3175176624385
 20
293.4093080527368
 30
0.0
 10
342.3233333809159
 20
293.4094425841757
 30
0.0
  0
SPLINE
  5
1AA
330
1F
100
AcDbEntity
  8
1
100
AcDbSpline
210
0.0
220
0.0
230
1.0
 70
     8
 71
     3
 72
    14
 73
    10
 74
     0
 42
0.000000001
 43
0.0000000001
 40
0.0
 40
0.0
 40
0.0
 40
0.0
 40
0.0581782240478212
 40
0.0581782240478212
 40
0.2465425792381136
 40
0.2465425792381136
 40
0.6232712896190568
 40
0.6232712896190568
 40
1.0
 40
1.0
 40
1.0
 40
1.0
 10
342.3870527882924
 20
293.4422776303799
 30
0.0
 10
342.3861814981733
 20
293.4411045867829
 30
0.0
 10
342.3852801306837
 20
293.4399572150348
 30
0.0
 10
342.3813349070552
 20
293.4352022281034
 30
0.0
 10
342.377975051251
 20
293.4318069135972
 30
0.0
 10
342.3672012994108
 20
293.4226702370197
 30
0.0
 10
342.3591589010746
 20
293.41796582853
 30
0.0
 10
342.3417095555084
 20
293.4113997439577
 30
0.0
 10
342.3326738679297
 20
293.4096586519177
 30
0.0
 10
342.3233333809158
 20
293.4094425841757
 30
0.0
  0
SPLINE
  5
1AB
330
1F
100
AcDbEntity
  8
1
100
AcDbSpline
210
0.0
220
0.0
230
1.0
 70
     8
 71
     3
 72
    10
 73
     6
 74
     0
 42
0.000000001
 43
0.0000000001
 40
0.0
 40
0.0
 40
0.0
 40
0.0
 40
0.4821926828005471
 40
0.4821926828005471
 40
1.0
 40
1.0
 40
1.0
 40
1.0
 10
341.360534827948
 20
294.2828794489705
 30
0.0
 10
341.3604230289745
 20
294.2794212345758
 30
0.0
 10
341.3600889299288
 20
294.2759743301333
 30
0.0
 10
341.3589418748484
 20
294.2689163926789
 30
0.0
 10
341.3581014567704
 20
294.2653220077202
 30
0.0
 10
341.3570121468169
 20
294.2617880824002
 30
0.0
  0
SPLINE
  5
1AF
330
1F
100
AcDbEntity
  8
1
100
AcDbSpline
210
0.0
220
0.0
230
1.0
 70
     9
 71
     3
 72
   123
 73
   119
 74
     0
 42
0.000000001
 43
0.0000000001
 40
0.0
 40
0.0
 40
0.0
 40
0.0
 40
0.0312500000000237
 40
0.0312500000000237
 40
0.0468750000000319
 40
0.0468750000000319
 40
0.054687500000036
 40
0.054687500000036
 40
0.0625000000000402
 40
0.0625000000000402
 40
0.0937500000000635
 40
0.0937500000000635
 40
0.1015625000000663
 40
0.1015625000000663
 40
0.1093750000000691
 40
0.1093750000000691
 40
0.1250000000000691
 40
0.1406250000000692
 40
0.1406250000000692
 40
0.148437500000067
 40
0.148437500000067
 40
0.1562500000000648
 40
0.1562500000000648
 40
0.1875000000000447
 40
0.1875000000000447
 40
0.2031250000000345
 40
0.2031250000000345
 40
0.2109375000000295
 40
0.2109375000000295
 40
0.2187500000000245
 40
0.2187500000000245
 40
0.2500000000000064
 40
0.2500000000000064
 40
0.2578125000000023
 40
0.2578125000000023
 40
0.2656249999999981
 40
0.2656249999999981
 40
0.2812499999999897
 40
0.2812499999999897
 40
0.3124999999999717
 40
0.3124999999999717
 40
0.3203124999999695
 40
0.3203124999999695
 40
0.3281249999999671
 40
0.3437499999999626
 40
0.3437499999999626
 40
0.3749999999999537
 40
0.3749999999999537
 40
0.3828124999999539
 40
0.3828124999999539
 40
0.3906249999999541
 40
0.4062499999999491
 40
0.421874999999944
 40
0.421874999999944
 40
0.4296874999999382
 40
0.4296874999999382
 40
0.4374999999999324
 40
0.4374999999999324
 40
0.4687499999999157
 40
0.4687499999999157
 40
0.4843749999999073
 40
0.4843749999999073
 40
0.4921874999999031
 40
0.4921874999999031
 40
0.499999999999899
 40
0.499999999999899
 40
0.5312499999998895
 40
0.5312499999998895
 40
0.5390624999998873
 40
0.5390624999998873
 40
0.5468749999998851
 40
0.5624999999998801
 40
0.5781249999998753
 40
0.5781249999998753
 40
0.5859374999998729
 40
0.5859374999998729
 40
0.5937499999998705
 40
0.5937499999998705
 40
0.6249999999998783
 40
0.6249999999998783
 40
0.6406249999998823
 40
0.6406249999998823
 40
0.6562499999998862
 40
0.6562499999998862
 40
0.6874999999998975
 40
0.6874999999998975
 40
0.7187499999999091
 40
0.7187499999999091
 40
0.7343749999999155
 40
0.7343749999999155
 40
0.7421874999999188
 40
0.7421874999999188
 40
0.7499999999999221
 40
0.7499999999999221
 40
0.7812499999999351
 40
0.7812499999999351
 40
0.7968749999999423
 40
0.7968749999999423
 40
0.8124999999999493
 40
0.8124999999999493
 40
0.8437499999999609
 40
0.8437499999999609
 40
0.8593749999999648
 40
0.8593749999999648
 40
0.8749999999999687
 40
0.8749999999999687
 40
0.9062499999999712
 40
0.9062499999999712
 40
0.9218749999999726
 40
0.9218749999999726
 40
0.9374999999999737
 40
0.9531249999999753
 40
0.9531249999999753
 40
0.9609374999999792
 40
0.9609374999999792
 40
0.9687499999999836
 40
0.9687499999999836
 40
1.0
 40
1.0
 40
1.0
 40
1.0
 10
341.7782237619443
 20
287.6460001828444
 30
0.0
 10
341.8375779061114
 20
287.6449641524043
 30
0.0
 10
341.895787807777
 20
287.6379685281047
 30
0.0
 10
341.9814566924202
 20
287.6189169635513
 30
0.0
 10
342.0097364695127
 20
287.6111289278968
 30
0.0
 10
342.0517305739957
 20
287.5972386736979
 30
0.0
 10
342.065695843792
 20
287.5922238554937
 30
0.0
 10
342.0932096433273
 20
287.5815489161979
 30
0.0
 10
342.1067743771339
 20
287.5758858978496
 30
0.0
 10
342.1736560304792
 20
287.5459774677164
 30
0.0
 10
342.2241746440225
 20
287.516998130966
 30
0.0
 10
342.2836017481836
 20
287.4745275047533
 30
0.0
 10
342.2952993864328
 20
287.4657181968929
 30
0.0
 10
342.3183123497937
 20
287.4474592842429
 30
0.0
 10
342.3295927607483
 20
287.4380348581885
 30
0.0
 10
342.3624973795857
 20
287.4091176504781
 30
0.0
 10
342.4040975394253
 20
287.3686767294547
 30
0.0
 10
342.4412832337544
 20
287.3245999189768
 30
0.0
 10
342.4675190857524
 20
287.2901898436829
 30
0.0
 10
342.4759883219111
 20
287.2784940119223
 30
0.0
 10
342.4923692082418
 20
287.2546477747015
 30
0.0
 10
342.5002976922513
 20
287.2424696689333
 30
0.0
 10
342.5383209240816
 20
287.1807577621007
 30
0.0
 10
342.5632712122141
 20
287.1293797998354
 30
0.0
 10
342.5929650692253
 20
287.0495414576813
 30
0.0
 10
342.6015649980123
 20
287.0224630725657
 30
0.0
 10
342.6124955866385
 20
286.9811458045453
 30
0.0
 10
342.6158156959662
 20
286.9672257007593
 30
0.0
 10
342.6217358482718
 20
286.9394158537337
 30
0.0
 10
342.6243435982544
 20
286.9255030362261
 30
0.0
 10
342.6356621891092
 20
286.8559025645764
 30
0.0
 10
342.6392589499739
 20
286.8001085298102
 30
0.0
 10
342.6371087709888
 20
286.7302439449364
 30
0.0
 10
342.6363435639238
 20
286.7162647556725
 30
0.0
 10
342.6341356553995
 20
286.6882936519776
 30
0.0
 10
342.6326887024414
 20
286.6742798089977
 30
0.0
 10
342.6273733943582
 20
286.6326193676219
 30
0.0
 10
342.6225279419897
 20
286.605233786016
 30
0.0
 10
342.6042109975278
 20
286.5241970502964
 30
0.0
 10
342.5869945744317
 20
286.4716570453709
 30
0.0
 10
342.5590869110944
 20
286.4078295022521
 30
0.0
 10
342.5531671571269
 20
286.3951258067634
 30
0.0
 10
342.5407566265909
 20
286.3700814275608
 30
0.0
 10
342.5212992381412
 20
286.3330832884431
 30
0.0
 10
342.4993641295388
 20
286.2977501934436
 30
0.0
 10
342.4522103419365
 20
286.2292644848127
 30
0.0
 10
342.4164331573048
 20
286.1864919514326
 30
0.0
 10
342.3658409958545
 20
286.1368212066969
 30
0.0
 10
342.3554527087251
 20
286.1271074691133
 30
0.0
 10
342.334305348661
 20
286.1082737410651
 30
0.0
 10
342.301954372306
 20
286.0808451335557
 30
0.0
 10
342.24491017561
 20
286.0391872267359
 30
0.0
 10
342.1958919670997
 20
286.0102048879996
 30
0.0
 10
342.1578009262363
 20
285.9901559097587
 30
0.0
 10
342.1448822507472
 20
285.9837547669998
 30
0.0
 10
342.1185860014133
 20
285.971533352287
 30
0.0
 10
342.1051657989011
 20
285.9656971331066
 30
0.0
 10
342.0376455471188
 20
285.9383272697718
 30
0.0
 10
341.9820153937345
 20
285.9219978638142
 30
0.0
 10
341.8961276204292
 20
285.9058368821427
 30
0.0
 10
341.8670884696297
 20
285.9018489208708
 30
0.0
 10
341.8228845788886
 20
285.8980630649782
 30
0.0
 10
341.808025136306
 20
285.8971701367204
 30
0.0
 10
341.7784876198156
 20
285.8961465634969
 30
0.0
 10
341.7637608169077
 20
285.8960105618696
 30
0.0
 10
341.6903327816005
 20
285.8971752934979
 30
0.0
 10
341.6322436864252
 20
285.9039546971585
 30
0.0
 10
341.560447901336
 20
285.9197622593777
 30
0.0
 10
341.5460881464112
 20
285.9233064796518
 30
0.0
 10
341.517744001449
 20
285.9310651727491
 30
0.0
 10
341.4757431261236
 20
285.9437159847504
 30
0.0
 10
341.4082305878903
 20
285.9697057377105
 30
0.0
 10
341.3567819455754
 20
285.9955810551525
 30
0.0
 10
341.3191498233946
 20
286.0168976342992
 30
0.0
 10
341.3067329459184
 20
286.0243432764528
 30
0.0
 10
341.282415011325
 20
286.0397542412191
 30
0.0
 10
341.270511917477
 20
286.0477177997763
 30
0.0
 10
341.212235820102
 20
286.0887926484735
 30
0.0
 10
341.1695431378299
 20
286.1256368226028
 30
0.0
 10
341.1111158776122
 20
286.1867299073198
 30
0.0
 10
341.0925179063839
 20
286.2081694443565
 30
0.0
 10
341.0578425852601
 20
286.2522587099249
 30
0.0
 10
341.0416938429133
 20
286.2749671416643
 30
0.0
 10
340.9966926656167
 20
286.345043306399
 30
0.0
 10
340.971251918861
 20
286.3943437858805
 30
0.0
 10
340.9296792712829
 20
286.498340573266
 30
0.0
 10
340.9141405530991
 20
286.5515734247622
 30
0.0
 10
340.8984642378424
 20
286.6331104589083
 30
0.0
 10
340.8945168634854
 20
286.6605804886606
 30
0.0
 10
340.8905581989699
 20
286.7022349444165
 30
0.0
 10
340.8895662799598
 20
286.7161947711922
 30
0.0
 10
340.8882525558876
 20
286.7442679616589
 30
0.0
 10
340.8879323426118
 20
286.7584056289084
 30
0.0
 10
340.8880403132666
 20
286.8287589959717
 30
0.0
 10
340.8935072828081
 20
286.8844831639447
 30
0.0
 10
340.9097422406023
 20
286.9672106599199
 30
0.0
 10
340.9165017764962
 20
286.9946421182092
 30
0.0
 10
340.9328224902149
 20
287.049196630152
 30
0.0
 10
340.9424376268721
 20
287.0764157943302
 30
0.0
 10
340.9749607977731
 20
287.155794302952
 30
0.0
 10
341.0016321969244
 20
287.2062372089149
 30
0.0
 10
341.049193681189
 20
287.2780828006368
 30
0.0
 10
341.0663147162511
 20
287.3013906407091
 30
0.0
 10
341.1032119993147
 20
287.3466500802955
 30
0.0
 10
341.1227349338373
 20
287.368281747815
 30
0.0
 10
341.1841184851037
 20
287.429871851582
 30
0.0
 10
341.2289026873894
 20
287.4667245651553
 30
0.0
 10
341.3020189506221
 20
287.5154605266067
 30
0.0
 10
341.3275071679269
 20
287.5306552718562
 30
0.0
 10
341.3793807235586
 20
287.5581269515619
 30
0.0
 10
341.4323686169215
 20
287.582855232131
 30
0.0
 10
341.4875451789617
 20
287.6021787544004
 30
0.0
 10
341.5297584175512
 20
287.614614634404
 30
0.0
 10
341.5439682256159
 20
287.6184165058029
 30
0.0
 10
341.57267026209
 20
287.6253204215305
 30
0.0
 10
341.587198480961
 20
287.6284285399052
 30
0.0
 10
341.6600066300172
 20
287.6420748385056
 30
0.0
 10
341.7188696177773
 20
287.6470362132847
 30
0.0
 10
341.7782237619443
 20
287.6460001828444
 30
0.0
  0
SPLINE
  5
1B0
330
1F
100
AcDbEntity
  8
1
100
AcDbSpline
210
0.0
220
0.0
230
1.0
 70
     8
 71
     3
 72
    20
 73
    16
 74
     0
 42
0.000000001
 43
0.0000000001
 40
0.0
 40
0.0
 40
0.0
 40
0.0
 40
0.1249999999999965
 40
0.1249999999999965
 40
0.249999999999993
 40
0.249999999999993
 40
0.4999999999999939
 40
0.4999999999999939
 40
0.7499999999999948
 40
0.7499999999999948
 40
0.8124999999999971
 40
0.8124999999999971
 40
0.8749999999999996
 40
0.8749999999999996
 40
1.0
 40
1.0
 40
1.0
 40
1.0
 10
339.1116419452958
 20
289.9967633546532
 30
0.0
 10
338.9893826149753
 20
290.0232684728107
 30
0.0
 10
338.8657307592925
 20
290.0517409958427
 30
0.0
 10
338.6161475420595
 20
290.1128582615552
 30
0.0
 10
338.4902144239272
 20
290.1455026004098
 30
0.0
 10
338.1095615503256
 20
290.2500252765237
 30
0.0
 10
337.8520158143776
 20
290.3284907386522
 30
0.0
 10
337.3314972931733
 20
290.5047279562778
 30
0.0
 10
337.0685105813215
 20
290.6024912646204
 30
0.0
 10
336.7371887256201
 20
290.7379569238651
 30
0.0
 10
336.6707933901172
 20
290.7657139578531
 30
0.0
 10
336.5377554149106
 20
290.8225898924344
 30
0.0
 10
336.4710738326547
 20
290.8517263110961
 30
0.0
 10
336.2709741677704
 20
290.941099038918
 30
0.0
 10
336.1376175143998
 20
291.0032429934232
 30
0.0
 10
336.0043579175103
 20
291.0680381975684
 30
0.0
  0
SPLINE
  5
1B1
330
1F
100
AcDbEntity
  8
1
100
AcDbSpline
210
0.0
220
0.0
230
1.0
 70
     8
 71
     3
 72
    42
 73
    38
 74
     0
 42
0.000000001
 43
0.0000000001
 40
0.0
 40
0.0
 40
0.0
 40
0.0
 40
0.1250000000000018
 40
0.1250000000000018
 40
0.2500000000000037
 40
0.2500000000000037
 40
0.3750000000000004
 40
0.3750000000000004
 40
0.4062499999999973
 40
0.4062499999999973
 40
0.4374999999999943
 40
0.4374999999999943
 40
0.4999999999999968
 40
0.4999999999999968
 40
0.5624999999999993
 40
0.5624999999999993
 40
0.5937500000000007
 40
0.5937500000000007
 40
0.6250000000000022
 40
0.6250000000000022
 40
0.6875000000000052
 40
0.6875000000000052
 40
0.7187500000000064
 40
0.7187500000000064
 40
0.7500000000000079
 40
0.7500000000000079
 40
0.8125000000000078
 40
0.8125000000000078
 40
0.8437500000000071
 40
0.8437500000000071
 40
0.8593750000000062
 40
0.8593750000000062
 40
0.8750000000000055
 40
0.8750000000000055
 40
0.9375000000000028
 40
0.9375000000000028
 40
1.0
 40
1.0
 40
1.0
 40
1.0
 10
335.8640665852596
 20
291.4827203640132
 30
0.0
 10
336.0040594555445
 20
291.532766516034
 30
0.0
 10
336.141725298078
 20
291.5874634869587
 30
0.0
 10
336.4115104909541
 20
291.7079426987265
 30
0.0
 10
336.5436384657694
 20
291.7737077026199
 30
0.0
 10
336.8010669888241
 20
291.9188830674782
 30
0.0
 10
336.9263887246306
 20
291.9982510827787
 30
0.0
 10
337.0774721558195
 20
292.1085908336373
 30
0.0
 10
337.107407332206
 20
292.1312214119669
 30
0.0
 10
337.1666663700214
 20
292.1777043482809
 30
0.0
 10
337.1959963838675
 20
292.2015664877954
 30
0.0
 10
337.2822853769716
 20
292.2745389041368
 30
0.0
 10
337.3377829304019
 20
292.3252080382351
 30
0.0
 10
337.4441823988604
 20
292.4311247592711
 30
0.0
 10
337.4950880282261
 20
292.4863686457613
 30
0.0
 10
337.5674315074698
 20
292.5732344261892
 30
0.0
 10
337.5909285065287
 20
292.6029340820452
 30
0.0
 10
337.6360832379358
 20
292.6632909959423
 30
0.0
 10
337.6577617046197
 20
292.6939647637953
 30
0.0
 10
337.7199490167272
 20
292.7875554193999
 30
0.0
 10
337.7576245896971
 20
292.8520334955727
 30
0.0
 10
337.807639437593
 20
292.9523314165375
 30
0.0
 10
337.8232246572868
 20
292.9863626824088
 30
0.0
 10
337.8520328637977
 20
293.0557268505721
 30
0.0
 10
337.8652748290194
 20
293.0911159245711
 30
0.0
 10
337.9009833094057
 20
293.199075164279
 30
0.0
 10
337.9189862257423
 20
293.2720037967828
 30
0.0
 10
337.9367042936138
 20
293.3829263526028
 30
0.0
 10
337.9410591507576
 20
293.420156040281
 30
0.0
 10
337.9451565405744
 20
293.4764016391024
 30
0.0
 10
337.9461162517412
 20
293.4952170609772
 30
0.0
 10
337.9472019951028
 20
293.5329852253318
 30
0.0
 10
337.9473271674518
 20
293.5519780885815
 30
0.0
 10
337.9458185245907
 20
293.646817994807
 30
0.0
 10
337.9378438757864
 20
293.7214128562061
 30
0.0
 10
337.9091083035723
 20
293.8681898239529
 30
0.0
 10
337.8883427034137
 20
293.9403710478038
 30
0.0
 10
337.8613850843577
 20
294.0113838449365
 30
0.0
  0
SPLINE
  5
1B2
330
1F
100
AcDbEntity
  8
1
100
AcDbSpline
210
0.0
220
0.0
230
1.0
 70
    12
 71
     3
 72
    11
 73
     7
 74
     0
 42
0.000000001
 43
0.0000000001
 40
0.0
 40
0.0
 40
0.0
 40
0.0
 40
0.0309943505575473
 40
0.2351970402696524
 40
0.6436024196938629
 40
1.0
 40
1.0
 40
1.0
 40
1.0
 10
313.4540141842179
 20
294.0232404438345
 30
0.0
 41
1.001504870771275
 10
313.7005119747506
 20
294.0477219387749
 30
0.0
 41
1.001516115548719
 10
315.5746508240439
 20
294.232295899282
 30
0.0
 41
1.001590735538974
 10
320.836640997579
 20
294.7119102565864
 30
0.0
 41
1.001428862004017
 10
328.7403239150275
 20
294.1281913050463
 30
0.0
 41
1.0015525532553
 10
334.9973964960624
 20
293.8192118162876
 30
0.0
 41
1.001473539815691
 10
337.8613850843577
 20
294.0113838449365
 30
0.0
 41
1.001488080957252
  0
SPLINE
  5
1B3
330
1F
100
AcDbEntity
  8
1
100
AcDbSpline
210
0.0
220
0.0
230
1.0
 70
     8
 71
     3
 72
    32
 73
    28
 74
     0
 42
0.000000001
 43
0.0000000001
 40
0.0
 40
0.0
 40
0.0
 40
0.0
 40
0.1249999999999978
 40
0.1249999999999978
 40
0.2499999999999956
 40
0.2499999999999956
 40
0.3749999999999934
 40
0.3749999999999934
 40
0.406249999999993
 40
0.4218749999999928
 40
0.4218749999999928
 40
0.4374999999999927
 40
0.4374999999999927
 40
0.4999999999999928
 40
0.4999999999999928
 40
0.6249999999999939
 40
0.6249999999999939
 40
0.7499999999999949
 40
0.7499999999999949
 40
0.8124999999999962
 40
0.8124999999999962
 40
0.8437499999999962
 40
0.8437499999999962
 40
0.859374999999996
 40
0.859374999999996
 40
0.874999999999996
 40
1.0
 40
1.0
 40
1.0
 40
1.0
 10
286.0972301007209
 20
283.7488505304992
 30
0.0
 10
286.3993030614691
 20
283.9347359765009
 30
0.0
 10
286.7138732651339
 20
284.1083750279018
 30
0.0
 10
287.367325078729
 20
284.4318297100967
 30
0.0
 10
287.7062084515941
 20
284.5816436133424
 30
0.0
 10
288.4083678163472
 20
284.8573684165954
 30
0.0
 10
288.7716422617792
 20
284.9832808320181
 30
0.0
 10
289.2415010988699
 20
285.1252220263504
 30
0.0
 10
289.3836440939696
 20
285.1666428332483
 30
0.0
 10
289.5275888358638
 20
285.2062980585407
 30
0.0
 10
289.6239554248353
 20
285.2323395454126
 30
0.0
 10
289.6723105199904
 20
285.2451541862893
 30
0.0
 10
289.9144055495201
 20
285.3080571724209
 30
0.0
 10
290.1095980858732
 20
285.3547715258346
 30
0.0
 10
290.6996481706256
 20
285.4842738240664
 30
0.0
 10
291.0989685880813
 20
285.5564438626585
 30
0.0
 10
291.9093574800957
 20
285.6728333620691
 30
0.0
 10
292.320426684714
 20
285.7170510859542
 30
0.0
 10
292.9459487775123
 20
285.7621595894505
 30
0.0
 10
293.1559447857758
 20
285.7736540261298
 30
0.0
 10
293.4732060376997
 20
285.7855015419973
 30
0.0
 10
293.5793378112082
 20
285.788551334808
 30
0.0
 10
293.7391081913701
 20
285.7917634283249
 30
0.0
 10
293.7924627642889
 20
285.7926067338454
 30
0.0
 10
293.8991477641822
 20
285.7938352450075
 30
0.0
 10
294.3793635211633
 20
285.7973038633334
 30
0.0
 10
294.8607701538124
 20
285.7823658195455
 30
0.0
 10
295.289618256146
 20
285.7546961644383
 30
0.0
  0
SPLINE
  5
1B4
330
1F
100
AcDbEntity
  8
1
100
AcDbSpline
210
0.0
220
0.0
230
1.0
 70
     8
 71
     3
 72
    32
 73
    28
 74
     0
 42
0.000000001
 43
0.0000000001
 40
0.0
 40
0.0
 40
0.0
 40
0.0
 40
0.0624999999999995
 40
0.0624999999999995
 40
0.124999999999999
 40
0.124999999999999
 40
0.1874999999999986
 40
0.1874999999999986
 40
0.2499999999999981
 40
0.2499999999999981
 40
0.2656249999999982
 40
0.2812499999999983
 40
0.2812499999999983
 40
0.3124999999999984
 40
0.3124999999999984
 40
0.3749999999999988
 40
0.3749999999999988
 40
0.4999999999999992
 40
0.4999999999999992
 40
0.6249999999999997
 40
0.6249999999999997
 40
0.7500000000000001
 40
0.7500000000000001
 40
0.8125000000000001
 40
0.8750000000000001
 40
0.9375
 40
1.0
 40
1.0
 40
1.0
 40
1.0
 10
279.4048419452957
 20
274.6830934280097
 30
0.0
 10
279.5257022625253
 20
274.6992145619399
 30
0.0
 10
279.6497825392501
 20
274.7252079424305
 30
0.0
 10
279.9031569178797
 20
274.792630730664
 30
0.0
 10
280.0324597431389
 20
274.8340903645477
 30
0.0
 10
280.2954490904115
 20
274.9296051663305
 30
0.0
 10
280.4291397582943
 20
274.9836745974113
 30
0.0
 10
280.7002590548898
 20
275.1023047871748
 30
0.0
 10
280.8376898876489
 20
275.166873029852
 30
0.0
 10
281.0114718685765
 20
275.2530993345093
 30
0.0
 10
281.0811839861356
 20
275.2881426595468
 30
0.0
 10
281.1512803672531
 20
275.3242473391205
 30
0.0
 10
281.2564953914323
 20
275.3790575233751
 30
0.0
 10
281.3268026365873
 20
275.4165032404905
 30
0.0
 10
281.5381668965518
 20
275.5312925259584
 30
0.0
 10
281.6796662333057
 20
275.6110811645304
 30
0.0
 10
282.1055540840102
 20
275.8584265091662
 30
0.0
 10
282.3913338524688
 20
276.0338945995068
 30
0.0
 10
282.9646058801659
 20
276.3985697321141
 30
0.0
 10
283.2520973242761
 20
276.5877945840168
 30
0.0
 10
283.8267730261179
 20
276.9746896048222
 30
0.0
 10
284.1139496697408
 20
277.1723529408569
 30
0.0
 10
284.5430393553652
 20
277.4726361361077
 30
0.0
 10
284.8285441992762
 20
277.6741198664459
 30
0.0
 10
285.2545181918053
 20
277.9795863431422
 30
0.0
 10
285.677708267028
 20
278.2881164517269
 30
0.0
 10
285.9577517460008
 20
278.4960539071796
 30
0.0
 10
286.0972301007209
 20
278.6007184801492
 30
0.0
  0
SPLINE
  5
1B5
330
1F
100
AcDbEntity
  8
1
100
AcDbSpline
210
0.0
220
0.0
230
1.0
 70
     8
 71
     3
 72
    27
 73
    23
 74
     0
 42
0.000000001
 43
0.0000000001
 40
0.0
 40
0.0
 40
0.0
 40
0.0
 40
0.124999999999999
 40
0.124999999999999
 40
0.2499999999999981
 40
0.3749999999999971
 40
0.3749999999999971
 40
0.4062499999999973
 40
0.4062499999999973
 40
0.4374999999999975
 40
0.4374999999999975
 40
0.4999999999999979
 40
0.4999999999999979
 40
0.624999999999999
 40
0.75
 40
0.75
 40
0.8125000000000003
 40
0.8125000000000003
 40
0.843750000000001
 40
0.843750000000001
 40
0.8750000000000014
 40
1.0
 40
1.0
 40
1.0
 40
1.0
 10
278.3695026883591
 20
276.5687947658761
 30
0.0
 10
278.3614964035388
 20
276.4744204619932
 30
0.0
 10
278.3605011594416
 20
276.3816983480486
 30
0.0
 10
278.3719119731023
 20
276.1994328563165
 30
0.0
 10
278.3967280416613
 20
276.0203465544188
 30
0.0
 10
278.4479419186307
 20
275.847445032792
 30
0.0
 10
278.4883109846626
 20
275.7412801133332
 30
0.0
 10
278.4968037676235
 20
275.7201421306489
 30
0.0
 10
278.5146339330538
 20
275.6780556082545
 30
0.0
 10
278.5239552523294
 20
275.6571474774628
 30
0.0
 10
278.5530274657291
 20
275.5950354965342
 30
0.0
 10
278.5739228641522
 20
275.5543554001108
 30
0.0
 10
278.6410336499658
 20
275.4344105117606
 30
0.0
 10
278.7422913870883
 20
275.28006326654
 30
0.0
 10
278.8664173116921
 20
275.1361482868029
 30
0.0
 10
278.968081370869
 20
275.0319385236363
 30
0.0
 10
279.0034001975705
 20
274.9978238591892
 30
0.0
 10
279.058547226101
 20
274.9475688726988
 30
0.0
 10
279.0772863151911
 20
274.9309756113259
 30
0.0
 10
279.1153512692023
 20
274.8982100421025
 30
0.0
 10
279.2120647492279
 20
274.8172749288919
 30
0.0
 10
279.3164534314857
 20
274.741126621567
 30
0.0
 10
279.4048419452957
 20
274.6830934280097
 30
0.0
  0
SPLINE
  5
1B6
330
1F
100
AcDbEntity
  8
1
100
AcDbSpline
210
0.0
220
0.0
230
1.0
 70
     8
 71
     3
 72
    60
 73
    56
 74
     0
 42
0.000000001
 43
0.0000000001
 40
0.0
 40
0.0
 40
0.0
 40
0.0
 40
0.0625000000000003
 40
0.0625000000000003
 40
0.1250000000000007
 40
0.1250000000000007
 40
0.1875000000000011
 40
0.1875000000000011
 40
0.2187500000000011
 40
0.2187500000000011
 40
0.2500000000000011
 40
0.2500000000000011
 40
0.3125000000000012
 40
0.3125000000000012
 40
0.3437500000000014
 40
0.3437500000000014
 40
0.3750000000000017
 40
0.3750000000000017
 40
0.4062500000000022
 40
0.4062500000000022
 40
0.4375000000000023
 40
0.4375000000000023
 40
0.4687500000000026
 40
0.4687500000000026
 40
0.5000000000000029
 40
0.5000000000000029
 40
0.5312500000000032
 40
0.5312500000000032
 40
0.5625000000000035
 40
0.5625000000000035
 40
0.5781250000000034
 40
0.5781250000000034
 40
0.5937500000000032
 40
0.5937500000000032
 40
0.6250000000000025
 40
0.6250000000000025
 40
0.6875000000000009
 40
0.6875000000000009
 40
0.7187500000000002
 40
0.7187500000000002
 40
0.734375
 40
0.734375
 40
0.7499999999999995
 40
0.7499999999999995
 40
0.8124999999999996
 40
0.8124999999999996
 40
0.8437499999999996
 40
0.8437499999999996
 40
0.8749999999999998
 40
0.8749999999999998
 40
0.9062499999999998
 40
0.9062499999999998
 40
0.9375
 40
0.96875
 40
1.0
 40
1.0
 40
1.0
 40
1.0
 10
297.9048419452957
 20
285.5876916007392
 30
0.0
 10
298.6830845139201
 20
285.4908125972335
 30
0.0
 10
299.4613196532585
 20
285.3953370849322
 30
0.0
 10
301.0175231461415
 20
285.2057650494552
 30
0.0
 10
301.7954927932506
 20
285.1116701851236
 30
0.0
 10
303.3507322068036
 20
284.9226427241279
 30
0.0
 10
304.1280022508416
 20
284.8277035172975
 30
0.0
 10
305.2928987076287
 20
284.6824421670569
 30
0.0
 10
305.6810277151944
 20
284.6335409295786
 30
0.0
 10
306.4568472662942
 20
284.534369467388
 30
0.0
 10
306.844571900649
 20
284.4840935430383
 30
0.0
 10
308.0067016153372
 20
284.3306403347645
 30
0.0
 10
308.7796011867669
 20
284.2248390777298
 30
0.0
 10
309.9350861178513
 20
284.0592101340429
 30
0.0
 10
310.3196037950492
 20
284.0028579874838
 30
0.0
 10
311.0871959381857
 20
283.88781833658
 30
0.0
 10
311.470269686443
 20
283.8291288998097
 30
0.0
 10
312.2348599466168
 20
283.7095941447251
 30
0.0
 10
312.6163757603128
 20
283.6487475610558
 30
0.0
 10
313.3778003081735
 20
283.5253619015393
 30
0.0
 10
313.7577084803103
 20
283.462822661463
 30
0.0
 10
314.5159514477089
 20
283.3368220312576
 30
0.0
 10
314.8942686295058
 20
283.2733322866385
 30
0.0
 10
315.6501017675038
 20
283.1480720551401
 30
0.0
 10
316.0276809923079
 20
283.0862969256385
 30
0.0
 10
316.7824374818672
 20
282.9665040447243
 30
0.0
 10
317.1595399886723
 20
282.9084944956049
 30
0.0
 10
317.9138314337988
 20
282.797514050709
 30
0.0
 10
318.2910198348977
 20
282.7445383380602
 30
0.0
 10
318.8572530503642
 20
282.6693674862438
 30
0.0
 10
319.0460720974182
 20
282.6450227287855
 30
0.0
 10
319.423911668027
 20
282.5977985507279
 30
0.0
 10
319.6129288860832
 20
282.5749130356952
 30
0.0
 10
320.1802715437734
 20
282.5083618600321
 30
0.0
 10
320.5588858223621
 20
282.4667984098238
 30
0.0
 10
321.6959609895881
 20
282.3500828196183
 30
0.0
 10
322.4556317176629
 20
282.2829084156147
 30
0.0
 10
323.5983949290754
 20
282.1968345227343
 30
0.0
 10
323.9798651733677
 20
282.1705931709863
 30
0.0
 10
324.5530406660326
 20
282.1347223804414
 30
0.0
 10
324.7442610765696
 20
282.1233469211248
 30
0.0
 10
325.1270523420758
 20
282.1017225061341
 30
0.0
 10
325.3186380215448
 20
282.09147297827
 30
0.0
 10
326.2769378250308
 20
282.0429663484001
 30
0.0
 10
327.0451813526829
 20
282.0129545323034
 30
0.0
 10
328.2010543450061
 20
281.978447090182
 30
0.0
 10
328.5869307442052
 20
281.9686863875956
 30
0.0
 10
329.3600413723932
 20
281.952104857131
 30
0.0
 10
329.7472983177905
 20
281.9452847542397
 30
0.0
 10
330.5228329555812
 20
281.9337601884077
 30
0.0
 10
330.9111081813689
 20
281.929055836814
 30
0.0
 10
331.6882660834195
 20
281.9212150870105
 30
0.0
 10
332.4660312862164
 20
281.9149443760962
 30
0.0
 10
333.6332520881754
 20
281.9093426191484
 30
0.0
 10
334.4109351872124
 20
281.9079935137005
 30
0.0
 10
334.7994456813538
 20
281.9079935137005
 30
0.0
  0
SPLINE
  5
1B7
330
1F
100
AcDbEntity
  8
1
100
AcDbSpline
210
0.0
220
0.0
230
1.0
 70
     8
 71
     3
 72
    71
 73
    67
 74
     0
 42
0.000000001
 43
0.0000000001
 40
0.0
 40
0.0
 40
0.0
 40
0.0
 40
0.0625000000000001
 40
0.0625000000000001
 40
0.1250000000000002
 40
0.1250000000000002
 40
0.1562500000000004
 40
0.1562500000000004
 40
0.1875000000000006
 40
0.1875000000000006
 40
0.2187500000000008
 40
0.2187500000000008
 40
0.2500000000000009
 40
0.2500000000000009
 40
0.2812500000000011
 40
0.2812500000000011
 40
0.3125000000000013
 40
0.3125000000000013
 40
0.3437500000000014
 40
0.3437500000000014
 40
0.3750000000000017
 40
0.3750000000000017
 40
0.3906250000000015
 40
0.3906250000000015
 40
0.4062500000000015
 40
0.4062500000000015
 40
0.4375000000000011
 40
0.4375000000000011
 40
0.4687500000000008
 40
0.4687500000000008
 40
0.5000000000000006
 40
0.5000000000000006
 40
0.5312500000000004
 40
0.5312500000000004
 40
0.5625
 40
0.5625
 40
0.5937499999999999
 40
0.5937499999999999
 40
0.6249999999999995
 40
0.6249999999999995
 40
0.6562499999999992
 40
0.6562499999999992
 40
0.687499999999999
 40
0.687499999999999
 40
0.7499999999999984
 40
0.7499999999999984
 40
0.7812499999999984
 40
0.7812499999999984
 40
0.8124999999999984
 40
0.8124999999999984
 40
0.8437499999999982
 40
0.8437499999999982
 40
0.8749999999999982
 40
0.8749999999999982
 40
0.8906249999999984
 40
0.8906249999999984
 40
0.9062499999999987
 40
0.9062499999999987
 40
0.9374999999999992
 40
0.9374999999999992
 40
0.9531249999999992
 40
0.9687499999999996
 40
0.9687499999999996
 40
0.984375
 40
0.984375
 40
1.0
 40
1.0
 40
1.0
 40
1.0
 10
297.9048419452957
 20
295.444892291139
 30
0.0
 10
298.7742945899837
 20
295.4122920191339
 30
0.0
 10
299.6422978884627
 20
295.3743243861353
 30
0.0
 10
301.3752194149883
 20
295.2845719807074
 30
0.0
 10
302.240132118315
 20
295.2327611869775
 30
0.0
 10
303.535228520013
 20
295.1423733023844
 30
0.0
 10
303.9665510541423
 20
295.1101347282003
 30
0.0
 10
304.8284894378257
 20
295.0411480820688
 30
0.0
 10
305.2590118156864
 20
295.0044053804535
 30
0.0
 10
306.1190160137855
 20
294.9262770337353
 30
0.0
 10
306.5485352658468
 20
294.88488689477
 30
0.0
 10
307.4067530778013
 20
294.7974562990517
 30
0.0
 10
307.8354517792114
 20
294.7514147800496
 30
0.0
 10
308.6922211455567
 20
294.6548856254583
 30
0.0
 10
309.1202921993349
 20
294.6043977923263
 30
0.0
 10
309.9760388561194
 20
294.4994062545742
 30
0.0
 10
310.4037150682677
 20
294.444903478778
 30
0.0
 10
311.2589294068221
 20
294.3325281607266
 30
0.0
 10
311.6864566545906
 20
294.2746590316727
 30
0.0
 10
312.5414642383427
 20
294.1563926811572
 30
0.0
 10
312.9689673920748
 20
294.0959953364422
 30
0.0
 10
313.6104174462304
 20
294.0041837596413
 30
0.0
 10
313.8242665157295
 20
293.9733777792092
 30
0.0
 10
314.2520592889008
 20
293.911477018685
 30
0.0
 10
314.4660076982441
 20
293.8803986492421
 30
0.0
 10
315.1079630499869
 20
293.7866503629101
 30
0.0
 10
315.5360693080581
 20
293.7234343909285
 30
0.0
 10
316.3923199966309
 20
293.5948080332447
 30
0.0
 10
316.8204650588862
 20
293.529397260641
 30
0.0
 10
317.6766831704264
 20
293.3959552973954
 30
0.0
 10
318.1047644632337
 20
293.3279245209798
 30
0.0
 10
318.9606713267513
 20
293.1891641257977
 30
0.0
 10
319.3885086191123
 20
293.1183950501769
 30
0.0
 10
320.2440786442884
 20
292.9745301866638
 30
0.0
 10
320.6718241256473
 20
292.9014837695757
 30
0.0
 10
321.5273832896778
 20
292.753746876431
 30
0.0
 10
321.9551963134541
 20
292.6790548826287
 30
0.0
 10
322.8109718496214
 20
292.5283877391827
 30
0.0
 10
323.2389338626487
 20
292.4524113445573
 30
0.0
 10
324.0950417107721
 20
292.2993585920358
 30
0.0
 10
324.5232043576856
 20
292.2222782699357
 30
0.0
 10
325.3795577122106
 20
292.067083095301
 30
0.0
 10
325.8077628704806
 20
291.9889654141078
 30
0.0
 10
327.0924264320096
 20
291.7529152802099
 30
0.0
 10
327.9489477445718
 20
291.5933653759182
 30
0.0
 10
329.2334532383064
 20
291.3489577058479
 30
0.0
 10
329.6615749312368
 20
291.2666362551548
 30
0.0
 10
330.5175583226703
 20
291.099476066218
 30
0.0
 10
330.9454340927148
 20
291.0146049129864
 30
0.0
 10
331.8007984045943
 20
290.8422688404529
 30
0.0
 10
332.2282853296027
 20
290.7547888001764
 30
0.0
 10
333.0831421769762
 20
290.5784242684663
 30
0.0
 10
333.5105087134162
 20
290.489521453029
 30
0.0
 10
334.1519467880287
 20
290.3573276709204
 30
0.0
 10
334.3658273922911
 20
290.3134720597703
 30
0.0
 10
334.7938470702555
 20
290.2267619928793
 30
0.0
 10
335.0080083236584
 20
290.1839027402223
 30
0.0
 10
335.6509030053187
 20
290.057981458647
 30
0.0
 10
336.0800339792746
 20
289.9774832342624
 30
0.0
 10
336.7253965610183
 20
289.8679932926625
 30
0.0
 10
337.1561998659585
 20
289.7987973564365
 30
0.0
 10
337.588493664632
 20
289.7397943522107
 30
0.0
 10
338.0217458957726
 20
289.6873972360638
 30
0.0
 10
338.2388510341523
 20
289.6645003940237
 30
0.0
 10
338.6742682118402
 20
289.6270687347582
 30
0.0
 10
338.8925797180109
 20
289.6125304784268
 30
0.0
 10
339.1116419452958
 20
289.6032091621511
 30
0.0
  0
SPLINE
  5
1B8
330
1F
100
AcDbEntity
  8
1
100
AcDbSpline
210
0.0
220
0.0
230
1.0
 70
     8
 71
     3
 72
    44
 73
    40
 74
     0
 42
0.000000001
 43
0.0000000001
 40
0.0
 40
0.0
 40
0.0
 40
0.0
 40
0.043454644898033
 40
0.043454644898033
 40
0.086909289796066
 40
0.086909289796066
 40
0.130363934694099
 40
0.130363934694099
 40
0.1738185795921319
 40
0.2172732244901649
 40
0.2607278693881979
 40
0.2607278693881979
 40
0.2824551918372142
 40
0.2824551918372142
 40
0.3041825142862302
 40
0.3041825142862302
 40
0.3476371591842625
 40
0.3476371591842625
 40
0.4345464489803269
 40
0.4345464489803269
 40
0.5214557387763916
 40
0.5214557387763916
 40
0.608365028572456
 40
0.608365028572456
 40
0.6518196734704885
 40
0.6518196734704885
 40
0.6952743183685212
 40
0.6952743183685212
 40
0.7387289632665539
 40
0.7387289632665539
 40
0.7821836081645866
 40
0.7821836081645866
 40
0.8690928979606516
 40
0.8690928979606516
 40
0.9560021877567168
 40
0.9560021877567168
 40
0.9994568326547495
 40
0.9994568326547495
 40
1.0
 40
1.0
 40
1.0
 40
1.0
 10
337.2012956809121
 20
295.7744787884956
 30
0.0
 10
336.8035289692507
 20
295.7989286153422
 30
0.0
 10
336.4039342524457
 20
295.8185273447272
 30
0.0
 10
335.6015242003862
 20
295.850580861899
 30
0.0
 10
335.1987075540732
 20
295.8630296621204
 30
0.0
 10
334.3902937410868
 20
295.8826918251255
 30
0.0
 10
333.9846956422275
 20
295.8899019539305
 30
0.0
 10
333.1712007293926
 20
295.9004981838977
 30
0.0
 10
332.3554061768921
 20
295.9072677416852
 30
0.0
 10
331.1264548623209
 20
295.9088993548128
 30
0.0
 10
330.3048915574016
 20
295.9054921737709
 30
0.0
 10
329.6883937683285
 20
295.9014094307753
 30
0.0
 10
329.4828408663025
 20
295.8997909746016
 30
0.0
 10
329.0717213943682
 20
295.8960285791283
 30
0.0
 10
328.8661602575561
 20
295.8938825517064
 30
0.0
 10
328.2494938719959
 20
295.8866370667715
 30
0.0
 10
327.8384062564564
 20
295.8807320842067
 30
0.0
 10
326.6054947997554
 20
295.8596759242813
 30
0.0
 10
325.783955860179
 20
295.8411870406932
 30
0.0
 10
324.1418763463098
 20
295.7944219934988
 30
0.0
 10
323.3213300572226
 20
295.7661407267265
 30
0.0
 10
321.6812152661865
 20
295.6988413961209
 30
0.0
 10
320.8616274582113
 20
295.6598583527112
 30
0.0
 10
319.6330735835231
 20
295.5923506321533
 30
0.0
 10
319.2237004408972
 20
295.5683301712292
 30
0.0
 10
318.40531223752
 20
295.5169393660295
 30
0.0
 10
317.9962911629357
 20
295.4895771190276
 30
0.0
 10
317.1785815385759
 20
295.4313156155742
 30
0.0
 10
316.7699552201295
 20
295.4004171739283
 30
0.0
 10
315.9532137751479
 20
295.3349692789213
 30
0.0
 10
315.5450853552477
 20
295.3004154400315
 30
0.0
 10
314.3212795440215
 20
295.1913489442695
 30
0.0
 10
313.5061957847256
 20
295.1113253290527
 30
0.0
 10
311.8760765958869
 20
294.9400572891575
 30
0.0
 10
311.0610216131022
 20
294.8488683298947
 30
0.0
 10
309.8372829206493
 20
294.7078428551683
 30
0.0
 10
309.4291789507158
 20
294.6601382780876
 30
0.0
 10
309.0157000445113
 20
294.6115034051853
 30
0.0
 10
309.010595470254
 20
294.6109029405271
 30
0.0
 10
309.0054908536016
 20
294.6103024252597
 30
0.0
  0
SPLINE
  5
1B9
330
1F
100
AcDbEntity
  8
1
100
AcDbSpline
210
0.0
220
0.0
230
1.0
 70
     8
 71
     3
 72
    33
 73
    29
 74
     0
 42
0.000000001
 43
0.0000000001
 40
0.0
 40
0.0
 40
0.0
 40
0.0
 40
0.0624999999999999
 40
0.0624999999999999
 40
0.1249999999999999
 40
0.1249999999999999
 40
0.2499999999999998
 40
0.2499999999999998
 40
0.2812499999999998
 40
0.2812499999999998
 40
0.3124999999999997
 40
0.3124999999999997
 40
0.3749999999999997
 40
0.3749999999999997
 40
0.4374999999999998
 40
0.4374999999999998
 40
0.4999999999999998
 40
0.4999999999999998
 40
0.6249999999999993
 40
0.6249999999999993
 40
0.7499999999999991
 40
0.7499999999999991
 40
0.7812499999999992
 40
0.7812499999999992
 40
0.8124999999999992
 40
0.8749999999999996
 40
0.8749999999999996
 40
1.0
 40
1.0
 40
1.0
 40
1.0
 10
295.289618256146
 20
282.0292017870624
 30
0.0
 10
295.0589228327463
 20
282.0232176740482
 30
0.0
 10
294.8307330070108
 20
282.0101702672045
 30
0.0
 10
294.3789136809647
 20
281.9714550331905
 30
0.0
 10
294.1552850181795
 20
281.9457872362593
 30
0.0
 10
293.4906915040691
 20
281.8518964651653
 30
0.0
 10
293.055995446817
 20
281.7668657332416
 30
0.0
 10
292.5216953675037
 20
281.6382065469842
 30
0.0
 10
292.4152907944289
 20
281.6113499476652
 30
0.0
 10
292.203365178602
 20
281.5555035290972
 30
0.0
 10
292.0977121601726
 20
281.5264742831457
 30
0.0
 10
291.7835655377352
 20
281.4367906415267
 30
0.0
 10
291.5775637836433
 20
281.3734784660007
 30
0.0
 10
291.1717678352399
 20
281.2407513299122
 30
0.0
 10
290.9719745874175
 20
281.1713349260548
 30
0.0
 10
290.5780955672288
 20
281.0270958391657
 30
0.0
 10
290.3840104622598
 20
280.9522719476624
 30
0.0
 10
289.809753179262
 20
280.7204297484765
 30
0.0
 10
289.4375333523646
 20
280.5561086518186
 30
0.0
 10
288.7125618752096
 20
280.2099623680812
 30
0.0
 10
288.3598203385637
 20
280.028113311442
 30
0.0
 10
287.9308127303661
 20
279.7899082570896
 30
0.0
 10
287.8455928116597
 20
279.7417088926636
 30
0.0
 10
287.676427784989
 20
279.6442432555071
 30
0.0
 10
287.4249791000573
 20
279.4966669294373
 30
0.0
 10
287.1803893492541
 20
279.3449428476241
 30
0.0
 10
286.7003594889682
 20
279.0358567896687
 30
0.0
 10
286.3925111006195
 20
278.8222973754728
 30
0.0
 10
286.0972301007209
 20
278.6007184801492
 30
0.0
  0
SPLINE
  5
1BA
330
1F
100
AcDbEntity
  8
1
100
AcDbSpline
210
0.0
220
0.0
230
1.0
 70
     8
 71
     3
 72
    40
 73
    36
 74
     0
 42
0.000000001
 43
0.0000000001
 40
0.0
 40
0.0
 40
0.0
 40
0.0
 40
0.1249999999999902
 40
0.1249999999999902
 40
0.2499999999999803
 40
0.2499999999999803
 40
0.3749999999999705
 40
0.3749999999999705
 40
0.437499999999976
 40
0.437499999999976
 40
0.4999999999999812
 40
0.4999999999999812
 40
0.5624999999999867
 40
0.5624999999999867
 40
0.5937499999999884
 40
0.5937499999999884
 40
0.6249999999999899
 40
0.6249999999999899
 40
0.6874999999999919
 40
0.6874999999999919
 40
0.7499999999999937
 40
0.7499999999999937
 40
0.7812499999999946
 40
0.7812499999999946
 40
0.8124999999999953
 40
0.8124999999999953
 40
0.8437499999999962
 40
0.8437499999999962
 40
0.8749999999999971
 40
0.8749999999999971
 40
0.9062499999999978
 40
0.9062499999999978
 40
0.9374999999999987
 40
0.9374999999999987
 40
1.0
 40
1.0
 40
1.0
 40
1.0
 10
336.0043579175154
 20
291.0680381975666
 30
0.0
 10
335.9818173550614
 20
291.0789981612754
 30
0.0
 10
335.959924433536
 20
291.0906498978875
 30
0.0
 10
335.917617141105
 20
291.1155404086589
 30
0.0
 10
335.897199266038
 20
291.1287754733766
 30
0.0
 10
335.8581721843597
 20
291.157192202003
 30
0.0
 10
335.8395525554848
 20
291.172362864738
 30
0.0
 10
335.8134760269556
 20
291.1971121086548
 30
0.0
 10
335.8050957522444
 20
291.2056973305377
 30
0.0
 10
335.7891212027086
 20
291.2237115495699
 30
0.0
 10
335.7815311201862
 20
291.2331473105082
 30
0.0
 10
335.7677075660305
 20
291.2526575163543
 30
0.0
 10
335.7614283194099
 20
291.2627738625668
 30
0.0
 10
335.7532626406567
 20
291.2786601945015
 30
0.0
 10
335.7507511903209
 20
291.2840751478669
 30
0.0
 10
335.746231034975
 20
291.2951896301544
 30
0.0
 10
335.7442250394908
 20
291.3008916769174
 30
0.0
 10
335.7392088443028
 20
291.3181964968546
 30
0.0
 10
335.7371333002729
 20
291.3300973827368
 30
0.0
 10
335.7366349521693
 20
291.3548145982549
 30
0.0
 10
335.7382307638939
 20
291.3671576632182
 30
0.0
 10
335.7441219812185
 20
291.3856305589324
 30
0.0
 10
335.74664966736
 20
291.3916765943133
 30
0.0
 10
335.7527220081247
 20
291.4033057992496
 30
0.0
 10
335.756278561288
 20
291.4089277309699
 30
0.0
 10
335.7644148579014
 20
291.4197912172394
 30
0.0
 10
335.7689950156997
 20
291.4250155475702
 30
0.0
 10
335.7787836096145
 20
291.4347641434782
 30
0.0
 10
335.7840277470232
 20
291.4393393395927
 30
0.0
 10
335.795126779862
 20
291.4479668200111
 30
0.0
 10
335.800967286051
 20
291.452001685662
 30
0.0
 10
335.8128840896687
 20
291.4594434889559
 30
0.0
 10
335.8189970037208
 20
291.4628791694737
 30
0.0
 10
335.8377186332429
 20
291.4724792459551
 30
0.0
 10
335.8507061830485
 20
291.4779441442048
 30
0.0
 10
335.8640665852582
 20
291.4827203640127
 30
0.0
  0
SPLINE
  5
1BB
330
1F
100
AcDbEntity
  8
1
100
AcDbSpline
210
0.0
220
0.0
230
1.0
 70
     8
 71
     3
 72
     8
 73
     4
 74
     0
 42
0.000000001
 43
0.0000000001
 40
0.0
 40
0.0
 40
0.0
 40
0.0
 40
1.0
 40
1.0
 40
1.0
 40
1.0
 10
297.381907108558
 20
282.0774981791877
 30
0.0
 10
297.5562175878732
 20
282.0841596756135
 30
0.0
 10
297.7305292108225
 20
282.0875871068647
 30
0.0
 10
297.9048419452957
 20
282.0875871068647
 30
0.0
  0
SPLINE
  5
1BC
330
1F
100
AcDbEntity
  8
1
100
AcDbSpline
210
0.0
220
0.0
230
1.0
 70
     8
 71
     3
 72
    22
 73
    18
 74
     0
 42
0.000000001
 43
0.0000000001
 40
0.0
 40
0.0
 40
0.0
 40
0.0
 40
0.125000000000001
 40
0.125000000000001
 40
0.1875000000000016
 40
0.1875000000000016
 40
0.2500000000000021
 40
0.2500000000000021
 40
0.3750000000000018
 40
0.3750000000000018
 40
0.5000000000000016
 40
0.5000000000000016
 40
0.6250000000000014
 40
0.6250000000000014
 40
0.7500000000000011
 40
0.7500000000000011
 40
1.0
 40
1.0
 40
1.0
 40
1.0
 10
313.4308919003578
 20
283.1775287773427
 30
0.0
 10
312.7926714262719
 20
283.08869897555
 30
0.0
 10
312.1523401754542
 20
283.0087881336774
 30
0.0
 10
311.1893888821303
 20
282.8990888848909
 30
0.0
 10
310.8679933392402
 20
282.8642314410749
 30
0.0
 10
310.2244640929227
 20
282.7975514878422
 30
0.0
 10
309.9023376556656
 20
282.7657309018952
 30
0.0
 10
308.9355782667713
 20
282.6744237927735
 30
0.0
 10
308.2903461896887
 20
282.6190451653417
 30
0.0
 10
306.9985722362094
 20
282.5174823485932
 30
0.0
 10
306.3520285235329
 20
282.4713112514747
 30
0.0
 10
305.0576442933604
 20
282.3869811818259
 30
0.0
 10
304.4098023329817
 20
282.3488298345318
 30
0.0
 10
303.1127602001823
 20
282.2796199618825
 30
0.0
 10
302.4635590821248
 20
282.248565204072
 30
0.0
 10
300.5137682283029
 20
282.164809870977
 30
0.0
 10
299.2109806044728
 20
282.1215305147485
 30
0.0
 10
297.9048419452957
 20
282.0875871068647
 30
0.0
  0
SPLINE
  5
1BD
330
1F
100
AcDbEntity
  8
1
100
AcDbSpline
210
0.0
220
0.0
230
1.0
 70
     8
 71
     3
 72
    10
 73
     6
 74
     0
 42
0.000000001
 43
0.0000000001
 40
0.0
 40
0.0
 40
0.0
 40
0.0
 40
0.5
 40
0.5
 40
1.0
 40
1.0
 40
1.0
 40
1.0
 10
295.289618256146
 20
282.0292017870624
 30
0.0
 10
295.6373242776916
 20
282.038221090948
 30
0.0
 10
295.9855058460495
 20
282.0469646371467
 30
0.0
 10
296.6828981699988
 20
282.0632822954523
 30
0.0
 10
297.0321095356257
 20
282.0708556842891
 30
0.0
 10
297.3819071085614
 20
282.0774981791877
 30
0.0
  0
SPLINE
  5
1BE
330
1F
100
AcDbEntity
  8
1
100
AcDbSpline
210
0.0
220
0.0
230
1.0
 70
     8
 71
     3
 72
    10
 73
     6
 74
     0
 42
0.000000001
 43
0.0000000001
 40
0.0
 40
0.0
 40
0.0
 40
0.0
 40
0.5
 40
0.5
 40
1.0
 40
1.0
 40
1.0
 40
1.0
 10
297.4112772267933
 20
295.4573130778822
 30
0.0
 10
297.0566728246503
 20
295.4660979145845
 30
0.0
 10
296.7025891242372
 20
295.4766219013048
 30
0.0
 10
295.9953888096336
 20
295.5005182390702
 30
0.0
 10
295.6422719549946
 20
295.5138898279076
 30
0.0
 10
295.289618256146
 20
295.5283859293013
 30
0.0
  0
SPLINE
  5
1BF
330
1F
100
AcDbEntity
  8
1
100
AcDbSpline
210
0.0
220
0.0
230
1.0
 70
     8
 71
     3
 72
    46
 73
    42
 74
     0
 42
0.000000001
 43
0.0000000001
 40
0.0
 40
0.0
 40
0.0
 40
0.0
 40
0.0625000000000115
 40
0.0625000000000115
 40
0.0937500000000173
 40
0.0937500000000173
 40
0.1250000000000231
 40
0.1250000000000231
 40
0.250000000000024
 40
0.250000000000024
 40
0.3125000000000125
 40
0.3125000000000125
 40
0.3750000000000012
 40
0.3750000000000012
 40
0.4374999999999897
 40
0.4374999999999897
 40
0.4687499999999841
 40
0.4687499999999841
 40
0.4999999999999785
 40
0.4999999999999785
 40
0.5624999999999916
 40
0.5624999999999916
 40
0.5937499999999865
 40
0.5937499999999865
 40
0.6249999999999813
 40
0.6249999999999813
 40
0.6874999999999709
 40
0.6874999999999709
 40
0.7499999999999605
 40
0.7499999999999605
 40
0.7812499999999655
 40
0.7812499999999655
 40
0.8124999999999703
 40
0.8124999999999703
 40
0.8749999999999802
 40
0.8749999999999802
 40
0.9374999999999902
 40
0.9374999999999902
 40
0.9687499999999952
 40
0.9687499999999952
 40
1.0
 40
1.0
 40
1.0
 40
1.0
 10
339.9440764236656
 20
290.3340942315448
 30
0.0
 10
339.9149587165688
 20
290.3150412076748
 30
0.0
 10
339.885031298105
 20
290.2973212365799
 30
0.0
 10
339.8389216976281
 20
290.2727488596225
 30
0.0
 10
339.8233055329547
 20
290.2648731040957
 30
0.0
 10
339.7918675099433
 20
290.2498970419907
 30
0.0
 10
339.7760991959055
 20
290.2428192887139
 30
0.0
 10
339.6969676618921
 20
290.2093830214955
 30
0.0
 10
339.6327517473034
 20
290.1887898926499
 30
0.0
 10
339.5341805029263
 20
290.1664960285642
 30
0.0
 10
339.5008293651218
 20
290.1605052387605
 30
0.0
 10
339.4340071145262
 20
290.1516344955373
 30
0.0
 10
339.400476629193
 20
290.148727107852
 30
0.0
 10
339.3328282058762
 20
290.1460866454112
 30
0.0
 10
339.2987108998838
 20
290.1463497200256
 30
0.0
 10
339.2466909636242
 20
290.149430303123
 30
0.0
 10
339.2292146004195
 20
290.1509136498979
 30
0.0
 10
339.1946297041889
 20
290.1547594698862
 30
0.0
 10
339.1774396028432
 20
290.1571256269038
 30
0.0
 10
339.1261781156784
 20
290.1655450934733
 30
0.0
 10
339.0924176092542
 20
290.172919487776
 30
0.0
 10
339.0423568042966
 20
290.1865684882495
 30
0.0
 10
339.02577643705
 20
290.1915508441629
 30
0.0
 10
338.9933022069076
 20
290.2021876066464
 30
0.0
 10
338.9773339198772
 20
290.2078611964073
 30
0.0
 10
338.9301044889537
 20
290.2259133716032
 30
0.0
 10
338.8995102049013
 20
290.2393184466781
 30
0.0
 10
338.8396602962995
 20
290.2688420597676
 30
0.0
 10
338.8104092232876
 20
290.2849616862178
 30
0.0
 10
338.7673690678208
 20
290.3112699082727
 30
0.0
 10
338.7531345168044
 20
290.3204152955257
 30
0.0
 10
338.725128038588
 20
290.3393084631715
 30
0.0
 10
338.7113449336647
 20
290.3490610949317
 30
0.0
 10
338.6706284668514
 20
290.3792458918481
 30
0.0
 10
338.6443260751647
 20
290.4006012248975
 30
0.0
 10
338.5933172496728
 20
290.4459049557729
 30
0.0
 10
338.5686117295876
 20
290.4698512818905
 30
0.0
 10
338.5327239960397
 20
290.5079178754118
 30
0.0
 10
338.5209484860338
 20
290.5209809312061
 30
0.0
 10
338.498126678927
 20
290.5474640004503
 30
0.0
 10
338.4870373751427
 20
290.5609279942753
 30
0.0
 10
338.4762668693083
 20
290.5746075726625
 30
0.0
  0
SPLINE
  5
1C0
330
1F
100
AcDbEntity
  8
1
100
AcDbSpline
210
0.0
220
0.0
230
1.0
 70
    12
 71
     2
 72
     6
 73
     3
 74
     0
 42
0.000000001
 43
0.0000000001
 40
0.0
 40
0.0
 40
0.0
 40
1.0
 40
1.0
 40
1.0
 10
338.4044628223004
 20
295.8235635397991
 30
0.0
 41
0.5000010685527907
 10
338.5166927639302
 20
295.823258999783
 30
0.0
 41
0.4999989314472094
 10
338.6289164332487
 20
295.822953367999
 30
0.0
 41
0.5000010685527907
  0
SPLINE
  5
1C1
330
1F
100
AcDbEntity
  8
1
100
AcDbSpline
210
0.0
220
0.0
230
1.0
 70
     8
 71
     3
 72
     8
 73
     4
 74
     0
 42
0.000000001
 43
0.0000000001
 40
0.0
 40
0.0
 40
0.0
 40
0.0
 40
1.0
 40
1.0
 40
1.0
 40
1.0
 10
297.9048419452957
 20
295.444892291139
 30
0.0
 10
297.7403129039193
 20
295.444892291139
 30
0.0
 10
297.5757912771996
 20
295.4490573372002
 30
0.0
 10
297.4112772267964
 20
295.4573130778678
 30
0.0
  0
SPLINE
  5
1C2
330
1F
100
AcDbEntity
  8
1
100
AcDbSpline
210
0.0
220
0.0
230
1.0
 70
     8
 71
     3
 72
     8
 73
     4
 74
     0
 42
0.000000001
 43
0.0000000001
 40
0.0
 40
0.0
 40
0.0
 40
0.0
 40
1.0
 40
1.0
 40
1.0
 40
1.0
 10
337.8613850843575
 20
294.0113838449365
 30
0.0
 10
337.6384825087581
 20
294.5980129040156
 30
0.0
 10
337.4171999422349
 20
295.1852449354313
 30
0.0
 10
337.2012956809094
 20
295.7744787885036
 30
0.0
  0
SPLINE
  5
1C3
330
1F
100
AcDbEntity
  8
1
100
AcDbSpline
210
0.0
220
0.0
230
1.0
 70
    28
 71
     4
 72
    13
 73
     8
 74
     0
 42
0.000000001
 43
0.0000000001
 40
0.0
 40
0.0
 40
0.0
 40
0.0
 40
0.0
 40
0.2479415034391072
 40
0.2479415034391072
 40
0.2479415034391072
 40
1.0
 40
1.0
 40
1.0
 40
1.0
 40
1.0
 10
297.9048419452959
 20
285.5907021068863
 30
0.0
 41
0.9994488999235372
 10
297.9048419452959
 20
285.3851328585774
 30
0.0
 41
1.0001927335212
 10
297.9048419452959
 20
285.1749407183712
 30
0.0
 41
1.00094370401997
 10
297.9048419452957
 20
284.9628814900864
 30
0.0
 41
1.001498006703475
 10
297.9048419452957
 20
284.1125884572913
 30
0.0
 41
1.001498006703475
 10
297.9048419452957
 20
283.4009422278588
 30
0.0
 41
0.9963982229055615
 10
297.9048419452957
 20
282.7022066573584
 30
0.0
 41
0.9961790342264475
 10
297.9048419452957
 20
282.0875871068898
 30
0.0
 41
0.9977996187805795
  0
SPLINE
  5
1C4
330
1F
100
AcDbEntity
  8
1
100
AcDbSpline
210
0.0
220
0.0
230
1.0
 70
    24
 71
     3
 72
    10
 73
     6
 74
     0
 42
0.000000001
 43
0.0000000001
 40
0.0
 40
0.0
 40
0.0
 40
0.0
 40
0.9539130559486997
 40
0.9539130559486997
 40
1.0
 40
1.0
 40
1.0
 40
1.0
 10
339.1116419458123
 20
289.9967633544639
 30
0.0
 10
339.1116419458273
 20
289.8400433372081
 30
0.0
 10
339.1116419458381
 20
289.7112597472483
 30
0.0
 10
339.1116419458447
 20
289.6088371542752
 30
0.0
 10
339.111641945845
 20
289.604189378418
 30
0.0
 10
339.1116419458452
 20
289.5996143544642
 30
0.0
  0
LINE
  5
1E0
330
1F
100
AcDbEntity
  8
SK4
100
AcDbLine
 10
213.504842
 20
288.907994
 30
0.0
 11
277.404842
 21
288.907994
 31
0.0
  0
LINE
  5
1E1
330
1F
100
AcDbEntity
  8
4
100
AcDbLine
 10
272.289618
 20
288.907994
 30
0.0
 11
348.674689
 21
288.907994
 31
0.0
  0
MTEXT
  5
1E7
330
1F
100
AcDbEntity
  8
SK6
100
AcDbMText
 10
258.520787
 20
241.27662
 30
0.0
 40
3.5
 41
0.0
 71
     7
 72
     5
  1
\W0.7291;803D-0594-178-S100
  7
cesky
 73
     2
 44
0.8433729999999998
  0
MTEXT
  5
2F8
330
1F
100
AcDbEntity
  8
2
100
AcDbMText
 10
305.196742
 20
327.385163
 30
0.0
 40
3.5
 41
0.0
 71
     7
 72
     5
  1
\W0.8459;70,3
  7
cesky
 73
     2
 44
0.8433729999999998
  0
LINE
  5
2F9
330
1F
100
AcDbEntity
  8
2
100
AcDbLine
 10
344.667642
 20
296.451794
 30
0.0
 11
344.667642
 21
328.5109970000001
 31
0.0
  0
LINE
  5
2FA
330
1F
100
AcDbEntity
  8
2
100
AcDbLine
 10
274.404842
 20
289.907567
 30
0.0
 11
274.404842
 21
328.5109970000001
 31
0.0
  0
LINE
  5
2FB
330
1F
100
AcDbEntity
  8
2
100
AcDbLine
 10
344.667642
 20
327.510997
 30
0.0
 11
274.404842
 21
327.510997
 31
0.0
  0
SOLID
  5
2FC
330
1F
100
AcDbEntity
  8
2
100
AcDbTrace
 10
344.667642
 20
327.510997
 30
0.0
 11
341.167644
 21
326.893852
 31
0.0
 12
341.16764
 22
328.128141
 32
0.0
 13
341.16764
 23
328.128141
 33
0.0
  0
SOLID
  5
2FD
330
1F
100
AcDbEntity
  8
2
100
AcDbTrace
 10
274.404842
 20
327.510997
 30
0.0
 11
277.90484
 21
328.128141
 31
0.0
 12
277.904844
 22
326.893852
 32
0.0
 13
277.904844
 23
326.893852
 33
0.0
  0
MTEXT
  5
2FE
330
1F
100
AcDbEntity
  8
2
100
AcDbMText
 10
275.434242
 20
340.562135
 30
0.0
 40
3.5
 41
0.0
 71
     7
 72
     5
  1
\W0.8654;127,3
  7
cesky
 73
     2
 44
0.8433729999999998
  0
LINE
  5
2FF
330
1F
100
AcDbEntity
  8
2
100
AcDbLine
 10
344.667642
 20
298.451794
 30
0.0
 11
344.667642
 21
341.687968
 31
0.0
  0
LINE
  5
300
330
1F
100
AcDbEntity
  8
2
100
AcDbLine
 10
217.404842
 20
300.007994
 30
0.0
 11
217.404842
 21
341.687968
 31
0.0
  0
LINE
  5
301
330
1F
100
AcDbEntity
  8
2
100
AcDbLine
 10
344.667642
 20
340.687968
 30
0.0
 11
217.404842
 21
340.687968
 31
0.0
  0
SOLID
  5
302
330
1F
100
AcDbEntity
  8
2
100
AcDbTrace
 10
344.667642
 20
340.687968
 30
0.0
 11
341.167644
 21
340.070823
 31
0.0
 12
341.16764
 22
341.305112
 32
0.0
 13
341.16764
 23
341.305112
 33
0.0
  0
SOLID
  5
303
330
1F
100
AcDbEntity
  8
2
100
AcDbTrace
 10
217.404842
 20
340.687968
 30
0.0
 11
220.90484
 21
341.305112
 31
0.0
 12
220.904844
 22
340.070823
 32
0.0
 13
220.904844
 23
340.070823
 33
0.0
  0
MTEXT
  5
304
330
1F
100
AcDbEntity
  8
2
100
AcDbMText
 10
244.090342
 20
327.385163
 30
0.0
 40
3.5
 41
0.0
 71
     7
 72
     5
  1
\W0.7045;57
  7
cesky
 73
     2
 44
0.8433729999999998
  0
LINE
  5
305
330
1F
100
AcDbEntity
  8
2
100
AcDbLine
 10
274.404842
 20
288.907994
 30
0.0
 11
274.404842
 21
328.5109970000001
 31
0.0
  0
LINE
  5
306
330
1F
100
AcDbEntity
  8
2
100
AcDbLine
 10
217.404842
 20
300.007994
 30
0.0
 11
217.404842
 21
328.5109970000001
 31
0.0
  0
LINE
  5
307
330
1F
100
AcDbEntity
  8
2
100
AcDbLine
 10
274.404842
 20
327.510997
 30
0.0
 11
217.404842
 21
327.510997
 31
0.0
  0
SOLID
  5
308
330
1F
100
AcDbEntity
  8
2
100
AcDbTrace
 10
274.404842
 20
327.510997
 30
0.0
 11
270.904844
 21
326.893852
 31
0.0
 12
270.90484
 22
328.128141
 32
0.0
 13
270.90484
 23
328.128141
 33
0.0
  0
SOLID
  5
309
330
1F
100
AcDbEntity
  8
2
100
AcDbTrace
 10
217.404842
 20
327.510997
 30
0.0
 11
220.90484
 21
328.128141
 31
0.0
 12
220.904844
 22
326.893852
 32
0.0
 13
220.904844
 23
326.893852
 33
0.0
  0
MTEXT
  5
30A
330
1F
100
AcDbEntity
  8
2
100
AcDbMText
 10
315.69534
 20
315.788929
 30
0.0
 40
3.5
 41
0.0
 71
     7
 72
     5
  1
\W0.8459;49,3
  7
cesky
 73
     2
 44
0.8433729999999998
  0
LINE
  5
30B
330
1F
100
AcDbEntity
  8
2
100
AcDbLine
 10
344.667642
 20
298.451794
 30
0.0
 11
344.667642
 21
316.914763
 31
0.0
  0
LINE
  5
30C
330
1F
100
AcDbEntity
  8
2
100
AcDbLine
 10
295.402037
 20
295.733944
 30
0.0
 11
295.402037
 21
316.914763
 31
0.0
  0
LINE
  5
30D
330
1F
100
AcDbEntity
  8
2
100
AcDbLine
 10
344.667642
 20
315.914763
 30
0.0
 11
295.402037
 21
315.914763
 31
0.0
  0
SOLID
  5
30E
330
1F
100
AcDbEntity
  8
2
100
AcDbTrace
 10
344.667642
 20
315.914763
 30
0.0
 11
341.167644
 21
315.297618
 31
0.0
 12
341.16764
 22
316.531907
 32
0.0
 13
341.16764
 23
316.531907
 33
0.0
  0
SOLID
  5
30F
330
1F
100
AcDbEntity
  8
2
100
AcDbTrace
 10
295.402037
 20
315.914763
 30
0.0
 11
298.902035
 21
316.531907
 31
0.0
 12
298.902039
 22
315.297618
 32
0.0
 13
298.902039
 23
315.297618
 33
0.0
  0
MTEXT
  5
310
330
1F
100
AcDbEntity
  8
2
100
AcDbMText
 10
359.389856
 20
280.216069
 30
0.0
 40
3.5
 41
0.0
 71
     7
 72
     5
  1
\W1.0616;15,1
  7
cesky
 11
0.0000000000000001
 21
1.0
 31
0.0
 73
     2
 44
0.8433729999999998
  0
MTEXT
  5
311
330
1F
100
AcDbEntity
  8
2
100
AcDbMText
 10
359.389856
 20
273.478569
 30
0.0
 40
3.5
 41
0.0
 71
     7
 72
     5
  1
\W3.0115;\H2.63;%%c\H3.50;
  7
cesky
 11
0.0000000000000001
 21
1.0
 31
0.0
 73
     2
 44
0.8433729999999998
  0
LINE
  5
312
330
1F
100
AcDbEntity
  8
2
100
AcDbLine
 10
346.667642
 20
296.451794
 30
0.0
 11
360.577272
 21
296.451794
 31
0.0
  0
LINE
  5
313
330
1F
100
AcDbEntity
  8
2
100
AcDbLine
 10
359.577272
 20
296.451794
 30
0.0
 11
359.577272
 21
273.321069
 31
0.0
  0
SOLID
  5
314
330
1F
100
AcDbEntity
  8
2
100
AcDbTrace
 10
359.577272
 20
296.451794
 30
0.0
 11
360.194417
 21
292.951796
 31
0.0
 12
358.960128
 22
292.951791
 32
0.0
 13
358.960128
 23
292.951791
 33
0.0
  0
MTEXT
  5
315
330
1F
100
AcDbEntity
  8
SK2
100
AcDbMText
 10
205.343797
 20
287.909244
 30
0.0
 40
3.5
 41
0.0
 71
     7
 72
     5
  1
\W0.8329;25,4
  7
cesky
 11
0.0000000000000001
 21
1.0
 31
0.0
 73
     2
 44
0.8433729999999998
  0
MTEXT
  5
316
330
1F
100
AcDbEntity
  8
SK2
100
AcDbMText
 10
205.343797
 20
281.171744
 30
0.0
 40
3.5
 41
0.0
 71
     7
 72
     5
  1
\W3.0115;\H2.63;%%c\H3.50;
  7
cesky
 11
0.0000000000000001
 21
1.0
 31
0.0
 73
     2
 44
0.8433729999999998
  0
LINE
  5
317
330
1F
100
AcDbEntity
  8
SK2
100
AcDbLine
 10
219.004842
 20
301.607994
 30
0.0
 11
204.531213
 21
301.607994
 31
0.0
  0
LINE
  5
318
330
1F
100
AcDbEntity
  8
SK2
100
AcDbLine
 10
219.004842
 20
276.207994
 30
0.0
 11
204.531213
 21
276.207994
 31
0.0
  0
LINE
  5
319
330
1F
100
AcDbEntity
  8
SK2
100
AcDbLine
 10
205.531213
 20
301.607994
 30
0.0
 11
205.531213
 21
276.207994
 31
0.0
  0
SOLID
  5
31A
330
1F
100
AcDbEntity
  8
SK2
100
AcDbTrace
 10
205.531213
 20
301.607994
 30
0.0
 11
206.148358
 21
298.107996
 31
0.0
 12
204.914069
 22
298.107991
 32
0.0
 13
204.914069
 23
298.107991
 33
0.0
  0
SOLID
  5
31B
330
1F
100
AcDbEntity
  8
SK2
100
AcDbTrace
 10
205.531213
 20
276.207994
 30
0.0
 11
204.914069
 21
279.707991
 31
0.0
 12
206.148358
 22
279.707996
 32
0.0
 13
206.148358
 23
279.707996
 33
0.0
  0
MTEXT
  5
31C
330
1F
100
AcDbEntity
  8
SK2
100
AcDbMText
 10
193.332501
 20
290.434244
 30
0.0
 40
3.5
 41
0.0
 71
     7
 72
     5
  1
\W0.7045;35
  7
cesky
 11
0.0000000000000001
 21
1.0
 31
0.0
 73
     2
 44
0.8433729999999998
  0
MTEXT
  5
31D
330
1F
100
AcDbEntity
  8
SK2
100
AcDbMText
 10
193.332501
 20
283.696744
 30
0.0
 40
3.5
 41
0.0
 71
     7
 72
     5
  1
\W3.0115;\H2.63;%%c\H3.50;
  7
cesky
 11
0.0000000000000001
 21
1.0
 31
0.0
 73
     2
 44
0.8433729999999998
  0
LINE
  5
31E
330
1F
100
AcDbEntity
  8
SK2
100
AcDbLine
 10
274.904842
 20
306.407994
 30
0.0
 11
192.519918
 21
306.407994
 31
0.0
  0
LINE
  5
31F
330
1F
100
AcDbEntity
  8
SK2
100
AcDbLine
 10
274.904842
 20
271.407994
 30
0.0
 11
192.519918
 21
271.407994
 31
0.0
  0
LINE
  5
320
330
1F
100
AcDbEntity
  8
SK2
100
AcDbLine
 10
193.519918
 20
306.407994
 30
0.0
 11
193.519918
 21
271.407994
 31
0.0
  0
SOLID
  5
321
330
1F
100
AcDbEntity
  8
SK2
100
AcDbTrace
 10
193.519918
 20
306.407994
 30
0.0
 11
194.137062
 21
302.907996
 31
0.0
 12
192.902773
 22
302.907991
 32
0.0
 13
192.902773
 23
302.907991
 33
0.0
  0
SOLID
  5
322
330
1F
100
AcDbEntity
  8
SK2
100
AcDbTrace
 10
193.519918
 20
271.407994
 30
0.0
 11
192.902773
 21
274.907991
 31
0.0
 12
194.137062
 22
274.9079959999999
 32
0.0
 13
194.137062
 23
274.9079959999999
 33
0.0
  0
LINE
  5
323
330
1F
100
AcDbEntity
  8
CUT
100
AcDbLine
 10
344.2763835099195
 20
293.4150539809364
 30
0.0
 11
344.155370267837
 21
296.0836365823032
 31
0.0
  0
LINE
  5
324
330
1F
100
AcDbEntity
  8
CUT
100
AcDbLine
 10
343.7516550589399
 20
296.4486067253437
 30
0.0
 11
338.9749479111626
 21
296.2264472072261
 31
0.0
  0
LINE
  5
326
330
1F
100
AcDbEntity
  8
CUT
100
AcDbLine
 10
344.6097221952961
 20
292.8604409805732
 30
0.0
 11
344.2763835099195
 21
293.4150539809364
 31
0.0
  0
LINE
  5
327
330
1F
100
AcDbEntity
  8
CUT
100
AcDbLine
 10
344.6676419452957
 20
289.5488061663523
 30
0.0
 11
344.609722195296
 21
292.8604409805732
 31
0.0
  0
LINE
  5
328
330
1F
100
AcDbEntity
  8
CUT
100
AcDbLine
 10
338.974948
 20
288.907994
 30
0.0
 11
344.667642
 21
288.907994
 31
0.0
  0
LINE
  5
329
330
1F
100
AcDbEntity
  8
CUT
100
AcDbLine
 10
338.974948
 20
296.226447
 30
0.0
 11
338.974948
 21
288.907994
 31
0.0
  0
LINE
  5
32A
330
1F
100
AcDbEntity
  8
CUT
100
AcDbLine
 10
344.667642
 20
288.907994
 30
0.0
 11
344.667642
 21
289.548806
 31
0.0
  0
LINE
  5
32B
330
1F
100
AcDbEntity
  8
CUT
100
AcDbLine
 10
344.1553702678368
 20
296.0836365823032
 30
0.0
 11
344.1553702678368
 21
296.0836365823032
 31
0.0
  0
ARC
  5
32C
330
1F
100
AcDbEntity
  8
CUT
100
AcDbCircle
 10
343.7677816409936
 20
296.060673509819
 30
0.0
 40
0.3882682659658139
100
AcDbArc
 50
3.390581891705736
 51
92.38044425019218
  0
ENDSEC
  0
SECTION
  2
OBJECTS
  0
DICTIONARY
  5
C
330
0
100
AcDbDictionary
281
     1
  3
ACAD_CIP_PREVIOUS_PRODUCT_INFO
350
2F5
  3
ACAD_COLOR
350
2F0
  3
ACAD_DETAILVIEWSTYLE
350
2EC
  3
ACAD_GROUP
350
D
  3
ACAD_LAYOUT
350
1A
  3
ACAD_MATERIAL
350
43
  3
ACAD_MLEADERSTYLE
350
6B
  3
ACAD_MLINESTYLE
350
17
  3
ACAD_PLOTSETTINGS
350
19
  3
ACAD_PLOTSTYLENAME
350
E
  3
ACAD_SCALELIST
350
47
  3
ACAD_SECTIONVIEWSTYLE
350
2ED
  3
ACAD_TABLESTYLE
350
69
  3
ACAD_VISUALSTYLE
350
2A
  3
ACDB_RECOMPOSE_DATA
350
358
  3
AcDbVariableDictionary
350
2A9
  0
DICTIONARY
  5
33B
330
10
100
AcDbDictionary
280
     1
281
     1
  3
ADSK_XREC_LAYER_RECONCILED
360
33C
  0
DICTIONARY
  5
33D
330
32D
100
AcDbDictionary
280
     1
281
     1
  3
ADSK_XREC_LAYER_RECONCILED
360
33E
  0
DICTIONARY
  5
33F
330
32E
100
AcDbDictionary
280
     1
281
     1
  3
ADSK_XREC_LAYER_RECONCILED
360
340
  0
DICTIONARY
  5
341
330
32F
100
AcDbDictionary
280
     1
281
     1
  3
ADSK_XREC_LAYER_RECONCILED
360
342
  0
DICTIONARY
  5
343
330
331
100
AcDbDictionary
280
     1
281
     1
  3
ADSK_XREC_LAYER_RECONCILED
360
344
  0
DICTIONARY
  5
345
330
332
100
AcDbDictionary
280
     1
281
     1
  3
ADSK_XREC_LAYER_RECONCILED
360
346
  0
DICTIONARY
  5
347
330
334
100
AcDbDictionary
280
     1
281
     1
  3
ADSK_XREC_LAYER_RECONCILED
360
348
  0
DICTIONARY
  5
349
330
335
100
AcDbDictionary
280
     1
281
     1
  3
ADSK_XREC_LAYER_RECONCILED
360
34A
  0
DICTIONARY
  5
34B
330
336
100
AcDbDictionary
280
     1
281
     1
  3
ADSK_XREC_LAYER_RECONCILED
360
34C
  0
DICTIONARY
  5
34D
330
337
100
AcDbDictionary
280
     1
281
     1
  3
ADSK_XREC_LAYER_RECONCILED
360
34E
  0
DICTIONARY
  5
34F
330
338
100
AcDbDictionary
280
     1
281
     1
  3
ADSK_XREC_LAYER_RECONCILED
360
350
  0
DICTIONARY
  5
351
330
339
100
AcDbDictionary
280
     1
281
     1
  3
ADSK_XREC_LAYER_RECONCILED
360
352
  0
DICTIONARY
  5
2F6
330
1F
100
AcDbDictionary
280
     1
281
     1
  3
ACAD_SORTENTS
360
2F7
  0
XRECORD
  5
2F5
102
{ACAD_REACTORS
330
C
102
}
330
C
100
AcDbXrecord
280
     1
300
ACD
300
2019
300
87084ACD_2019_0F
  0
DICTIONARY
  5
2F0
102
{ACAD_REACTORS
330
C
102
}
330
C
100
AcDbDictionary
281
     1
  0
DICTIONARY
  5
2EC
102
{ACAD_REACTORS
330
C
102
}
330
C
100
AcDbDictionary
281
     1
  3
Metric50
350
2F2
  0
DICTIONARY
  5
D
102
{ACAD_REACTORS
330
C
102
}
330
C
100
AcDbDictionary
281
     1
  3
NULOVY_BOD
350
33A
  0
DICTIONARY
  5
1A
102
{ACAD_REACTORS
330
C
102
}
330
C
100
AcDbDictionary
281
     1
  3
Layout1
350
1E
  3
Layout2
350
26
  3
Model
350
22
  0
DICTIONARY
  5
43
102
{ACAD_REACTORS
330
C
102
}
330
C
100
AcDbDictionary
281
     1
  3
ByBlock
350
45
  3
ByLayer
350
44
  3
Global
350
46
  0
DICTIONARY
  5
6B
102
{ACAD_REACTORS
330
C
102
}
330
C
100
AcDbDictionary
281
     1
  3
Standard
350
6C
  0
DICTIONARY
  5
17
102
{ACAD_REACTORS
330
C
102
}
330
C
100
AcDbDictionary
281
     1
  3
Standard
350
18
  0
DICTIONARY
  5
19
102
{ACAD_REACTORS
330
C
102
}
330
C
100
AcDbDictionary
281
     1
  0
ACDBDICTIONARYWDFLT
  5
E
102
{ACAD_REACTORS
330
C
102
}
330
C
100
AcDbDictionary
281
     1
  3
Normal
350
F
100
AcDbDictionaryWithDefault
340
F
  0
DICTIONARY
  5
47
102
{ACAD_REACTORS
330
C
102
}
330
C
100
AcDbDictionary
281
     1
  3
A0
350
48
  3
A1
350
49
  3
A2
350
4A
  3
A3
350
4B
  3
A4
350
4C
  3
A5
350
4D
  3
A6
350
4E
  3
A7
350
4F
  3
A8
350
50
  3
A9
350
51
  3
B0
350
52
  3
B1
350
53
  3
B2
350
54
  3
B3
350
55
  3
B4
350
56
  3
B5
350
57
  3
B6
350
58
  3
B7
350
59
  3
B8
350
5A
  3
B9
350
5B
  3
C0
350
5C
  3
C1
350
5D
  3
C2
350
5E
  3
C3
350
5F
  3
C4
350
60
  3
C5
350
61
  3
C6
350
62
  3
C7
350
63
  3
C8
350
64
  3
C9
350
65
  3
D0
350
66
  3
D1
350
67
  3
D2
350
68
  0
DICTIONARY
  5
2ED
102
{ACAD_REACTORS
330
C
102
}
330
C
100
AcDbDictionary
281
     1
  3
Metric50
350
2F1
  0
DICTIONARY
  5
69
102
{ACAD_REACTORS
330
C
102
}
330
C
100
AcDbDictionary
281
     1
  3
Standard
350
6A
  0
DICTIONARY
  5
2A
102
{ACAD_REACTORS
330
C
102
}
330
C
100
AcDbDictionary
281
     1
  3
2dWireframe
350
2F
  3
Basic
350
32
  3
Brighten
350
36
  3
ColorChange
350
3A
  3
Conceptual
350
34
  3
Dim
350
35
  3
EdgeColorOff
350
3D
  3
Facepattern
350
39
  3
Flat
350
2B
  3
FlatWithEdges
350
2C
  3
Gouraud
350
2D
  3
GouraudWithEdges
350
2E
  3
Hidden
350
31
  3
JitterOff
350
3B
  3
Linepattern
350
38
  3
OverhangOff
350
3C
  3
Realistic
350
33
  3
Shaded
350
42
  3
Shaded with edges
350
41
  3
Shades of Gray
350
3E
  3
Sketchy
350
3F
  3
Thicken
350
37
  3
Wireframe
350
30
  3
X-Ray
350
40
  0
XRECORD
  5
358
102
{ACAD_REACTORS
330
C
102
}
330
C
100
AcDbXrecord
280
     1
 90
        1
330
6A
  0
DICTIONARY
  5
2A9
102
{ACAD_REACTORS
330
C
102
}
330
C
100
AcDbDictionary
281
     1
  3
CANNOSCALE
350
2AA
  3
CMLEADERSTYLE
350
2EB
  3
CTABLESTYLE
350
2EA
  3
CVIEWDETAILSTYLE
350
353
  3
CVIEWSECTIONSTYLE
350
354
  3
MSLTSCALE
350
2AB
  3
XCLIPFRAME
350
355
  0
XRECORD
  5
33C
102
{ACAD_REACTORS
330
33B
102
}
330
33B
100
AcDbXrecord
280
     1
290
     1
  0
XRECORD
  5
33E
102
{ACAD_REACTORS
330
33D
102
}
330
33D
100
AcDbXrecord
280
     1
290
     1
  0
XRECORD
  5
340
102
{ACAD_REACTORS
330
33F
102
}
330
33F
100
AcDbXrecord
280
     1
290
     1
  0
XRECORD
  5
342
102
{ACAD_REACTORS
330
341
102
}
330
341
100
AcDbXrecord
280
     1
290
     1
  0
XRECORD
  5
344
102
{ACAD_REACTORS
330
343
102
}
330
343
100
AcDbXrecord
280
     1
290
     1
  0
XRECORD
  5
346
102
{ACAD_REACTORS
330
345
102
}
330
345
100
AcDbXrecord
280
     1
290
     1
  0
XRECORD
  5
348
102
{ACAD_REACTORS
330
347
102
}
330
347
100
AcDbXrecord
280
     1
290
     1
  0
XRECORD
  5
34A
102
{ACAD_REACTORS
330
349
102
}
330
349
100
AcDbXrecord
280
     1
290
     1
  0
XRECORD
  5
34C
102
{ACAD_REACTORS
330
34B
102
}
330
34B
100
AcDbXrecord
280
     1
290
     1
  0
XRECORD
  5
34E
102
{ACAD_REACTORS
330
34D
102
}
330
34D
100
AcDbXrecord
280
     1
290
     1
  0
XRECORD
  5
350
102
{ACAD_REACTORS
330
34F
102
}
330
34F
100
AcDbXrecord
280
     1
290
     1
  0
XRECORD
  5
352
102
{ACAD_REACTORS
330
351
102
}
330
351
100
AcDbXrecord
280
     1
290
     1
  0
SORTENTSTABLE
  5
2F7
102
{ACAD_REACTORS
330
2F6
102
}
330
2F6
100
AcDbSortentsTable
330
1F
331
2F8
  5
263
331
2F9
  5
27C
331
2FA
  5
2F8
331
2FB
  5
2F9
331
2FC
  5
2FA
331
2FD
  5
2FB
331
2FE
  5
2FC
331
2FF
  5
2FD
331
300
  5
2FE
331
301
  5
2FF
331
302
  5
300
331
303
  5
301
331
304
  5
302
331
305
  5
303
331
306
  5
304
331
307
  5
305
331
308
  5
306
331
309
  5
307
331
30A
  5
308
331
30B
  5
309
331
30C
  5
30A
331
30D
  5
30B
331
30E
  5
30C
331
30F
  5
30D
331
310
  5
30E
331
311
  5
30F
331
312
  5
310
331
313
  5
311
331
314
  5
312
331
326
  5
328
331
327
  5
329
331
328
  5
32A
331
329
  5
32B
331
32A
  5
32C
331
32B
  5
326
331
32C
  5
327
  0
ACDBDETAILVIEWSTYLE
  5
2F2
102
{ACAD_XDICTIONARY
360
38C
102
}
102
{ACAD_REACTORS
330
2EC
102
}
330
2EC
100
AcDbModelDocViewStyle
 70
     0
  3
Metric50
290
     0
100
AcDbDetailViewStyle
 70
     0
 71
     0
 90
        3
 71
     1
340
11
 62
   256
 40
5.0
340
0
 62
   256
 40
5.0
300

 40
0.0
280
     1
 71
     2
340
16
 90
       25
 62
   256
 71
     3
340
11
 62
   256
 40
5.0
 90
        0
 40
15.0
 90
        1
300
%<\AcVar ViewDetailId>% (%<\AcVar ViewScale \f "%sn">%)
 71
     4
340
16
 90
       25
 62
   256
340
16
 90
       25
 62
   256
280
     0
  0
GROUP
  5
33A
102
{ACAD_REACTORS
330
D
102
}
330
D
100
AcDbGroup
300

 70
     0
 71
     1
340
73
  0
LAYOUT
  5
1E
102
{ACAD_REACTORS
330
1A
102
}
330
1A
100
AcDbPlotSettings
  1

  2
none_device
  4

  6

 40
0.0
 41
0.0
 42
0.0
 43
0.0
 44
0.0
 45
0.0
 46
0.0
 47
0.0
 48
0.0
 49
0.0
140
0.0
141
0.0
142
1.0
143
1.0
 70
   688
 72
     0
 73
     0
 74
     5
  7

 75
    16
147
1.0
 76
     0
 77
     2
 78
   300
148
0.0
149
0.0
100
AcDbLayout
  1
Layout1
 70
     1
 71
     1
 10
-0.5
 20
-0.5
 11
5.0
 21
5.0
 12
0.0
 22
0.0
 32
0.0
 14
-0.5
 24
-0.5
 34
-0.5
 15
5.0
 25
5.0
 35
5.0
146
0.0
 13
0.0
 23
0.0
 33
0.0
 16
1.0
 26
0.0
 36
0.0
 17
0.0
 27
1.0
 37
0.0
 76
     0
330
1B
  0
LAYOUT
  5
26
102
{ACAD_REACTORS
330
1A
102
}
330
1A
100
AcDbPlotSettings
  1

  2
none_device
  4

  6

 40
0.0
 41
0.0
 42
0.0
 43
0.0
 44
0.0
 45
0.0
 46
0.0
 47
0.0
 48
0.0
 49
0.0
140
0.0
141
0.0
142
1.0
143
1.0
 70
   688
 72
     0
 73
     0
 74
     5
  7

 75
    16
147
1.0
 76
     0
 77
     2
 78
   300
148
0.0
149
0.0
100
AcDbLayout
  1
Layout2
 70
     1
 71
     2
 10
0.0
 20
0.0
 11
0.0
 21
0.0
 12
0.0
 22
0.0
 32
0.0
 14
0.0
 24
0.0
 34
0.0
 15
0.0
 25
0.0
 35
0.0
146
0.0
 13
0.0
 23
0.0
 33
0.0
 16
1.0
 26
0.0
 36
0.0
 17
0.0
 27
1.0
 37
0.0
 76
     0
330
23
  0
LAYOUT
  5
22
102
{ACAD_REACTORS
330
1A
102
}
330
1A
100
AcDbPlotSettings
  1

  2
none_device
  4
Letter_(8.50_x_11.00_Inches)
  6

 40
6.349999999999999
 41
6.349999999999999
 42
6.350005
 43
6.350005
 44
215.9
 45
279.4
 46
0.0
 47
0.0
 48
0.0
 49
0.0
140
0.0
141
0.0
142
1.0
143
1.0
 70
  1712
 72
     0
 73
     0
 74
     0
  7

 75
     0
147
1.0
 76
     0
 77
     2
 78
   300
148
0.0
149
0.0
100
AcDbLayout
  1
Model
 70
     1
 71
     0
 10
-0.5
 20
-0.5
 11
5.0
 21
5.0
 12
0.0
 22
0.0
 32
0.0
 14
-0.5
 24
-0.5
 34
-0.5
 15
5.0
 25
5.0
 35
5.0
146
0.0
 13
0.0
 23
0.0
 33
0.0
 16
1.0
 26
0.0
 36
0.0
 17
0.0
 27
1.0
 37
0.0
 76
     0
330
1F
331
29
  0
MATERIAL
  5
45
102
{ACAD_XDICTIONARY
360
2DF
102
}
102
{ACAD_REACTORS
330
43
102
}
330
43
100
AcDbMaterial
  1
ByBlock
  0
MATERIAL
  5
44
102
{ACAD_XDICTIONARY
360
2DD
102
}
102
{ACAD_REACTORS
330
43
102
}
330
43
100
AcDbMaterial
  1
ByLayer
  0
MATERIAL
  5
46
102
{ACAD_XDICTIONARY
360
2E1
102
}
102
{ACAD_REACTORS
330
43
102
}
330
43
100
AcDbMaterial
  1
Global
  0
MLEADERSTYLE
  5
6C
102
{ACAD_REACTORS
330
6B
102
}
330
6B
100
AcDbMLeaderStyle
170
     2
171
     1
172
     0
 90
        2
 40
0.0
 41
0.0
173
     1
 91
-1056964608
340
14
 92
       -2
290
     1
 42
0.09
291
     1
 43
0.36
  3
Standard
 44
0.18
300

342
11
174
     1
178
     6
175
     1
176
     0
 93
-1056964608
 45
0.18
292
     0
297
     0
 46
0.18
 94
-1056964608
 47
1.0
 49
1.0
140
1.0
293
     1
141
0.0
294
     1
177
     0
142
1.0
295
     0
296
     0
143
0.125
1001
ACAD_MLEADERVER
1070
     2
  0
MLINESTYLE
  5
18
102
{ACAD_REACTORS
330
17
102
}
330
17
100
AcDbMlineStyle
  2
STANDARD
 70
     0
  3

 62
   256
 51
90.0
 52
90.0
 71
     2
 49
0.5
 62
   256
  6
BYLAYER
 49
-0.5
 62
   256
  6
BYLAYER
  0
ACDBPLACEHOLDER
  5
F
102
{ACAD_REACTORS
330
E
102
}
330
E
  0
SCALE
  5
48
102
{ACAD_REACTORS
330
47
102
}
330
47
100
AcDbScale
 70
     0
300
1:1
140
1.0
141
1.0
290
     1
  0
SCALE
  5
49
102
{ACAD_REACTORS
330
47
102
}
330
47
100
AcDbScale
 70
     0
300
1:2
140
1.0
141
2.0
290
     0
  0
SCALE
  5
4A
102
{ACAD_REACTORS
330
47
102
}
330
47
100
AcDbScale
 70
     0
300
1:4
140
1.0
141
4.0
290
     0
  0
SCALE
  5
4B
102
{ACAD_REACTORS
330
47
102
}
330
47
100
AcDbScale
 70
     0
300
1:5
140
1.0
141
5.0
290
     0
  0
SCALE
  5
4C
102
{ACAD_REACTORS
330
47
102
}
330
47
100
AcDbScale
 70
     0
300
1:8
140
1.0
141
8.0
290
     0
  0
SCALE
  5
4D
102
{ACAD_REACTORS
330
47
102
}
330
47
100
AcDbScale
 70
     0
300
1:10
140
1.0
141
10.0
290
     0
  0
SCALE
  5
4E
102
{ACAD_REACTORS
330
47
102
}
330
47
100
AcDbScale
 70
     0
300
1:16
140
1.0
141
16.0
290
     0
  0
SCALE
  5
4F
102
{ACAD_REACTORS
330
47
102
}
330
47
100
AcDbScale
 70
     0
300
1:20
140
1.0
141
20.0
290
     0
  0
SCALE
  5
50
102
{ACAD_REACTORS
330
47
102
}
330
47
100
AcDbScale
 70
     0
300
1:30
140
1.0
141
30.0
290
     0
  0
SCALE
  5
51
102
{ACAD_REACTORS
330
47
102
}
330
47
100
AcDbScale
 70
     0
300
1:40
140
1.0
141
40.0
290
     0
  0
SCALE
  5
52
102
{ACAD_REACTORS
330
47
102
}
330
47
100
AcDbScale
 70
     0
300
1:50
140
1.0
141
50.0
290
     0
  0
SCALE
  5
53
102
{ACAD_REACTORS
330
47
102
}
330
47
100
AcDbScale
 70
     0
300
1:100
140
1.0
141
100.0
290
     0
  0
SCALE
  5
54
102
{ACAD_REACTORS
330
47
102
}
330
47
100
AcDbScale
 70
     0
300
2:1
140
2.0
141
1.0
290
     0
  0
SCALE
  5
55
102
{ACAD_REACTORS
330
47
102
}
330
47
100
AcDbScale
 70
     0
300
4:1
140
4.0
141
1.0
290
     0
  0
SCALE
  5
56
102
{ACAD_REACTORS
330
47
102
}
330
47
100
AcDbScale
 70
     0
300
8:1
140
8.0
141
1.0
290
     0
  0
SCALE
  5
57
102
{ACAD_REACTORS
330
47
102
}
330
47
100
AcDbScale
 70
     0
300
10:1
140
10.0
141
1.0
290
     0
  0
SCALE
  5
58
102
{ACAD_REACTORS
330
47
102
}
330
47
100
AcDbScale
 70
     0
300
100:1
140
100.0
141
1.0
290
     0
  0
SCALE
  5
59
102
{ACAD_REACTORS
330
47
102
}
330
47
100
AcDbScale
 70
     0
300
1/128" = 1'-0"
140
0.007812
141
12.0
290
     0
  0
SCALE
  5
5A
102
{ACAD_REACTORS
330
47
102
}
330
47
100
AcDbScale
 70
     0
300
1/64" = 1'-0"
140
0.015625
141
12.0
290
     0
  0
SCALE
  5
5B
102
{ACAD_REACTORS
330
47
102
}
330
47
100
AcDbScale
 70
     0
300
1/32" = 1'-0"
140
0.03125
141
12.0
290
     0
  0
SCALE
  5
5C
102
{ACAD_REACTORS
330
47
102
}
330
47
100
AcDbScale
 70
     0
300
1/16" = 1'-0"
140
0.0625
141
12.0
290
     0
  0
SCALE
  5
5D
102
{ACAD_REACTORS
330
47
102
}
330
47
100
AcDbScale
 70
     0
300
3/32" = 1'-0"
140
0.09375
141
12.0
290
     0
  0
SCALE
  5
5E
102
{ACAD_REACTORS
330
47
102
}
330
47
100
AcDbScale
 70
     0
300
1/8" = 1'-0"
140
0.125
141
12.0
290
     0
  0
SCALE
  5
5F
102
{ACAD_REACTORS
330
47
102
}
330
47
100
AcDbScale
 70
     0
300
3/16" = 1'-0"
140
0.1875
141
12.0
290
     0
  0
SCALE
  5
60
102
{ACAD_REACTORS
330
47
102
}
330
47
100
AcDbScale
 70
     0
300
1/4" = 1'-0"
140
0.25
141
12.0
290
     0
  0
SCALE
  5
61
102
{ACAD_REACTORS
330
47
102
}
330
47
100
AcDbScale
 70
     0
300
3/8" = 1'-0"
140
0.375
141
12.0
290
     0
  0
SCALE
  5
62
102
{ACAD_REACTORS
330
47
102
}
330
47
100
AcDbScale
 70
     0
300
1/2" = 1'-0"
140
0.5
141
12.0
290
     0
  0
SCALE
  5
63
102
{ACAD_REACTORS
330
47
102
}
330
47
100
AcDbScale
 70
     0
300
3/4" = 1'-0"
140
0.75
141
12.0
290
     0
  0
SCALE
  5
64
102
{ACAD_REACTORS
330
47
102
}
330
47
100
AcDbScale
 70
     0
300
1" = 1'-0"
140
1.0
141
12.0
290
     0
  0
SCALE
  5
65
102
{ACAD_REACTORS
330
47
102
}
330
47
100
AcDbScale
 70
     0
300
1-1/2" = 1'-0"
140
1.5
141
12.0
290
     0
  0
SCALE
  5
66
102
{ACAD_REACTORS
330
47
102
}
330
47
100
AcDbScale
 70
     0
300
3" = 1'-0"
140
3.0
141
12.0
290
     0
  0
SCALE
  5
67
102
{ACAD_REACTORS
330
47
102
}
330
47
100
AcDbScale
 70
     0
300
6" = 1'-0"
140
6.0
141
12.0
290
     0
  0
SCALE
  5
68
102
{ACAD_REACTORS
330
47
102
}
330
47
100
AcDbScale
 70
     0
300
1'-0" = 1'-0"
140
12.0
141
12.0
290
     0
  0
ACDBSECTIONVIEWSTYLE
  5
2F1
102
{ACAD_XDICTIONARY
360
38A
102
}
102
{ACAD_REACTORS
330
2ED
102
}
330
2ED
100
AcDbModelDocViewStyle
 70
     0
  3
Metric50
290
     0
100
AcDbSectionViewStyle
 70
     0
 71
     0
 90
      102
 71
     1
340
11
 62
   256
 40
5.0
340
0
340
0
 62
   256
 40
5.0
300
I, O, Q, S, X, Z
 40
10.0
 90
        0
 40
2.5
 90
        0
 71
     2
340
16
 90
       25
 62
   256
340
16
 90
       50
 62
   256
 40
5.0
 40
2.5
 40
5.0
 71
     3
340
11
 62
   256
 40
5.0
 90
        0
 40
15.0
 90
        1
300
%<\AcVar ViewSectionStartId>%-%<\AcVar ViewSectionEndId>% (%<\AcVar ViewScale \f "%sn">%)
 71
     4
 62
   256
 62
   257
300
ANSI31
 40
1.0
 90
        0
290
     0
290
     0
 90
        6
 40
0.0
 40
1.570796326794896
 40
0.2617993877991494
 40
1.308996938995747
 40
-0.2617993877991494
 40
1.832595714594046
  0
TABLESTYLE
  5
6A
102
{ACAD_XDICTIONARY
360
2E3
102
}
102
{ACAD_REACTORS
330
69
102
}
330
69
100
AcDbTableStyle
  3
Standard
 70
     0
 71
     0
 40
0.06
 41
0.06
280
     0
281
     0
  7
Standard
140
0.18
170
     2
 62
     0
 63
     7
283
     0
274
    -2
284
     1
 64
     0
275
    -2
285
     1
 65
     0
276
    -2
286
     1
 66
     0
277
    -2
287
     1
 67
     0
278
    -2
288
     1
 68
     0
279
    -2
289
     1
 69
     0
  7
Standard
140
0.25
170
     5
 62
     0
 63
     7
283
     0
274
    -2
284
     1
 64
     0
275
    -2
285
     1
 65
     0
276
    -2
286
     1
 66
     0
277
    -2
287
     1
 67
     0
278
    -2
288
     1
 68
     0
279
    -2
289
     1
 69
     0
  7
Standard
140
0.18
170
     5
 62
     0
 63
     7
283
     0
274
    -2
284
     1
 64
     0
275
    -2
285
     1
 65
     0
276
    -2
286
     1
 66
     0
277
    -2
287
     1
 67
     0
278
    -2
288
     1
 68
     0
279
    -2
289
     1
 69
     0
  0
VISUALSTYLE
  5
2F
102
{ACAD_XDICTIONARY
360
361
102
}
102
{ACAD_REACTORS
330
2A
102
}
330
2A
100
AcDbVisualStyle
  2

 70
     4
 71
     0
 72
     2
 73
     0
 90
        0
 40
-0.6
 41
-30.0
 62
     5
 63
     7
421
 16777215
 74
     1
 91
        4
 64
     7
 65
   257
 75
     1
175
     1
 42
1.0
 92
        0
 66
   257
 43
1.0
 76
     1
 77
     6
 78
     2
 67
     7
 79
     5
170
     0
171
     0
290
     0
174
     0
 93
        1
 44
0.0
173
     0
291
     0
 45
0.0
1001
ACAD
1000
AcDbSavedByObjectVersion
1070
     0
  0
VISUALSTYLE
  5
32
102
{ACAD_XDICTIONARY
360
367
102
}
102
{ACAD_REACTORS
330
2A
102
}
330
2A
100
AcDbVisualStyle
  2

 70
     7
 71
     1
 72
     0
 73
     1
 90
        0
 40
-0.6
 41
-30.0
 62
     5
 63
     7
421
 16777215
 74
     0
 91
        4
 64
     7
 65
   257
 75
     1
175
     1
 42
1.0
 92
        8
 66
     7
 43
1.0
 76
     1
 77
     6
 78
     2
 67
     7
 79
     5
170
     0
171
     0
290
     0
174
     0
 93
        1
 44
0.0
173
     0
291
     1
 45
0.0
1001
ACAD
1000
AcDbSavedByObjectVersion
1070
     0
  0
VISUALSTYLE
  5
36
102
{ACAD_XDICTIONARY
360
36F
102
}
102
{ACAD_REACTORS
330
2A
102
}
330
2A
100
AcDbVisualStyle
  2

 70
    12
 71
     2
 72
     2
 73
     0
 90
        0
 40
-0.6
 41
-30.0
 62
     5
 63
     7
421
 16777215
 74
     1
 91
        4
 64
     7
 65
   257
 75
     1
175
     1
 42
1.0
 92
        8
 66
     7
 43
1.0
 76
     1
 77
     6
 78
     2
 67
     7
 79
     5
170
     0
171
     0
290
     0
174
     0
 93
        1
 44
50.0
173
     0
291
     1
 45
0.0
1001
ACAD
1000
AcDbSavedByObjectVersion
1070
     0
  0
VISUALSTYLE
  5
3A
102
{ACAD_XDICTIONARY
360
377
102
}
102
{ACAD_REACTORS
330
2A
102
}
330
2A
100
AcDbVisualStyle
  2

 70
    16
 71
     2
 72
     2
 73
     3
 90
        0
 40
-0.6
 41
-30.0
 62
     5
 63
     8
421
  8421504
 74
     1
 91
        4
 64
     7
 65
   257
 75
     1
175
     1
 42
1.0
 92
        8
 66
     8
424
  8421504
 43
1.0
 76
     1
 77
     6
 78
     2
 67
     7
 79
     5
170
     0
171
     0
290
     0
174
     0
 93
        1
 44
0.0
173
     0
291
     1
 45
0.0
1001
ACAD
1000
AcDbSavedByObjectVersion
1070
     0
  0
VISUALSTYLE
  5
34
102
{ACAD_XDICTIONARY
360
36B
102
}
102
{ACAD_REACTORS
330
2A
102
}
330
2A
100
AcDbVisualStyle
  2

 70
     9
 71
     3
 72
     2
 73
     0
 90
        0
 40
-0.6
 41
-30.0
 62
     5
 63
     7
421
 16777215
 74
     2
 91
        2
 64
     7
 65
   257
 75
     1
175
     1
 42
179.0
 92
        8
 66
     7
 43
1.0
 76
     1
 77
     6
 78
     2
 67
     7
 79
     3
170
     0
171
     0
290
     0
174
     0
 93
        1
 44
0.0
173
     0
291
     0
 45
0.0
1001
ACAD
1000
AcDbSavedByObjectVersion
1070
     0
  0
VISUALSTYLE
  5
35
102
{ACAD_XDICTIONARY
360
36D
102
}
102
{ACAD_REACTORS
330
2A
102
}
330
2A
100
AcDbVisualStyle
  2

 70
    11
 71
     2
 72
     2
 73
     0
 90
        0
 40
-0.6
 41
-30.0
 62
     5
 63
     7
421
 16777215
 74
     1
 91
        4
 64
     7
 65
   257
 75
     1
175
     1
 42
1.0
 92
        8
 66
     7
 43
1.0
 76
     1
 77
     6
 78
     2
 67
     7
 79
     5
170
     0
171
     0
290
     0
174
     0
 93
        1
 44
-50.0
173
     0
291
     1
 45
0.0
1001
ACAD
1000
AcDbSavedByObjectVersion
1070
     0
  0
VISUALSTYLE
  5
3D
102
{ACAD_XDICTIONARY
360
37D
102
}
102
{ACAD_REACTORS
330
2A
102
}
330
2A
100
AcDbVisualStyle
  2

 70
    22
 71
     2
 72
     2
 73
     0
 90
        0
 40
-0.6
 41
-30.0
 62
     5
 63
     7
421
 16777215
 74
     1
 91
        4
 64
     7
 65
   257
 75
     1
175
     1
 42
1.0
 92
        8
 66
     7
 43
1.0
 76
     1
 77
     6
 78
     2
 67
     7
 79
     5
170
     0
171
     0
290
     0
174
     0
 93
        1
 44
0.0
173
     0
291
     1
 45
0.0
1001
ACAD
1000
AcDbSavedByObjectVersion
1070
     0
  0
VISUALSTYLE
  5
39
102
{ACAD_XDICTIONARY
360
375
102
}
102
{ACAD_REACTORS
330
2A
102
}
330
2A
100
AcDbVisualStyle
  2

 70
    15
 71
     2
 72
     2
 73
     0
 90
        0
 40
-0.6
 41
-30.0
 62
     5
 63
     7
421
 16777215
 74
     1
 91
        4
 64
     7
 65
   257
 75
     1
175
     1
 42
1.0
 92
        8
 66
     7
 43
1.0
 76
     1
 77
     6
 78
     2
 67
     7
 79
     5
170
     0
171
     0
290
     0
174
     0
 93
        1
 44
0.0
173
     0
291
     1
 45
0.0
1001
ACAD
1000
AcDbSavedByObjectVersion
1070
     0
  0
VISUALSTYLE
  5
2B
102
{ACAD_XDICTIONARY
360
359
102
}
102
{ACAD_REACTORS
330
2A
102
}
330
2A
100
AcDbVisualStyle
  2

 70
     0
 71
     2
 72
     1
 73
     1
 90
        2
 40
-0.6
 41
30.0
 62
     5
 63
     7
421
 16777215
 74
     0
 91
        0
 64
     7
 65
   257
 75
     1
175
     1
 42
1.0
 92
        8
 66
     7
 43
1.0
 76
     1
 77
     6
 78
     2
 67
     7
 79
     5
170
     0
171
     0
290
     0
174
     0
 93
       13
 44
0.0
173
     0
291
     1
 45
0.0
1001
ACAD
1000
AcDbSavedByObjectVersion
1070
     0
  0
VISUALSTYLE
  5
2C
102
{ACAD_XDICTIONARY
360
35B
102
}
102
{ACAD_REACTORS
330
2A
102
}
330
2A
100
AcDbVisualStyle
  2

 70
     1
 71
     2
 72
     1
 73
     1
 90
        2
 40
-0.6
 41
30.0
 62
     5
 63
     7
421
 16777215
 74
     1
 91
        0
 64
     7
 65
   257
 75
     1
175
     1
 42
1.0
 92
        0
 66
   257
 43
1.0
 76
     1
 77
     6
 78
     2
 67
     7
 79
     5
170
     0
171
     0
290
     0
174
     0
 93
       13
 44
0.0
173
     0
291
     1
 45
0.0
1001
ACAD
1000
AcDbSavedByObjectVersion
1070
     0
  0
VISUALSTYLE
  5
2D
102
{ACAD_XDICTIONARY
360
35D
102
}
102
{ACAD_REACTORS
330
2A
102
}
330
2A
100
AcDbVisualStyle
  2

 70
     2
 71
     2
 72
     2
 73
     1
 90
        2
 40
-0.6
 41
30.0
 62
     5
 63
     7
421
 16777215
 74
     0
 91
        0
 64
     7
 65
   257
 75
     1
175
     1
 42
1.0
 92
        0
 66
     7
 43
1.0
 76
     1
 77
     6
 78
     2
 67
     7
 79
     5
170
     0
171
     0
290
     0
174
     0
 93
       13
 44
0.0
173
     0
291
     1
 45
0.0
1001
ACAD
1000
AcDbSavedByObjectVersion
1070
     0
  0
VISUALSTYLE
  5
2E
102
{ACAD_XDICTIONARY
360
35F
102
}
102
{ACAD_REACTORS
330
2A
102
}
330
2A
100
AcDbVisualStyle
  2

 70
     3
 71
     2
 72
     2
 73
     1
 90
        2
 40
-0.6
 41
30.0
 62
     5
 63
     7
421
 16777215
 74
     1
 91
        0
 64
     7
 65
   257
 75
     1
175
     1
 42
1.0
 92
        0
 66
   257
 43
1.0
 76
     1
 77
     6
 78
     2
 67
     7
 79
     5
170
     0
171
     0
290
     0
174
     0
 93
       13
 44
0.0
173
     0
291
     1
 45
0.0
1001
ACAD
1000
AcDbSavedByObjectVersion
1070
     0
  0
VISUALSTYLE
  5
31
102
{ACAD_XDICTIONARY
360
365
102
}
102
{ACAD_REACTORS
330
2A
102
}
330
2A
100
AcDbVisualStyle
  2

 70
     6
 71
     1
 72
     2
 73
     2
 90
        0
 40
-0.6
 41
-30.0
 62
     5
 63
     7
421
 16777215
 74
     2
 91
        2
 64
     7
 65
   257
 75
     2
175
     1
 42
40.0
 92
        0
 66
   257
 43
1.0
 76
     1
 77
     6
 78
     2
 67
     7
 79
     3
170
     0
171
     0
290
     0
174
     0
 93
        1
 44
0.0
173
     0
291
     0
 45
0.0
1001
ACAD
1000
AcDbSavedByObjectVersion
1070
     0
  0
VISUALSTYLE
  5
3B
102
{ACAD_XDICTIONARY
360
379
102
}
102
{ACAD_REACTORS
330
2A
102
}
330
2A
100
AcDbVisualStyle
  2

 70
    20
 71
     2
 72
     2
 73
     0
 90
        0
 40
-0.6
 41
-30.0
 62
     5
 63
     7
421
 16777215
 74
     1
 91
        4
 64
     7
 65
   257
 75
     1
175
     1
 42
1.0
 92
       10
 66
     7
 43
1.0
 76
     1
 77
     6
 78
     2
 67
     7
 79
     5
170
     0
171
     0
290
     0
174
     0
 93
        1
 44
0.0
173
     0
291
     1
 45
0.0
1001
ACAD
1000
AcDbSavedByObjectVersion
1070
     0
  0
VISUALSTYLE
  5
38
102
{ACAD_XDICTIONARY
360
373
102
}
102
{ACAD_REACTORS
330
2A
102
}
330
2A
100
AcDbVisualStyle
  2

 70
    14
 71
     2
 72
     2
 73
     0
 90
        0
 40
-0.6
 41
-30.0
 62
     5
 63
     7
421
 16777215
 74
     1
 91
        4
 64
     7
 65
   257
 75
     7
175
     7
 42
1.0
 92
        8
 66
     7
 43
1.0
 76
     1
 77
     6
 78
     2
 67
     7
 79
     5
170
     0
171
     0
290
     0
174
     0
 93
        1
 44
0.0
173
     0
291
     1
 45
0.0
1001
ACAD
1000
AcDbSavedByObjectVersion
1070
     0
  0
VISUALSTYLE
  5
3C
102
{ACAD_XDICTIONARY
360
37B
102
}
102
{ACAD_REACTORS
330
2A
102
}
330
2A
100
AcDbVisualStyle
  2

 70
    21
 71
     2
 72
     2
 73
     0
 90
        0
 40
-0.6
 41
-30.0
 62
     5
 63
     7
421
 16777215
 74
     1
 91
        4
 64
     7
 65
   257
 75
     1
175
     1
 42
1.0
 92
        9
 66
     7
 43
1.0
 76
     1
 77
     6
 78
     2
 67
     7
 79
     5
170
     0
171
     0
290
     0
174
     0
 93
        1
 44
0.0
173
     0
291
     1
 45
0.0
1001
ACAD
1000
AcDbSavedByObjectVersion
1070
     0
  0
VISUALSTYLE
  5
33
102
{ACAD_XDICTIONARY
360
369
102
}
102
{ACAD_REACTORS
330
2A
102
}
330
2A
100
AcDbVisualStyle
  2

 70
     8
 71
     2
 72
     3
 73
     0
 90
        2
 40
-0.6
 41
30.0
 62
     5
 63
     7
421
 16777215
 74
     0
 91
        0
 64
     7
 65
   257
 75
     1
175
     1
 42
1.0
 92
        8
 66
   257
 43
1.0
 76
     1
 77
     6
 78
     2
 67
     7
 79
     3
170
     0
171
     0
290
     0
174
     0
 93
       13
 44
0.0
173
     0
291
     0
 45
0.0
1001
ACAD
1000
AcDbSavedByObjectVersion
1070
     0
  0
VISUALSTYLE
  5
42
102
{ACAD_XDICTIONARY
360
387
102
}
102
{ACAD_REACTORS
330
2A
102
}
330
2A
100
AcDbVisualStyle
  2

 70
    27
 71
     2
 72
     2
 73
     1
 90
        2
 40
-0.6
 41
30.0
 62
     5
 63
     7
421
 16777215
 74
     0
 91
        4
 64
     7
 65
   257
 75
     1
175
     1
 42
1.0
 92
        8
 66
   257
 43
1.0
 76
     1
 77
     6
 78
     2
 67
     8
425
  7895160
 79
     3
170
     0
171
     0
290
     0
174
     0
 93
        5
 44
0.0
173
     0
291
     0
 45
0.0
1001
ACAD
1000
AcDbSavedByObjectVersion
1070
     0
  0
VISUALSTYLE
  5
41
102
{ACAD_XDICTIONARY
360
385
102
}
102
{ACAD_REACTORS
330
2A
102
}
330
2A
100
AcDbVisualStyle
  2

 70
    26
 71
     2
 72
     2
 73
     1
 90
        2
 40
-0.6
 41
30.0
 62
     5
 63
     7
421
 16777215
 74
     1
 91
       10
 64
     7
 65
   257
 75
     2
175
     1
 42
1.0
 92
        8
 66
   257
 43
1.0
 76
     1
 77
     6
 78
     2
 67
     7
 79
     3
170
     0
171
     0
290
     0
174
     0
 93
        5
 44
0.0
173
     0
291
     0
 45
0.0
1001
ACAD
1000
AcDbSavedByObjectVersion
1070
     0
  0
VISUALSTYLE
  5
3E
102
{ACAD_XDICTIONARY
360
37F
102
}
102
{ACAD_REACTORS
330
2A
102
}
330
2A
100
AcDbVisualStyle
  2

 70
    23
 71
     2
 72
     2
 73
     3
 90
        0
 40
-0.6
 41
-30.0
 62
     5
 63
     7
421
 16777215
 74
     2
 91
        2
 64
     7
 65
     7
 75
     1
175
     1
 42
40.0
 92
        8
 66
     7
 43
1.0
 76
     1
 77
     6
 78
     2
 67
     7
 79
     3
170
     0
171
     0
290
     0
174
     0
 93
        1
 44
0.0
173
     0
291
     0
 45
0.0
1001
ACAD
1000
AcDbSavedByObjectVersion
1070
     0
  0
VISUALSTYLE
  5
3F
102
{ACAD_XDICTIONARY
360
381
102
}
102
{ACAD_REACTORS
330
2A
102
}
330
2A
100
AcDbVisualStyle
  2

 70
    24
 71
     1
 72
     2
 73
     2
 90
        0
 40
-0.6
 41
-30.0
 62
     5
 63
     7
421
 16777215
 74
     2
 91
        2
 64
     7
 65
     7
 75
     1
175
     1
 42
40.0
 92
       11
 66
     7
 43
1.0
 76
     1
 77
     6
 78
     2
 67
     7
 79
     6
170
     0
171
     0
290
     0
174
     0
 93
        1
 44
0.0
173
     0
291
     0
 45
0.0
1001
ACAD
1000
AcDbSavedByObjectVersion
1070
     0
  0
VISUALSTYLE
  5
37
102
{ACAD_XDICTIONARY
360
371
102
}
102
{ACAD_REACTORS
330
2A
102
}
330
2A
100
AcDbVisualStyle
  2

 70
    13
 71
     2
 72
     2
 73
     0
 90
        0
 40
-0.6
 41
-30.0
 62
     5
 63
     7
421
 16777215
 74
     1
 91
        4
 64
     7
 65
   257
 75
     1
175
     1
 42
1.0
 92
       12
 66
     7
 43
1.0
 76
     1
 77
     6
 78
     2
 67
     7
 79
     5
170
     0
171
     0
290
     0
174
     0
 93
        1
 44
0.0
173
     0
291
     1
 45
0.0
1001
ACAD
1000
AcDbSavedByObjectVersion
1070
     0
  0
VISUALSTYLE
  5
30
102
{ACAD_XDICTIONARY
360
363
102
}
102
{ACAD_REACTORS
330
2A
102
}
330
2A
100
AcDbVisualStyle
  2

 70
     5
 71
     0
 72
     2
 73
     0
 90
        0
 40
-0.6
 41
-30.0
 62
     5
 63
     7
421
 16777215
 74
     1
 91
        4
 64
     7
 65
   257
 75
     1
175
     1
 42
1.0
 92
        0
 66
   257
 43
1.0
 76
     1
 77
     6
 78
     2
 67
     7
 79
     3
170
     0
171
     0
290
     0
174
     0
 93
        1
 44
0.0
173
     0
291
     0
 45
0.0
1001
ACAD
1000
AcDbSavedByObjectVersion
1070
     0
  0
VISUALSTYLE
  5
40
102
{ACAD_XDICTIONARY
360
383
102
}
102
{ACAD_REACTORS
330
2A
102
}
330
2A
100
AcDbVisualStyle
  2

 70
    25
 71
     2
 72
     2
 73
     1
 90
        1
 40
0.5
 41
-30.0
 62
     5
 63
     7
421
 16777215
 74
     1
 91
        0
 64
     7
 65
   257
 75
     1
175
     1
 42
1.0
 92
        8
 66
     7
 43
1.0
 76
     1
 77
     6
 78
     2
 67
     7
 79
     3
170
     0
171
     0
290
     0
174
     0
 93
       13
 44
0.0
173
     0
291
     0
 45
0.0
1001
ACAD
1000
AcDbSavedByObjectVersion
1070
     0
  0
DICTIONARYVAR
  5
2AA
102
{ACAD_REACTORS
330
2A9
102
}
330
2A9
100
DictionaryVariables
280
     0
  1
1:1
  0
DICTIONARYVAR
  5
2EB
102
{ACAD_REACTORS
330
2A9
102
}
330
2A9
100
DictionaryVariables
280
     0
  1
STANDARD
  0
DICTIONARYVAR
  5
2EA
102
{ACAD_REACTORS
330
2A9
102
}
330
2A9
100
DictionaryVariables
280
     0
  1
STANDARD
  0
DICTIONARYVAR
  5
353
102
{ACAD_REACTORS
330
2A9
102
}
330
2A9
100
DictionaryVariables
280
     0
  1
Metric50
  0
DICTIONARYVAR
  5
354
102
{ACAD_REACTORS
330
2A9
102
}
330
2A9
100
DictionaryVariables
280
     0
  1
Metric50
  0
DICTIONARYVAR
  5
2AB
102
{ACAD_REACTORS
330
2A9
102
}
330
2A9
100
DictionaryVariables
280
     0
  1
1
  0
DICTIONARYVAR
  5
355
102
{ACAD_REACTORS
330
2A9
102
}
330
2A9
100
DictionaryVariables
280
     0
  1
2
  0
DICTIONARY
  5
38C
330
2F2
100
AcDbDictionary
280
     1
281
     1
  3
ACAD_XREC_ROUNDTRIP
360
38D
  0
DICTIONARY
  5
2DF
330
45
100
AcDbDictionary
280
     1
281
     1
  3
ACAD_XREC_ROUNDTRIP
360
2E0
  0
DICTIONARY
  5
2DD
330
44
100
AcDbDictionary
280
     1
281
     1
  3
ACAD_XREC_ROUNDTRIP
360
2DE
  0
DICTIONARY
  5
2E1
330
46
100
AcDbDictionary
280
     1
281
     1
  3
ACAD_XREC_ROUNDTRIP
360
2E2
  0
DICTIONARY
  5
38A
330
2F1
100
AcDbDictionary
280
     1
281
     1
  3
ACAD_XREC_ROUNDTRIP
360
38B
  0
DICTIONARY
  5
2E3
330
6A
100
AcDbDictionary
280
     1
281
     1
  3
ACAD_ROUNDTRIP_2008_TABLESTYLE_CELLSTYLEMAP
360
357
  3
ACAD_XREC_ROUNDTRIP
360
389
  0
DICTIONARY
  5
361
330
2F
100
AcDbDictionary
280
     1
281
     1
  3
ACAD_XREC_ROUNDTRIP
360
362
  0
DICTIONARY
  5
367
330
32
100
AcDbDictionary
280
     1
281
     1
  3
ACAD_XREC_ROUNDTRIP
360
368
  0
DICTIONARY
  5
36F
330
36
100
AcDbDictionary
280
     1
281
     1
  3
ACAD_XREC_ROUNDTRIP
360
370
  0
DICTIONARY
  5
377
330
3A
100
AcDbDictionary
280
     1
281
     1
  3
ACAD_XREC_ROUNDTRIP
360
378
  0
DICTIONARY
  5
36B
330
34
100
AcDbDictionary
280
     1
281
     1
  3
ACAD_XREC_ROUNDTRIP
360
36C
  0
DICTIONARY
  5
36D
330
35
100
AcDbDictionary
280
     1
281
     1
  3
ACAD_XREC_ROUNDTRIP
360
36E
  0
DICTIONARY
  5
37D
330
3D
100
AcDbDictionary
280
     1
281
     1
  3
ACAD_XREC_ROUNDTRIP
360
37E
  0
DICTIONARY
  5
375
330
39
100
AcDbDictionary
280
     1
281
     1
  3
ACAD_XREC_ROUNDTRIP
360
376
  0
DICTIONARY
  5
359
330
2B
100
AcDbDictionary
280
     1
281
     1
  3
ACAD_XREC_ROUNDTRIP
360
35A
  0
DICTIONARY
  5
35B
330
2C
100
AcDbDictionary
280
     1
281
     1
  3
ACAD_XREC_ROUNDTRIP
360
35C
  0
DICTIONARY
  5
35D
330
2D
100
AcDbDictionary
280
     1
281
     1
  3
ACAD_XREC_ROUNDTRIP
360
35E
  0
DICTIONARY
  5
35F
330
2E
100
AcDbDictionary
280
     1
281
     1
  3
ACAD_XREC_ROUNDTRIP
360
360
  0
DICTIONARY
  5
365
330
31
100
AcDbDictionary
280
     1
281
     1
  3
ACAD_XREC_ROUNDTRIP
360
366
  0
DICTIONARY
  5
379
330
3B
100
AcDbDictionary
280
     1
281
     1
  3
ACAD_XREC_ROUNDTRIP
360
37A
  0
DICTIONARY
  5
373
330
38
100
AcDbDictionary
280
     1
281
     1
  3
ACAD_XREC_ROUNDTRIP
360
374
  0
DICTIONARY
  5
37B
330
3C
100
AcDbDictionary
280
     1
281
     1
  3
ACAD_XREC_ROUNDTRIP
360
37C
  0
DICTIONARY
  5
369
330
33
100
AcDbDictionary
280
     1
281
     1
  3
ACAD_XREC_ROUNDTRIP
360
36A
  0
DICTIONARY
  5
387
330
42
100
AcDbDictionary
280
     1
281
     1
  3
ACAD_XREC_ROUNDTRIP
360
388
  0
DICTIONARY
  5
385
330
41
100
AcDbDictionary
280
     1
281
     1
  3
ACAD_XREC_ROUNDTRIP
360
386
  0
DICTIONARY
  5
37F
330
3E
100
AcDbDictionary
280
     1
281
     1
  3
ACAD_XREC_ROUNDTRIP
360
380
  0
DICTIONARY
  5
381
330
3F
100
AcDbDictionary
280
     1
281
     1
  3
ACAD_XREC_ROUNDTRIP
360
382
  0
DICTIONARY
  5
371
330
37
100
AcDbDictionary
280
     1
281
     1
  3
ACAD_XREC_ROUNDTRIP
360
372
  0
DICTIONARY
  5
363
330
30
100
AcDbDictionary
280
     1
281
     1
  3
ACAD_XREC_ROUNDTRIP
360
364
  0
DICTIONARY
  5
383
330
40
100
AcDbDictionary
280
     1
281
     1
  3
ACAD_XREC_ROUNDTRIP
360
384
  0
XRECORD
  5
38D
102
{ACAD_REACTORS
330
38C
102
}
330
38C
100
AcDbXrecord
280
     1
102
DISPLAYNAME
  1
Metric50
102
FLAGS
 90
        0
  0
XRECORD
  5
2E0
102
{ACAD_REACTORS
330
2DF
102
}
330
2DF
100
AcDbXrecord
280
     1
102
MATERIAL
148
0.0
149
0.0
149
0.0
 93
        0
 94
      127
282
     0
 72
     1
 77
     1
171
     1
175
     1
179
     1
273
     0
  0
XRECORD
  5
2DE
102
{ACAD_REACTORS
330
2DD
102
}
330
2DD
100
AcDbXrecord
280
     1
102
MATERIAL
148
0.0
149
0.0
149
0.0
 93
        0
 94
      127
282
     0
 72
     1
 77
     1
171
     1
175
     1
179
     1
273
     0
  0
XRECORD
  5
2E2
102
{ACAD_REACTORS
330
2E1
102
}
330
2E1
100
AcDbXrecord
280
     1
102
MATERIAL
148
0.0
149
0.0
149
0.0
 93
        0
 94
      127
282
     0
 72
     1
 77
     1
171
     1
175
     1
179
     1
273
     0
  0
XRECORD
  5
38B
102
{ACAD_REACTORS
330
38A
102
}
330
38A
100
AcDbXrecord
280
     1
102
DISPLAYNAME
  1
Metric50
102
FLAGS
 90
        0
  0
CELLSTYLEMAP
  5
357
102
{ACAD_REACTORS
330
2E3
102
}
330
2E3
100
AcDbCellStyleMap
 90
        3
300
CELLSTYLE
  1
TABLEFORMAT_BEGIN
 90
        5
170
     1
 91
        0
 92
    32768
 62
   257
 93
        1
300
CONTENTFORMAT
  1
CONTENTFORMAT_BEGIN
 90
        0
 91
        0
 92
        4
 93
        0
300

 40
0.0
140
1.0
 94
        5
 62
     0
340
11
144
0.25
309
CONTENTFORMAT_END
171
     1
301
MARGIN
  1
CELLMARGIN_BEGIN
 40
0.06
 40
0.06
 40
0.06
 40
0.06
 40
0.18
 40
0.18
309
CELLMARGIN_END
 94
        6
 95
        1
302
GRIDFORMAT
  1
GRIDFORMAT_BEGIN
 90
        0
 91
        1
 62
     0
 92
       -2
340
14
 93
        0
 40
0.045
309
GRIDFORMAT_END
 95
        2
302
GRIDFORMAT
  1
GRIDFORMAT_BEGIN
 90
        0
 91
        1
 62
     0
 92
       -2
340
14
 93
        0
 40
0.045
309
GRIDFORMAT_END
 95
        4
302
GRIDFORMAT
  1
GRIDFORMAT_BEGIN
 90
        0
 91
        1
 62
     0
 92
       -2
340
14
 93
        0
 40
0.045
309
GRIDFORMAT_END
 95
        8
302
GRIDFORMAT
  1
GRIDFORMAT_BEGIN
 90
        0
 91
        1
 62
     0
 92
       -2
340
14
 93
        0
 40
0.045
309
GRIDFORMAT_END
 95
       16
302
GRIDFORMAT
  1
GRIDFORMAT_BEGIN
 90
        0
 91
        1
 62
     0
 92
       -2
340
14
 93
        0
 40
0.045
309
GRIDFORMAT_END
 95
       32
302
GRIDFORMAT
  1
GRIDFORMAT_BEGIN
 90
        0
 91
        1
 62
     0
 92
       -2
340
14
 93
        0
 40
0.045
309
GRIDFORMAT_END
309
TABLEFORMAT_END
  1
CELLSTYLE_BEGIN
 90
        1
 91
        1
300
_TITLE
309
CELLSTYLE_END
300
CELLSTYLE
  1
TABLEFORMAT_BEGIN
 90
        5
170
     1
 91
        0
 92
        0
 62
   257
 93
        1
300
CONTENTFORMAT
  1
CONTENTFORMAT_BEGIN
 90
        0
 91
        0
 92
        4
 93
        0
300

 40
0.0
140
1.0
 94
        5
 62
     0
340
11
144
0.18
309
CONTENTFORMAT_END
171
     1
301
MARGIN
  1
CELLMARGIN_BEGIN
 40
0.06
 40
0.06
 40
0.06
 40
0.06
 40
0.18
 40
0.18
309
CELLMARGIN_END
 94
        6
 95
        1
302
GRIDFORMAT
  1
GRIDFORMAT_BEGIN
 90
        0
 91
        1
 62
     0
 92
       -2
340
14
 93
        0
 40
0.045
309
GRIDFORMAT_END
 95
        2
302
GRIDFORMAT
  1
GRIDFORMAT_BEGIN
 90
        0
 91
        1
 62
     0
 92
       -2
340
14
 93
        0
 40
0.045
309
GRIDFORMAT_END
 95
        4
302
GRIDFORMAT
  1
GRIDFORMAT_BEGIN
 90
        0
 91
        1
 62
     0
 92
       -2
340
14
 93
        0
 40
0.045
309
GRIDFORMAT_END
 95
        8
302
GRIDFORMAT
  1
GRIDFORMAT_BEGIN
 90
        0
 91
        1
 62
     0
 92
       -2
340
14
 93
        0
 40
0.045
309
GRIDFORMAT_END
 95
       16
302
GRIDFORMAT
  1
GRIDFORMAT_BEGIN
 90
        0
 91
        1
 62
     0
 92
       -2
340
14
 93
        0
 40
0.045
309
GRIDFORMAT_END
 95
       32
302
GRIDFORMAT
  1
GRIDFORMAT_BEGIN
 90
        0
 91
        1
 62
     0
 92
       -2
340
14
 93
        0
 40
0.045
309
GRIDFORMAT_END
309
TABLEFORMAT_END
  1
CELLSTYLE_BEGIN
 90
        2
 91
        1
300
_HEADER
309
CELLSTYLE_END
300
CELLSTYLE
  1
TABLEFORMAT_BEGIN
 90
        5
170
     1
 91
        0
 92
        0
 62
   257
 93
        1
300
CONTENTFORMAT
  1
CONTENTFORMAT_BEGIN
 90
        0
 91
        0
 92
        4
 93
        0
300

 40
0.0
140
1.0
 94
        2
 62
     0
340
11
144
0.18
309
CONTENTFORMAT_END
171
     1
301
MARGIN
  1
CELLMARGIN_BEGIN
 40
0.06
 40
0.06
 40
0.06
 40
0.06
 40
0.18
 40
0.18
309
CELLMARGIN_END
 94
        6
 95
        1
302
GRIDFORMAT
  1
GRIDFORMAT_BEGIN
 90
        0
 91
        1
 62
     0
 92
       -2
340
14
 93
        0
 40
0.045
309
GRIDFORMAT_END
 95
        2
302
GRIDFORMAT
  1
GRIDFORMAT_BEGIN
 90
        0
 91
        1
 62
     0
 92
       -2
340
14
 93
        0
 40
0.045
309
GRIDFORMAT_END
 95
        4
302
GRIDFORMAT
  1
GRIDFORMAT_BEGIN
 90
        0
 91
        1
 62
     0
 92
       -2
340
14
 93
        0
 40
0.045
309
GRIDFORMAT_END
 95
        8
302
GRIDFORMAT
  1
GRIDFORMAT_BEGIN
 90
        0
 91
        1
 62
     0
 92
       -2
340
14
 93
        0
 40
0.045
309
GRIDFORMAT_END
 95
       16
302
GRIDFORMAT
  1
GRIDFORMAT_BEGIN
 90
        0
 91
        1
 62
     0
 92
       -2
340
14
 93
        0
 40
0.045
309
GRIDFORMAT_END
 95
       32
302
GRIDFORMAT
  1
GRIDFORMAT_BEGIN
 90
        0
 91
        1
 62
     0
 92
       -2
340
14
 93
        0
 40
0.045
309
GRIDFORMAT_END
309
TABLEFORMAT_END
  1
CELLSTYLE_BEGIN
 90
        3
 91
        2
300
_DATA
309
CELLSTYLE_END
  0
XRECORD
  5
389
102
{ACAD_REACTORS
330
2E3
102
}
330
2E3
100
AcDbXrecord
280
     1
102
ACAD_ROUNDTRIP_PRE2007_TABLESTYLE
 90
        4
 91
        0
  1

 92
        4
 93
        0
  2

 94
        4
 95
        0
  3

  0
XRECORD
  5
362
102
{ACAD_REACTORS
330
361
102
}
330
361
100
AcDbXrecord
280
     1
102
RTVSPost2010Prop28
280
     1
102
RTVSPost2010PropOp28
 70
     1
102
RTVSPost2010Prop29
280
     1
102
RTVSPost2010PropOp29
 70
     1
102
RTVSPost2010Prop30
280
     0
102
RTVSPost2010PropOp30
 70
     1
102
RTVSPost2010Prop31
280
     0
102
RTVSPost2010PropOp31
 70
     1
102
RTVSPost2010Prop32
280
     0
102
RTVSPost2010PropOp32
 70
     1
102
RTVSPost2010Prop33
280
     0
102
RTVSPost2010PropOp33
 70
     1
102
RTVSPost2010Prop34
280
     0
102
RTVSPost2010PropOp34
 70
     1
102
RTVSPost2010Prop35
280
     0
102
RTVSPost2010PropOp35
 70
     1
102
RTVSPost2010Prop36
280
     0
102
RTVSPost2010PropOp36
 70
     1
102
RTVSPost2010Prop37
 90
       50
102
RTVSPost2010PropOp37
 70
     1
102
RTVSPost2010Prop38
140
0.0
102
RTVSPost2010PropOp38
 70
     1
102
RTVSPost2010Prop39
140
1.0
102
RTVSPost2010PropOp39
 70
     1
102
RTVSPost2010Prop40
 90
        0
102
RTVSPost2010PropOp40
 70
     1
102
RTVSPost2010Prop41ColorIndex
 90
       18
102
RTVSPost2010Prop41ColorRGB
 90
        0
102
RTVSPost2010PropOp41
 70
     1
102
RTVSPost2010Prop42
 90
       50
102
RTVSPost2010PropOp42
 70
     1
102
RTVSPost2010Prop43
 90
        3
102
RTVSPost2010PropOp43
 70
     1
102
RTVSPost2010Prop44ColorIndex
 90
        5
102
RTVSPost2010Prop44ColorRGB
 90
      255
102
RTVSPost2010PropOp44
 70
     1
102
RTVSPost2010Prop45
280
     0
102
RTVSPost2010PropOp45
 70
     1
102
RTVSPost2010Prop46
 90
       50
102
RTVSPost2010PropOp46
 70
     1
102
RTVSPost2010Prop47
 90
       50
102
RTVSPost2010PropOp47
 70
     1
102
RTVSPost2010Prop48
 90
       50
102
RTVSPost2010PropOp48
 70
     1
102
RTVSPost2010Prop49
280
     0
102
RTVSPost2010PropOp49
 70
     1
102
RTVSPost2010Prop50
 90
       50
102
RTVSPost2010PropOp50
 70
     1
102
RTVSPost2010Prop51ColorIndex
 90
      256
102
RTVSPost2010Prop51ColorRGB
 90
-16777216
102
RTVSPost2010PropOp51
 70
     0
102
RTVSPost2010Prop52
140
1.0
102
RTVSPost2010PropOp52
 70
     0
102
RTVSPost2010Prop53
 90
        2
102
RTVSPost2010PropOp53
 70
     1
102
RTVSPost2010Prop54
  1
strokes_ogs.tif
102
RTVSPost2010PropOp54
 70
     1
102
RTVSPost2010Prop55
280
     0
102
RTVSPost2010PropOp55
 70
     1
102
RTVSPost2010Prop56
140
1.0
102
RTVSPost2010PropOp56
 70
     1
102
RTVSPost2010Prop57
140
1.0
102
RTVSPost2010PropOp57
 70
     1
102
RTVSPropertyOp0
 70
     1
102
RTVSPropertyOp1
 70
     1
102
RTVSPropertyOp2
 70
     1
102
RTVSPropertyOp3
 70
     1
102
RTVSPropertyOp4
 70
     1
102
RTVSPropertyOp5
 70
     1
102
RTVSPropertyOp6
 70
     1
102
RTVSPropertyOp7
 70
     1
102
RTVSPropertyOp8
 70
     1
102
RTVSPropertyOp9
 70
     1
102
RTVSPropertyOp10
 70
     1
102
RTVSPropertyOp11
 70
     1
102
RTVSPropertyOp12
 70
     1
102
RTVSPropertyOp13
 70
     1
102
RTVSPropertyOp14
 70
     1
102
RTVSPropertyOp15
 70
     1
102
RTVSPropertyOp16
 70
     1
102
RTVSPropertyOp17
 70
     1
102
RTVSPropertyOp18
 70
     1
102
RTVSPropertyOp19
 70
     1
102
RTVSPropertyOp20
 70
     1
102
RTVSPropertyOp21
 70
     1
102
RTVSPropertyOp22
 70
     1
102
RTVSPropertyOp23
 70
     1
102
RTVSPropertyOp24
 70
     1
102
RTVSPropertyOp25
 70
     1
102
RTVSPropertyOp26
 70
     1
102
RTVSPropertyOp27
 70
     1
102
RTVSPropertyOp28
 70
     1
102
RTVSPropertyOp29
 70
     1
102
RTVSPropertyOp30
 70
     1
102
RTVSPropertyOp31
 70
     1
102
RTVSPropertyOp32
 70
     1
102
RTVSPropertyOp33
 70
     1
102
RTVSPropertyOp34
 70
     1
102
RTVSPropertyOp35
 70
     1
102
RTVSPropertyOp36
 70
     1
102
RTVSPropertyOp37
 70
     1
102
RTVSPropertyOp38
 70
     1
102
RTVSPropertyOp39
 70
     1
102
RTVSPropertyOp40
 70
     1
102
RTVSPropertyOp41
 70
     1
102
RTVSPropertyOp42
 70
     1
102
RTVSPropertyOp43
 70
     1
102
RTVSPropertyOp44
 70
     1
102
RTVSPropertyOp45
 70
     1
102
RTVSPropertyOp46
 70
     1
102
RTVSPropertyOp47
 70
     1
102
RTVSPropertyOp48
 70
     1
102
RTVSPropertyOp49
 70
     1
102
RTVSPropertyOp50
 70
     1
102
RTVSPropertyOp51
 70
     0
102
RTVSPropertyOp52
 70
     0
102
RTVSPropertyOp53
 70
     1
102
RTVSPropertyOp54
 70
     1
102
RTVSPropertyOp55
 70
     1
102
RTVSPropertyOp56
 70
     1
102
RTVSPropertyOp57
 70
     1
102
RTVSPropertyOp58
 70
     1
102
RTVSPropertyOp59
 70
     1
102
RTVSPropertyOp60
 70
     1
102
RTVSPropertyOp61
 70
     1
102
RTVSPropertyOp62
 70
     1
  0
XRECORD
  5
368
102
{ACAD_REACTORS
330
367
102
}
330
367
100
AcDbXrecord
280
     1
102
RTVSPost2010Prop28
280
     0
102
RTVSPost2010PropOp28
 70
     1
102
RTVSPost2010Prop29
280
     1
102
RTVSPost2010PropOp29
 70
     1
102
RTVSPost2010Prop30
280
     1
102
RTVSPost2010PropOp30
 70
     1
102
RTVSPost2010Prop31
280
     0
102
RTVSPost2010PropOp31
 70
     1
102
RTVSPost2010Prop32
280
     0
102
RTVSPost2010PropOp32
 70
     1
102
RTVSPost2010Prop33
280
     0
102
RTVSPost2010PropOp33
 70
     1
102
RTVSPost2010Prop34
280
     0
102
RTVSPost2010PropOp34
 70
     1
102
RTVSPost2010Prop35
280
     0
102
RTVSPost2010PropOp35
 70
     1
102
RTVSPost2010Prop36
280
     0
102
RTVSPost2010PropOp36
 70
     1
102
RTVSPost2010Prop37
 90
       50
102
RTVSPost2010PropOp37
 70
     1
102
RTVSPost2010Prop38
140
0.0
102
RTVSPost2010PropOp38
 70
     1
102
RTVSPost2010Prop39
140
1.0
102
RTVSPost2010PropOp39
 70
     1
102
RTVSPost2010Prop40
 90
        0
102
RTVSPost2010PropOp40
 70
     1
102
RTVSPost2010Prop41ColorIndex
 90
       18
102
RTVSPost2010Prop41ColorRGB
 90
        0
102
RTVSPost2010PropOp41
 70
     1
102
RTVSPost2010Prop42
 90
       50
102
RTVSPost2010PropOp42
 70
     1
102
RTVSPost2010Prop43
 90
        3
102
RTVSPost2010PropOp43
 70
     1
102
RTVSPost2010Prop44ColorIndex
 90
        5
102
RTVSPost2010Prop44ColorRGB
 90
      255
102
RTVSPost2010PropOp44
 70
     1
102
RTVSPost2010Prop45
280
     0
102
RTVSPost2010PropOp45
 70
     1
102
RTVSPost2010Prop46
 90
       50
102
RTVSPost2010PropOp46
 70
     1
102
RTVSPost2010Prop47
 90
       50
102
RTVSPost2010PropOp47
 70
     1
102
RTVSPost2010Prop48
 90
       50
102
RTVSPost2010PropOp48
 70
     1
102
RTVSPost2010Prop49
280
     0
102
RTVSPost2010PropOp49
 70
     1
102
RTVSPost2010Prop50
 90
       50
102
RTVSPost2010PropOp50
 70
     1
102
RTVSPost2010Prop51ColorIndex
 90
      256
102
RTVSPost2010Prop51ColorRGB
 90
-16777216
102
RTVSPost2010PropOp51
 70
     0
102
RTVSPost2010Prop52
140
1.0
102
RTVSPost2010PropOp52
 70
     0
102
RTVSPost2010Prop53
 90
        2
102
RTVSPost2010PropOp53
 70
     1
102
RTVSPost2010Prop54
  1
strokes_ogs.tif
102
RTVSPost2010PropOp54
 70
     1
102
RTVSPost2010Prop55
280
     0
102
RTVSPost2010PropOp55
 70
     1
102
RTVSPost2010Prop56
140
1.0
102
RTVSPost2010PropOp56
 70
     1
102
RTVSPost2010Prop57
140
1.0
102
RTVSPost2010PropOp57
 70
     1
102
RTVSPropertyOp0
 70
     1
102
RTVSPropertyOp1
 70
     1
102
RTVSPropertyOp2
 70
     1
102
RTVSPropertyOp3
 70
     1
102
RTVSPropertyOp4
 70
     1
102
RTVSPropertyOp5
 70
     1
102
RTVSPropertyOp6
 70
     1
102
RTVSPropertyOp7
 70
     1
102
RTVSPropertyOp8
 70
     1
102
RTVSPropertyOp9
 70
     1
102
RTVSPropertyOp10
 70
     1
102
RTVSPropertyOp11
 70
     1
102
RTVSPropertyOp12
 70
     1
102
RTVSPropertyOp13
 70
     1
102
RTVSPropertyOp14
 70
     1
102
RTVSPropertyOp15
 70
     1
102
RTVSPropertyOp16
 70
     1
102
RTVSPropertyOp17
 70
     1
102
RTVSPropertyOp18
 70
     1
102
RTVSPropertyOp19
 70
     1
102
RTVSPropertyOp20
 70
     1
102
RTVSPropertyOp21
 70
     1
102
RTVSPropertyOp22
 70
     1
102
RTVSPropertyOp23
 70
     1
102
RTVSPropertyOp24
 70
     1
102
RTVSPropertyOp25
 70
     1
102
RTVSPropertyOp26
 70
     1
102
RTVSPropertyOp27
 70
     1
102
RTVSPropertyOp28
 70
     1
102
RTVSPropertyOp29
 70
     1
102
RTVSPropertyOp30
 70
     1
102
RTVSPropertyOp31
 70
     1
102
RTVSPropertyOp32
 70
     1
102
RTVSPropertyOp33
 70
     1
102
RTVSPropertyOp34
 70
     1
102
RTVSPropertyOp35
 70
     1
102
RTVSPropertyOp36
 70
     1
102
RTVSPropertyOp37
 70
     1
102
RTVSPropertyOp38
 70
     1
102
RTVSPropertyOp39
 70
     1
102
RTVSPropertyOp40
 70
     1
102
RTVSPropertyOp41
 70
     1
102
RTVSPropertyOp42
 70
     1
102
RTVSPropertyOp43
 70
     1
102
RTVSPropertyOp44
 70
     1
102
RTVSPropertyOp45
 70
     1
102
RTVSPropertyOp46
 70
     1
102
RTVSPropertyOp47
 70
     1
102
RTVSPropertyOp48
 70
     1
102
RTVSPropertyOp49
 70
     1
102
RTVSPropertyOp50
 70
     1
102
RTVSPropertyOp51
 70
     0
102
RTVSPropertyOp52
 70
     0
102
RTVSPropertyOp53
 70
     1
102
RTVSPropertyOp54
 70
     1
102
RTVSPropertyOp55
 70
     1
102
RTVSPropertyOp56
 70
     1
102
RTVSPropertyOp57
 70
     1
102
RTVSPropertyOp58
 70
     1
102
RTVSPropertyOp59
 70
     1
102
RTVSPropertyOp60
 70
     1
102
RTVSPropertyOp61
 70
     1
102
RTVSPropertyOp62
 70
     1
  0
XRECORD
  5
370
102
{ACAD_REACTORS
330
36F
102
}
330
36F
100
AcDbXrecord
280
     1
102
RTVSPost2010Prop28
280
     0
102
RTVSPost2010PropOp28
 70
     1
102
RTVSPost2010Prop29
280
     1
102
RTVSPost2010PropOp29
 70
     1
102
RTVSPost2010Prop30
280
     1
102
RTVSPost2010PropOp30
 70
     1
102
RTVSPost2010Prop31
280
     0
102
RTVSPost2010PropOp31
 70
     1
102
RTVSPost2010Prop32
280
     0
102
RTVSPost2010PropOp32
 70
     1
102
RTVSPost2010Prop33
280
     0
102
RTVSPost2010PropOp33
 70
     1
102
RTVSPost2010Prop34
280
     0
102
RTVSPost2010PropOp34
 70
     1
102
RTVSPost2010Prop35
280
     0
102
RTVSPost2010PropOp35
 70
     1
102
RTVSPost2010Prop36
280
     0
102
RTVSPost2010PropOp36
 70
     1
102
RTVSPost2010Prop37
 90
       50
102
RTVSPost2010PropOp37
 70
     1
102
RTVSPost2010Prop38
140
0.0
102
RTVSPost2010PropOp38
 70
     1
102
RTVSPost2010Prop39
140
1.0
102
RTVSPost2010PropOp39
 70
     1
102
RTVSPost2010Prop40
 90
        0
102
RTVSPost2010PropOp40
 70
     1
102
RTVSPost2010Prop41ColorIndex
 90
       18
102
RTVSPost2010Prop41ColorRGB
 90
        0
102
RTVSPost2010PropOp41
 70
     1
102
RTVSPost2010Prop42
 90
       50
102
RTVSPost2010PropOp42
 70
     1
102
RTVSPost2010Prop43
 90
        3
102
RTVSPost2010PropOp43
 70
     1
102
RTVSPost2010Prop44ColorIndex
 90
        5
102
RTVSPost2010Prop44ColorRGB
 90
      255
102
RTVSPost2010PropOp44
 70
     1
102
RTVSPost2010Prop45
280
     0
102
RTVSPost2010PropOp45
 70
     1
102
RTVSPost2010Prop46
 90
       50
102
RTVSPost2010PropOp46
 70
     1
102
RTVSPost2010Prop47
 90
       50
102
RTVSPost2010PropOp47
 70
     1
102
RTVSPost2010Prop48
 90
       50
102
RTVSPost2010PropOp48
 70
     1
102
RTVSPost2010Prop49
280
     0
102
RTVSPost2010PropOp49
 70
     1
102
RTVSPost2010Prop50
 90
       50
102
RTVSPost2010PropOp50
 70
     1
102
RTVSPost2010Prop51ColorIndex
 90
      256
102
RTVSPost2010Prop51ColorRGB
 90
-16777216
102
RTVSPost2010PropOp51
 70
     0
102
RTVSPost2010Prop52
140
1.0
102
RTVSPost2010PropOp52
 70
     0
102
RTVSPost2010Prop53
 90
        2
102
RTVSPost2010PropOp53
 70
     1
102
RTVSPost2010Prop54
  1
strokes_ogs.tif
102
RTVSPost2010PropOp54
 70
     1
102
RTVSPost2010Prop55
280
     0
102
RTVSPost2010PropOp55
 70
     1
102
RTVSPost2010Prop56
140
1.0
102
RTVSPost2010PropOp56
 70
     1
102
RTVSPost2010Prop57
140
1.0
102
RTVSPost2010PropOp57
 70
     1
102
RTVSPropertyOp0
 70
     1
102
RTVSPropertyOp1
 70
     1
102
RTVSPropertyOp2
 70
     1
102
RTVSPropertyOp3
 70
     1
102
RTVSPropertyOp4
 70
     1
102
RTVSPropertyOp5
 70
     1
102
RTVSPropertyOp6
 70
     1
102
RTVSPropertyOp7
 70
     1
102
RTVSPropertyOp8
 70
     1
102
RTVSPropertyOp9
 70
     1
102
RTVSPropertyOp10
 70
     1
102
RTVSPropertyOp11
 70
     1
102
RTVSPropertyOp12
 70
     1
102
RTVSPropertyOp13
 70
     1
102
RTVSPropertyOp14
 70
     1
102
RTVSPropertyOp15
 70
     1
102
RTVSPropertyOp16
 70
     1
102
RTVSPropertyOp17
 70
     1
102
RTVSPropertyOp18
 70
     1
102
RTVSPropertyOp19
 70
     1
102
RTVSPropertyOp20
 70
     1
102
RTVSPropertyOp21
 70
     1
102
RTVSPropertyOp22
 70
     1
102
RTVSPropertyOp23
 70
     1
102
RTVSPropertyOp24
 70
     1
102
RTVSPropertyOp25
 70
     1
102
RTVSPropertyOp26
 70
     1
102
RTVSPropertyOp27
 70
     1
102
RTVSPropertyOp28
 70
     1
102
RTVSPropertyOp29
 70
     1
102
RTVSPropertyOp30
 70
     1
102
RTVSPropertyOp31
 70
     1
102
RTVSPropertyOp32
 70
     1
102
RTVSPropertyOp33
 70
     1
102
RTVSPropertyOp34
 70
     1
102
RTVSPropertyOp35
 70
     1
102
RTVSPropertyOp36
 70
     1
102
RTVSPropertyOp37
 70
     1
102
RTVSPropertyOp38
 70
     1
102
RTVSPropertyOp39
 70
     1
102
RTVSPropertyOp40
 70
     1
102
RTVSPropertyOp41
 70
     1
102
RTVSPropertyOp42
 70
     1
102
RTVSPropertyOp43
 70
     1
102
RTVSPropertyOp44
 70
     1
102
RTVSPropertyOp45
 70
     1
102
RTVSPropertyOp46
 70
     1
102
RTVSPropertyOp47
 70
     1
102
RTVSPropertyOp48
 70
     1
102
RTVSPropertyOp49
 70
     1
102
RTVSPropertyOp50
 70
     1
102
RTVSPropertyOp51
 70
     0
102
RTVSPropertyOp52
 70
     0
102
RTVSPropertyOp53
 70
     1
102
RTVSPropertyOp54
 70
     1
102
RTVSPropertyOp55
 70
     1
102
RTVSPropertyOp56
 70
     1
102
RTVSPropertyOp57
 70
     1
102
RTVSPropertyOp58
 70
     1
102
RTVSPropertyOp59
 70
     1
102
RTVSPropertyOp60
 70
     1
102
RTVSPropertyOp61
 70
     1
102
RTVSPropertyOp62
 70
     1
  0
XRECORD
  5
378
102
{ACAD_REACTORS
330
377
102
}
330
377
100
AcDbXrecord
280
     1
102
RTVSPost2010Prop28
280
     0
102
RTVSPost2010PropOp28
 70
     1
102
RTVSPost2010Prop29
280
     1
102
RTVSPost2010PropOp29
 70
     1
102
RTVSPost2010Prop30
280
     1
102
RTVSPost2010PropOp30
 70
     1
102
RTVSPost2010Prop31
280
     0
102
RTVSPost2010PropOp31
 70
     1
102
RTVSPost2010Prop32
280
     0
102
RTVSPost2010PropOp32
 70
     1
102
RTVSPost2010Prop33
280
     0
102
RTVSPost2010PropOp33
 70
     1
102
RTVSPost2010Prop34
280
     0
102
RTVSPost2010PropOp34
 70
     1
102
RTVSPost2010Prop35
280
     0
102
RTVSPost2010PropOp35
 70
     1
102
RTVSPost2010Prop36
280
     0
102
RTVSPost2010PropOp36
 70
     1
102
RTVSPost2010Prop37
 90
       50
102
RTVSPost2010PropOp37
 70
     1
102
RTVSPost2010Prop38
140
0.0
102
RTVSPost2010PropOp38
 70
     1
102
RTVSPost2010Prop39
140
1.0
102
RTVSPost2010PropOp39
 70
     1
102
RTVSPost2010Prop40
 90
        0
102
RTVSPost2010PropOp40
 70
     1
102
RTVSPost2010Prop41ColorIndex
 90
       18
102
RTVSPost2010Prop41ColorRGB
 90
        0
102
RTVSPost2010PropOp41
 70
     1
102
RTVSPost2010Prop42
 90
       50
102
RTVSPost2010PropOp42
 70
     1
102
RTVSPost2010Prop43
 90
        3
102
RTVSPost2010PropOp43
 70
     1
102
RTVSPost2010Prop44ColorIndex
 90
        5
102
RTVSPost2010Prop44ColorRGB
 90
      255
102
RTVSPost2010PropOp44
 70
     1
102
RTVSPost2010Prop45
280
     0
102
RTVSPost2010PropOp45
 70
     1
102
RTVSPost2010Prop46
 90
       50
102
RTVSPost2010PropOp46
 70
     1
102
RTVSPost2010Prop47
 90
       50
102
RTVSPost2010PropOp47
 70
     1
102
RTVSPost2010Prop48
 90
       50
102
RTVSPost2010PropOp48
 70
     1
102
RTVSPost2010Prop49
280
     0
102
RTVSPost2010PropOp49
 70
     1
102
RTVSPost2010Prop50
 90
       50
102
RTVSPost2010PropOp50
 70
     1
102
RTVSPost2010Prop51ColorIndex
 90
      256
102
RTVSPost2010Prop51ColorRGB
 90
-16777216
102
RTVSPost2010PropOp51
 70
     0
102
RTVSPost2010Prop52
140
1.0
102
RTVSPost2010PropOp52
 70
     0
102
RTVSPost2010Prop53
 90
        2
102
RTVSPost2010PropOp53
 70
     1
102
RTVSPost2010Prop54
  1
strokes_ogs.tif
102
RTVSPost2010PropOp54
 70
     1
102
RTVSPost2010Prop55
280
     0
102
RTVSPost2010PropOp55
 70
     1
102
RTVSPost2010Prop56
140
1.0
102
RTVSPost2010PropOp56
 70
     1
102
RTVSPost2010Prop57
140
1.0
102
RTVSPost2010PropOp57
 70
     1
102
RTVSPropertyOp0
 70
     1
102
RTVSPropertyOp1
 70
     1
102
RTVSPropertyOp2
 70
     1
102
RTVSPropertyOp3
 70
     1
102
RTVSPropertyOp4
 70
     1
102
RTVSPropertyOp5
 70
     1
102
RTVSPropertyOp6
 70
     1
102
RTVSPropertyOp7
 70
     1
102
RTVSPropertyOp8
 70
     1
102
RTVSPropertyOp9
 70
     1
102
RTVSPropertyOp10
 70
     1
102
RTVSPropertyOp11
 70
     1
102
RTVSPropertyOp12
 70
     1
102
RTVSPropertyOp13
 70
     1
102
RTVSPropertyOp14
 70
     1
102
RTVSPropertyOp15
 70
     1
102
RTVSPropertyOp16
 70
     1
102
RTVSPropertyOp17
 70
     1
102
RTVSPropertyOp18
 70
     1
102
RTVSPropertyOp19
 70
     1
102
RTVSPropertyOp20
 70
     1
102
RTVSPropertyOp21
 70
     1
102
RTVSPropertyOp22
 70
     1
102
RTVSPropertyOp23
 70
     1
102
RTVSPropertyOp24
 70
     1
102
RTVSPropertyOp25
 70
     1
102
RTVSPropertyOp26
 70
     1
102
RTVSPropertyOp27
 70
     1
102
RTVSPropertyOp28
 70
     1
102
RTVSPropertyOp29
 70
     1
102
RTVSPropertyOp30
 70
     1
102
RTVSPropertyOp31
 70
     1
102
RTVSPropertyOp32
 70
     1
102
RTVSPropertyOp33
 70
     1
102
RTVSPropertyOp34
 70
     1
102
RTVSPropertyOp35
 70
     1
102
RTVSPropertyOp36
 70
     1
102
RTVSPropertyOp37
 70
     1
102
RTVSPropertyOp38
 70
     1
102
RTVSPropertyOp39
 70
     1
102
RTVSPropertyOp40
 70
     1
102
RTVSPropertyOp41
 70
     1
102
RTVSPropertyOp42
 70
     1
102
RTVSPropertyOp43
 70
     1
102
RTVSPropertyOp44
 70
     1
102
RTVSPropertyOp45
 70
     1
102
RTVSPropertyOp46
 70
     1
102
RTVSPropertyOp47
 70
     1
102
RTVSPropertyOp48
 70
     1
102
RTVSPropertyOp49
 70
     1
102
RTVSPropertyOp50
 70
     1
102
RTVSPropertyOp51
 70
     0
102
RTVSPropertyOp52
 70
     0
102
RTVSPropertyOp53
 70
     1
102
RTVSPropertyOp54
 70
     1
102
RTVSPropertyOp55
 70
     1
102
RTVSPropertyOp56
 70
     1
102
RTVSPropertyOp57
 70
     1
102
RTVSPropertyOp58
 70
     1
102
RTVSPropertyOp59
 70
     1
102
RTVSPropertyOp60
 70
     1
102
RTVSPropertyOp61
 70
     1
102
RTVSPropertyOp62
 70
     1
  0
XRECORD
  5
36C
102
{ACAD_REACTORS
330
36B
102
}
330
36B
100
AcDbXrecord
280
     1
102
RTVSPost2010Prop28
280
     0
102
RTVSPost2010PropOp28
 70
     1
102
RTVSPost2010Prop29
280
     1
102
RTVSPost2010PropOp29
 70
     1
102
RTVSPost2010Prop30
280
     1
102
RTVSPost2010PropOp30
 70
     1
102
RTVSPost2010Prop31
280
     0
102
RTVSPost2010PropOp31
 70
     1
102
RTVSPost2010Prop32
280
     0
102
RTVSPost2010PropOp32
 70
     1
102
RTVSPost2010Prop33
280
     0
102
RTVSPost2010PropOp33
 70
     1
102
RTVSPost2010Prop34
280
     0
102
RTVSPost2010PropOp34
 70
     1
102
RTVSPost2010Prop35
280
     0
102
RTVSPost2010PropOp35
 70
     1
102
RTVSPost2010Prop36
280
     0
102
RTVSPost2010PropOp36
 70
     1
102
RTVSPost2010Prop37
 90
       50
102
RTVSPost2010PropOp37
 70
     1
102
RTVSPost2010Prop38
140
0.0
102
RTVSPost2010PropOp38
 70
     1
102
RTVSPost2010Prop39
140
1.0
102
RTVSPost2010PropOp39
 70
     1
102
RTVSPost2010Prop40
 90
        0
102
RTVSPost2010PropOp40
 70
     1
102
RTVSPost2010Prop41ColorIndex
 90
       18
102
RTVSPost2010Prop41ColorRGB
 90
        0
102
RTVSPost2010PropOp41
 70
     1
102
RTVSPost2010Prop42
 90
       50
102
RTVSPost2010PropOp42
 70
     1
102
RTVSPost2010Prop43
 90
        3
102
RTVSPost2010PropOp43
 70
     1
102
RTVSPost2010Prop44ColorIndex
 90
        5
102
RTVSPost2010Prop44ColorRGB
 90
      255
102
RTVSPost2010PropOp44
 70
     1
102
RTVSPost2010Prop45
280
     0
102
RTVSPost2010PropOp45
 70
     1
102
RTVSPost2010Prop46
 90
       50
102
RTVSPost2010PropOp46
 70
     1
102
RTVSPost2010Prop47
 90
       50
102
RTVSPost2010PropOp47
 70
     1
102
RTVSPost2010Prop48
 90
       50
102
RTVSPost2010PropOp48
 70
     1
102
RTVSPost2010Prop49
280
     0
102
RTVSPost2010PropOp49
 70
     1
102
RTVSPost2010Prop50
 90
       50
102
RTVSPost2010PropOp50
 70
     1
102
RTVSPost2010Prop51ColorIndex
 90
      256
102
RTVSPost2010Prop51ColorRGB
 90
-16777216
102
RTVSPost2010PropOp51
 70
     0
102
RTVSPost2010Prop52
140
1.0
102
RTVSPost2010PropOp52
 70
     0
102
RTVSPost2010Prop53
 90
        2
102
RTVSPost2010PropOp53
 70
     1
102
RTVSPost2010Prop54
  1
strokes_ogs.tif
102
RTVSPost2010PropOp54
 70
     1
102
RTVSPost2010Prop55
280
     0
102
RTVSPost2010PropOp55
 70
     1
102
RTVSPost2010Prop56
140
1.0
102
RTVSPost2010PropOp56
 70
     1
102
RTVSPost2010Prop57
140
1.0
102
RTVSPost2010PropOp57
 70
     1
102
RTVSPropertyOp0
 70
     1
102
RTVSPropertyOp1
 70
     1
102
RTVSPropertyOp2
 70
     1
102
RTVSPropertyOp3
 70
     1
102
RTVSPropertyOp4
 70
     1
102
RTVSPropertyOp5
 70
     1
102
RTVSPropertyOp6
 70
     1
102
RTVSPropertyOp7
 70
     1
102
RTVSPropertyOp8
 70
     1
102
RTVSPropertyOp9
 70
     1
102
RTVSPropertyOp10
 70
     1
102
RTVSPropertyOp11
 70
     1
102
RTVSPropertyOp12
 70
     1
102
RTVSPropertyOp13
 70
     1
102
RTVSPropertyOp14
 70
     1
102
RTVSPropertyOp15
 70
     1
102
RTVSPropertyOp16
 70
     1
102
RTVSPropertyOp17
 70
     1
102
RTVSPropertyOp18
 70
     1
102
RTVSPropertyOp19
 70
     1
102
RTVSPropertyOp20
 70
     1
102
RTVSPropertyOp21
 70
     1
102
RTVSPropertyOp22
 70
     1
102
RTVSPropertyOp23
 70
     1
102
RTVSPropertyOp24
 70
     1
102
RTVSPropertyOp25
 70
     1
102
RTVSPropertyOp26
 70
     1
102
RTVSPropertyOp27
 70
     1
102
RTVSPropertyOp28
 70
     1
102
RTVSPropertyOp29
 70
     1
102
RTVSPropertyOp30
 70
     1
102
RTVSPropertyOp31
 70
     1
102
RTVSPropertyOp32
 70
     1
102
RTVSPropertyOp33
 70
     1
102
RTVSPropertyOp34
 70
     1
102
RTVSPropertyOp35
 70
     1
102
RTVSPropertyOp36
 70
     1
102
RTVSPropertyOp37
 70
     1
102
RTVSPropertyOp38
 70
     1
102
RTVSPropertyOp39
 70
     1
102
RTVSPropertyOp40
 70
     1
102
RTVSPropertyOp41
 70
     1
102
RTVSPropertyOp42
 70
     1
102
RTVSPropertyOp43
 70
     1
102
RTVSPropertyOp44
 70
     1
102
RTVSPropertyOp45
 70
     1
102
RTVSPropertyOp46
 70
     1
102
RTVSPropertyOp47
 70
     1
102
RTVSPropertyOp48
 70
     1
102
RTVSPropertyOp49
 70
     1
102
RTVSPropertyOp50
 70
     1
102
RTVSPropertyOp51
 70
     0
102
RTVSPropertyOp52
 70
     0
102
RTVSPropertyOp53
 70
     1
102
RTVSPropertyOp54
 70
     1
102
RTVSPropertyOp55
 70
     1
102
RTVSPropertyOp56
 70
     1
102
RTVSPropertyOp57
 70
     1
102
RTVSPropertyOp58
 70
     1
102
RTVSPropertyOp59
 70
     1
102
RTVSPropertyOp60
 70
     1
102
RTVSPropertyOp61
 70
     1
102
RTVSPropertyOp62
 70
     1
  0
XRECORD
  5
36E
102
{ACAD_REACTORS
330
36D
102
}
330
36D
100
AcDbXrecord
280
     1
102
RTVSPost2010Prop28
280
     0
102
RTVSPost2010PropOp28
 70
     1
102
RTVSPost2010Prop29
280
     1
102
RTVSPost2010PropOp29
 70
     1
102
RTVSPost2010Prop30
280
     1
102
RTVSPost2010PropOp30
 70
     1
102
RTVSPost2010Prop31
280
     0
102
RTVSPost2010PropOp31
 70
     1
102
RTVSPost2010Prop32
280
     0
102
RTVSPost2010PropOp32
 70
     1
102
RTVSPost2010Prop33
280
     0
102
RTVSPost2010PropOp33
 70
     1
102
RTVSPost2010Prop34
280
     0
102
RTVSPost2010PropOp34
 70
     1
102
RTVSPost2010Prop35
280
     0
102
RTVSPost2010PropOp35
 70
     1
102
RTVSPost2010Prop36
280
     0
102
RTVSPost2010PropOp36
 70
     1
102
RTVSPost2010Prop37
 90
       50
102
RTVSPost2010PropOp37
 70
     1
102
RTVSPost2010Prop38
140
0.0
102
RTVSPost2010PropOp38
 70
     1
102
RTVSPost2010Prop39
140
1.0
102
RTVSPost2010PropOp39
 70
     1
102
RTVSPost2010Prop40
 90
        0
102
RTVSPost2010PropOp40
 70
     1
102
RTVSPost2010Prop41ColorIndex
 90
       18
102
RTVSPost2010Prop41ColorRGB
 90
        0
102
RTVSPost2010PropOp41
 70
     1
102
RTVSPost2010Prop42
 90
       50
102
RTVSPost2010PropOp42
 70
     1
102
RTVSPost2010Prop43
 90
        3
102
RTVSPost2010PropOp43
 70
     1
102
RTVSPost2010Prop44ColorIndex
 90
        5
102
RTVSPost2010Prop44ColorRGB
 90
      255
102
RTVSPost2010PropOp44
 70
     1
102
RTVSPost2010Prop45
280
     0
102
RTVSPost2010PropOp45
 70
     1
102
RTVSPost2010Prop46
 90
       50
102
RTVSPost2010PropOp46
 70
     1
102
RTVSPost2010Prop47
 90
       50
102
RTVSPost2010PropOp47
 70
     1
102
RTVSPost2010Prop48
 90
       50
102
RTVSPost2010PropOp48
 70
     1
102
RTVSPost2010Prop49
280
     0
102
RTVSPost2010PropOp49
 70
     1
102
RTVSPost2010Prop50
 90
       50
102
RTVSPost2010PropOp50
 70
     1
102
RTVSPost2010Prop51ColorIndex
 90
      256
102
RTVSPost2010Prop51ColorRGB
 90
-16777216
102
RTVSPost2010PropOp51
 70
     0
102
RTVSPost2010Prop52
140
1.0
102
RTVSPost2010PropOp52
 70
     0
102
RTVSPost2010Prop53
 90
        2
102
RTVSPost2010PropOp53
 70
     1
102
RTVSPost2010Prop54
  1
strokes_ogs.tif
102
RTVSPost2010PropOp54
 70
     1
102
RTVSPost2010Prop55
280
     0
102
RTVSPost2010PropOp55
 70
     1
102
RTVSPost2010Prop56
140
1.0
102
RTVSPost2010PropOp56
 70
     1
102
RTVSPost2010Prop57
140
1.0
102
RTVSPost2010PropOp57
 70
     1
102
RTVSPropertyOp0
 70
     1
102
RTVSPropertyOp1
 70
     1
102
RTVSPropertyOp2
 70
     1
102
RTVSPropertyOp3
 70
     1
102
RTVSPropertyOp4
 70
     1
102
RTVSPropertyOp5
 70
     1
102
RTVSPropertyOp6
 70
     1
102
RTVSPropertyOp7
 70
     1
102
RTVSPropertyOp8
 70
     1
102
RTVSPropertyOp9
 70
     1
102
RTVSPropertyOp10
 70
     1
102
RTVSPropertyOp11
 70
     1
102
RTVSPropertyOp12
 70
     1
102
RTVSPropertyOp13
 70
     1
102
RTVSPropertyOp14
 70
     1
102
RTVSPropertyOp15
 70
     1
102
RTVSPropertyOp16
 70
     1
102
RTVSPropertyOp17
 70
     1
102
RTVSPropertyOp18
 70
     1
102
RTVSPropertyOp19
 70
     1
102
RTVSPropertyOp20
 70
     1
102
RTVSPropertyOp21
 70
     1
102
RTVSPropertyOp22
 70
     1
102
RTVSPropertyOp23
 70
     1
102
RTVSPropertyOp24
 70
     1
102
RTVSPropertyOp25
 70
     1
102
RTVSPropertyOp26
 70
     1
102
RTVSPropertyOp27
 70
     1
102
RTVSPropertyOp28
 70
     1
102
RTVSPropertyOp29
 70
     1
102
RTVSPropertyOp30
 70
     1
102
RTVSPropertyOp31
 70
     1
102
RTVSPropertyOp32
 70
     1
102
RTVSPropertyOp33
 70
     1
102
RTVSPropertyOp34
 70
     1
102
RTVSPropertyOp35
 70
     1
102
RTVSPropertyOp36
 70
     1
102
RTVSPropertyOp37
 70
     1
102
RTVSPropertyOp38
 70
     1
102
RTVSPropertyOp39
 70
     1
102
RTVSPropertyOp40
 70
     1
102
RTVSPropertyOp41
 70
     1
102
RTVSPropertyOp42
 70
     1
102
RTVSPropertyOp43
 70
     1
102
RTVSPropertyOp44
 70
     1
102
RTVSPropertyOp45
 70
     1
102
RTVSPropertyOp46
 70
     1
102
RTVSPropertyOp47
 70
     1
102
RTVSPropertyOp48
 70
     1
102
RTVSPropertyOp49
 70
     1
102
RTVSPropertyOp50
 70
     1
102
RTVSPropertyOp51
 70
     0
102
RTVSPropertyOp52
 70
     0
102
RTVSPropertyOp53
 70
     1
102
RTVSPropertyOp54
 70
     1
102
RTVSPropertyOp55
 70
     1
102
RTVSPropertyOp56
 70
     1
102
RTVSPropertyOp57
 70
     1
102
RTVSPropertyOp58
 70
     1
102
RTVSPropertyOp59
 70
     1
102
RTVSPropertyOp60
 70
     1
102
RTVSPropertyOp61
 70
     1
102
RTVSPropertyOp62
 70
     1
  0
XRECORD
  5
37E
102
{ACAD_REACTORS
330
37D
102
}
330
37D
100
AcDbXrecord
280
     1
102
RTVSPost2010Prop28
280
     0
102
RTVSPost2010PropOp28
 70
     0
102
RTVSPost2010Prop29
280
     1
102
RTVSPost2010PropOp29
 70
     0
102
RTVSPost2010Prop30
280
     1
102
RTVSPost2010PropOp30
 70
     0
102
RTVSPost2010Prop31
280
     0
102
RTVSPost2010PropOp31
 70
     0
102
RTVSPost2010Prop32
280
     0
102
RTVSPost2010PropOp32
 70
     0
102
RTVSPost2010Prop33
280
     0
102
RTVSPost2010PropOp33
 70
     0
102
RTVSPost2010Prop34
280
     0
102
RTVSPost2010PropOp34
 70
     0
102
RTVSPost2010Prop35
280
     0
102
RTVSPost2010PropOp35
 70
     0
102
RTVSPost2010Prop36
280
     0
102
RTVSPost2010PropOp36
 70
     0
102
RTVSPost2010Prop37
 90
       50
102
RTVSPost2010PropOp37
 70
     0
102
RTVSPost2010Prop38
140
0.0
102
RTVSPost2010PropOp38
 70
     0
102
RTVSPost2010Prop39
140
1.0
102
RTVSPost2010PropOp39
 70
     0
102
RTVSPost2010Prop40
 90
        0
102
RTVSPost2010PropOp40
 70
     0
102
RTVSPost2010Prop41ColorIndex
 90
       18
102
RTVSPost2010Prop41ColorRGB
 90
        0
102
RTVSPost2010PropOp41
 70
     0
102
RTVSPost2010Prop42
 90
       50
102
RTVSPost2010PropOp42
 70
     0
102
RTVSPost2010Prop43
 90
        3
102
RTVSPost2010PropOp43
 70
     0
102
RTVSPost2010Prop44ColorIndex
 90
        5
102
RTVSPost2010Prop44ColorRGB
 90
      255
102
RTVSPost2010PropOp44
 70
     0
102
RTVSPost2010Prop45
280
     0
102
RTVSPost2010PropOp45
 70
     0
102
RTVSPost2010Prop46
 90
       50
102
RTVSPost2010PropOp46
 70
     0
102
RTVSPost2010Prop47
 90
       50
102
RTVSPost2010PropOp47
 70
     0
102
RTVSPost2010Prop48
 90
       50
102
RTVSPost2010PropOp48
 70
     0
102
RTVSPost2010Prop49
280
     0
102
RTVSPost2010PropOp49
 70
     0
102
RTVSPost2010Prop50
 90
       50
102
RTVSPost2010PropOp50
 70
     0
102
RTVSPost2010Prop51ColorIndex
 90
      256
102
RTVSPost2010Prop51ColorRGB
 90
-16777216
102
RTVSPost2010PropOp51
 70
     0
102
RTVSPost2010Prop52
140
1.0
102
RTVSPost2010PropOp52
 70
     0
102
RTVSPost2010Prop53
 90
        2
102
RTVSPost2010PropOp53
 70
     0
102
RTVSPost2010Prop54
  1
strokes_ogs.tif
102
RTVSPost2010PropOp54
 70
     0
102
RTVSPost2010Prop55
280
     0
102
RTVSPost2010PropOp55
 70
     0
102
RTVSPost2010Prop56
140
1.0
102
RTVSPost2010PropOp56
 70
     0
102
RTVSPost2010Prop57
140
1.0
102
RTVSPost2010PropOp57
 70
     0
102
RTVSPropertyOp0
 70
     0
102
RTVSPropertyOp1
 70
     0
102
RTVSPropertyOp2
 70
     0
102
RTVSPropertyOp3
 70
     0
102
RTVSPropertyOp4
 70
     0
102
RTVSPropertyOp5
 70
     0
102
RTVSPropertyOp6
 70
     0
102
RTVSPropertyOp7
 70
     0
102
RTVSPropertyOp8
 70
     0
102
RTVSPropertyOp9
 70
     0
102
RTVSPropertyOp10
 70
     0
102
RTVSPropertyOp11
 70
     0
102
RTVSPropertyOp12
 70
     0
102
RTVSPropertyOp13
 70
     0
102
RTVSPropertyOp14
 70
     2
102
RTVSPropertyOp15
 70
     0
102
RTVSPropertyOp16
 70
     0
102
RTVSPropertyOp17
 70
     0
102
RTVSPropertyOp18
 70
     0
102
RTVSPropertyOp19
 70
     0
102
RTVSPropertyOp20
 70
     0
102
RTVSPropertyOp21
 70
     0
102
RTVSPropertyOp22
 70
     0
102
RTVSPropertyOp23
 70
     0
102
RTVSPropertyOp24
 70
     0
102
RTVSPropertyOp25
 70
     0
102
RTVSPropertyOp26
 70
     0
102
RTVSPropertyOp27
 70
     0
102
RTVSPropertyOp28
 70
     0
102
RTVSPropertyOp29
 70
     0
102
RTVSPropertyOp30
 70
     0
102
RTVSPropertyOp31
 70
     0
102
RTVSPropertyOp32
 70
     0
102
RTVSPropertyOp33
 70
     0
102
RTVSPropertyOp34
 70
     0
102
RTVSPropertyOp35
 70
     0
102
RTVSPropertyOp36
 70
     0
102
RTVSPropertyOp37
 70
     0
102
RTVSPropertyOp38
 70
     0
102
RTVSPropertyOp39
 70
     0
102
RTVSPropertyOp40
 70
     0
102
RTVSPropertyOp41
 70
     0
102
RTVSPropertyOp42
 70
     0
102
RTVSPropertyOp43
 70
     0
102
RTVSPropertyOp44
 70
     0
102
RTVSPropertyOp45
 70
     0
102
RTVSPropertyOp46
 70
     0
102
RTVSPropertyOp47
 70
     0
102
RTVSPropertyOp48
 70
     0
102
RTVSPropertyOp49
 70
     0
102
RTVSPropertyOp50
 70
     0
102
RTVSPropertyOp51
 70
     0
102
RTVSPropertyOp52
 70
     0
102
RTVSPropertyOp53
 70
     0
102
RTVSPropertyOp54
 70
     0
102
RTVSPropertyOp55
 70
     0
102
RTVSPropertyOp56
 70
     0
102
RTVSPropertyOp57
 70
     0
102
RTVSPropertyOp58
 70
     1
102
RTVSPropertyOp59
 70
     1
102
RTVSPropertyOp60
 70
     1
102
RTVSPropertyOp61
 70
     1
102
RTVSPropertyOp62
 70
     1
  0
XRECORD
  5
376
102
{ACAD_REACTORS
330
375
102
}
330
375
100
AcDbXrecord
280
     1
102
RTVSPost2010Prop28
280
     0
102
RTVSPost2010PropOp28
 70
     1
102
RTVSPost2010Prop29
280
     1
102
RTVSPost2010PropOp29
 70
     1
102
RTVSPost2010Prop30
280
     1
102
RTVSPost2010PropOp30
 70
     1
102
RTVSPost2010Prop31
280
     0
102
RTVSPost2010PropOp31
 70
     1
102
RTVSPost2010Prop32
280
     0
102
RTVSPost2010PropOp32
 70
     1
102
RTVSPost2010Prop33
280
     0
102
RTVSPost2010PropOp33
 70
     1
102
RTVSPost2010Prop34
280
     0
102
RTVSPost2010PropOp34
 70
     1
102
RTVSPost2010Prop35
280
     0
102
RTVSPost2010PropOp35
 70
     1
102
RTVSPost2010Prop36
280
     0
102
RTVSPost2010PropOp36
 70
     1
102
RTVSPost2010Prop37
 90
       50
102
RTVSPost2010PropOp37
 70
     1
102
RTVSPost2010Prop38
140
0.0
102
RTVSPost2010PropOp38
 70
     1
102
RTVSPost2010Prop39
140
1.0
102
RTVSPost2010PropOp39
 70
     1
102
RTVSPost2010Prop40
 90
        0
102
RTVSPost2010PropOp40
 70
     1
102
RTVSPost2010Prop41ColorIndex
 90
       18
102
RTVSPost2010Prop41ColorRGB
 90
        0
102
RTVSPost2010PropOp41
 70
     1
102
RTVSPost2010Prop42
 90
       50
102
RTVSPost2010PropOp42
 70
     1
102
RTVSPost2010Prop43
 90
        3
102
RTVSPost2010PropOp43
 70
     1
102
RTVSPost2010Prop44ColorIndex
 90
        5
102
RTVSPost2010Prop44ColorRGB
 90
      255
102
RTVSPost2010PropOp44
 70
     1
102
RTVSPost2010Prop45
280
     0
102
RTVSPost2010PropOp45
 70
     1
102
RTVSPost2010Prop46
 90
       50
102
RTVSPost2010PropOp46
 70
     1
102
RTVSPost2010Prop47
 90
       50
102
RTVSPost2010PropOp47
 70
     1
102
RTVSPost2010Prop48
 90
       50
102
RTVSPost2010PropOp48
 70
     1
102
RTVSPost2010Prop49
280
     0
102
RTVSPost2010PropOp49
 70
     1
102
RTVSPost2010Prop50
 90
       50
102
RTVSPost2010PropOp50
 70
     1
102
RTVSPost2010Prop51ColorIndex
 90
      256
102
RTVSPost2010Prop51ColorRGB
 90
-16777216
102
RTVSPost2010PropOp51
 70
     0
102
RTVSPost2010Prop52
140
1.0
102
RTVSPost2010PropOp52
 70
     0
102
RTVSPost2010Prop53
 90
        2
102
RTVSPost2010PropOp53
 70
     1
102
RTVSPost2010Prop54
  1
strokes_ogs.tif
102
RTVSPost2010PropOp54
 70
     1
102
RTVSPost2010Prop55
280
     0
102
RTVSPost2010PropOp55
 70
     1
102
RTVSPost2010Prop56
140
1.0
102
RTVSPost2010PropOp56
 70
     1
102
RTVSPost2010Prop57
140
1.0
102
RTVSPost2010PropOp57
 70
     1
102
RTVSPropertyOp0
 70
     1
102
RTVSPropertyOp1
 70
     1
102
RTVSPropertyOp2
 70
     1
102
RTVSPropertyOp3
 70
     1
102
RTVSPropertyOp4
 70
     1
102
RTVSPropertyOp5
 70
     1
102
RTVSPropertyOp6
 70
     1
102
RTVSPropertyOp7
 70
     1
102
RTVSPropertyOp8
 70
     1
102
RTVSPropertyOp9
 70
     1
102
RTVSPropertyOp10
 70
     1
102
RTVSPropertyOp11
 70
     1
102
RTVSPropertyOp12
 70
     1
102
RTVSPropertyOp13
 70
     1
102
RTVSPropertyOp14
 70
     1
102
RTVSPropertyOp15
 70
     1
102
RTVSPropertyOp16
 70
     1
102
RTVSPropertyOp17
 70
     1
102
RTVSPropertyOp18
 70
     1
102
RTVSPropertyOp19
 70
     1
102
RTVSPropertyOp20
 70
     1
102
RTVSPropertyOp21
 70
     1
102
RTVSPropertyOp22
 70
     1
102
RTVSPropertyOp23
 70
     1
102
RTVSPropertyOp24
 70
     1
102
RTVSPropertyOp25
 70
     1
102
RTVSPropertyOp26
 70
     1
102
RTVSPropertyOp27
 70
     1
102
RTVSPropertyOp28
 70
     1
102
RTVSPropertyOp29
 70
     1
102
RTVSPropertyOp30
 70
     1
102
RTVSPropertyOp31
 70
     1
102
RTVSPropertyOp32
 70
     1
102
RTVSPropertyOp33
 70
     1
102
RTVSPropertyOp34
 70
     1
102
RTVSPropertyOp35
 70
     1
102
RTVSPropertyOp36
 70
     1
102
RTVSPropertyOp37
 70
     1
102
RTVSPropertyOp38
 70
     1
102
RTVSPropertyOp39
 70
     1
102
RTVSPropertyOp40
 70
     1
102
RTVSPropertyOp41
 70
     1
102
RTVSPropertyOp42
 70
     1
102
RTVSPropertyOp43
 70
     1
102
RTVSPropertyOp44
 70
     1
102
RTVSPropertyOp45
 70
     1
102
RTVSPropertyOp46
 70
     1
102
RTVSPropertyOp47
 70
     1
102
RTVSPropertyOp48
 70
     1
102
RTVSPropertyOp49
 70
     1
102
RTVSPropertyOp50
 70
     1
102
RTVSPropertyOp51
 70
     0
102
RTVSPropertyOp52
 70
     0
102
RTVSPropertyOp53
 70
     1
102
RTVSPropertyOp54
 70
     1
102
RTVSPropertyOp55
 70
     1
102
RTVSPropertyOp56
 70
     1
102
RTVSPropertyOp57
 70
     1
102
RTVSPropertyOp58
 70
     1
102
RTVSPropertyOp59
 70
     1
102
RTVSPropertyOp60
 70
     1
102
RTVSPropertyOp61
 70
     1
102
RTVSPropertyOp62
 70
     1
  0
XRECORD
  5
35A
102
{ACAD_REACTORS
330
359
102
}
330
359
100
AcDbXrecord
280
     1
102
RTVSPost2010Prop28
280
     0
102
RTVSPost2010PropOp28
 70
     1
102
RTVSPost2010Prop29
280
     1
102
RTVSPost2010PropOp29
 70
     1
102
RTVSPost2010Prop30
280
     1
102
RTVSPost2010PropOp30
 70
     1
102
RTVSPost2010Prop31
280
     0
102
RTVSPost2010PropOp31
 70
     1
102
RTVSPost2010Prop32
280
     0
102
RTVSPost2010PropOp32
 70
     1
102
RTVSPost2010Prop33
280
     0
102
RTVSPost2010PropOp33
 70
     1
102
RTVSPost2010Prop34
280
     0
102
RTVSPost2010PropOp34
 70
     1
102
RTVSPost2010Prop35
280
     0
102
RTVSPost2010PropOp35
 70
     1
102
RTVSPost2010Prop36
280
     0
102
RTVSPost2010PropOp36
 70
     1
102
RTVSPost2010Prop37
 90
       50
102
RTVSPost2010PropOp37
 70
     1
102
RTVSPost2010Prop38
140
0.0
102
RTVSPost2010PropOp38
 70
     1
102
RTVSPost2010Prop39
140
1.0
102
RTVSPost2010PropOp39
 70
     1
102
RTVSPost2010Prop40
 90
        0
102
RTVSPost2010PropOp40
 70
     1
102
RTVSPost2010Prop41ColorIndex
 90
       18
102
RTVSPost2010Prop41ColorRGB
 90
        0
102
RTVSPost2010PropOp41
 70
     1
102
RTVSPost2010Prop42
 90
       50
102
RTVSPost2010PropOp42
 70
     1
102
RTVSPost2010Prop43
 90
        3
102
RTVSPost2010PropOp43
 70
     1
102
RTVSPost2010Prop44ColorIndex
 90
        5
102
RTVSPost2010Prop44ColorRGB
 90
      255
102
RTVSPost2010PropOp44
 70
     1
102
RTVSPost2010Prop45
280
     0
102
RTVSPost2010PropOp45
 70
     1
102
RTVSPost2010Prop46
 90
       50
102
RTVSPost2010PropOp46
 70
     1
102
RTVSPost2010Prop47
 90
       50
102
RTVSPost2010PropOp47
 70
     1
102
RTVSPost2010Prop48
 90
       50
102
RTVSPost2010PropOp48
 70
     1
102
RTVSPost2010Prop49
280
     0
102
RTVSPost2010PropOp49
 70
     1
102
RTVSPost2010Prop50
 90
       50
102
RTVSPost2010PropOp50
 70
     1
102
RTVSPost2010Prop51ColorIndex
 90
      256
102
RTVSPost2010Prop51ColorRGB
 90
-16777216
102
RTVSPost2010PropOp51
 70
     0
102
RTVSPost2010Prop52
140
1.0
102
RTVSPost2010PropOp52
 70
     0
102
RTVSPost2010Prop53
 90
        2
102
RTVSPost2010PropOp53
 70
     1
102
RTVSPost2010Prop54
  1
strokes_ogs.tif
102
RTVSPost2010PropOp54
 70
     1
102
RTVSPost2010Prop55
280
     0
102
RTVSPost2010PropOp55
 70
     1
102
RTVSPost2010Prop56
140
1.0
102
RTVSPost2010PropOp56
 70
     1
102
RTVSPost2010Prop57
140
1.0
102
RTVSPost2010PropOp57
 70
     1
102
RTVSPropertyOp0
 70
     1
102
RTVSPropertyOp1
 70
     1
102
RTVSPropertyOp2
 70
     1
102
RTVSPropertyOp3
 70
     1
102
RTVSPropertyOp4
 70
     1
102
RTVSPropertyOp5
 70
     1
102
RTVSPropertyOp6
 70
     1
102
RTVSPropertyOp7
 70
     1
102
RTVSPropertyOp8
 70
     1
102
RTVSPropertyOp9
 70
     1
102
RTVSPropertyOp10
 70
     1
102
RTVSPropertyOp11
 70
     1
102
RTVSPropertyOp12
 70
     1
102
RTVSPropertyOp13
 70
     1
102
RTVSPropertyOp14
 70
     1
102
RTVSPropertyOp15
 70
     1
102
RTVSPropertyOp16
 70
     1
102
RTVSPropertyOp17
 70
     1
102
RTVSPropertyOp18
 70
     1
102
RTVSPropertyOp19
 70
     1
102
RTVSPropertyOp20
 70
     1
102
RTVSPropertyOp21
 70
     1
102
RTVSPropertyOp22
 70
     1
102
RTVSPropertyOp23
 70
     1
102
RTVSPropertyOp24
 70
     1
102
RTVSPropertyOp25
 70
     1
102
RTVSPropertyOp26
 70
     1
102
RTVSPropertyOp27
 70
     1
102
RTVSPropertyOp28
 70
     1
102
RTVSPropertyOp29
 70
     1
102
RTVSPropertyOp30
 70
     1
102
RTVSPropertyOp31
 70
     1
102
RTVSPropertyOp32
 70
     1
102
RTVSPropertyOp33
 70
     1
102
RTVSPropertyOp34
 70
     1
102
RTVSPropertyOp35
 70
     1
102
RTVSPropertyOp36
 70
     1
102
RTVSPropertyOp37
 70
     1
102
RTVSPropertyOp38
 70
     1
102
RTVSPropertyOp39
 70
     1
102
RTVSPropertyOp40
 70
     1
102
RTVSPropertyOp41
 70
     1
102
RTVSPropertyOp42
 70
     1
102
RTVSPropertyOp43
 70
     1
102
RTVSPropertyOp44
 70
     1
102
RTVSPropertyOp45
 70
     1
102
RTVSPropertyOp46
 70
     1
102
RTVSPropertyOp47
 70
     1
102
RTVSPropertyOp48
 70
     1
102
RTVSPropertyOp49
 70
     1
102
RTVSPropertyOp50
 70
     1
102
RTVSPropertyOp51
 70
     0
102
RTVSPropertyOp52
 70
     0
102
RTVSPropertyOp53
 70
     1
102
RTVSPropertyOp54
 70
     1
102
RTVSPropertyOp55
 70
     1
102
RTVSPropertyOp56
 70
     1
102
RTVSPropertyOp57
 70
     1
102
RTVSPropertyOp58
 70
     1
102
RTVSPropertyOp59
 70
     1
102
RTVSPropertyOp60
 70
     1
102
RTVSPropertyOp61
 70
     1
102
RTVSPropertyOp62
 70
     1
  0
XRECORD
  5
35C
102
{ACAD_REACTORS
330
35B
102
}
330
35B
100
AcDbXrecord
280
     1
102
RTVSPost2010Prop28
280
     0
102
RTVSPost2010PropOp28
 70
     1
102
RTVSPost2010Prop29
280
     1
102
RTVSPost2010PropOp29
 70
     1
102
RTVSPost2010Prop30
280
     1
102
RTVSPost2010PropOp30
 70
     1
102
RTVSPost2010Prop31
280
     0
102
RTVSPost2010PropOp31
 70
     1
102
RTVSPost2010Prop32
280
     0
102
RTVSPost2010PropOp32
 70
     1
102
RTVSPost2010Prop33
280
     0
102
RTVSPost2010PropOp33
 70
     1
102
RTVSPost2010Prop34
280
     0
102
RTVSPost2010PropOp34
 70
     1
102
RTVSPost2010Prop35
280
     0
102
RTVSPost2010PropOp35
 70
     1
102
RTVSPost2010Prop36
280
     0
102
RTVSPost2010PropOp36
 70
     1
102
RTVSPost2010Prop37
 90
       50
102
RTVSPost2010PropOp37
 70
     1
102
RTVSPost2010Prop38
140
0.0
102
RTVSPost2010PropOp38
 70
     1
102
RTVSPost2010Prop39
140
1.0
102
RTVSPost2010PropOp39
 70
     1
102
RTVSPost2010Prop40
 90
        0
102
RTVSPost2010PropOp40
 70
     1
102
RTVSPost2010Prop41ColorIndex
 90
       18
102
RTVSPost2010Prop41ColorRGB
 90
        0
102
RTVSPost2010PropOp41
 70
     1
102
RTVSPost2010Prop42
 90
       50
102
RTVSPost2010PropOp42
 70
     1
102
RTVSPost2010Prop43
 90
        3
102
RTVSPost2010PropOp43
 70
     1
102
RTVSPost2010Prop44ColorIndex
 90
        5
102
RTVSPost2010Prop44ColorRGB
 90
      255
102
RTVSPost2010PropOp44
 70
     1
102
RTVSPost2010Prop45
280
     0
102
RTVSPost2010PropOp45
 70
     1
102
RTVSPost2010Prop46
 90
       50
102
RTVSPost2010PropOp46
 70
     1
102
RTVSPost2010Prop47
 90
       50
102
RTVSPost2010PropOp47
 70
     1
102
RTVSPost2010Prop48
 90
       50
102
RTVSPost2010PropOp48
 70
     1
102
RTVSPost2010Prop49
280
     0
102
RTVSPost2010PropOp49
 70
     1
102
RTVSPost2010Prop50
 90
       50
102
RTVSPost2010PropOp50
 70
     1
102
RTVSPost2010Prop51ColorIndex
 90
      256
102
RTVSPost2010Prop51ColorRGB
 90
-16777216
102
RTVSPost2010PropOp51
 70
     0
102
RTVSPost2010Prop52
140
1.0
102
RTVSPost2010PropOp52
 70
     0
102
RTVSPost2010Prop53
 90
        2
102
RTVSPost2010PropOp53
 70
     1
102
RTVSPost2010Prop54
  1
strokes_ogs.tif
102
RTVSPost2010PropOp54
 70
     1
102
RTVSPost2010Prop55
280
     0
102
RTVSPost2010PropOp55
 70
     1
102
RTVSPost2010Prop56
140
1.0
102
RTVSPost2010PropOp56
 70
     1
102
RTVSPost2010Prop57
140
1.0
102
RTVSPost2010PropOp57
 70
     1
102
RTVSPropertyOp0
 70
     1
102
RTVSPropertyOp1
 70
     1
102
RTVSPropertyOp2
 70
     1
102
RTVSPropertyOp3
 70
     1
102
RTVSPropertyOp4
 70
     1
102
RTVSPropertyOp5
 70
     1
102
RTVSPropertyOp6
 70
     1
102
RTVSPropertyOp7
 70
     1
102
RTVSPropertyOp8
 70
     1
102
RTVSPropertyOp9
 70
     1
102
RTVSPropertyOp10
 70
     1
102
RTVSPropertyOp11
 70
     1
102
RTVSPropertyOp12
 70
     1
102
RTVSPropertyOp13
 70
     1
102
RTVSPropertyOp14
 70
     1
102
RTVSPropertyOp15
 70
     1
102
RTVSPropertyOp16
 70
     1
102
RTVSPropertyOp17
 70
     1
102
RTVSPropertyOp18
 70
     1
102
RTVSPropertyOp19
 70
     1
102
RTVSPropertyOp20
 70
     1
102
RTVSPropertyOp21
 70
     1
102
RTVSPropertyOp22
 70
     1
102
RTVSPropertyOp23
 70
     1
102
RTVSPropertyOp24
 70
     1
102
RTVSPropertyOp25
 70
     1
102
RTVSPropertyOp26
 70
     1
102
RTVSPropertyOp27
 70
     1
102
RTVSPropertyOp28
 70
     1
102
RTVSPropertyOp29
 70
     1
102
RTVSPropertyOp30
 70
     1
102
RTVSPropertyOp31
 70
     1
102
RTVSPropertyOp32
 70
     1
102
RTVSPropertyOp33
 70
     1
102
RTVSPropertyOp34
 70
     1
102
RTVSPropertyOp35
 70
     1
102
RTVSPropertyOp36
 70
     1
102
RTVSPropertyOp37
 70
     1
102
RTVSPropertyOp38
 70
     1
102
RTVSPropertyOp39
 70
     1
102
RTVSPropertyOp40
 70
     1
102
RTVSPropertyOp41
 70
     1
102
RTVSPropertyOp42
 70
     1
102
RTVSPropertyOp43
 70
     1
102
RTVSPropertyOp44
 70
     1
102
RTVSPropertyOp45
 70
     1
102
RTVSPropertyOp46
 70
     1
102
RTVSPropertyOp47
 70
     1
102
RTVSPropertyOp48
 70
     1
102
RTVSPropertyOp49
 70
     1
102
RTVSPropertyOp50
 70
     1
102
RTVSPropertyOp51
 70
     0
102
RTVSPropertyOp52
 70
     0
102
RTVSPropertyOp53
 70
     1
102
RTVSPropertyOp54
 70
     1
102
RTVSPropertyOp55
 70
     1
102
RTVSPropertyOp56
 70
     1
102
RTVSPropertyOp57
 70
     1
102
RTVSPropertyOp58
 70
     1
102
RTVSPropertyOp59
 70
     1
102
RTVSPropertyOp60
 70
     1
102
RTVSPropertyOp61
 70
     1
102
RTVSPropertyOp62
 70
     1
  0
XRECORD
  5
35E
102
{ACAD_REACTORS
330
35D
102
}
330
35D
100
AcDbXrecord
280
     1
102
RTVSPost2010Prop28
280
     0
102
RTVSPost2010PropOp28
 70
     1
102
RTVSPost2010Prop29
280
     1
102
RTVSPost2010PropOp29
 70
     1
102
RTVSPost2010Prop30
280
     1
102
RTVSPost2010PropOp30
 70
     1
102
RTVSPost2010Prop31
280
     0
102
RTVSPost2010PropOp31
 70
     1
102
RTVSPost2010Prop32
280
     0
102
RTVSPost2010PropOp32
 70
     1
102
RTVSPost2010Prop33
280
     0
102
RTVSPost2010PropOp33
 70
     1
102
RTVSPost2010Prop34
280
     0
102
RTVSPost2010PropOp34
 70
     1
102
RTVSPost2010Prop35
280
     0
102
RTVSPost2010PropOp35
 70
     1
102
RTVSPost2010Prop36
280
     0
102
RTVSPost2010PropOp36
 70
     1
102
RTVSPost2010Prop37
 90
       50
102
RTVSPost2010PropOp37
 70
     1
102
RTVSPost2010Prop38
140
0.0
102
RTVSPost2010PropOp38
 70
     1
102
RTVSPost2010Prop39
140
1.0
102
RTVSPost2010PropOp39
 70
     1
102
RTVSPost2010Prop40
 90
        0
102
RTVSPost2010PropOp40
 70
     1
102
RTVSPost2010Prop41ColorIndex
 90
       18
102
RTVSPost2010Prop41ColorRGB
 90
        0
102
RTVSPost2010PropOp41
 70
     1
102
RTVSPost2010Prop42
 90
       50
102
RTVSPost2010PropOp42
 70
     1
102
RTVSPost2010Prop43
 90
        3
102
RTVSPost2010PropOp43
 70
     1
102
RTVSPost2010Prop44ColorIndex
 90
        5
102
RTVSPost2010Prop44ColorRGB
 90
      255
102
RTVSPost2010PropOp44
 70
     1
102
RTVSPost2010Prop45
280
     0
102
RTVSPost2010PropOp45
 70
     1
102
RTVSPost2010Prop46
 90
       50
102
RTVSPost2010PropOp46
 70
     1
102
RTVSPost2010Prop47
 90
       50
102
RTVSPost2010PropOp47
 70
     1
102
RTVSPost2010Prop48
 90
       50
102
RTVSPost2010PropOp48
 70
     1
102
RTVSPost2010Prop49
280
     0
102
RTVSPost2010PropOp49
 70
     1
102
RTVSPost2010Prop50
 90
       50
102
RTVSPost2010PropOp50
 70
     1
102
RTVSPost2010Prop51ColorIndex
 90
      256
102
RTVSPost2010Prop51ColorRGB
 90
-16777216
102
RTVSPost2010PropOp51
 70
     0
102
RTVSPost2010Prop52
140
1.0
102
RTVSPost2010PropOp52
 70
     0
102
RTVSPost2010Prop53
 90
        2
102
RTVSPost2010PropOp53
 70
     1
102
RTVSPost2010Prop54
  1
strokes_ogs.tif
102
RTVSPost2010PropOp54
 70
     1
102
RTVSPost2010Prop55
280
     0
102
RTVSPost2010PropOp55
 70
     1
102
RTVSPost2010Prop56
140
1.0
102
RTVSPost2010PropOp56
 70
     1
102
RTVSPost2010Prop57
140
1.0
102
RTVSPost2010PropOp57
 70
     1
102
RTVSPropertyOp0
 70
     1
102
RTVSPropertyOp1
 70
     1
102
RTVSPropertyOp2
 70
     1
102
RTVSPropertyOp3
 70
     1
102
RTVSPropertyOp4
 70
     1
102
RTVSPropertyOp5
 70
     1
102
RTVSPropertyOp6
 70
     1
102
RTVSPropertyOp7
 70
     1
102
RTVSPropertyOp8
 70
     1
102
RTVSPropertyOp9
 70
     1
102
RTVSPropertyOp10
 70
     1
102
RTVSPropertyOp11
 70
     1
102
RTVSPropertyOp12
 70
     1
102
RTVSPropertyOp13
 70
     1
102
RTVSPropertyOp14
 70
     1
102
RTVSPropertyOp15
 70
     1
102
RTVSPropertyOp16
 70
     1
102
RTVSPropertyOp17
 70
     1
102
RTVSPropertyOp18
 70
     1
102
RTVSPropertyOp19
 70
     1
102
RTVSPropertyOp20
 70
     1
102
RTVSPropertyOp21
 70
     1
102
RTVSPropertyOp22
 70
     1
102
RTVSPropertyOp23
 70
     1
102
RTVSPropertyOp24
 70
     1
102
RTVSPropertyOp25
 70
     1
102
RTVSPropertyOp26
 70
     1
102
RTVSPropertyOp27
 70
     1
102
RTVSPropertyOp28
 70
     1
102
RTVSPropertyOp29
 70
     1
102
RTVSPropertyOp30
 70
     1
102
RTVSPropertyOp31
 70
     1
102
RTVSPropertyOp32
 70
     1
102
RTVSPropertyOp33
 70
     1
102
RTVSPropertyOp34
 70
     1
102
RTVSPropertyOp35
 70
     1
102
RTVSPropertyOp36
 70
     1
102
RTVSPropertyOp37
 70
     1
102
RTVSPropertyOp38
 70
     1
102
RTVSPropertyOp39
 70
     1
102
RTVSPropertyOp40
 70
     1
102
RTVSPropertyOp41
 70
     1
102
RTVSPropertyOp42
 70
     1
102
RTVSPropertyOp43
 70
     1
102
RTVSPropertyOp44
 70
     1
102
RTVSPropertyOp45
 70
     1
102
RTVSPropertyOp46
 70
     1
102
RTVSPropertyOp47
 70
     1
102
RTVSPropertyOp48
 70
     1
102
RTVSPropertyOp49
 70
     1
102
RTVSPropertyOp50
 70
     1
102
RTVSPropertyOp51
 70
     0
102
RTVSPropertyOp52
 70
     0
102
RTVSPropertyOp53
 70
     1
102
RTVSPropertyOp54
 70
     1
102
RTVSPropertyOp55
 70
     1
102
RTVSPropertyOp56
 70
     1
102
RTVSPropertyOp57
 70
     1
102
RTVSPropertyOp58
 70
     1
102
RTVSPropertyOp59
 70
     1
102
RTVSPropertyOp60
 70
     1
102
RTVSPropertyOp61
 70
     1
102
RTVSPropertyOp62
 70
     1
  0
XRECORD
  5
360
102
{ACAD_REACTORS
330
35F
102
}
330
35F
100
AcDbXrecord
280
     1
102
RTVSPost2010Prop28
280
     0
102
RTVSPost2010PropOp28
 70
     1
102
RTVSPost2010Prop29
280
     1
102
RTVSPost2010PropOp29
 70
     1
102
RTVSPost2010Prop30
280
     1
102
RTVSPost2010PropOp30
 70
     1
102
RTVSPost2010Prop31
280
     0
102
RTVSPost2010PropOp31
 70
     1
102
RTVSPost2010Prop32
280
     0
102
RTVSPost2010PropOp32
 70
     1
102
RTVSPost2010Prop33
280
     0
102
RTVSPost2010PropOp33
 70
     1
102
RTVSPost2010Prop34
280
     0
102
RTVSPost2010PropOp34
 70
     1
102
RTVSPost2010Prop35
280
     0
102
RTVSPost2010PropOp35
 70
     1
102
RTVSPost2010Prop36
280
     0
102
RTVSPost2010PropOp36
 70
     1
102
RTVSPost2010Prop37
 90
       50
102
RTVSPost2010PropOp37
 70
     1
102
RTVSPost2010Prop38
140
0.0
102
RTVSPost2010PropOp38
 70
     1
102
RTVSPost2010Prop39
140
1.0
102
RTVSPost2010PropOp39
 70
     1
102
RTVSPost2010Prop40
 90
        0
102
RTVSPost2010PropOp40
 70
     1
102
RTVSPost2010Prop41ColorIndex
 90
       18
102
RTVSPost2010Prop41ColorRGB
 90
        0
102
RTVSPost2010PropOp41
 70
     1
102
RTVSPost2010Prop42
 90
       50
102
RTVSPost2010PropOp42
 70
     1
102
RTVSPost2010Prop43
 90
        3
102
RTVSPost2010PropOp43
 70
     1
102
RTVSPost2010Prop44ColorIndex
 90
        5
102
RTVSPost2010Prop44ColorRGB
 90
      255
102
RTVSPost2010PropOp44
 70
     1
102
RTVSPost2010Prop45
280
     0
102
RTVSPost2010PropOp45
 70
     1
102
RTVSPost2010Prop46
 90
       50
102
RTVSPost2010PropOp46
 70
     1
102
RTVSPost2010Prop47
 90
       50
102
RTVSPost2010PropOp47
 70
     1
102
RTVSPost2010Prop48
 90
       50
102
RTVSPost2010PropOp48
 70
     1
102
RTVSPost2010Prop49
280
     0
102
RTVSPost2010PropOp49
 70
     1
102
RTVSPost2010Prop50
 90
       50
102
RTVSPost2010PropOp50
 70
     1
102
RTVSPost2010Prop51ColorIndex
 90
      256
102
RTVSPost2010Prop51ColorRGB
 90
-16777216
102
RTVSPost2010PropOp51
 70
     0
102
RTVSPost2010Prop52
140
1.0
102
RTVSPost2010PropOp52
 70
     0
102
RTVSPost2010Prop53
 90
        2
102
RTVSPost2010PropOp53
 70
     1
102
RTVSPost2010Prop54
  1
strokes_ogs.tif
102
RTVSPost2010PropOp54
 70
     1
102
RTVSPost2010Prop55
280
     0
102
RTVSPost2010PropOp55
 70
     1
102
RTVSPost2010Prop56
140
1.0
102
RTVSPost2010PropOp56
 70
     1
102
RTVSPost2010Prop57
140
1.0
102
RTVSPost2010PropOp57
 70
     1
102
RTVSPropertyOp0
 70
     1
102
RTVSPropertyOp1
 70
     1
102
RTVSPropertyOp2
 70
     1
102
RTVSPropertyOp3
 70
     1
102
RTVSPropertyOp4
 70
     1
102
RTVSPropertyOp5
 70
     1
102
RTVSPropertyOp6
 70
     1
102
RTVSPropertyOp7
 70
     1
102
RTVSPropertyOp8
 70
     1
102
RTVSPropertyOp9
 70
     1
102
RTVSPropertyOp10
 70
     1
102
RTVSPropertyOp11
 70
     1
102
RTVSPropertyOp12
 70
     1
102
RTVSPropertyOp13
 70
     1
102
RTVSPropertyOp14
 70
     1
102
RTVSPropertyOp15
 70
     1
102
RTVSPropertyOp16
 70
     1
102
RTVSPropertyOp17
 70
     1
102
RTVSPropertyOp18
 70
     1
102
RTVSPropertyOp19
 70
     1
102
RTVSPropertyOp20
 70
     1
102
RTVSPropertyOp21
 70
     1
102
RTVSPropertyOp22
 70
     1
102
RTVSPropertyOp23
 70
     1
102
RTVSPropertyOp24
 70
     1
102
RTVSPropertyOp25
 70
     1
102
RTVSPropertyOp26
 70
     1
102
RTVSPropertyOp27
 70
     1
102
RTVSPropertyOp28
 70
     1
102
RTVSPropertyOp29
 70
     1
102
RTVSPropertyOp30
 70
     1
102
RTVSPropertyOp31
 70
     1
102
RTVSPropertyOp32
 70
     1
102
RTVSPropertyOp33
 70
     1
102
RTVSPropertyOp34
 70
     1
102
RTVSPropertyOp35
 70
     1
102
RTVSPropertyOp36
 70
     1
102
RTVSPropertyOp37
 70
     1
102
RTVSPropertyOp38
 70
     1
102
RTVSPropertyOp39
 70
     1
102
RTVSPropertyOp40
 70
     1
102
RTVSPropertyOp41
 70
     1
102
RTVSPropertyOp42
 70
     1
102
RTVSPropertyOp43
 70
     1
102
RTVSPropertyOp44
 70
     1
102
RTVSPropertyOp45
 70
     1
102
RTVSPropertyOp46
 70
     1
102
RTVSPropertyOp47
 70
     1
102
RTVSPropertyOp48
 70
     1
102
RTVSPropertyOp49
 70
     1
102
RTVSPropertyOp50
 70
     1
102
RTVSPropertyOp51
 70
     0
102
RTVSPropertyOp52
 70
     0
102
RTVSPropertyOp53
 70
     1
102
RTVSPropertyOp54
 70
     1
102
RTVSPropertyOp55
 70
     1
102
RTVSPropertyOp56
 70
     1
102
RTVSPropertyOp57
 70
     1
102
RTVSPropertyOp58
 70
     1
102
RTVSPropertyOp59
 70
     1
102
RTVSPropertyOp60
 70
     1
102
RTVSPropertyOp61
 70
     1
102
RTVSPropertyOp62
 70
     1
  0
XRECORD
  5
366
102
{ACAD_REACTORS
330
365
102
}
330
365
100
AcDbXrecord
280
     1
102
RTVSPost2010Prop28
280
     0
102
RTVSPost2010PropOp28
 70
     1
102
RTVSPost2010Prop29
280
     1
102
RTVSPost2010PropOp29
 70
     1
102
RTVSPost2010Prop30
280
     1
102
RTVSPost2010PropOp30
 70
     1
102
RTVSPost2010Prop31
280
     0
102
RTVSPost2010PropOp31
 70
     1
102
RTVSPost2010Prop32
280
     0
102
RTVSPost2010PropOp32
 70
     1
102
RTVSPost2010Prop33
280
     0
102
RTVSPost2010PropOp33
 70
     1
102
RTVSPost2010Prop34
280
     0
102
RTVSPost2010PropOp34
 70
     1
102
RTVSPost2010Prop35
280
     0
102
RTVSPost2010PropOp35
 70
     1
102
RTVSPost2010Prop36
280
     0
102
RTVSPost2010PropOp36
 70
     1
102
RTVSPost2010Prop37
 90
       50
102
RTVSPost2010PropOp37
 70
     1
102
RTVSPost2010Prop38
140
0.0
102
RTVSPost2010PropOp38
 70
     1
102
RTVSPost2010Prop39
140
1.0
102
RTVSPost2010PropOp39
 70
     1
102
RTVSPost2010Prop40
 90
        0
102
RTVSPost2010PropOp40
 70
     1
102
RTVSPost2010Prop41ColorIndex
 90
       18
102
RTVSPost2010Prop41ColorRGB
 90
        0
102
RTVSPost2010PropOp41
 70
     1
102
RTVSPost2010Prop42
 90
       50
102
RTVSPost2010PropOp42
 70
     1
102
RTVSPost2010Prop43
 90
        3
102
RTVSPost2010PropOp43
 70
     1
102
RTVSPost2010Prop44ColorIndex
 90
        5
102
RTVSPost2010Prop44ColorRGB
 90
      255
102
RTVSPost2010PropOp44
 70
     1
102
RTVSPost2010Prop45
280
     0
102
RTVSPost2010PropOp45
 70
     1
102
RTVSPost2010Prop46
 90
       50
102
RTVSPost2010PropOp46
 70
     1
102
RTVSPost2010Prop47
 90
       50
102
RTVSPost2010PropOp47
 70
     1
102
RTVSPost2010Prop48
 90
       50
102
RTVSPost2010PropOp48
 70
     1
102
RTVSPost2010Prop49
280
     0
102
RTVSPost2010PropOp49
 70
     1
102
RTVSPost2010Prop50
 90
       50
102
RTVSPost2010PropOp50
 70
     1
102
RTVSPost2010Prop51ColorIndex
 90
      256
102
RTVSPost2010Prop51ColorRGB
 90
-16777216
102
RTVSPost2010PropOp51
 70
     0
102
RTVSPost2010Prop52
140
1.0
102
RTVSPost2010PropOp52
 70
     0
102
RTVSPost2010Prop53
 90
        2
102
RTVSPost2010PropOp53
 70
     1
102
RTVSPost2010Prop54
  1
strokes_ogs.tif
102
RTVSPost2010PropOp54
 70
     1
102
RTVSPost2010Prop55
280
     0
102
RTVSPost2010PropOp55
 70
     1
102
RTVSPost2010Prop56
140
1.0
102
RTVSPost2010PropOp56
 70
     1
102
RTVSPost2010Prop57
140
1.0
102
RTVSPost2010PropOp57
 70
     1
102
RTVSPropertyOp0
 70
     1
102
RTVSPropertyOp1
 70
     1
102
RTVSPropertyOp2
 70
     1
102
RTVSPropertyOp3
 70
     1
102
RTVSPropertyOp4
 70
     1
102
RTVSPropertyOp5
 70
     1
102
RTVSPropertyOp6
 70
     1
102
RTVSPropertyOp7
 70
     1
102
RTVSPropertyOp8
 70
     1
102
RTVSPropertyOp9
 70
     1
102
RTVSPropertyOp10
 70
     1
102
RTVSPropertyOp11
 70
     1
102
RTVSPropertyOp12
 70
     1
102
RTVSPropertyOp13
 70
     1
102
RTVSPropertyOp14
 70
     1
102
RTVSPropertyOp15
 70
     1
102
RTVSPropertyOp16
 70
     1
102
RTVSPropertyOp17
 70
     1
102
RTVSPropertyOp18
 70
     1
102
RTVSPropertyOp19
 70
     1
102
RTVSPropertyOp20
 70
     1
102
RTVSPropertyOp21
 70
     1
102
RTVSPropertyOp22
 70
     1
102
RTVSPropertyOp23
 70
     1
102
RTVSPropertyOp24
 70
     1
102
RTVSPropertyOp25
 70
     1
102
RTVSPropertyOp26
 70
     1
102
RTVSPropertyOp27
 70
     1
102
RTVSPropertyOp28
 70
     1
102
RTVSPropertyOp29
 70
     1
102
RTVSPropertyOp30
 70
     1
102
RTVSPropertyOp31
 70
     1
102
RTVSPropertyOp32
 70
     1
102
RTVSPropertyOp33
 70
     1
102
RTVSPropertyOp34
 70
     1
102
RTVSPropertyOp35
 70
     1
102
RTVSPropertyOp36
 70
     1
102
RTVSPropertyOp37
 70
     1
102
RTVSPropertyOp38
 70
     1
102
RTVSPropertyOp39
 70
     1
102
RTVSPropertyOp40
 70
     1
102
RTVSPropertyOp41
 70
     1
102
RTVSPropertyOp42
 70
     1
102
RTVSPropertyOp43
 70
     1
102
RTVSPropertyOp44
 70
     1
102
RTVSPropertyOp45
 70
     1
102
RTVSPropertyOp46
 70
     1
102
RTVSPropertyOp47
 70
     1
102
RTVSPropertyOp48
 70
     1
102
RTVSPropertyOp49
 70
     1
102
RTVSPropertyOp50
 70
     1
102
RTVSPropertyOp51
 70
     0
102
RTVSPropertyOp52
 70
     0
102
RTVSPropertyOp53
 70
     1
102
RTVSPropertyOp54
 70
     1
102
RTVSPropertyOp55
 70
     1
102
RTVSPropertyOp56
 70
     1
102
RTVSPropertyOp57
 70
     1
102
RTVSPropertyOp58
 70
     1
102
RTVSPropertyOp59
 70
     1
102
RTVSPropertyOp60
 70
     1
102
RTVSPropertyOp61
 70
     1
102
RTVSPropertyOp62
 70
     1
  0
XRECORD
  5
37A
102
{ACAD_REACTORS
330
379
102
}
330
379
100
AcDbXrecord
280
     1
102
RTVSPost2010Prop28
280
     0
102
RTVSPost2010PropOp28
 70
     0
102
RTVSPost2010Prop29
280
     1
102
RTVSPost2010PropOp29
 70
     0
102
RTVSPost2010Prop30
280
     1
102
RTVSPost2010PropOp30
 70
     0
102
RTVSPost2010Prop31
280
     0
102
RTVSPost2010PropOp31
 70
     0
102
RTVSPost2010Prop32
280
     0
102
RTVSPost2010PropOp32
 70
     0
102
RTVSPost2010Prop33
280
     0
102
RTVSPost2010PropOp33
 70
     0
102
RTVSPost2010Prop34
280
     0
102
RTVSPost2010PropOp34
 70
     0
102
RTVSPost2010Prop35
280
     0
102
RTVSPost2010PropOp35
 70
     0
102
RTVSPost2010Prop36
280
     0
102
RTVSPost2010PropOp36
 70
     0
102
RTVSPost2010Prop37
 90
       50
102
RTVSPost2010PropOp37
 70
     0
102
RTVSPost2010Prop38
140
0.0
102
RTVSPost2010PropOp38
 70
     0
102
RTVSPost2010Prop39
140
1.0
102
RTVSPost2010PropOp39
 70
     0
102
RTVSPost2010Prop40
 90
        0
102
RTVSPost2010PropOp40
 70
     0
102
RTVSPost2010Prop41ColorIndex
 90
       18
102
RTVSPost2010Prop41ColorRGB
 90
        0
102
RTVSPost2010PropOp41
 70
     0
102
RTVSPost2010Prop42
 90
       50
102
RTVSPost2010PropOp42
 70
     0
102
RTVSPost2010Prop43
 90
        3
102
RTVSPost2010PropOp43
 70
     0
102
RTVSPost2010Prop44ColorIndex
 90
        5
102
RTVSPost2010Prop44ColorRGB
 90
      255
102
RTVSPost2010PropOp44
 70
     0
102
RTVSPost2010Prop45
280
     0
102
RTVSPost2010PropOp45
 70
     0
102
RTVSPost2010Prop46
 90
       50
102
RTVSPost2010PropOp46
 70
     0
102
RTVSPost2010Prop47
 90
       50
102
RTVSPost2010PropOp47
 70
     0
102
RTVSPost2010Prop48
 90
       50
102
RTVSPost2010PropOp48
 70
     0
102
RTVSPost2010Prop49
280
     0
102
RTVSPost2010PropOp49
 70
     0
102
RTVSPost2010Prop50
 90
       50
102
RTVSPost2010PropOp50
 70
     0
102
RTVSPost2010Prop51ColorIndex
 90
      256
102
RTVSPost2010Prop51ColorRGB
 90
-16777216
102
RTVSPost2010PropOp51
 70
     0
102
RTVSPost2010Prop52
140
1.0
102
RTVSPost2010PropOp52
 70
     0
102
RTVSPost2010Prop53
 90
        2
102
RTVSPost2010PropOp53
 70
     0
102
RTVSPost2010Prop54
  1
strokes_ogs.tif
102
RTVSPost2010PropOp54
 70
     0
102
RTVSPost2010Prop55
280
     0
102
RTVSPost2010PropOp55
 70
     0
102
RTVSPost2010Prop56
140
1.0
102
RTVSPost2010PropOp56
 70
     0
102
RTVSPost2010Prop57
140
1.0
102
RTVSPost2010PropOp57
 70
     0
102
RTVSPropertyOp0
 70
     0
102
RTVSPropertyOp1
 70
     0
102
RTVSPropertyOp2
 70
     0
102
RTVSPropertyOp3
 70
     0
102
RTVSPropertyOp4
 70
     0
102
RTVSPropertyOp5
 70
     0
102
RTVSPropertyOp6
 70
     0
102
RTVSPropertyOp7
 70
     0
102
RTVSPropertyOp8
 70
     0
102
RTVSPropertyOp9
 70
     0
102
RTVSPropertyOp10
 70
     0
102
RTVSPropertyOp11
 70
     0
102
RTVSPropertyOp12
 70
     0
102
RTVSPropertyOp13
 70
     0
102
RTVSPropertyOp14
 70
     2
102
RTVSPropertyOp15
 70
     0
102
RTVSPropertyOp16
 70
     0
102
RTVSPropertyOp17
 70
     0
102
RTVSPropertyOp18
 70
     0
102
RTVSPropertyOp19
 70
     0
102
RTVSPropertyOp20
 70
     0
102
RTVSPropertyOp21
 70
     0
102
RTVSPropertyOp22
 70
     0
102
RTVSPropertyOp23
 70
     0
102
RTVSPropertyOp24
 70
     0
102
RTVSPropertyOp25
 70
     0
102
RTVSPropertyOp26
 70
     0
102
RTVSPropertyOp27
 70
     0
102
RTVSPropertyOp28
 70
     0
102
RTVSPropertyOp29
 70
     0
102
RTVSPropertyOp30
 70
     0
102
RTVSPropertyOp31
 70
     0
102
RTVSPropertyOp32
 70
     0
102
RTVSPropertyOp33
 70
     0
102
RTVSPropertyOp34
 70
     0
102
RTVSPropertyOp35
 70
     0
102
RTVSPropertyOp36
 70
     0
102
RTVSPropertyOp37
 70
     0
102
RTVSPropertyOp38
 70
     0
102
RTVSPropertyOp39
 70
     0
102
RTVSPropertyOp40
 70
     0
102
RTVSPropertyOp41
 70
     0
102
RTVSPropertyOp42
 70
     0
102
RTVSPropertyOp43
 70
     0
102
RTVSPropertyOp44
 70
     0
102
RTVSPropertyOp45
 70
     0
102
RTVSPropertyOp46
 70
     0
102
RTVSPropertyOp47
 70
     0
102
RTVSPropertyOp48
 70
     0
102
RTVSPropertyOp49
 70
     0
102
RTVSPropertyOp50
 70
     0
102
RTVSPropertyOp51
 70
     0
102
RTVSPropertyOp52
 70
     0
102
RTVSPropertyOp53
 70
     0
102
RTVSPropertyOp54
 70
     0
102
RTVSPropertyOp55
 70
     0
102
RTVSPropertyOp56
 70
     0
102
RTVSPropertyOp57
 70
     0
102
RTVSPropertyOp58
 70
     1
102
RTVSPropertyOp59
 70
     1
102
RTVSPropertyOp60
 70
     1
102
RTVSPropertyOp61
 70
     1
102
RTVSPropertyOp62
 70
     1
  0
XRECORD
  5
374
102
{ACAD_REACTORS
330
373
102
}
330
373
100
AcDbXrecord
280
     1
102
RTVSPost2010Prop28
280
     0
102
RTVSPost2010PropOp28
 70
     1
102
RTVSPost2010Prop29
280
     1
102
RTVSPost2010PropOp29
 70
     1
102
RTVSPost2010Prop30
280
     1
102
RTVSPost2010PropOp30
 70
     1
102
RTVSPost2010Prop31
280
     0
102
RTVSPost2010PropOp31
 70
     1
102
RTVSPost2010Prop32
280
     0
102
RTVSPost2010PropOp32
 70
     1
102
RTVSPost2010Prop33
280
     0
102
RTVSPost2010PropOp33
 70
     1
102
RTVSPost2010Prop34
280
     0
102
RTVSPost2010PropOp34
 70
     1
102
RTVSPost2010Prop35
280
     0
102
RTVSPost2010PropOp35
 70
     1
102
RTVSPost2010Prop36
280
     0
102
RTVSPost2010PropOp36
 70
     1
102
RTVSPost2010Prop37
 90
       50
102
RTVSPost2010PropOp37
 70
     1
102
RTVSPost2010Prop38
140
0.0
102
RTVSPost2010PropOp38
 70
     1
102
RTVSPost2010Prop39
140
1.0
102
RTVSPost2010PropOp39
 70
     1
102
RTVSPost2010Prop40
 90
        0
102
RTVSPost2010PropOp40
 70
     1
102
RTVSPost2010Prop41ColorIndex
 90
       18
102
RTVSPost2010Prop41ColorRGB
 90
        0
102
RTVSPost2010PropOp41
 70
     1
102
RTVSPost2010Prop42
 90
       50
102
RTVSPost2010PropOp42
 70
     1
102
RTVSPost2010Prop43
 90
        3
102
RTVSPost2010PropOp43
 70
     1
102
RTVSPost2010Prop44ColorIndex
 90
        5
102
RTVSPost2010Prop44ColorRGB
 90
      255
102
RTVSPost2010PropOp44
 70
     1
102
RTVSPost2010Prop45
280
     0
102
RTVSPost2010PropOp45
 70
     1
102
RTVSPost2010Prop46
 90
       50
102
RTVSPost2010PropOp46
 70
     1
102
RTVSPost2010Prop47
 90
       50
102
RTVSPost2010PropOp47
 70
     1
102
RTVSPost2010Prop48
 90
       50
102
RTVSPost2010PropOp48
 70
     1
102
RTVSPost2010Prop49
280
     0
102
RTVSPost2010PropOp49
 70
     1
102
RTVSPost2010Prop50
 90
       50
102
RTVSPost2010PropOp50
 70
     1
102
RTVSPost2010Prop51ColorIndex
 90
      256
102
RTVSPost2010Prop51ColorRGB
 90
-16777216
102
RTVSPost2010PropOp51
 70
     0
102
RTVSPost2010Prop52
140
1.0
102
RTVSPost2010PropOp52
 70
     0
102
RTVSPost2010Prop53
 90
        2
102
RTVSPost2010PropOp53
 70
     1
102
RTVSPost2010Prop54
  1
strokes_ogs.tif
102
RTVSPost2010PropOp54
 70
     1
102
RTVSPost2010Prop55
280
     0
102
RTVSPost2010PropOp55
 70
     1
102
RTVSPost2010Prop56
140
1.0
102
RTVSPost2010PropOp56
 70
     1
102
RTVSPost2010Prop57
140
1.0
102
RTVSPost2010PropOp57
 70
     1
102
RTVSPropertyOp0
 70
     1
102
RTVSPropertyOp1
 70
     1
102
RTVSPropertyOp2
 70
     1
102
RTVSPropertyOp3
 70
     1
102
RTVSPropertyOp4
 70
     1
102
RTVSPropertyOp5
 70
     1
102
RTVSPropertyOp6
 70
     1
102
RTVSPropertyOp7
 70
     1
102
RTVSPropertyOp8
 70
     1
102
RTVSPropertyOp9
 70
     1
102
RTVSPropertyOp10
 70
     1
102
RTVSPropertyOp11
 70
     1
102
RTVSPropertyOp12
 70
     1
102
RTVSPropertyOp13
 70
     1
102
RTVSPropertyOp14
 70
     1
102
RTVSPropertyOp15
 70
     1
102
RTVSPropertyOp16
 70
     1
102
RTVSPropertyOp17
 70
     1
102
RTVSPropertyOp18
 70
     1
102
RTVSPropertyOp19
 70
     1
102
RTVSPropertyOp20
 70
     1
102
RTVSPropertyOp21
 70
     1
102
RTVSPropertyOp22
 70
     1
102
RTVSPropertyOp23
 70
     1
102
RTVSPropertyOp24
 70
     1
102
RTVSPropertyOp25
 70
     1
102
RTVSPropertyOp26
 70
     1
102
RTVSPropertyOp27
 70
     1
102
RTVSPropertyOp28
 70
     1
102
RTVSPropertyOp29
 70
     1
102
RTVSPropertyOp30
 70
     1
102
RTVSPropertyOp31
 70
     1
102
RTVSPropertyOp32
 70
     1
102
RTVSPropertyOp33
 70
     1
102
RTVSPropertyOp34
 70
     1
102
RTVSPropertyOp35
 70
     1
102
RTVSPropertyOp36
 70
     1
102
RTVSPropertyOp37
 70
     1
102
RTVSPropertyOp38
 70
     1
102
RTVSPropertyOp39
 70
     1
102
RTVSPropertyOp40
 70
     1
102
RTVSPropertyOp41
 70
     1
102
RTVSPropertyOp42
 70
     1
102
RTVSPropertyOp43
 70
     1
102
RTVSPropertyOp44
 70
     1
102
RTVSPropertyOp45
 70
     1
102
RTVSPropertyOp46
 70
     1
102
RTVSPropertyOp47
 70
     1
102
RTVSPropertyOp48
 70
     1
102
RTVSPropertyOp49
 70
     1
102
RTVSPropertyOp50
 70
     1
102
RTVSPropertyOp51
 70
     0
102
RTVSPropertyOp52
 70
     0
102
RTVSPropertyOp53
 70
     1
102
RTVSPropertyOp54
 70
     1
102
RTVSPropertyOp55
 70
     1
102
RTVSPropertyOp56
 70
     1
102
RTVSPropertyOp57
 70
     1
102
RTVSPropertyOp58
 70
     1
102
RTVSPropertyOp59
 70
     1
102
RTVSPropertyOp60
 70
     1
102
RTVSPropertyOp61
 70
     1
102
RTVSPropertyOp62
 70
     1
  0
XRECORD
  5
37C
102
{ACAD_REACTORS
330
37B
102
}
330
37B
100
AcDbXrecord
280
     1
102
RTVSPost2010Prop28
280
     0
102
RTVSPost2010PropOp28
 70
     0
102
RTVSPost2010Prop29
280
     1
102
RTVSPost2010PropOp29
 70
     0
102
RTVSPost2010Prop30
280
     1
102
RTVSPost2010PropOp30
 70
     0
102
RTVSPost2010Prop31
280
     0
102
RTVSPost2010PropOp31
 70
     0
102
RTVSPost2010Prop32
280
     0
102
RTVSPost2010PropOp32
 70
     0
102
RTVSPost2010Prop33
280
     0
102
RTVSPost2010PropOp33
 70
     0
102
RTVSPost2010Prop34
280
     0
102
RTVSPost2010PropOp34
 70
     0
102
RTVSPost2010Prop35
280
     0
102
RTVSPost2010PropOp35
 70
     0
102
RTVSPost2010Prop36
280
     0
102
RTVSPost2010PropOp36
 70
     0
102
RTVSPost2010Prop37
 90
       50
102
RTVSPost2010PropOp37
 70
     0
102
RTVSPost2010Prop38
140
0.0
102
RTVSPost2010PropOp38
 70
     0
102
RTVSPost2010Prop39
140
1.0
102
RTVSPost2010PropOp39
 70
     0
102
RTVSPost2010Prop40
 90
        0
102
RTVSPost2010PropOp40
 70
     0
102
RTVSPost2010Prop41ColorIndex
 90
       18
102
RTVSPost2010Prop41ColorRGB
 90
        0
102
RTVSPost2010PropOp41
 70
     0
102
RTVSPost2010Prop42
 90
       50
102
RTVSPost2010PropOp42
 70
     0
102
RTVSPost2010Prop43
 90
        3
102
RTVSPost2010PropOp43
 70
     0
102
RTVSPost2010Prop44ColorIndex
 90
        5
102
RTVSPost2010Prop44ColorRGB
 90
      255
102
RTVSPost2010PropOp44
 70
     0
102
RTVSPost2010Prop45
280
     0
102
RTVSPost2010PropOp45
 70
     0
102
RTVSPost2010Prop46
 90
       50
102
RTVSPost2010PropOp46
 70
     0
102
RTVSPost2010Prop47
 90
       50
102
RTVSPost2010PropOp47
 70
     0
102
RTVSPost2010Prop48
 90
       50
102
RTVSPost2010PropOp48
 70
     0
102
RTVSPost2010Prop49
280
     0
102
RTVSPost2010PropOp49
 70
     0
102
RTVSPost2010Prop50
 90
       50
102
RTVSPost2010PropOp50
 70
     0
102
RTVSPost2010Prop51ColorIndex
 90
      256
102
RTVSPost2010Prop51ColorRGB
 90
-16777216
102
RTVSPost2010PropOp51
 70
     0
102
RTVSPost2010Prop52
140
1.0
102
RTVSPost2010PropOp52
 70
     0
102
RTVSPost2010Prop53
 90
        2
102
RTVSPost2010PropOp53
 70
     0
102
RTVSPost2010Prop54
  1
strokes_ogs.tif
102
RTVSPost2010PropOp54
 70
     0
102
RTVSPost2010Prop55
280
     0
102
RTVSPost2010PropOp55
 70
     0
102
RTVSPost2010Prop56
140
1.0
102
RTVSPost2010PropOp56
 70
     0
102
RTVSPost2010Prop57
140
1.0
102
RTVSPost2010PropOp57
 70
     0
102
RTVSPropertyOp0
 70
     0
102
RTVSPropertyOp1
 70
     0
102
RTVSPropertyOp2
 70
     0
102
RTVSPropertyOp3
 70
     0
102
RTVSPropertyOp4
 70
     0
102
RTVSPropertyOp5
 70
     0
102
RTVSPropertyOp6
 70
     0
102
RTVSPropertyOp7
 70
     0
102
RTVSPropertyOp8
 70
     0
102
RTVSPropertyOp9
 70
     0
102
RTVSPropertyOp10
 70
     0
102
RTVSPropertyOp11
 70
     0
102
RTVSPropertyOp12
 70
     0
102
RTVSPropertyOp13
 70
     0
102
RTVSPropertyOp14
 70
     2
102
RTVSPropertyOp15
 70
     0
102
RTVSPropertyOp16
 70
     0
102
RTVSPropertyOp17
 70
     0
102
RTVSPropertyOp18
 70
     0
102
RTVSPropertyOp19
 70
     0
102
RTVSPropertyOp20
 70
     0
102
RTVSPropertyOp21
 70
     0
102
RTVSPropertyOp22
 70
     0
102
RTVSPropertyOp23
 70
     0
102
RTVSPropertyOp24
 70
     0
102
RTVSPropertyOp25
 70
     0
102
RTVSPropertyOp26
 70
     0
102
RTVSPropertyOp27
 70
     0
102
RTVSPropertyOp28
 70
     0
102
RTVSPropertyOp29
 70
     0
102
RTVSPropertyOp30
 70
     0
102
RTVSPropertyOp31
 70
     0
102
RTVSPropertyOp32
 70
     0
102
RTVSPropertyOp33
 70
     0
102
RTVSPropertyOp34
 70
     0
102
RTVSPropertyOp35
 70
     0
102
RTVSPropertyOp36
 70
     0
102
RTVSPropertyOp37
 70
     0
102
RTVSPropertyOp38
 70
     0
102
RTVSPropertyOp39
 70
     0
102
RTVSPropertyOp40
 70
     0
102
RTVSPropertyOp41
 70
     0
102
RTVSPropertyOp42
 70
     0
102
RTVSPropertyOp43
 70
     0
102
RTVSPropertyOp44
 70
     0
102
RTVSPropertyOp45
 70
     0
102
RTVSPropertyOp46
 70
     0
102
RTVSPropertyOp47
 70
     0
102
RTVSPropertyOp48
 70
     0
102
RTVSPropertyOp49
 70
     0
102
RTVSPropertyOp50
 70
     0
102
RTVSPropertyOp51
 70
     0
102
RTVSPropertyOp52
 70
     0
102
RTVSPropertyOp53
 70
     0
102
RTVSPropertyOp54
 70
     0
102
RTVSPropertyOp55
 70
     0
102
RTVSPropertyOp56
 70
     0
102
RTVSPropertyOp57
 70
     0
102
RTVSPropertyOp58
 70
     1
102
RTVSPropertyOp59
 70
     1
102
RTVSPropertyOp60
 70
     1
102
RTVSPropertyOp61
 70
     1
102
RTVSPropertyOp62
 70
     1
  0
XRECORD
  5
36A
102
{ACAD_REACTORS
330
369
102
}
330
369
100
AcDbXrecord
280
     1
102
RTVSPost2010Prop28
280
     0
102
RTVSPost2010PropOp28
 70
     1
102
RTVSPost2010Prop29
280
     1
102
RTVSPost2010PropOp29
 70
     1
102
RTVSPost2010Prop30
280
     1
102
RTVSPost2010PropOp30
 70
     1
102
RTVSPost2010Prop31
280
     0
102
RTVSPost2010PropOp31
 70
     1
102
RTVSPost2010Prop32
280
     0
102
RTVSPost2010PropOp32
 70
     1
102
RTVSPost2010Prop33
280
     0
102
RTVSPost2010PropOp33
 70
     1
102
RTVSPost2010Prop34
280
     0
102
RTVSPost2010PropOp34
 70
     1
102
RTVSPost2010Prop35
280
     0
102
RTVSPost2010PropOp35
 70
     1
102
RTVSPost2010Prop36
280
     0
102
RTVSPost2010PropOp36
 70
     1
102
RTVSPost2010Prop37
 90
       50
102
RTVSPost2010PropOp37
 70
     1
102
RTVSPost2010Prop38
140
0.0
102
RTVSPost2010PropOp38
 70
     1
102
RTVSPost2010Prop39
140
1.0
102
RTVSPost2010PropOp39
 70
     1
102
RTVSPost2010Prop40
 90
        0
102
RTVSPost2010PropOp40
 70
     1
102
RTVSPost2010Prop41ColorIndex
 90
       18
102
RTVSPost2010Prop41ColorRGB
 90
        0
102
RTVSPost2010PropOp41
 70
     1
102
RTVSPost2010Prop42
 90
       50
102
RTVSPost2010PropOp42
 70
     1
102
RTVSPost2010Prop43
 90
        3
102
RTVSPost2010PropOp43
 70
     1
102
RTVSPost2010Prop44ColorIndex
 90
        5
102
RTVSPost2010Prop44ColorRGB
 90
      255
102
RTVSPost2010PropOp44
 70
     1
102
RTVSPost2010Prop45
280
     0
102
RTVSPost2010PropOp45
 70
     1
102
RTVSPost2010Prop46
 90
       50
102
RTVSPost2010PropOp46
 70
     1
102
RTVSPost2010Prop47
 90
       50
102
RTVSPost2010PropOp47
 70
     1
102
RTVSPost2010Prop48
 90
       50
102
RTVSPost2010PropOp48
 70
     1
102
RTVSPost2010Prop49
280
     0
102
RTVSPost2010PropOp49
 70
     1
102
RTVSPost2010Prop50
 90
       50
102
RTVSPost2010PropOp50
 70
     1
102
RTVSPost2010Prop51ColorIndex
 90
      256
102
RTVSPost2010Prop51ColorRGB
 90
-16777216
102
RTVSPost2010PropOp51
 70
     0
102
RTVSPost2010Prop52
140
1.0
102
RTVSPost2010PropOp52
 70
     0
102
RTVSPost2010Prop53
 90
        2
102
RTVSPost2010PropOp53
 70
     1
102
RTVSPost2010Prop54
  1
strokes_ogs.tif
102
RTVSPost2010PropOp54
 70
     1
102
RTVSPost2010Prop55
280
     0
102
RTVSPost2010PropOp55
 70
     1
102
RTVSPost2010Prop56
140
1.0
102
RTVSPost2010PropOp56
 70
     1
102
RTVSPost2010Prop57
140
1.0
102
RTVSPost2010PropOp57
 70
     1
102
RTVSPropertyOp0
 70
     1
102
RTVSPropertyOp1
 70
     1
102
RTVSPropertyOp2
 70
     1
102
RTVSPropertyOp3
 70
     1
102
RTVSPropertyOp4
 70
     1
102
RTVSPropertyOp5
 70
     1
102
RTVSPropertyOp6
 70
     1
102
RTVSPropertyOp7
 70
     1
102
RTVSPropertyOp8
 70
     1
102
RTVSPropertyOp9
 70
     1
102
RTVSPropertyOp10
 70
     1
102
RTVSPropertyOp11
 70
     1
102
RTVSPropertyOp12
 70
     1
102
RTVSPropertyOp13
 70
     1
102
RTVSPropertyOp14
 70
     1
102
RTVSPropertyOp15
 70
     1
102
RTVSPropertyOp16
 70
     1
102
RTVSPropertyOp17
 70
     1
102
RTVSPropertyOp18
 70
     1
102
RTVSPropertyOp19
 70
     1
102
RTVSPropertyOp20
 70
     1
102
RTVSPropertyOp21
 70
     1
102
RTVSPropertyOp22
 70
     1
102
RTVSPropertyOp23
 70
     1
102
RTVSPropertyOp24
 70
     1
102
RTVSPropertyOp25
 70
     1
102
RTVSPropertyOp26
 70
     1
102
RTVSPropertyOp27
 70
     1
102
RTVSPropertyOp28
 70
     1
102
RTVSPropertyOp29
 70
     1
102
RTVSPropertyOp30
 70
     1
102
RTVSPropertyOp31
 70
     1
102
RTVSPropertyOp32
 70
     1
102
RTVSPropertyOp33
 70
     1
102
RTVSPropertyOp34
 70
     1
102
RTVSPropertyOp35
 70
     1
102
RTVSPropertyOp36
 70
     1
102
RTVSPropertyOp37
 70
     1
102
RTVSPropertyOp38
 70
     1
102
RTVSPropertyOp39
 70
     1
102
RTVSPropertyOp40
 70
     1
102
RTVSPropertyOp41
 70
     1
102
RTVSPropertyOp42
 70
     1
102
RTVSPropertyOp43
 70
     1
102
RTVSPropertyOp44
 70
     1
102
RTVSPropertyOp45
 70
     1
102
RTVSPropertyOp46
 70
     1
102
RTVSPropertyOp47
 70
     1
102
RTVSPropertyOp48
 70
     1
102
RTVSPropertyOp49
 70
     1
102
RTVSPropertyOp50
 70
     1
102
RTVSPropertyOp51
 70
     0
102
RTVSPropertyOp52
 70
     0
102
RTVSPropertyOp53
 70
     1
102
RTVSPropertyOp54
 70
     1
102
RTVSPropertyOp55
 70
     1
102
RTVSPropertyOp56
 70
     1
102
RTVSPropertyOp57
 70
     1
102
RTVSPropertyOp58
 70
     1
102
RTVSPropertyOp59
 70
     1
102
RTVSPropertyOp60
 70
     1
102
RTVSPropertyOp61
 70
     1
102
RTVSPropertyOp62
 70
     1
  0
XRECORD
  5
388
102
{ACAD_REACTORS
330
387
102
}
330
387
100
AcDbXrecord
280
     1
102
RTVSPost2010Prop28
280
     0
102
RTVSPost2010PropOp28
 70
     1
102
RTVSPost2010Prop29
280
     1
102
RTVSPost2010PropOp29
 70
     1
102
RTVSPost2010Prop30
280
     1
102
RTVSPost2010PropOp30
 70
     1
102
RTVSPost2010Prop31
280
     0
102
RTVSPost2010PropOp31
 70
     1
102
RTVSPost2010Prop32
280
     0
102
RTVSPost2010PropOp32
 70
     1
102
RTVSPost2010Prop33
280
     0
102
RTVSPost2010PropOp33
 70
     1
102
RTVSPost2010Prop34
280
     0
102
RTVSPost2010PropOp34
 70
     1
102
RTVSPost2010Prop35
280
     0
102
RTVSPost2010PropOp35
 70
     1
102
RTVSPost2010Prop36
280
     0
102
RTVSPost2010PropOp36
 70
     1
102
RTVSPost2010Prop37
 90
       50
102
RTVSPost2010PropOp37
 70
     1
102
RTVSPost2010Prop38
140
0.0
102
RTVSPost2010PropOp38
 70
     1
102
RTVSPost2010Prop39
140
1.0
102
RTVSPost2010PropOp39
 70
     1
102
RTVSPost2010Prop40
 90
        0
102
RTVSPost2010PropOp40
 70
     1
102
RTVSPost2010Prop41ColorIndex
 90
       18
102
RTVSPost2010Prop41ColorRGB
 90
        0
102
RTVSPost2010PropOp41
 70
     1
102
RTVSPost2010Prop42
 90
       50
102
RTVSPost2010PropOp42
 70
     1
102
RTVSPost2010Prop43
 90
        3
102
RTVSPost2010PropOp43
 70
     1
102
RTVSPost2010Prop44ColorIndex
 90
        5
102
RTVSPost2010Prop44ColorRGB
 90
      255
102
RTVSPost2010PropOp44
 70
     1
102
RTVSPost2010Prop45
280
     0
102
RTVSPost2010PropOp45
 70
     1
102
RTVSPost2010Prop46
 90
       50
102
RTVSPost2010PropOp46
 70
     1
102
RTVSPost2010Prop47
 90
       50
102
RTVSPost2010PropOp47
 70
     1
102
RTVSPost2010Prop48
 90
       50
102
RTVSPost2010PropOp48
 70
     1
102
RTVSPost2010Prop49
280
     0
102
RTVSPost2010PropOp49
 70
     1
102
RTVSPost2010Prop50
 90
       50
102
RTVSPost2010PropOp50
 70
     1
102
RTVSPost2010Prop51ColorIndex
 90
      256
102
RTVSPost2010Prop51ColorRGB
 90
-16777216
102
RTVSPost2010PropOp51
 70
     0
102
RTVSPost2010Prop52
140
1.0
102
RTVSPost2010PropOp52
 70
     0
102
RTVSPost2010Prop53
 90
        2
102
RTVSPost2010PropOp53
 70
     1
102
RTVSPost2010Prop54
  1
strokes_ogs.tif
102
RTVSPost2010PropOp54
 70
     1
102
RTVSPost2010Prop55
280
     0
102
RTVSPost2010PropOp55
 70
     1
102
RTVSPost2010Prop56
140
1.0
102
RTVSPost2010PropOp56
 70
     1
102
RTVSPost2010Prop57
140
1.0
102
RTVSPost2010PropOp57
 70
     1
102
RTVSPropertyOp0
 70
     1
102
RTVSPropertyOp1
 70
     1
102
RTVSPropertyOp2
 70
     1
102
RTVSPropertyOp3
 70
     1
102
RTVSPropertyOp4
 70
     1
102
RTVSPropertyOp5
 70
     1
102
RTVSPropertyOp6
 70
     1
102
RTVSPropertyOp7
 70
     1
102
RTVSPropertyOp8
 70
     1
102
RTVSPropertyOp9
 70
     1
102
RTVSPropertyOp10
 70
     1
102
RTVSPropertyOp11
 70
     1
102
RTVSPropertyOp12
 70
     1
102
RTVSPropertyOp13
 70
     1
102
RTVSPropertyOp14
 70
     1
102
RTVSPropertyOp15
 70
     1
102
RTVSPropertyOp16
 70
     1
102
RTVSPropertyOp17
 70
     1
102
RTVSPropertyOp18
 70
     1
102
RTVSPropertyOp19
 70
     1
102
RTVSPropertyOp20
 70
     1
102
RTVSPropertyOp21
 70
     1
102
RTVSPropertyOp22
 70
     1
102
RTVSPropertyOp23
 70
     1
102
RTVSPropertyOp24
 70
     1
102
RTVSPropertyOp25
 70
     1
102
RTVSPropertyOp26
 70
     1
102
RTVSPropertyOp27
 70
     1
102
RTVSPropertyOp28
 70
     1
102
RTVSPropertyOp29
 70
     1
102
RTVSPropertyOp30
 70
     1
102
RTVSPropertyOp31
 70
     1
102
RTVSPropertyOp32
 70
     1
102
RTVSPropertyOp33
 70
     1
102
RTVSPropertyOp34
 70
     1
102
RTVSPropertyOp35
 70
     1
102
RTVSPropertyOp36
 70
     1
102
RTVSPropertyOp37
 70
     1
102
RTVSPropertyOp38
 70
     1
102
RTVSPropertyOp39
 70
     1
102
RTVSPropertyOp40
 70
     1
102
RTVSPropertyOp41
 70
     1
102
RTVSPropertyOp42
 70
     1
102
RTVSPropertyOp43
 70
     1
102
RTVSPropertyOp44
 70
     1
102
RTVSPropertyOp45
 70
     1
102
RTVSPropertyOp46
 70
     1
102
RTVSPropertyOp47
 70
     1
102
RTVSPropertyOp48
 70
     1
102
RTVSPropertyOp49
 70
     1
102
RTVSPropertyOp50
 70
     1
102
RTVSPropertyOp51
 70
     0
102
RTVSPropertyOp52
 70
     0
102
RTVSPropertyOp53
 70
     1
102
RTVSPropertyOp54
 70
     1
102
RTVSPropertyOp55
 70
     1
102
RTVSPropertyOp56
 70
     1
102
RTVSPropertyOp57
 70
     1
102
RTVSPropertyOp58
 70
     1
102
RTVSPropertyOp59
 70
     1
102
RTVSPropertyOp60
 70
     1
102
RTVSPropertyOp61
 70
     1
102
RTVSPropertyOp62
 70
     1
  0
XRECORD
  5
386
102
{ACAD_REACTORS
330
385
102
}
330
385
100
AcDbXrecord
280
     1
102
RTVSPost2010Prop28
280
     0
102
RTVSPost2010PropOp28
 70
     1
102
RTVSPost2010Prop29
280
     1
102
RTVSPost2010PropOp29
 70
     1
102
RTVSPost2010Prop30
280
     1
102
RTVSPost2010PropOp30
 70
     1
102
RTVSPost2010Prop31
280
     0
102
RTVSPost2010PropOp31
 70
     1
102
RTVSPost2010Prop32
280
     0
102
RTVSPost2010PropOp32
 70
     1
102
RTVSPost2010Prop33
280
     0
102
RTVSPost2010PropOp33
 70
     1
102
RTVSPost2010Prop34
280
     0
102
RTVSPost2010PropOp34
 70
     1
102
RTVSPost2010Prop35
280
     0
102
RTVSPost2010PropOp35
 70
     1
102
RTVSPost2010Prop36
280
     0
102
RTVSPost2010PropOp36
 70
     1
102
RTVSPost2010Prop37
 90
       50
102
RTVSPost2010PropOp37
 70
     1
102
RTVSPost2010Prop38
140
0.0
102
RTVSPost2010PropOp38
 70
     1
102
RTVSPost2010Prop39
140
1.0
102
RTVSPost2010PropOp39
 70
     1
102
RTVSPost2010Prop40
 90
        0
102
RTVSPost2010PropOp40
 70
     1
102
RTVSPost2010Prop41ColorIndex
 90
       18
102
RTVSPost2010Prop41ColorRGB
 90
        0
102
RTVSPost2010PropOp41
 70
     1
102
RTVSPost2010Prop42
 90
       50
102
RTVSPost2010PropOp42
 70
     1
102
RTVSPost2010Prop43
 90
        3
102
RTVSPost2010PropOp43
 70
     1
102
RTVSPost2010Prop44ColorIndex
 90
        5
102
RTVSPost2010Prop44ColorRGB
 90
      255
102
RTVSPost2010PropOp44
 70
     1
102
RTVSPost2010Prop45
280
     0
102
RTVSPost2010PropOp45
 70
     1
102
RTVSPost2010Prop46
 90
       50
102
RTVSPost2010PropOp46
 70
     1
102
RTVSPost2010Prop47
 90
       50
102
RTVSPost2010PropOp47
 70
     1
102
RTVSPost2010Prop48
 90
       50
102
RTVSPost2010PropOp48
 70
     1
102
RTVSPost2010Prop49
280
     0
102
RTVSPost2010PropOp49
 70
     1
102
RTVSPost2010Prop50
 90
       50
102
RTVSPost2010PropOp50
 70
     1
102
RTVSPost2010Prop51ColorIndex
 90
      256
102
RTVSPost2010Prop51ColorRGB
 90
-16777216
102
RTVSPost2010PropOp51
 70
     0
102
RTVSPost2010Prop52
140
1.0
102
RTVSPost2010PropOp52
 70
     0
102
RTVSPost2010Prop53
 90
        2
102
RTVSPost2010PropOp53
 70
     1
102
RTVSPost2010Prop54
  1
strokes_ogs.tif
102
RTVSPost2010PropOp54
 70
     1
102
RTVSPost2010Prop55
280
     0
102
RTVSPost2010PropOp55
 70
     1
102
RTVSPost2010Prop56
140
1.0
102
RTVSPost2010PropOp56
 70
     1
102
RTVSPost2010Prop57
140
1.0
102
RTVSPost2010PropOp57
 70
     1
102
RTVSPropertyOp0
 70
     1
102
RTVSPropertyOp1
 70
     1
102
RTVSPropertyOp2
 70
     1
102
RTVSPropertyOp3
 70
     1
102
RTVSPropertyOp4
 70
     1
102
RTVSPropertyOp5
 70
     1
102
RTVSPropertyOp6
 70
     1
102
RTVSPropertyOp7
 70
     1
102
RTVSPropertyOp8
 70
     1
102
RTVSPropertyOp9
 70
     1
102
RTVSPropertyOp10
 70
     1
102
RTVSPropertyOp11
 70
     1
102
RTVSPropertyOp12
 70
     1
102
RTVSPropertyOp13
 70
     1
102
RTVSPropertyOp14
 70
     1
102
RTVSPropertyOp15
 70
     1
102
RTVSPropertyOp16
 70
     1
102
RTVSPropertyOp17
 70
     1
102
RTVSPropertyOp18
 70
     1
102
RTVSPropertyOp19
 70
     1
102
RTVSPropertyOp20
 70
     1
102
RTVSPropertyOp21
 70
     1
102
RTVSPropertyOp22
 70
     1
102
RTVSPropertyOp23
 70
     1
102
RTVSPropertyOp24
 70
     1
102
RTVSPropertyOp25
 70
     1
102
RTVSPropertyOp26
 70
     1
102
RTVSPropertyOp27
 70
     1
102
RTVSPropertyOp28
 70
     1
102
RTVSPropertyOp29
 70
     1
102
RTVSPropertyOp30
 70
     1
102
RTVSPropertyOp31
 70
     1
102
RTVSPropertyOp32
 70
     1
102
RTVSPropertyOp33
 70
     1
102
RTVSPropertyOp34
 70
     1
102
RTVSPropertyOp35
 70
     1
102
RTVSPropertyOp36
 70
     1
102
RTVSPropertyOp37
 70
     1
102
RTVSPropertyOp38
 70
     1
102
RTVSPropertyOp39
 70
     1
102
RTVSPropertyOp40
 70
     1
102
RTVSPropertyOp41
 70
     1
102
RTVSPropertyOp42
 70
     1
102
RTVSPropertyOp43
 70
     1
102
RTVSPropertyOp44
 70
     1
102
RTVSPropertyOp45
 70
     1
102
RTVSPropertyOp46
 70
     1
102
RTVSPropertyOp47
 70
     1
102
RTVSPropertyOp48
 70
     1
102
RTVSPropertyOp49
 70
     1
102
RTVSPropertyOp50
 70
     1
102
RTVSPropertyOp51
 70
     0
102
RTVSPropertyOp52
 70
     0
102
RTVSPropertyOp53
 70
     1
102
RTVSPropertyOp54
 70
     1
102
RTVSPropertyOp55
 70
     1
102
RTVSPropertyOp56
 70
     1
102
RTVSPropertyOp57
 70
     1
102
RTVSPropertyOp58
 70
     1
102
RTVSPropertyOp59
 70
     1
102
RTVSPropertyOp60
 70
     1
102
RTVSPropertyOp61
 70
     1
102
RTVSPropertyOp62
 70
     1
  0
XRECORD
  5
380
102
{ACAD_REACTORS
330
37F
102
}
330
37F
100
AcDbXrecord
280
     1
102
RTVSPost2010Prop28
280
     0
102
RTVSPost2010PropOp28
 70
     1
102
RTVSPost2010Prop29
280
     1
102
RTVSPost2010PropOp29
 70
     1
102
RTVSPost2010Prop30
280
     1
102
RTVSPost2010PropOp30
 70
     1
102
RTVSPost2010Prop31
280
     0
102
RTVSPost2010PropOp31
 70
     1
102
RTVSPost2010Prop32
280
     0
102
RTVSPost2010PropOp32
 70
     1
102
RTVSPost2010Prop33
280
     0
102
RTVSPost2010PropOp33
 70
     1
102
RTVSPost2010Prop34
280
     0
102
RTVSPost2010PropOp34
 70
     1
102
RTVSPost2010Prop35
280
     0
102
RTVSPost2010PropOp35
 70
     1
102
RTVSPost2010Prop36
280
     0
102
RTVSPost2010PropOp36
 70
     1
102
RTVSPost2010Prop37
 90
       50
102
RTVSPost2010PropOp37
 70
     1
102
RTVSPost2010Prop38
140
0.0
102
RTVSPost2010PropOp38
 70
     1
102
RTVSPost2010Prop39
140
1.0
102
RTVSPost2010PropOp39
 70
     1
102
RTVSPost2010Prop40
 90
        0
102
RTVSPost2010PropOp40
 70
     1
102
RTVSPost2010Prop41ColorIndex
 90
       18
102
RTVSPost2010Prop41ColorRGB
 90
        0
102
RTVSPost2010PropOp41
 70
     1
102
RTVSPost2010Prop42
 90
       50
102
RTVSPost2010PropOp42
 70
     1
102
RTVSPost2010Prop43
 90
        3
102
RTVSPost2010PropOp43
 70
     1
102
RTVSPost2010Prop44ColorIndex
 90
        5
102
RTVSPost2010Prop44ColorRGB
 90
      255
102
RTVSPost2010PropOp44
 70
     1
102
RTVSPost2010Prop45
280
     0
102
RTVSPost2010PropOp45
 70
     1
102
RTVSPost2010Prop46
 90
       50
102
RTVSPost2010PropOp46
 70
     1
102
RTVSPost2010Prop47
 90
       50
102
RTVSPost2010PropOp47
 70
     1
102
RTVSPost2010Prop48
 90
       50
102
RTVSPost2010PropOp48
 70
     1
102
RTVSPost2010Prop49
280
     0
102
RTVSPost2010PropOp49
 70
     1
102
RTVSPost2010Prop50
 90
       50
102
RTVSPost2010PropOp50
 70
     1
102
RTVSPost2010Prop51ColorIndex
 90
      256
102
RTVSPost2010Prop51ColorRGB
 90
-16777216
102
RTVSPost2010PropOp51
 70
     0
102
RTVSPost2010Prop52
140
1.0
102
RTVSPost2010PropOp52
 70
     0
102
RTVSPost2010Prop53
 90
        2
102
RTVSPost2010PropOp53
 70
     1
102
RTVSPost2010Prop54
  1
strokes_ogs.tif
102
RTVSPost2010PropOp54
 70
     1
102
RTVSPost2010Prop55
280
     0
102
RTVSPost2010PropOp55
 70
     1
102
RTVSPost2010Prop56
140
1.0
102
RTVSPost2010PropOp56
 70
     1
102
RTVSPost2010Prop57
140
1.0
102
RTVSPost2010PropOp57
 70
     1
102
RTVSPropertyOp0
 70
     1
102
RTVSPropertyOp1
 70
     1
102
RTVSPropertyOp2
 70
     1
102
RTVSPropertyOp3
 70
     1
102
RTVSPropertyOp4
 70
     1
102
RTVSPropertyOp5
 70
     1
102
RTVSPropertyOp6
 70
     1
102
RTVSPropertyOp7
 70
     1
102
RTVSPropertyOp8
 70
     1
102
RTVSPropertyOp9
 70
     1
102
RTVSPropertyOp10
 70
     1
102
RTVSPropertyOp11
 70
     1
102
RTVSPropertyOp12
 70
     1
102
RTVSPropertyOp13
 70
     1
102
RTVSPropertyOp14
 70
     1
102
RTVSPropertyOp15
 70
     1
102
RTVSPropertyOp16
 70
     1
102
RTVSPropertyOp17
 70
     1
102
RTVSPropertyOp18
 70
     1
102
RTVSPropertyOp19
 70
     1
102
RTVSPropertyOp20
 70
     1
102
RTVSPropertyOp21
 70
     1
102
RTVSPropertyOp22
 70
     1
102
RTVSPropertyOp23
 70
     1
102
RTVSPropertyOp24
 70
     1
102
RTVSPropertyOp25
 70
     1
102
RTVSPropertyOp26
 70
     1
102
RTVSPropertyOp27
 70
     1
102
RTVSPropertyOp28
 70
     1
102
RTVSPropertyOp29
 70
     1
102
RTVSPropertyOp30
 70
     1
102
RTVSPropertyOp31
 70
     1
102
RTVSPropertyOp32
 70
     1
102
RTVSPropertyOp33
 70
     1
102
RTVSPropertyOp34
 70
     1
102
RTVSPropertyOp35
 70
     1
102
RTVSPropertyOp36
 70
     1
102
RTVSPropertyOp37
 70
     1
102
RTVSPropertyOp38
 70
     1
102
RTVSPropertyOp39
 70
     1
102
RTVSPropertyOp40
 70
     1
102
RTVSPropertyOp41
 70
     1
102
RTVSPropertyOp42
 70
     1
102
RTVSPropertyOp43
 70
     1
102
RTVSPropertyOp44
 70
     1
102
RTVSPropertyOp45
 70
     1
102
RTVSPropertyOp46
 70
     1
102
RTVSPropertyOp47
 70
     1
102
RTVSPropertyOp48
 70
     1
102
RTVSPropertyOp49
 70
     1
102
RTVSPropertyOp50
 70
     1
102
RTVSPropertyOp51
 70
     0
102
RTVSPropertyOp52
 70
     0
102
RTVSPropertyOp53
 70
     1
102
RTVSPropertyOp54
 70
     1
102
RTVSPropertyOp55
 70
     1
102
RTVSPropertyOp56
 70
     1
102
RTVSPropertyOp57
 70
     1
102
RTVSPropertyOp58
 70
     1
102
RTVSPropertyOp59
 70
     1
102
RTVSPropertyOp60
 70
     1
102
RTVSPropertyOp61
 70
     1
102
RTVSPropertyOp62
 70
     1
  0
XRECORD
  5
382
102
{ACAD_REACTORS
330
381
102
}
330
381
100
AcDbXrecord
280
     1
102
RTVSPost2010Prop28
280
     0
102
RTVSPost2010PropOp28
 70
     1
102
RTVSPost2010Prop29
280
     1
102
RTVSPost2010PropOp29
 70
     1
102
RTVSPost2010Prop30
280
     1
102
RTVSPost2010PropOp30
 70
     1
102
RTVSPost2010Prop31
280
     0
102
RTVSPost2010PropOp31
 70
     1
102
RTVSPost2010Prop32
280
     0
102
RTVSPost2010PropOp32
 70
     1
102
RTVSPost2010Prop33
280
     0
102
RTVSPost2010PropOp33
 70
     1
102
RTVSPost2010Prop34
280
     0
102
RTVSPost2010PropOp34
 70
     1
102
RTVSPost2010Prop35
280
     0
102
RTVSPost2010PropOp35
 70
     1
102
RTVSPost2010Prop36
280
     0
102
RTVSPost2010PropOp36
 70
     1
102
RTVSPost2010Prop37
 90
       50
102
RTVSPost2010PropOp37
 70
     1
102
RTVSPost2010Prop38
140
0.0
102
RTVSPost2010PropOp38
 70
     1
102
RTVSPost2010Prop39
140
1.0
102
RTVSPost2010PropOp39
 70
     1
102
RTVSPost2010Prop40
 90
        0
102
RTVSPost2010PropOp40
 70
     1
102
RTVSPost2010Prop41ColorIndex
 90
       18
102
RTVSPost2010Prop41ColorRGB
 90
        0
102
RTVSPost2010PropOp41
 70
     1
102
RTVSPost2010Prop42
 90
       50
102
RTVSPost2010PropOp42
 70
     1
102
RTVSPost2010Prop43
 90
        3
102
RTVSPost2010PropOp43
 70
     1
102
RTVSPost2010Prop44ColorIndex
 90
        5
102
RTVSPost2010Prop44ColorRGB
 90
      255
102
RTVSPost2010PropOp44
 70
     1
102
RTVSPost2010Prop45
280
     0
102
RTVSPost2010PropOp45
 70
     1
102
RTVSPost2010Prop46
 90
       50
102
RTVSPost2010PropOp46
 70
     1
102
RTVSPost2010Prop47
 90
       50
102
RTVSPost2010PropOp47
 70
     1
102
RTVSPost2010Prop48
 90
       50
102
RTVSPost2010PropOp48
 70
     1
102
RTVSPost2010Prop49
280
     0
102
RTVSPost2010PropOp49
 70
     1
102
RTVSPost2010Prop50
 90
       50
102
RTVSPost2010PropOp50
 70
     1
102
RTVSPost2010Prop51ColorIndex
 90
      256
102
RTVSPost2010Prop51ColorRGB
 90
-16777216
102
RTVSPost2010PropOp51
 70
     0
102
RTVSPost2010Prop52
140
1.0
102
RTVSPost2010PropOp52
 70
     0
102
RTVSPost2010Prop53
 90
        2
102
RTVSPost2010PropOp53
 70
     1
102
RTVSPost2010Prop54
  1
strokes_ogs.tif
102
RTVSPost2010PropOp54
 70
     1
102
RTVSPost2010Prop55
280
     0
102
RTVSPost2010PropOp55
 70
     1
102
RTVSPost2010Prop56
140
1.0
102
RTVSPost2010PropOp56
 70
     1
102
RTVSPost2010Prop57
140
1.0
102
RTVSPost2010PropOp57
 70
     1
102
RTVSPropertyOp0
 70
     1
102
RTVSPropertyOp1
 70
     1
102
RTVSPropertyOp2
 70
     1
102
RTVSPropertyOp3
 70
     1
102
RTVSPropertyOp4
 70
     1
102
RTVSPropertyOp5
 70
     1
102
RTVSPropertyOp6
 70
     1
102
RTVSPropertyOp7
 70
     1
102
RTVSPropertyOp8
 70
     1
102
RTVSPropertyOp9
 70
     1
102
RTVSPropertyOp10
 70
     1
102
RTVSPropertyOp11
 70
     1
102
RTVSPropertyOp12
 70
     1
102
RTVSPropertyOp13
 70
     1
102
RTVSPropertyOp14
 70
     1
102
RTVSPropertyOp15
 70
     1
102
RTVSPropertyOp16
 70
     1
102
RTVSPropertyOp17
 70
     1
102
RTVSPropertyOp18
 70
     1
102
RTVSPropertyOp19
 70
     1
102
RTVSPropertyOp20
 70
     1
102
RTVSPropertyOp21
 70
     1
102
RTVSPropertyOp22
 70
     1
102
RTVSPropertyOp23
 70
     1
102
RTVSPropertyOp24
 70
     1
102
RTVSPropertyOp25
 70
     1
102
RTVSPropertyOp26
 70
     1
102
RTVSPropertyOp27
 70
     1
102
RTVSPropertyOp28
 70
     1
102
RTVSPropertyOp29
 70
     1
102
RTVSPropertyOp30
 70
     1
102
RTVSPropertyOp31
 70
     1
102
RTVSPropertyOp32
 70
     1
102
RTVSPropertyOp33
 70
     1
102
RTVSPropertyOp34
 70
     1
102
RTVSPropertyOp35
 70
     1
102
RTVSPropertyOp36
 70
     1
102
RTVSPropertyOp37
 70
     1
102
RTVSPropertyOp38
 70
     1
102
RTVSPropertyOp39
 70
     1
102
RTVSPropertyOp40
 70
     1
102
RTVSPropertyOp41
 70
     1
102
RTVSPropertyOp42
 70
     1
102
RTVSPropertyOp43
 70
     1
102
RTVSPropertyOp44
 70
     1
102
RTVSPropertyOp45
 70
     1
102
RTVSPropertyOp46
 70
     1
102
RTVSPropertyOp47
 70
     1
102
RTVSPropertyOp48
 70
     1
102
RTVSPropertyOp49
 70
     1
102
RTVSPropertyOp50
 70
     1
102
RTVSPropertyOp51
 70
     0
102
RTVSPropertyOp52
 70
     0
102
RTVSPropertyOp53
 70
     1
102
RTVSPropertyOp54
 70
     1
102
RTVSPropertyOp55
 70
     1
102
RTVSPropertyOp56
 70
     1
102
RTVSPropertyOp57
 70
     1
102
RTVSPropertyOp58
 70
     1
102
RTVSPropertyOp59
 70
     1
102
RTVSPropertyOp60
 70
     1
102
RTVSPropertyOp61
 70
     1
102
RTVSPropertyOp62
 70
     1
  0
XRECORD
  5
372
102
{ACAD_REACTORS
330
371
102
}
330
371
100
AcDbXrecord
280
     1
102
RTVSPost2010Prop28
280
     0
102
RTVSPost2010PropOp28
 70
     1
102
RTVSPost2010Prop29
280
     1
102
RTVSPost2010PropOp29
 70
     1
102
RTVSPost2010Prop30
280
     1
102
RTVSPost2010PropOp30
 70
     1
102
RTVSPost2010Prop31
280
     0
102
RTVSPost2010PropOp31
 70
     1
102
RTVSPost2010Prop32
280
     0
102
RTVSPost2010PropOp32
 70
     1
102
RTVSPost2010Prop33
280
     0
102
RTVSPost2010PropOp33
 70
     1
102
RTVSPost2010Prop34
280
     0
102
RTVSPost2010PropOp34
 70
     1
102
RTVSPost2010Prop35
280
     0
102
RTVSPost2010PropOp35
 70
     1
102
RTVSPost2010Prop36
280
     0
102
RTVSPost2010PropOp36
 70
     1
102
RTVSPost2010Prop37
 90
       50
102
RTVSPost2010PropOp37
 70
     1
102
RTVSPost2010Prop38
140
0.0
102
RTVSPost2010PropOp38
 70
     1
102
RTVSPost2010Prop39
140
1.0
102
RTVSPost2010PropOp39
 70
     1
102
RTVSPost2010Prop40
 90
        0
102
RTVSPost2010PropOp40
 70
     1
102
RTVSPost2010Prop41ColorIndex
 90
       18
102
RTVSPost2010Prop41ColorRGB
 90
        0
102
RTVSPost2010PropOp41
 70
     1
102
RTVSPost2010Prop42
 90
       50
102
RTVSPost2010PropOp42
 70
     1
102
RTVSPost2010Prop43
 90
        3
102
RTVSPost2010PropOp43
 70
     1
102
RTVSPost2010Prop44ColorIndex
 90
        5
102
RTVSPost2010Prop44ColorRGB
 90
      255
102
RTVSPost2010PropOp44
 70
     1
102
RTVSPost2010Prop45
280
     0
102
RTVSPost2010PropOp45
 70
     1
102
RTVSPost2010Prop46
 90
       50
102
RTVSPost2010PropOp46
 70
     1
102
RTVSPost2010Prop47
 90
       50
102
RTVSPost2010PropOp47
 70
     1
102
RTVSPost2010Prop48
 90
       50
102
RTVSPost2010PropOp48
 70
     1
102
RTVSPost2010Prop49
280
     0
102
RTVSPost2010PropOp49
 70
     1
102
RTVSPost2010Prop50
 90
       50
102
RTVSPost2010PropOp50
 70
     1
102
RTVSPost2010Prop51ColorIndex
 90
      256
102
RTVSPost2010Prop51ColorRGB
 90
-16777216
102
RTVSPost2010PropOp51
 70
     0
102
RTVSPost2010Prop52
140
1.0
102
RTVSPost2010PropOp52
 70
     0
102
RTVSPost2010Prop53
 90
        2
102
RTVSPost2010PropOp53
 70
     1
102
RTVSPost2010Prop54
  1
strokes_ogs.tif
102
RTVSPost2010PropOp54
 70
     1
102
RTVSPost2010Prop55
280
     0
102
RTVSPost2010PropOp55
 70
     1
102
RTVSPost2010Prop56
140
1.0
102
RTVSPost2010PropOp56
 70
     1
102
RTVSPost2010Prop57
140
1.0
102
RTVSPost2010PropOp57
 70
     1
102
RTVSPropertyOp0
 70
     1
102
RTVSPropertyOp1
 70
     1
102
RTVSPropertyOp2
 70
     1
102
RTVSPropertyOp3
 70
     1
102
RTVSPropertyOp4
 70
     1
102
RTVSPropertyOp5
 70
     1
102
RTVSPropertyOp6
 70
     1
102
RTVSPropertyOp7
 70
     1
102
RTVSPropertyOp8
 70
     1
102
RTVSPropertyOp9
 70
     1
102
RTVSPropertyOp10
 70
     1
102
RTVSPropertyOp11
 70
     1
102
RTVSPropertyOp12
 70
     1
102
RTVSPropertyOp13
 70
     1
102
RTVSPropertyOp14
 70
     1
102
RTVSPropertyOp15
 70
     1
102
RTVSPropertyOp16
 70
     1
102
RTVSPropertyOp17
 70
     1
102
RTVSPropertyOp18
 70
     1
102
RTVSPropertyOp19
 70
     1
102
RTVSPropertyOp20
 70
     1
102
RTVSPropertyOp21
 70
     1
102
RTVSPropertyOp22
 70
     1
102
RTVSPropertyOp23
 70
     1
102
RTVSPropertyOp24
 70
     1
102
RTVSPropertyOp25
 70
     1
102
RTVSPropertyOp26
 70
     1
102
RTVSPropertyOp27
 70
     1
102
RTVSPropertyOp28
 70
     1
102
RTVSPropertyOp29
 70
     1
102
RTVSPropertyOp30
 70
     1
102
RTVSPropertyOp31
 70
     1
102
RTVSPropertyOp32
 70
     1
102
RTVSPropertyOp33
 70
     1
102
RTVSPropertyOp34
 70
     1
102
RTVSPropertyOp35
 70
     1
102
RTVSPropertyOp36
 70
     1
102
RTVSPropertyOp37
 70
     1
102
RTVSPropertyOp38
 70
     1
102
RTVSPropertyOp39
 70
     1
102
RTVSPropertyOp40
 70
     1
102
RTVSPropertyOp41
 70
     1
102
RTVSPropertyOp42
 70
     1
102
RTVSPropertyOp43
 70
     1
102
RTVSPropertyOp44
 70
     1
102
RTVSPropertyOp45
 70
     1
102
RTVSPropertyOp46
 70
     1
102
RTVSPropertyOp47
 70
     1
102
RTVSPropertyOp48
 70
     1
102
RTVSPropertyOp49
 70
     1
102
RTVSPropertyOp50
 70
     1
102
RTVSPropertyOp51
 70
     0
102
RTVSPropertyOp52
 70
     0
102
RTVSPropertyOp53
 70
     1
102
RTVSPropertyOp54
 70
     1
102
RTVSPropertyOp55
 70
     1
102
RTVSPropertyOp56
 70
     1
102
RTVSPropertyOp57
 70
     1
102
RTVSPropertyOp58
 70
     1
102
RTVSPropertyOp59
 70
     1
102
RTVSPropertyOp60
 70
     1
102
RTVSPropertyOp61
 70
     1
102
RTVSPropertyOp62
 70
     1
  0
XRECORD
  5
364
102
{ACAD_REACTORS
330
363
102
}
330
363
100
AcDbXrecord
280
     1
102
RTVSPost2010Prop28
280
     0
102
RTVSPost2010PropOp28
 70
     1
102
RTVSPost2010Prop29
280
     1
102
RTVSPost2010PropOp29
 70
     1
102
RTVSPost2010Prop30
280
     1
102
RTVSPost2010PropOp30
 70
     1
102
RTVSPost2010Prop31
280
     0
102
RTVSPost2010PropOp31
 70
     1
102
RTVSPost2010Prop32
280
     0
102
RTVSPost2010PropOp32
 70
     1
102
RTVSPost2010Prop33
280
     0
102
RTVSPost2010PropOp33
 70
     1
102
RTVSPost2010Prop34
280
     0
102
RTVSPost2010PropOp34
 70
     1
102
RTVSPost2010Prop35
280
     0
102
RTVSPost2010PropOp35
 70
     1
102
RTVSPost2010Prop36
280
     0
102
RTVSPost2010PropOp36
 70
     1
102
RTVSPost2010Prop37
 90
       50
102
RTVSPost2010PropOp37
 70
     1
102
RTVSPost2010Prop38
140
0.0
102
RTVSPost2010PropOp38
 70
     1
102
RTVSPost2010Prop39
140
1.0
102
RTVSPost2010PropOp39
 70
     1
102
RTVSPost2010Prop40
 90
        0
102
RTVSPost2010PropOp40
 70
     1
102
RTVSPost2010Prop41ColorIndex
 90
       18
102
RTVSPost2010Prop41ColorRGB
 90
        0
102
RTVSPost2010PropOp41
 70
     1
102
RTVSPost2010Prop42
 90
       50
102
RTVSPost2010PropOp42
 70
     1
102
RTVSPost2010Prop43
 90
        3
102
RTVSPost2010PropOp43
 70
     1
102
RTVSPost2010Prop44ColorIndex
 90
        5
102
RTVSPost2010Prop44ColorRGB
 90
      255
102
RTVSPost2010PropOp44
 70
     1
102
RTVSPost2010Prop45
280
     0
102
RTVSPost2010PropOp45
 70
     1
102
RTVSPost2010Prop46
 90
       50
102
RTVSPost2010PropOp46
 70
     1
102
RTVSPost2010Prop47
 90
       50
102
RTVSPost2010PropOp47
 70
     1
102
RTVSPost2010Prop48
 90
       50
102
RTVSPost2010PropOp48
 70
     1
102
RTVSPost2010Prop49
280
     0
102
RTVSPost2010PropOp49
 70
     1
102
RTVSPost2010Prop50
 90
       50
102
RTVSPost2010PropOp50
 70
     1
102
RTVSPost2010Prop51ColorIndex
 90
      256
102
RTVSPost2010Prop51ColorRGB
 90
-16777216
102
RTVSPost2010PropOp51
 70
     0
102
RTVSPost2010Prop52
140
1.0
102
RTVSPost2010PropOp52
 70
     0
102
RTVSPost2010Prop53
 90
        2
102
RTVSPost2010PropOp53
 70
     1
102
RTVSPost2010Prop54
  1
strokes_ogs.tif
102
RTVSPost2010PropOp54
 70
     1
102
RTVSPost2010Prop55
280
     0
102
RTVSPost2010PropOp55
 70
     1
102
RTVSPost2010Prop56
140
1.0
102
RTVSPost2010PropOp56
 70
     1
102
RTVSPost2010Prop57
140
1.0
102
RTVSPost2010PropOp57
 70
     1
102
RTVSPropertyOp0
 70
     1
102
RTVSPropertyOp1
 70
     1
102
RTVSPropertyOp2
 70
     1
102
RTVSPropertyOp3
 70
     1
102
RTVSPropertyOp4
 70
     1
102
RTVSPropertyOp5
 70
     1
102
RTVSPropertyOp6
 70
     1
102
RTVSPropertyOp7
 70
     1
102
RTVSPropertyOp8
 70
     1
102
RTVSPropertyOp9
 70
     1
102
RTVSPropertyOp10
 70
     1
102
RTVSPropertyOp11
 70
     1
102
RTVSPropertyOp12
 70
     1
102
RTVSPropertyOp13
 70
     1
102
RTVSPropertyOp14
 70
     1
102
RTVSPropertyOp15
 70
     1
102
RTVSPropertyOp16
 70
     1
102
RTVSPropertyOp17
 70
     1
102
RTVSPropertyOp18
 70
     1
102
RTVSPropertyOp19
 70
     1
102
RTVSPropertyOp20
 70
     1
102
RTVSPropertyOp21
 70
     1
102
RTVSPropertyOp22
 70
     1
102
RTVSPropertyOp23
 70
     1
102
RTVSPropertyOp24
 70
     1
102
RTVSPropertyOp25
 70
     1
102
RTVSPropertyOp26
 70
     1
102
RTVSPropertyOp27
 70
     1
102
RTVSPropertyOp28
 70
     1
102
RTVSPropertyOp29
 70
     1
102
RTVSPropertyOp30
 70
     1
102
RTVSPropertyOp31
 70
     1
102
RTVSPropertyOp32
 70
     1
102
RTVSPropertyOp33
 70
     1
102
RTVSPropertyOp34
 70
     1
102
RTVSPropertyOp35
 70
     1
102
RTVSPropertyOp36
 70
     1
102
RTVSPropertyOp37
 70
     1
102
RTVSPropertyOp38
 70
     1
102
RTVSPropertyOp39
 70
     1
102
RTVSPropertyOp40
 70
     1
102
RTVSPropertyOp41
 70
     1
102
RTVSPropertyOp42
 70
     1
102
RTVSPropertyOp43
 70
     1
102
RTVSPropertyOp44
 70
     1
102
RTVSPropertyOp45
 70
     1
102
RTVSPropertyOp46
 70
     1
102
RTVSPropertyOp47
 70
     1
102
RTVSPropertyOp48
 70
     1
102
RTVSPropertyOp49
 70
     1
102
RTVSPropertyOp50
 70
     1
102
RTVSPropertyOp51
 70
     0
102
RTVSPropertyOp52
 70
     0
102
RTVSPropertyOp53
 70
     1
102
RTVSPropertyOp54
 70
     1
102
RTVSPropertyOp55
 70
     1
102
RTVSPropertyOp56
 70
     1
102
RTVSPropertyOp57
 70
     1
102
RTVSPropertyOp58
 70
     1
102
RTVSPropertyOp59
 70
     1
102
RTVSPropertyOp60
 70
     1
102
RTVSPropertyOp61
 70
     1
102
RTVSPropertyOp62
 70
     1
  0
XRECORD
  5
384
102
{ACAD_REACTORS
330
383
102
}
330
383
100
AcDbXrecord
280
     1
102
RTVSPost2010Prop28
280
     0
102
RTVSPost2010PropOp28
 70
     1
102
RTVSPost2010Prop29
280
     1
102
RTVSPost2010PropOp29
 70
     1
102
RTVSPost2010Prop30
280
     1
102
RTVSPost2010PropOp30
 70
     1
102
RTVSPost2010Prop31
280
     0
102
RTVSPost2010PropOp31
 70
     1
102
RTVSPost2010Prop32
280
     0
102
RTVSPost2010PropOp32
 70
     1
102
RTVSPost2010Prop33
280
     0
102
RTVSPost2010PropOp33
 70
     1
102
RTVSPost2010Prop34
280
     0
102
RTVSPost2010PropOp34
 70
     1
102
RTVSPost2010Prop35
280
     0
102
RTVSPost2010PropOp35
 70
     1
102
RTVSPost2010Prop36
280
     0
102
RTVSPost2010PropOp36
 70
     1
102
RTVSPost2010Prop37
 90
       50
102
RTVSPost2010PropOp37
 70
     1
102
RTVSPost2010Prop38
140
0.0
102
RTVSPost2010PropOp38
 70
     1
102
RTVSPost2010Prop39
140
1.0
102
RTVSPost2010PropOp39
 70
     1
102
RTVSPost2010Prop40
 90
        0
102
RTVSPost2010PropOp40
 70
     1
102
RTVSPost2010Prop41ColorIndex
 90
       18
102
RTVSPost2010Prop41ColorRGB
 90
        0
102
RTVSPost2010PropOp41
 70
     1
102
RTVSPost2010Prop42
 90
       50
102
RTVSPost2010PropOp42
 70
     1
102
RTVSPost2010Prop43
 90
        3
102
RTVSPost2010PropOp43
 70
     1
102
RTVSPost2010Prop44ColorIndex
 90
        5
102
RTVSPost2010Prop44ColorRGB
 90
      255
102
RTVSPost2010PropOp44
 70
     1
102
RTVSPost2010Prop45
280
     0
102
RTVSPost2010PropOp45
 70
     1
102
RTVSPost2010Prop46
 90
       50
102
RTVSPost2010PropOp46
 70
     1
102
RTVSPost2010Prop47
 90
       50
102
RTVSPost2010PropOp47
 70
     1
102
RTVSPost2010Prop48
 90
       50
102
RTVSPost2010PropOp48
 70
     1
102
RTVSPost2010Prop49
280
     0
102
RTVSPost2010PropOp49
 70
     1
102
RTVSPost2010Prop50
 90
       50
102
RTVSPost2010PropOp50
 70
     1
102
RTVSPost2010Prop51ColorIndex
 90
      256
102
RTVSPost2010Prop51ColorRGB
 90
-16777216
102
RTVSPost2010PropOp51
 70
     0
102
RTVSPost2010Prop52
140
1.0
102
RTVSPost2010PropOp52
 70
     0
102
RTVSPost2010Prop53
 90
        2
102
RTVSPost2010PropOp53
 70
     1
102
RTVSPost2010Prop54
  1
strokes_ogs.tif
102
RTVSPost2010PropOp54
 70
     1
102
RTVSPost2010Prop55
280
     0
102
RTVSPost2010PropOp55
 70
     1
102
RTVSPost2010Prop56
140
1.0
102
RTVSPost2010PropOp56
 70
     1
102
RTVSPost2010Prop57
140
1.0
102
RTVSPost2010PropOp57
 70
     1
102
RTVSPropertyOp0
 70
     1
102
RTVSPropertyOp1
 70
     1
102
RTVSPropertyOp2
 70
     1
102
RTVSPropertyOp3
 70
     1
102
RTVSPropertyOp4
 70
     1
102
RTVSPropertyOp5
 70
     1
102
RTVSPropertyOp6
 70
     1
102
RTVSPropertyOp7
 70
     1
102
RTVSPropertyOp8
 70
     1
102
RTVSPropertyOp9
 70
     1
102
RTVSPropertyOp10
 70
     1
102
RTVSPropertyOp11
 70
     1
102
RTVSPropertyOp12
 70
     1
102
RTVSPropertyOp13
 70
     1
102
RTVSPropertyOp14
 70
     1
102
RTVSPropertyOp15
 70
     1
102
RTVSPropertyOp16
 70
     1
102
RTVSPropertyOp17
 70
     1
102
RTVSPropertyOp18
 70
     1
102
RTVSPropertyOp19
 70
     1
102
RTVSPropertyOp20
 70
     1
102
RTVSPropertyOp21
 70
     1
102
RTVSPropertyOp22
 70
     1
102
RTVSPropertyOp23
 70
     1
102
RTVSPropertyOp24
 70
     1
102
RTVSPropertyOp25
 70
     1
102
RTVSPropertyOp26
 70
     1
102
RTVSPropertyOp27
 70
     1
102
RTVSPropertyOp28
 70
     1
102
RTVSPropertyOp29
 70
     1
102
RTVSPropertyOp30
 70
     1
102
RTVSPropertyOp31
 70
     1
102
RTVSPropertyOp32
 70
     1
102
RTVSPropertyOp33
 70
     1
102
RTVSPropertyOp34
 70
     1
102
RTVSPropertyOp35
 70
     1
102
RTVSPropertyOp36
 70
     1
102
RTVSPropertyOp37
 70
     1
102
RTVSPropertyOp38
 70
     1
102
RTVSPropertyOp39
 70
     1
102
RTVSPropertyOp40
 70
     1
102
RTVSPropertyOp41
 70
     1
102
RTVSPropertyOp42
 70
     1
102
RTVSPropertyOp43
 70
     1
102
RTVSPropertyOp44
 70
     1
102
RTVSPropertyOp45
 70
     1
102
RTVSPropertyOp46
 70
     1
102
RTVSPropertyOp47
 70
     1
102
RTVSPropertyOp48
 70
     1
102
RTVSPropertyOp49
 70
     1
102
RTVSPropertyOp50
 70
     1
102
RTVSPropertyOp51
 70
     0
102
RTVSPropertyOp52
 70
     0
102
RTVSPropertyOp53
 70
     1
102
RTVSPropertyOp54
 70
     1
102
RTVSPropertyOp55
 70
     1
102
RTVSPropertyOp56
 70
     1
102
RTVSPropertyOp57
 70
     1
102
RTVSPropertyOp58
 70
     1
102
RTVSPropertyOp59
 70
     1
102
RTVSPropertyOp60
 70
     1
102
RTVSPropertyOp61
 70
     1
102
RTVSPropertyOp62
 70
     1
  0
ENDSEC
  0
EOF
