  0
SECTION
  2
HEADER
  9
$ACADVER
  1
AC1018
  9
$ACADMAINTVER
 70
   104
  9
$DWGCODEPAGE
  3
ANSI_1250
  9
$LASTSAVEDBY
  1
wq7085
  9
$INSBASE
 10
0.0
 20
0.0
 30
0.0
  9
$EXTMIN
 10
186.4339033333333
 20
118.534924
 30
0.0
  9
$EXTMAX
 10
385.359807
 20
345.2288016666667
 30
0.0
  9
$LIMMIN
 10
-0.5
 20
-0.5
  9
$LIMMAX
 10
5.0
 20
5.0
  9
$ORTHOMODE
 70
     0
  9
$REGENMODE
 70
     1
  9
$FILLMODE
 70
     1
  9
$QTEXTMODE
 70
     0
  9
$MIRRTEXT
 70
     1
  9
$LTSCALE
 40
1.0
  9
$ATTMODE
 70
     1
  9
$TEXTSIZE
 40
0.2
  9
$TRACEWID
 40
0.05
  9
$TEXTSTYLE
  7
Standard
  9
$CLAYER
  8
0
  9
$CELTYPE
  6
ByLayer
  9
$CECOLOR
 62
   256
  9
$CELTSCALE
 40
1.0
  9
$DISPSILH
 70
     0
  9
$DIMSCALE
 40
1.0
  9
$DIMASZ
 40
0.18
  9
$DIMEXO
 40
0.0625
  9
$DIMDLI
 40
0.38
  9
$DIMRND
 40
0.0
  9
$DIMDLE
 40
0.0
  9
$DIMEXE
 40
0.18
  9
$DIMTP
 40
0.0
  9
$DIMTM
 40
0.0
  9
$DIMTXT
 40
0.18
  9
$DIMCEN
 40
0.09
  9
$DIMTSZ
 40
0.0
  9
$DIMTOL
 70
     0
  9
$DIMLIM
 70
     0
  9
$DIMTIH
 70
     1
  9
$DIMTOH
 70
     1
  9
$DIMSE1
 70
     0
  9
$DIMSE2
 70
     0
  9
$DIMTAD
 70
     0
  9
$DIMZIN
 70
     0
  9
$DIMBLK
  1

  9
$DIMASO
 70
     1
  9
$DIMSHO
 70
     1
  9
$DIMPOST
  1

  9
$DIMAPOST
  1

  9
$DIMALT
 70
     0
  9
$DIMALTD
 70
     2
  9
$DIMALTF
 40
25.4
  9
$DIMLFAC
 40
1.0
  9
$DIMTOFL
 70
     0
  9
$DIMTVP
 40
0.0
  9
$DIMTIX
 70
     0
  9
$DIMSOXD
 70
     0
  9
$DIMSAH
 70
     0
  9
$DIMBLK1
  1

  9
$DIMBLK2
  1

  9
$DIMSTYLE
  2
Standard
  9
$DIMCLRD
 70
     0
  9
$DIMCLRE
 70
     0
  9
$DIMCLRT
 70
     0
  9
$DIMTFAC
 40
1.0
  9
$DIMGAP
 40
0.09
  9
$DIMJUST
 70
     0
  9
$DIMSD1
 70
     0
  9
$DIMSD2
 70
     0
  9
$DIMTOLJ
 70
     1
  9
$DIMTZIN
 70
     0
  9
$DIMALTZ
 70
     0
  9
$DIMALTTZ
 70
     0
  9
$DIMUPT
 70
     0
  9
$DIMDEC
 70
     4
  9
$DIMTDEC
 70
     4
  9
$DIMALTU
 70
     2
  9
$DIMALTTD
 70
     2
  9
$DIMTXSTY
  7
Standard
  9
$DIMAUNIT
 70
     0
  9
$DIMADEC
 70
     0
  9
$DIMALTRND
 40
0.0
  9
$DIMAZIN
 70
     0
  9
$DIMDSEP
 70
    46
  9
$DIMATFIT
 70
     3
  9
$DIMFRAC
 70
     0
  9
$DIMLDRBLK
  1

  9
$DIMLUNIT
 70
     2
  9
$DIMLWD
 70
    -2
  9
$DIMLWE
 70
    -2
  9
$DIMTMOVE
 70
     0
  9
$LUNITS
 70
     2
  9
$LUPREC
 70
     4
  9
$SKETCHINC
 40
0.1
  9
$FILLETRAD
 40
0.5
  9
$AUNITS
 70
     0
  9
$AUPREC
 70
     0
  9
$MENU
  1
.
  9
$ELEVATION
 40
0.0
  9
$PELEVATION
 40
0.0
  9
$THICKNESS
 40
0.0
  9
$LIMCHECK
 70
     0
  9
$CHAMFERA
 40
0.0
  9
$CHAMFERB
 40
0.0
  9
$CHAMFERC
 40
0.0
  9
$CHAMFERD
 40
0.0
  9
$SKPOLY
 70
     0
  9
$TDCREATE
 40
2458955.327465278
  9
$TDUCREATE
 40
2458955.244138773
  9
$TDUPDATE
 40
2458955.328379630
  9
$TDUUPDATE
 40
2458955.245046297
  9
$TDINDWG
 40
0.0003935301
  9
$TDUSRTIMER
 40
0.0003935301
  9
$USRTIMER
 70
     1
  9
$ANGBASE
 50
0.0
  9
$ANGDIR
 70
     0
  9
$PDMODE
 70
     0
  9
$PDSIZE
 40
0.0
  9
$PLINEWID
 40
0.0
  9
$SPLFRAME
 70
     0
  9
$SPLINETYPE
 70
     6
  9
$SPLINESEGS
 70
     8
  9
$HANDSEED
  5
3DA
  9
$SURFTAB1
 70
     6
  9
$SURFTAB2
 70
     6
  9
$SURFTYPE
 70
     6
  9
$SURFU
 70
     6
  9
$SURFV
 70
     6
  9
$UCSBASE
  2

  9
$UCSNAME
  2

  9
$UCSORG
 10
274.404842
 20
288.907994
 30
0.0
  9
$UCSXDIR
 10
1.0
 20
0.0
 30
0.0
  9
$UCSYDIR
 10
0.0
 20
1.0
 30
0.0
  9
$UCSORTHOREF
  2

  9
$UCSORTHOVIEW
 70
     0
  9
$UCSORGTOP
 10
0.0
 20
0.0
 30
0.0
  9
$UCSORGBOTTOM
 10
0.0
 20
0.0
 30
0.0
  9
$UCSORGLEFT
 10
0.0
 20
0.0
 30
0.0
  9
$UCSORGRIGHT
 10
0.0
 20
0.0
 30
0.0
  9
$UCSORGFRONT
 10
0.0
 20
0.0
 30
0.0
  9
$UCSORGBACK
 10
0.0
 20
0.0
 30
0.0
  9
$PUCSBASE
  2

  9
$PUCSNAME
  2

  9
$PUCSORG
 10
0.0
 20
0.0
 30
0.0
  9
$PUCSXDIR
 10
1.0
 20
0.0
 30
0.0
  9
$PUCSYDIR
 10
0.0
 20
1.0
 30
0.0
  9
$PUCSORTHOREF
  2

  9
$PUCSORTHOVIEW
 70
     0
  9
$PUCSORGTOP
 10
0.0
 20
0.0
 30
0.0
  9
$PUCSORGBOTTOM
 10
0.0
 20
0.0
 30
0.0
  9
$PUCSORGLEFT
 10
0.0
 20
0.0
 30
0.0
  9
$PUCSORGRIGHT
 10
0.0
 20
0.0
 30
0.0
  9
$PUCSORGFRONT
 10
0.0
 20
0.0
 30
0.0
  9
$PUCSORGBACK
 10
0.0
 20
0.0
 30
0.0
  9
$USERI1
 70
     0
  9
$USERI2
 70
     0
  9
$USERI3
 70
     0
  9
$USERI4
 70
     0
  9
$USERI5
 70
     0
  9
$USERR1
 40
0.0
  9
$USERR2
 40
0.0
  9
$USERR3
 40
0.0
  9
$USERR4
 40
0.0
  9
$USERR5
 40
0.0
  9
$WORLDVIEW
 70
     1
  9
$SHADEDGE
 70
     3
  9
$SHADEDIF
 70
    70
  9
$TILEMODE
 70
     1
  9
$MAXACTVP
 70
    64
  9
$PINSBASE
 10
0.0
 20
0.0
 30
0.0
  9
$PLIMCHECK
 70
     0
  9
$PEXTMIN
 10
-0.5
 20
-0.5
 30
-0.5
  9
$PEXTMAX
 10
5.0
 20
5.0
 30
5.0
  9
$PLIMMIN
 10
-0.5
 20
-0.5
  9
$PLIMMAX
 10
5.0
 20
5.0
  9
$UNITMODE
 70
     0
  9
$VISRETAIN
 70
     1
  9
$PLINEGEN
 70
     0
  9
$PSLTSCALE
 70
     1
  9
$TREEDEPTH
 70
  3020
  9
$CMLSTYLE
  2
Standard
  9
$CMLJUST
 70
     0
  9
$CMLSCALE
 40
1.0
  9
$PROXYGRAPHICS
 70
     1
  9
$MEASUREMENT
 70
     1
  9
$CELWEIGHT
370
    13
  9
$ENDCAPS
280
     0
  9
$JOINSTYLE
280
     0
  9
$LWDISPLAY
290
     0
  9
$INSUNITS
 70
     4
  9
$HYPERLINKBASE
  1

  9
$STYLESHEET
  1

  9
$XEDIT
290
     1
  9
$CEPSNTYPE
380
     0
  9
$PSTYLEMODE
290
     1
  9
$FINGERPRINTGUID
  2
{48B26204-7117-49B8-8CD0-0E7A6A5AFBD9}
  9
$VERSIONGUID
  2
{305AD5B3-5CF1-2847-ADA7-1B5DF8105B58}
  9
$EXTNAMES
290
     1
  9
$PSVPSCALE
 40
0.0
  9
$OLESTARTUP
290
     0
  9
$SORTENTS
280
   127
  9
$INDEXCTL
280
     0
  9
$HIDETEXT
280
     1
  9
$XCLIPFRAME
290
     0
  9
$HALOGAP
280
     0
  9
$OBSCOLOR
 70
   257
  9
$OBSLTYPE
280
     0
  9
$INTERSECTIONDISPLAY
280
     0
  9
$INTERSECTIONCOLOR
 70
   257
  9
$DIMASSOC
280
     2
  9
$PROJECTNAME
  1

  0
ENDSEC
  0
SECTION
  2
CLASSES
  0
CLASS
  1
ACDBDICTIONARYWDFLT
  2
AcDbDictionaryWithDefault
  3
ObjectDBX Classes
 90
        0
 91
        1
280
     0
281
     0
  0
CLASS
  1
VISUALSTYLE
  2
AcDbVisualStyle
  3
ObjectDBX Classes
 90
     4095
 91
       24
280
     0
281
     0
  0
CLASS
  1
MATERIAL
  2
AcDbMaterial
  3
ObjectDBX Classes
 90
     1153
 91
        3
280
     0
281
     0
  0
CLASS
  1
SCALE
  2
AcDbScale
  3
ObjectDBX Classes
 90
     1153
 91
       33
280
     0
281
     0
  0
CLASS
  1
TABLESTYLE
  2
AcDbTableStyle
  3
ObjectDBX Classes
 90
     4095
 91
        1
280
     0
281
     0
  0
CLASS
  1
MLEADERSTYLE
  2
AcDbMLeaderStyle
  3
ACDB_MLEADERSTYLE_CLASS
 90
     4095
 91
        1
280
     0
281
     0
  0
CLASS
  1
SUN
  2
AcDbSun
  3
SCENEOE
 90
     1153
 91
        0
280
     0
281
     0
  0
CLASS
  1
DIMASSOC
  2
AcDbDimAssoc
  3
"AcDbDimAssoc|Product Desc:     AcDim ARX App For Dimension|Company:          Autodesk, Inc.|WEB Address:      www.autodesk.com"
 90
        0
 91
        7
280
     0
281
     0
  0
CLASS
  1
DICTIONARYVAR
  2
AcDbDictionaryVar
  3
ObjectDBX Classes
 90
        0
 91
        8
280
     0
281
     0
  0
CLASS
  1
CELLSTYLEMAP
  2
AcDbCellStyleMap
  3
ObjectDBX Classes
 90
     1152
 91
        2
280
     0
281
     0
  0
CLASS
  1
ACDBSECTIONVIEWSTYLE
  2
AcDbSectionViewStyle
  3
ObjectDBX Classes
 90
     1025
 91
        1
280
     0
281
     0
  0
CLASS
  1
ACDBDETAILVIEWSTYLE
  2
AcDbDetailViewStyle
  3
ObjectDBX Classes
 90
     1025
 91
        1
280
     0
281
     0
  0
CLASS
  1
SORTENTSTABLE
  2
AcDbSortentsTable
  3
ObjectDBX Classes
 90
        0
 91
        1
280
     0
281
     0
  0
ENDSEC
  0
SECTION
  2
TABLES
  0
TABLE
  2
VPORT
  5
8
330
0
100
AcDbSymbolTable
 70
    16
  0
VPORT
  5
29
330
8
100
AcDbSymbolTableRecord
100
AcDbViewportTableRecord
  2
*Active
 70
     0
 10
0.0
 20
0.0
 11
1.0
 21
1.0
 12
298.832946692145
 22
287.5596574606139
 13
0.0
 23
0.0
 14
0.5
 24
0.5
 15
0.5
 25
0.5
 16
0.0
 26
0.0
 36
1.0
 17
0.0
 27
0.0
 37
0.0
 40
201.8744676246901
 41
2.283154121863799
 42
50.0
 43
397.393611
 44
-397.393611
 50
0.0
 51
0.0
 71
     0
 72
   100
 73
     1
 74
     3
 75
     0
 76
     0
 77
     0
 78
     0
281
     0
 65
     1
110
274.404842
120
288.907994
130
0.0
111
1.0
121
0.0
131
0.0
112
0.0
122
1.0
132
0.0
 79
     0
146
0.0
1001
ACAD_NAV_VCDISPLAY
1070
     3
  0
VPORT
  5
2DB
330
8
100
AcDbSymbolTableRecord
100
AcDbViewportTableRecord
  2
L1
 70
     0
 10
0.0
 20
0.0
 11
1.0
 21
1.0
 12
285.392647
 22
231.860254
 13
0.0
 23
0.0
 14
0.5
 24
0.5
 15
0.5
 25
0.5
 16
0.0
 26
0.0
 36
1.0
 17
0.0
 27
0.0
 37
0.0
 40
207.433333
 41
0.085602
 42
50.0
 43
397.393611
 44
-397.393611
 50
0.0
 51
0.0
 71
     0
 72
   100
 73
     1
 74
     3
 75
     0
 76
     0
 77
     0
 78
     0
281
     0
 65
     1
110
0.0
120
0.0
130
0.0
111
1.0
121
0.0
131
0.0
112
0.0
122
1.0
132
0.0
 79
     0
146
0.0
  0
VPORT
  5
2DC
330
8
100
AcDbSymbolTableRecord
100
AcDbViewportTableRecord
  2
L2
 70
     0
 10
0.0
 20
0.0
 11
0.5
 21
1.0
 12
0.0
 22
0.0
 13
0.0
 23
0.0
 14
0.5
 24
0.5
 15
0.5
 25
0.5
 16
0.0
 26
-1.0
 36
0.0
 17
0.0
 27
0.0
 37
0.0
 40
1319.143726
 41
0.013461
 42
50.0
 43
679.601336
 44
-679.601336
 50
0.0
 51
0.0
 71
     0
 72
   100
 73
     1
 74
     3
 75
     0
 76
     0
 77
     0
 78
     0
281
     0
 65
     1
110
0.0
120
0.0
130
0.0
111
1.0
121
0.0
131
0.0
112
0.0
122
1.0
132
0.0
 79
     0
146
0.0
  0
VPORT
  5
2DD
330
8
100
AcDbSymbolTableRecord
100
AcDbViewportTableRecord
  2
L2
 70
     0
 10
0.5
 20
0.0
 11
1.0
 21
1.0
 12
0.0
 22
0.0
 13
0.0
 23
0.0
 14
0.5
 24
0.5
 15
0.5
 25
0.5
 16
1.0
 26
0.0
 36
0.0
 17
0.0
 27
0.0
 37
0.0
 40
1319.143726
 41
0.013461
 42
50.0
 43
667.6767099999999
 44
-667.6767099999999
 50
0.0
 51
0.0
 71
     0
 72
   100
 73
     1
 74
     3
 75
     0
 76
     0
 77
     0
 78
     0
281
     0
 65
     1
110
0.0
120
0.0
130
0.0
111
1.0
121
0.0
131
0.0
112
0.0
122
1.0
132
0.0
 79
     0
146
0.0
  0
VPORT
  5
2DE
330
8
100
AcDbSymbolTableRecord
100
AcDbViewportTableRecord
  2
L3
 70
     0
 10
0.0
 20
0.5
 11
1.0
 21
1.0
 12
285.392647
 22
231.860254
 13
0.0
 23
0.0
 14
0.5
 24
0.5
 15
0.5
 25
0.5
 16
0.0
 26
0.0
 36
1.0
 17
0.0
 27
0.0
 37
0.0
 40
207.433333
 41
0.085602
 42
50.0
 43
397.393611
 44
-397.393611
 50
0.0
 51
0.0
 71
     0
 72
   100
 73
     1
 74
     3
 75
     0
 76
     0
 77
     0
 78
     0
281
     0
 65
     1
110
0.0
120
0.0
130
0.0
111
1.0
121
0.0
131
0.0
112
0.0
122
1.0
132
0.0
 79
     0
146
0.0
  0
VPORT
  5
2DF
330
8
100
AcDbSymbolTableRecord
100
AcDbViewportTableRecord
  2
L3
 70
     0
 10
0.0
 20
0.0
 11
1.0
 21
0.5
 12
0.0
 22
0.0
 13
0.0
 23
0.0
 14
0.5
 24
0.5
 15
0.5
 25
0.5
 16
0.0
 26
-1.0
 36
0.0
 17
0.0
 27
0.0
 37
0.0
 40
1319.143726
 41
0.013461
 42
50.0
 43
679.601336
 44
-679.601336
 50
0.0
 51
0.0
 71
     0
 72
   100
 73
     1
 74
     3
 75
     0
 76
     0
 77
     0
 78
     0
281
     0
 65
     1
110
0.0
120
0.0
130
0.0
111
1.0
121
0.0
131
0.0
112
0.0
122
1.0
132
0.0
 79
     0
146
0.0
  0
VPORT
  5
2E0
330
8
100
AcDbSymbolTableRecord
100
AcDbViewportTableRecord
  2
L4
 70
     0
 10
0.0
 20
0.5
 11
0.5
 21
1.0
 12
285.392647
 22
231.860254
 13
0.0
 23
0.0
 14
0.5
 24
0.5
 15
0.5
 25
0.5
 16
0.0
 26
0.0
 36
1.0
 17
0.0
 27
0.0
 37
0.0
 40
207.433333
 41
0.085602
 42
50.0
 43
397.393611
 44
-397.393611
 50
0.0
 51
0.0
 71
     0
 72
   100
 73
     1
 74
     3
 75
     0
 76
     0
 77
     0
 78
     0
281
     0
 65
     1
110
0.0
120
0.0
130
0.0
111
1.0
121
0.0
131
0.0
112
0.0
122
1.0
132
0.0
 79
     0
146
0.0
  0
VPORT
  5
2E1
330
8
100
AcDbSymbolTableRecord
100
AcDbViewportTableRecord
  2
L4
 70
     0
 10
0.0
 20
0.0
 11
0.5
 21
0.5
 12
0.0
 22
0.0
 13
0.0
 23
0.0
 14
0.5
 24
0.5
 15
0.5
 25
0.5
 16
0.0
 26
-1.0
 36
0.0
 17
0.0
 27
0.0
 37
0.0
 40
1319.143726
 41
0.013461
 42
50.0
 43
679.601336
 44
-679.601336
 50
0.0
 51
0.0
 71
     0
 72
   100
 73
     1
 74
     3
 75
     0
 76
     0
 77
     0
 78
     0
281
     0
 65
     1
110
0.0
120
0.0
130
0.0
111
1.0
121
0.0
131
0.0
112
0.0
122
1.0
132
0.0
 79
     0
146
0.0
  0
VPORT
  5
2E2
330
8
100
AcDbSymbolTableRecord
100
AcDbViewportTableRecord
  2
L4
 70
     0
 10
0.5
 20
0.0
 11
1.0
 21
0.5
 12
0.0
 22
0.0
 13
0.0
 23
0.0
 14
0.5
 24
0.5
 15
0.5
 25
0.5
 16
1.0
 26
0.0
 36
0.0
 17
0.0
 27
0.0
 37
0.0
 40
1319.143726
 41
0.013461
 42
50.0
 43
667.6767099999999
 44
-667.6767099999999
 50
0.0
 51
0.0
 71
     0
 72
   100
 73
     1
 74
     3
 75
     0
 76
     0
 77
     0
 78
     0
281
     0
 65
     1
110
0.0
120
0.0
130
0.0
111
1.0
121
0.0
131
0.0
112
0.0
122
1.0
132
0.0
 79
     0
146
0.0
  0
VPORT
  5
2E3
330
8
100
AcDbSymbolTableRecord
100
AcDbViewportTableRecord
  2
L4
 70
     0
 10
0.5
 20
0.5
 11
1.0
 21
1.0
 12
0.0
 22
0.0
 13
0.0
 23
0.0
 14
0.5
 24
0.5
 15
0.5
 25
0.5
 16
0.5773502691896259
 26
-0.5773502691896259
 36
0.5773502691896259
 17
0.0
 27
0.0
 37
0.0
 40
1295.484074
 41
0.013707
 42
50.0
 43
674.79345
 44
-674.79345
 50
0.0
 51
0.0
 71
     0
 72
   100
 73
     1
 74
     3
 75
     0
 76
     0
 77
     0
 78
     0
281
     0
 65
     1
110
0.0
120
0.0
130
0.0
111
1.0
121
0.0
131
0.0
112
0.0
122
1.0
132
0.0
 79
     0
146
0.0
  0
VPORT
  5
2E4
330
8
100
AcDbSymbolTableRecord
100
AcDbViewportTableRecord
  2
L6
 70
     0
 10
0.0
 20
0.5
 11
0.333333
 21
1.0
 12
0.0
 22
0.0
 13
0.0
 23
0.0
 14
0.5
 24
0.5
 15
0.5
 25
0.5
 16
0.7188730927569434
 26
-0.5850486126764433
 36
0.3754192287502549
 17
0.0
 27
0.0
 37
0.0
 40
1367.187154
 41
0.012988
 42
50.0
 43
707.8776949999999
 44
-707.8776949999999
 50
0.0
 51
0.0
 71
     0
 72
   100
 73
     1
 74
     3
 75
     0
 76
     0
 77
     0
 78
     0
281
     0
 65
     1
110
0.0
120
0.0
130
0.0
111
1.0
121
0.0
131
0.0
112
0.0
122
1.0
132
0.0
 79
     0
146
0.0
  0
VPORT
  5
2E5
330
8
100
AcDbSymbolTableRecord
100
AcDbViewportTableRecord
  2
L6
 70
     0
 10
0.0
 20
0.0
 11
0.333333
 21
0.5
 12
0.0
 22
0.0
 13
0.0
 23
0.0
 14
0.5
 24
0.5
 15
0.5
 25
0.5
 16
-1.0
 26
0.0
 36
0.0
 17
0.0
 27
0.0
 37
0.0
 40
1319.143726
 41
0.013461
 42
50.0
 43
667.6767099999999
 44
-667.6767099999999
 50
0.0
 51
0.0
 71
     0
 72
   100
 73
     1
 74
     3
 75
     0
 76
     0
 77
     0
 78
     0
281
     0
 65
     1
110
0.0
120
0.0
130
0.0
111
1.0
121
0.0
131
0.0
112
0.0
122
1.0
132
0.0
 79
     0
146
0.0
  0
VPORT
  5
2E6
330
8
100
AcDbSymbolTableRecord
100
AcDbViewportTableRecord
  2
L6
 70
     0
 10
0.333333
 20
0.5
 11
0.666667
 21
1.0
 12
285.392647
 22
231.860254
 13
0.0
 23
0.0
 14
0.5
 24
0.5
 15
0.5
 25
0.5
 16
0.0
 26
0.0
 36
1.0
 17
0.0
 27
0.0
 37
0.0
 40
207.433333
 41
0.085602
 42
50.0
 43
397.393611
 44
-397.393611
 50
0.0
 51
0.0
 71
     0
 72
   100
 73
     1
 74
     3
 75
     0
 76
     0
 77
     0
 78
     0
281
     0
 65
     1
110
0.0
120
0.0
130
0.0
111
1.0
121
0.0
131
0.0
112
0.0
122
1.0
132
0.0
 79
     0
146
0.0
  0
VPORT
  5
2E7
330
8
100
AcDbSymbolTableRecord
100
AcDbViewportTableRecord
  2
L6
 70
     0
 10
0.333333
 20
0.0
 11
0.666667
 21
0.5
 12
0.0
 22
0.0
 13
0.0
 23
0.0
 14
0.5
 24
0.5
 15
0.5
 25
0.5
 16
0.0
 26
-1.0
 36
0.0
 17
0.0
 27
0.0
 37
0.0
 40
1319.143726
 41
0.013461
 42
50.0
 43
679.601336
 44
-679.601336
 50
0.0
 51
0.0
 71
     0
 72
   100
 73
     1
 74
     3
 75
     0
 76
     0
 77
     0
 78
     0
281
     0
 65
     1
110
0.0
120
0.0
130
0.0
111
1.0
121
0.0
131
0.0
112
0.0
122
1.0
132
0.0
 79
     0
146
0.0
  0
VPORT
  5
2E8
330
8
100
AcDbSymbolTableRecord
100
AcDbViewportTableRecord
  2
L6
 70
     0
 10
0.666667
 20
0.5
 11
1.0
 21
1.0
 12
0.0
 22
0.0
 13
0.0
 23
0.0
 14
0.5
 24
0.5
 15
0.5
 25
0.5
 16
0.5773502691896259
 26
-0.5773502691896259
 36
0.5773502691896259
 17
0.0
 27
0.0
 37
0.0
 40
1295.484074
 41
0.013707
 42
50.0
 43
674.79345
 44
-674.79345
 50
0.0
 51
0.0
 71
     0
 72
   100
 73
     1
 74
     3
 75
     0
 76
     0
 77
     0
 78
     0
281
     0
 65
     1
110
0.0
120
0.0
130
0.0
111
1.0
121
0.0
131
0.0
112
0.0
122
1.0
132
0.0
 79
     0
146
0.0
  0
VPORT
  5
2E9
330
8
100
AcDbSymbolTableRecord
100
AcDbViewportTableRecord
  2
L6
 70
     0
 10
0.666667
 20
0.0
 11
1.0
 21
0.5
 12
0.0
 22
0.0
 13
0.0
 23
0.0
 14
0.5
 24
0.5
 15
0.5
 25
0.5
 16
1.0
 26
0.0
 36
0.0
 17
0.0
 27
0.0
 37
0.0
 40
1319.143726
 41
0.013461
 42
50.0
 43
667.6767099999999
 44
-667.6767099999999
 50
0.0
 51
0.0
 71
     0
 72
   100
 73
     1
 74
     3
 75
     0
 76
     0
 77
     0
 78
     0
281
     0
 65
     1
110
0.0
120
0.0
130
0.0
111
1.0
121
0.0
131
0.0
112
0.0
122
1.0
132
0.0
 79
     0
146
0.0
  0
ENDTAB
  0
TABLE
  2
LTYPE
  5
5
330
0
100
AcDbSymbolTable
 70
     7
  0
LTYPE
  5
14
330
5
100
AcDbSymbolTableRecord
100
AcDbLinetypeTableRecord
  2
ByBlock
 70
     0
  3

 72
    65
 73
     0
 40
0.0
  0
LTYPE
  5
15
330
5
100
AcDbSymbolTableRecord
100
AcDbLinetypeTableRecord
  2
ByLayer
 70
     0
  3

 72
    65
 73
     0
 40
0.0
  0
LTYPE
  5
16
330
5
100
AcDbSymbolTableRecord
100
AcDbLinetypeTableRecord
  2
Continuous
 70
     0
  3
Solid line
 72
    65
 73
     0
 40
0.0
  0
LTYPE
  5
6E
330
5
100
AcDbSymbolTableRecord
100
AcDbLinetypeTableRecord
  2
CENTER
 70
     0
  3
____ _ ____ _ ____ _ ____
 72
    65
 73
     4
 40
47.4
 49
22.0
 74
     4
 75
     0
340
0
 46
0.0
 50
0.0
 44
0.0
 45
0.0
 49
-8.5
 74
     4
 75
     0
340
0
 46
0.0
 50
0.0
 44
0.0
 45
0.0
 49
8.5
 74
     4
 75
     0
340
0
 46
0.0
 50
0.0
 44
0.0
 45
0.0
 49
-8.5
 74
     4
 75
     0
340
0
 46
0.0
 50
0.0
 44
0.0
 45
0.0
  0
LTYPE
  5
6F
330
5
100
AcDbSymbolTableRecord
100
AcDbLinetypeTableRecord
  2
DASHDOT
 70
     0
  3
_._._._._._._._._._._._._._._._.
 72
    65
 73
     4
 40
70.0
 49
31.0
 74
     4
 75
     0
340
0
 46
0.0
 50
0.0
 44
0.0
 45
0.0
 49
-13.0
 74
     4
 75
     0
340
0
 46
0.0
 50
0.0
 44
0.0
 45
0.0
 49
13.0
 74
     4
 75
     0
340
0
 46
0.0
 50
0.0
 44
0.0
 45
0.0
 49
-13.0
 74
     4
 75
     0
340
0
 46
0.0
 50
0.0
 44
0.0
 45
0.0
  0
LTYPE
  5
70
330
5
100
AcDbSymbolTableRecord
100
AcDbLinetypeTableRecord
  2
DASHED
 70
     0
  3
__ __ __ __ __ __ __ __ __
 72
    65
 73
     2
 40
25.72
 49
12.86
 74
     4
 75
     0
340
0
 46
0.0
 50
0.0
 44
0.0
 45
0.0
 49
-12.86
 74
     4
 75
     0
340
0
 46
0.0
 50
0.0
 44
0.0
 45
0.0
  0
LTYPE
  5
71
330
5
100
AcDbSymbolTableRecord
100
AcDbLinetypeTableRecord
  2
DOT
 70
     0
  3
.........................
 72
    65
 73
     2
 40
10.0
 49
0.0
 74
     4
 75
     0
340
0
 46
0.0
 50
0.0
 44
0.0
 45
0.0
 49
-10.0
 74
     4
 75
     0
340
0
 46
0.0
 50
0.0
 44
0.0
 45
0.0
  0
LTYPE
  5
72
330
5
100
AcDbSymbolTableRecord
100
AcDbLinetypeTableRecord
  2
PHANTOM
 70
     0
  3
____ _ _ ____ _ _ _____ _ _ ____
 72
    65
 73
     6
 40
50.5
 49
18.0
 74
     4
 75
     0
340
0
 46
0.0
 50
0.0
 44
0.0
 45
0.0
 49
-6.5
 74
     4
 75
     0
340
0
 46
0.0
 50
0.0
 44
0.0
 45
0.0
 49
6.5
 74
     4
 75
     0
340
0
 46
0.0
 50
0.0
 44
0.0
 45
0.0
 49
-6.5
 74
     4
 75
     0
340
0
 46
0.0
 50
0.0
 44
0.0
 45
0.0
 49
6.5
 74
     4
 75
     0
340
0
 46
0.0
 50
0.0
 44
0.0
 45
0.0
 49
-6.5
 74
     4
 75
     0
340
0
 46
0.0
 50
0.0
 44
0.0
 45
0.0
  0
LTYPE
  5
37C
330
5
100
AcDbSymbolTableRecord
100
AcDbLinetypeTableRecord
  2
CENTER2
 70
     0
  3
Center (.5x) ___ _ ___ _ ___ _ ___ _ ___ _ ___
 72
    65
 73
     4
 40
1.125
 49
0.75
 74
     0
 49
-0.125
 74
     0
 49
0.125
 74
     0
 49
-0.125
 74
     0
  0
ENDTAB
  0
TABLE
  2
LAYER
  5
2
330
0
100
AcDbSymbolTable
 70
    22
  0
LAYER
  5
10
102
{ACAD_XDICTIONARY
360
387
102
}
330
2
100
AcDbSymbolTableRecord
100
AcDbLayerTableRecord
  2
0
 70
     0
 62
     7
  6
Continuous
370
    -3
390
F
  0
LAYER
  5
235
330
2
100
AcDbSymbolTableRecord
100
AcDbLayerTableRecord
  2
Defpoints
 70
     0
 62
     7
  6
Continuous
290
     0
370
    -3
390
F
  0
LAYER
  5
379
102
{ACAD_XDICTIONARY
360
389
102
}
330
2
100
AcDbSymbolTableRecord
100
AcDbLayerTableRecord
  2
1
 70
     0
 62
     4
  6
Continuous
370
    -3
390
F
  0
LAYER
  5
37A
102
{ACAD_XDICTIONARY
360
38B
102
}
330
2
100
AcDbSymbolTableRecord
100
AcDbLayerTableRecord
  2
2
 70
     0
 62
     7
  6
Continuous
370
    -3
390
F
  0
LAYER
  5
37B
102
{ACAD_XDICTIONARY
360
38D
102
}
330
2
100
AcDbSymbolTableRecord
100
AcDbLayerTableRecord
  2
4
 70
     0
 62
     2
  6
CENTER2
370
    -3
390
F
  0
LAYER
  5
37D
102
{ACAD_XDICTIONARY
360
38F
102
}
330
2
100
AcDbSymbolTableRecord
100
AcDbLayerTableRecord
  2
SK1
 70
     0
 62
     4
  6
Continuous
370
    -3
390
F
  0
LAYER
  5
37E
102
{ACAD_XDICTIONARY
360
391
102
}
330
2
100
AcDbSymbolTableRecord
100
AcDbLayerTableRecord
  2
SK2
 70
     0
 62
     7
  6
Continuous
370
    -3
390
F
  0
LAYER
  5
380
102
{ACAD_XDICTIONARY
360
393
102
}
330
2
100
AcDbSymbolTableRecord
100
AcDbLayerTableRecord
  2
SK4
 70
     0
 62
     2
  6
CENTER2
370
    -3
390
F
  0
LAYER
  5
381
102
{ACAD_XDICTIONARY
360
395
102
}
330
2
100
AcDbSymbolTableRecord
100
AcDbLayerTableRecord
  2
SK6
 70
     0
 62
     5
  6
Continuous
370
    -3
390
F
  0
LAYER
  5
382
102
{ACAD_XDICTIONARY
360
397
102
}
330
2
100
AcDbSymbolTableRecord
100
AcDbLayerTableRecord
  2
CUT
 70
     0
 62
     1
  6
Continuous
370
    -3
390
F
  0
LAYER
  5
383
102
{ACAD_XDICTIONARY
360
399
102
}
330
2
100
AcDbSymbolTableRecord
100
AcDbLayerTableRecord
  2
NOCUT
 70
     0
 62
     7
  6
Continuous
370
    -3
390
F
  0
LAYER
  5
384
102
{ACAD_XDICTIONARY
360
39B
102
}
330
2
100
AcDbSymbolTableRecord
100
AcDbLayerTableRecord
  2
80
 70
     0
 62
     6
  6
Continuous
370
    -3
390
F
  0
LAYER
  5
385
102
{ACAD_XDICTIONARY
360
39D
102
}
330
2
100
AcDbSymbolTableRecord
100
AcDbLayerTableRecord
  2
81
 70
     0
 62
     3
  6
Continuous
370
    -3
390
F
  0
ENDTAB
  0
TABLE
  2
STYLE
  5
3
330
0
100
AcDbSymbolTable
 70
     3
  0
STYLE
  5
11
330
3
100
AcDbSymbolTableRecord
100
AcDbTextStyleTableRecord
  2
Standard
 70
     0
 40
0.0
 41
1.0
 50
0.0
 71
     0
 42
0.2
  3
txt
  4

  0
STYLE
  5
229
330
3
100
AcDbSymbolTableRecord
100
AcDbTextStyleTableRecord
  2
cesky
 70
     0
 40
0.0
 41
1.0
 50
0.0
 71
     0
 42
0.2
  3
simplex.shx
  4

  0
STYLE
  5
22A
330
3
100
AcDbSymbolTableRecord
100
AcDbTextStyleTableRecord
  2
DWGDirectTextStyle
 70
     0
 40
0.0
 41
1.0
 50
0.0
 71
     0
 42
0.2
  3
simplex
  4

  0
ENDTAB
  0
TABLE
  2
VIEW
  5
6
330
0
100
AcDbSymbolTable
 70
     0
  0
ENDTAB
  0
TABLE
  2
UCS
  5
7
330
0
100
AcDbSymbolTable
 70
     0
  0
ENDTAB
  0
TABLE
  2
APPID
  5
9
330
0
100
AcDbSymbolTable
 70
     7
  0
APPID
  5
12
330
9
100
AcDbSymbolTableRecord
100
AcDbRegAppTableRecord
  2
ACAD
 70
     0
  0
APPID
  5
231
330
9
100
AcDbSymbolTableRecord
100
AcDbRegAppTableRecord
  2
ACAD_DSTYLE_DIMBREAK
 70
     0
  0
APPID
  5
2EA
330
9
100
AcDbSymbolTableRecord
100
AcDbRegAppTableRecord
  2
ACAD_DSTYLE_DIM_LINETYPE
 70
     0
  0
APPID
  5
2EB
330
9
100
AcDbSymbolTableRecord
100
AcDbRegAppTableRecord
  2
ACAD_DSTYLE_DIM_EXT1_LINETYPE
 70
     0
  0
APPID
  5
2EC
330
9
100
AcDbSymbolTableRecord
100
AcDbRegAppTableRecord
  2
ACAD_DSTYLE_DIM_EXT2_LINETYPE
 70
     0
  0
APPID
  5
32C
330
9
100
AcDbSymbolTableRecord
100
AcDbRegAppTableRecord
  2
ACAD_MLEADERVER
 70
     0
  0
APPID
  5
3A2
330
9
100
AcDbSymbolTableRecord
100
AcDbRegAppTableRecord
  2
ACAD_NAV_VCDISPLAY
 70
     0
  0
ENDTAB
  0
TABLE
  2
DIMSTYLE
  5
A
330
0
100
AcDbSymbolTable
 70
     1
100
AcDbDimStyleTable
 71
     0
  0
DIMSTYLE
105
27
330
A
100
AcDbSymbolTableRecord
100
AcDbDimStyleTableRecord
  2
Standard
 70
     0
340
11
1001
ACAD_DSTYLE_DIMBREAK
1070
   391
1040
6.349999999999999
  0
ENDTAB
  0
TABLE
  2
BLOCK_RECORD
  5
1
330
0
100
AcDbSymbolTable
 70
    16
  0
BLOCK_RECORD
  5
1F
102
{ACAD_XDICTIONARY
360
33C
102
}
330
1
100
AcDbSymbolTableRecord
100
AcDbBlockTableRecord
  2
*Model_Space
340
22
  0
BLOCK_RECORD
  5
1B
330
1
100
AcDbSymbolTableRecord
100
AcDbBlockTableRecord
  2
*Paper_Space
340
1E
  0
BLOCK_RECORD
  5
23
330
1
100
AcDbSymbolTableRecord
100
AcDbBlockTableRecord
  2
*Paper_Space0
340
26
  0
BLOCK_RECORD
  5
22C
330
1
100
AcDbSymbolTableRecord
100
AcDbBlockTableRecord
  2
ASSORTED_DRAFT1
340
0
  0
BLOCK_RECORD
  5
236
330
1
100
AcDbSymbolTableRecord
100
AcDbBlockTableRecord
  2
*D2
340
0
  0
BLOCK_RECORD
  5
241
330
1
100
AcDbSymbolTableRecord
100
AcDbBlockTableRecord
  2
_U0
340
0
  0
BLOCK_RECORD
  5
24C
330
1
100
AcDbSymbolTableRecord
100
AcDbBlockTableRecord
  2
*D4
340
0
  0
BLOCK_RECORD
  5
258
330
1
100
AcDbSymbolTableRecord
100
AcDbBlockTableRecord
  2
_U1
340
0
  0
BLOCK_RECORD
  5
265
330
1
100
AcDbSymbolTableRecord
100
AcDbBlockTableRecord
  2
*D6
340
0
  0
BLOCK_RECORD
  5
271
330
1
100
AcDbSymbolTableRecord
100
AcDbBlockTableRecord
  2
_U2
340
0
  0
BLOCK_RECORD
  5
27E
330
1
100
AcDbSymbolTableRecord
100
AcDbBlockTableRecord
  2
*D8
340
0
  0
BLOCK_RECORD
  5
28A
330
1
100
AcDbSymbolTableRecord
100
AcDbBlockTableRecord
  2
_U3
340
0
  0
BLOCK_RECORD
  5
296
330
1
100
AcDbSymbolTableRecord
100
AcDbBlockTableRecord
  2
*D10
340
0
  0
BLOCK_RECORD
  5
2A2
330
1
100
AcDbSymbolTableRecord
100
AcDbBlockTableRecord
  2
_U4
340
0
  0
BLOCK_RECORD
  5
2AE
330
1
100
AcDbSymbolTableRecord
100
AcDbBlockTableRecord
  2
*D12
340
0
  0
BLOCK_RECORD
  5
2BA
330
1
100
AcDbSymbolTableRecord
100
AcDbBlockTableRecord
  2
_U5
340
0
  0
BLOCK_RECORD
  5
2C6
330
1
100
AcDbSymbolTableRecord
100
AcDbBlockTableRecord
  2
*D14
340
0
  0
BLOCK_RECORD
  5
2D2
330
1
100
AcDbSymbolTableRecord
100
AcDbBlockTableRecord
  2
_U6
340
0
  0
ENDTAB
  0
ENDSEC
  0
SECTION
  2
BLOCKS
  0
BLOCK
  5
20
330
1F
100
AcDbEntity
  8
0
100
AcDbBlockBegin
  2
*Model_Space
 70
     0
 10
0.0
 20
0.0
 30
0.0
  3
*Model_Space
  1

  0
ENDBLK
  5
21
330
1F
100
AcDbEntity
  8
0
100
AcDbBlockEnd
  0
BLOCK
  5
1C
330
1B
100
AcDbEntity
 67
     1
  8
0
100
AcDbBlockBegin
  2
*Paper_Space
 70
     0
 10
0.0
 20
0.0
 30
0.0
  3
*Paper_Space
  1

  0
ENDBLK
  5
1D
330
1B
100
AcDbEntity
 67
     1
  8
0
100
AcDbBlockEnd
  0
BLOCK
  5
24
330
23
100
AcDbEntity
 67
     1
  8
0
100
AcDbBlockBegin
  2
*Paper_Space0
 70
     0
 10
0.0
 20
0.0
 30
0.0
  3
*Paper_Space0
  1

  0
ENDBLK
  5
25
330
23
100
AcDbEntity
 67
     1
  8
0
100
AcDbBlockEnd
  0
BLOCK
  5
22F
330
22C
100
AcDbEntity
  8
0
100
AcDbBlockBegin
  2
ASSORTED_DRAFT1
 70
     0
 10
0.0
 20
0.0
 30
0.0
  3
ASSORTED_DRAFT1
  1

  0
SOLID
  5
22D
330
22C
100
AcDbEntity
  8
0
 62
   254
370
    13
100
AcDbTrace
 10
270.185042
 20
168.476789
 30
0.0
 11
265.185046
 21
167.368315
 31
0.0
 12
265.1850379999999
 22
169.585262
 32
0.0
 13
270.185042
 23
168.476789
 33
0.0
  0
ENDBLK
  5
230
330
22C
100
AcDbEntity
  8
0
100
AcDbBlockEnd
  0
BLOCK
  5
237
330
236
100
AcDbEntity
  8
0
100
AcDbBlockBegin
  2
*D2
 70
     1
 10
0.0
 20
0.0
 30
0.0
  3
*D2
  1

  0
LINE
  5
239
330
236
100
AcDbEntity
  8
0
 62
   254
370
    -2
100
AcDbLine
 10
289.392334
 20
288.907994
 30
0.0
 11
385.359807
 21
288.907994
 31
0.0
  0
LINE
  5
23A
330
236
100
AcDbEntity
  8
0
 62
   254
370
    -2
100
AcDbLine
 10
330.83929
 20
306.907994
 30
0.0
 11
385.359807
 21
306.907994
 31
0.0
  0
LINE
  5
23B
330
236
100
AcDbEntity
  8
0
 62
   254
370
    -2
100
AcDbLine
 10
384.359807
 20
288.907994
 30
0.0
 11
384.359807
 21
306.907994
 31
0.0
  0
SOLID
  5
23C
330
236
100
AcDbEntity
  8
0
 62
   254
100
AcDbTrace
 10
384.943141
 20
303.407994
 30
0.0
 11
383.776474
 21
303.407994
 31
0.0
 12
384.359807
 22
306.907994
 32
0.0
 13
384.359807
 23
306.907994
 33
0.0
  0
MTEXT
  5
23D
330
236
100
AcDbEntity
  8
0
 62
   254
370
    13
100
AcDbMText
 10
379.109807
 20
279.157994
 30
0.0
 40
3.5
 41
0.0
 71
     5
 72
     1
  1
\A1;36
  7
cesky
 11
0.0
 21
1.0
 31
0.0
 73
     1
 44
1.0
  0
POINT
  5
23E
330
236
100
AcDbEntity
  8
Defpoints
 62
     0
100
AcDbPoint
 10
289.392334
 20
288.907994
 30
0.0
  0
POINT
  5
23F
330
236
100
AcDbEntity
  8
Defpoints
 62
     0
100
AcDbPoint
 10
330.83929
 20
306.907994
 30
0.0
  0
POINT
  5
240
330
236
100
AcDbEntity
  8
Defpoints
 62
     0
100
AcDbPoint
 10
384.359807
 20
306.907994
 30
0.0
  0
ENDBLK
  5
238
330
236
100
AcDbEntity
  8
0
100
AcDbBlockEnd
  0
BLOCK
  5
247
330
241
100
AcDbEntity
  8
0
100
AcDbBlockBegin
  2
_U0
 70
     0
 10
0.0
 20
0.0
 30
0.0
  3
_U0
  1

  0
ENDBLK
  5
248
330
241
100
AcDbEntity
  8
0
100
AcDbBlockEnd
  0
BLOCK
  5
24D
330
24C
100
AcDbEntity
  8
0
100
AcDbBlockBegin
  2
*D4
 70
     1
 10
0.0
 20
0.0
 30
0.0
  3
*D4
  1

  0
LINE
  5
24F
330
24C
100
AcDbEntity
  8
0
 62
    95
370
    -2
100
AcDbLine
 10
216.404842
 20
304.907994
 30
0.0
 11
203.037875
 21
304.907994
 31
0.0
  0
LINE
  5
250
330
24C
100
AcDbEntity
  8
0
 62
    95
370
    -2
100
AcDbLine
 10
216.404842
 20
272.907994
 30
0.0
 11
203.037875
 21
272.907994
 31
0.0
  0
LINE
  5
251
330
24C
100
AcDbEntity
  8
0
 62
    95
370
    -2
100
AcDbLine
 10
204.037875
 20
301.407994
 30
0.0
 11
204.037875
 21
276.407994
 31
0.0
  0
SOLID
  5
252
330
24C
100
AcDbEntity
  8
0
 62
    95
100
AcDbTrace
 10
204.621208
 20
301.407994
 30
0.0
 11
203.454542
 21
301.407994
 31
0.0
 12
204.037875
 22
304.907994
 32
0.0
 13
204.037875
 23
304.907994
 33
0.0
  0
SOLID
  5
253
330
24C
100
AcDbEntity
  8
0
 62
    95
100
AcDbTrace
 10
203.454542
 20
276.407994
 30
0.0
 11
204.621208
 21
276.407994
 31
0.0
 12
204.037875
 22
272.907994
 32
0.0
 13
204.037875
 23
272.907994
 33
0.0
  0
MTEXT
  5
254
330
24C
100
AcDbEntity
  8
0
 62
    95
370
    13
100
AcDbMText
 10
198.787875
 20
288.907994
 30
0.0
 40
3.5
 41
0.0
 71
     5
 72
     1
  1
\A1;32
  7
cesky
 11
0.0
 21
1.0
 31
0.0
 73
     1
 44
1.0
  0
POINT
  5
255
330
24C
100
AcDbEntity
  8
Defpoints
 62
     0
100
AcDbPoint
 10
216.404842
 20
304.907994
 30
0.0
  0
POINT
  5
256
330
24C
100
AcDbEntity
  8
Defpoints
 62
     0
100
AcDbPoint
 10
216.404842
 20
272.907994
 30
0.0
  0
POINT
  5
257
330
24C
100
AcDbEntity
  8
Defpoints
 62
     0
100
AcDbPoint
 10
204.037875
 20
272.907994
 30
0.0
  0
ENDBLK
  5
24E
330
24C
100
AcDbEntity
  8
0
100
AcDbBlockEnd
  0
BLOCK
  5
260
330
258
100
AcDbEntity
  8
0
100
AcDbBlockBegin
  2
_U1
 70
     0
 10
0.0
 20
0.0
 30
0.0
  3
_U1
  1

  0
ENDBLK
  5
261
330
258
100
AcDbEntity
  8
0
100
AcDbBlockEnd
  0
BLOCK
  5
266
330
265
100
AcDbEntity
  8
0
100
AcDbBlockBegin
  2
*D6
 70
     1
 10
0.0
 20
0.0
 30
0.0
  3
*D6
  1

  0
LINE
  5
268
330
265
100
AcDbEntity
  8
0
 62
    95
370
    -2
100
AcDbLine
 10
277.154842
 20
309.907994
 30
0.0
 11
190.287987
 21
309.907994
 31
0.0
  0
LINE
  5
269
330
265
100
AcDbEntity
  8
0
 62
    95
370
    -2
100
AcDbLine
 10
277.154842
 20
267.907994
 30
0.0
 11
190.287987
 21
267.907994
 31
0.0
  0
LINE
  5
26A
330
265
100
AcDbEntity
  8
0
 62
    95
370
    -2
100
AcDbLine
 10
191.287987
 20
306.407994
 30
0.0
 11
191.287987
 21
271.407994
 31
0.0
  0
SOLID
  5
26B
330
265
100
AcDbEntity
  8
0
 62
    95
100
AcDbTrace
 10
191.87132
 20
306.407994
 30
0.0
 11
190.704653
 21
306.407994
 31
0.0
 12
191.287987
 22
309.907994
 32
0.0
 13
191.287987
 23
309.907994
 33
0.0
  0
SOLID
  5
26C
330
265
100
AcDbEntity
  8
0
 62
    95
100
AcDbTrace
 10
190.704653
 20
271.407994
 30
0.0
 11
191.87132
 21
271.407994
 31
0.0
 12
191.287987
 22
267.907994
 32
0.0
 13
191.287987
 23
267.907994
 33
0.0
  0
MTEXT
  5
26D
330
265
100
AcDbEntity
  8
0
 62
    95
370
    13
100
AcDbMText
 10
186.037987
 20
288.907994
 30
0.0
 40
3.5
 41
0.0
 71
     5
 72
     1
  1
\A1;42
  7
cesky
 11
0.0
 21
1.0
 31
0.0
 73
     1
 44
1.0
  0
POINT
  5
26E
330
265
100
AcDbEntity
  8
Defpoints
 62
     0
100
AcDbPoint
 10
277.154842
 20
309.907994
 30
0.0
  0
POINT
  5
26F
330
265
100
AcDbEntity
  8
Defpoints
 62
     0
100
AcDbPoint
 10
277.154842
 20
267.907994
 30
0.0
  0
POINT
  5
270
330
265
100
AcDbEntity
  8
Defpoints
 62
     0
100
AcDbPoint
 10
191.287987
 20
267.907994
 30
0.0
  0
ENDBLK
  5
267
330
265
100
AcDbEntity
  8
0
100
AcDbBlockEnd
  0
BLOCK
  5
279
330
271
100
AcDbEntity
  8
0
100
AcDbBlockBegin
  2
_U2
 70
     0
 10
0.0
 20
0.0
 30
0.0
  3
_U2
  1

  0
ENDBLK
  5
27A
330
271
100
AcDbEntity
  8
0
100
AcDbBlockEnd
  0
BLOCK
  5
27F
330
27E
100
AcDbEntity
  8
0
100
AcDbBlockBegin
  2
*D8
 70
     1
 10
0.0
 20
0.0
 30
0.0
  3
*D8
  1

  0
LINE
  5
281
330
27E
100
AcDbEntity
  8
0
 62
   254
370
    -2
100
AcDbLine
 10
274.404842
 20
288.907994
 30
0.0
 11
274.404842
 21
328.5109970000001
 31
0.0
  0
LINE
  5
282
330
27E
100
AcDbEntity
  8
0
 62
   254
370
    -2
100
AcDbLine
 10
214.404842
 20
295.907994
 30
0.0
 11
214.404842
 21
328.5109970000001
 31
0.0
  0
LINE
  5
283
330
27E
100
AcDbEntity
  8
0
 62
   254
370
    -2
100
AcDbLine
 10
270.904842
 20
327.510997
 30
0.0
 11
217.904842
 21
327.510997
 31
0.0
  0
SOLID
  5
284
330
27E
100
AcDbEntity
  8
0
 62
   254
100
AcDbTrace
 10
270.904842
 20
326.927663
 30
0.0
 11
270.904842
 21
328.09433
 31
0.0
 12
274.404842
 22
327.510997
 32
0.0
 13
274.404842
 23
327.510997
 33
0.0
  0
SOLID
  5
285
330
27E
100
AcDbEntity
  8
0
 62
   254
100
AcDbTrace
 10
217.904842
 20
328.09433
 30
0.0
 11
217.904842
 21
326.927663
 31
0.0
 12
214.404842
 22
327.510997
 32
0.0
 13
214.404842
 23
327.510997
 33
0.0
  0
MTEXT
  5
286
330
27E
100
AcDbEntity
  8
0
 62
   254
370
    13
100
AcDbMText
 10
244.404842
 20
332.7609970000001
 30
0.0
 40
3.5
 41
0.0
 71
     5
 72
     1
  1
\A1;60
  7
cesky
 73
     1
 44
1.0
  0
POINT
  5
287
330
27E
100
AcDbEntity
  8
Defpoints
 62
     0
100
AcDbPoint
 10
274.404842
 20
288.907994
 30
0.0
  0
POINT
  5
288
330
27E
100
AcDbEntity
  8
Defpoints
 62
     0
100
AcDbPoint
 10
214.404842
 20
295.907994
 30
0.0
  0
POINT
  5
289
330
27E
100
AcDbEntity
  8
Defpoints
 62
     0
100
AcDbPoint
 10
214.404842
 20
327.510997
 30
0.0
  0
ENDBLK
  5
280
330
27E
100
AcDbEntity
  8
0
100
AcDbBlockEnd
  0
BLOCK
  5
291
330
28A
100
AcDbEntity
  8
0
100
AcDbBlockBegin
  2
_U3
 70
     0
 10
0.0
 20
0.0
 30
0.0
  3
_U3
  1

  0
ENDBLK
  5
292
330
28A
100
AcDbEntity
  8
0
100
AcDbBlockEnd
  0
BLOCK
  5
297
330
296
100
AcDbEntity
  8
0
100
AcDbBlockBegin
  2
*D10
 70
     1
 10
0.0
 20
0.0
 30
0.0
  3
*D10
  1

  0
LINE
  5
299
330
296
100
AcDbEntity
  8
0
 62
   254
370
    -2
100
AcDbLine
 10
371.404842
 20
306.907994
 30
0.0
 11
371.404842
 21
316.906556
 31
0.0
  0
LINE
  5
29A
330
296
100
AcDbEntity
  8
0
 62
   254
370
    -2
100
AcDbLine
 10
291.401364
 20
306.596863
 30
0.0
 11
291.401364
 21
316.906556
 31
0.0
  0
LINE
  5
29B
330
296
100
AcDbEntity
  8
0
 62
   254
370
    -2
100
AcDbLine
 10
367.904842
 20
315.906556
 30
0.0
 11
294.901364
 21
315.906556
 31
0.0
  0
SOLID
  5
29C
330
296
100
AcDbEntity
  8
0
 62
   254
100
AcDbTrace
 10
367.904842
 20
315.323223
 30
0.0
 11
367.904842
 21
316.489889
 31
0.0
 12
371.404842
 22
315.906556
 32
0.0
 13
371.404842
 23
315.906556
 33
0.0
  0
SOLID
  5
29D
330
296
100
AcDbEntity
  8
0
 62
   254
100
AcDbTrace
 10
294.901364
 20
316.489889
 30
0.0
 11
294.901364
 21
315.323223
 31
0.0
 12
291.401364
 22
315.906556
 32
0.0
 13
291.401364
 23
315.906556
 33
0.0
  0
MTEXT
  5
29E
330
296
100
AcDbEntity
  8
0
 62
   254
370
    13
100
AcDbMText
 10
331.403103
 20
321.156556
 30
0.0
 40
3.5
 41
0.0
 71
     5
 72
     1
  1
\A1;80
  7
cesky
 73
     1
 44
1.0
  0
POINT
  5
29F
330
296
100
AcDbEntity
  8
Defpoints
 62
     0
100
AcDbPoint
 10
371.404842
 20
306.907994
 30
0.0
  0
POINT
  5
2A0
330
296
100
AcDbEntity
  8
Defpoints
 62
     0
100
AcDbPoint
 10
291.401364
 20
306.596863
 30
0.0
  0
POINT
  5
2A1
330
296
100
AcDbEntity
  8
Defpoints
 62
     0
100
AcDbPoint
 10
291.401364
 20
315.906556
 30
0.0
  0
ENDBLK
  5
298
330
296
100
AcDbEntity
  8
0
100
AcDbBlockEnd
  0
BLOCK
  5
2A9
330
2A2
100
AcDbEntity
  8
0
100
AcDbBlockBegin
  2
_U4
 70
     0
 10
0.0
 20
0.0
 30
0.0
  3
_U4
  1

  0
ENDBLK
  5
2AA
330
2A2
100
AcDbEntity
  8
0
100
AcDbBlockEnd
  0
BLOCK
  5
2AF
330
2AE
100
AcDbEntity
  8
0
100
AcDbBlockBegin
  2
*D12
 70
     1
 10
0.0
 20
0.0
 30
0.0
  3
*D12
  1

  0
LINE
  5
2B1
330
2AE
100
AcDbEntity
  8
0
 62
   254
370
    -2
100
AcDbLine
 10
371.404842
 20
308.907994
 30
0.0
 11
371.404842
 21
341.687968
 31
0.0
  0
LINE
  5
2B2
330
2AE
100
AcDbEntity
  8
0
 62
   254
370
    -2
100
AcDbLine
 10
214.404842
 20
302.907994
 30
0.0
 11
214.404842
 21
341.687968
 31
0.0
  0
LINE
  5
2B3
330
2AE
100
AcDbEntity
  8
0
 62
   254
370
    -2
100
AcDbLine
 10
367.904842
 20
340.687968
 30
0.0
 11
217.904842
 21
340.687968
 31
0.0
  0
SOLID
  5
2B4
330
2AE
100
AcDbEntity
  8
0
 62
   254
100
AcDbTrace
 10
367.904842
 20
340.104634
 30
0.0
 11
367.904842
 21
341.271301
 31
0.0
 12
371.404842
 22
340.687968
 32
0.0
 13
371.404842
 23
340.687968
 33
0.0
  0
SOLID
  5
2B5
330
2AE
100
AcDbEntity
  8
0
 62
   254
100
AcDbTrace
 10
217.904842
 20
341.271301
 30
0.0
 11
217.904842
 21
340.104634
 31
0.0
 12
214.404842
 22
340.687968
 32
0.0
 13
214.404842
 23
340.687968
 33
0.0
  0
MTEXT
  5
2B6
330
2AE
100
AcDbEntity
  8
0
 62
   254
370
    13
100
AcDbMText
 10
292.904842
 20
345.937968
 30
0.0
 40
3.5
 41
0.0
 71
     5
 72
     1
  1
\A1;157
  7
cesky
 73
     1
 44
1.0
  0
POINT
  5
2B7
330
2AE
100
AcDbEntity
  8
Defpoints
 62
     0
100
AcDbPoint
 10
371.404842
 20
308.907994
 30
0.0
  0
POINT
  5
2B8
330
2AE
100
AcDbEntity
  8
Defpoints
 62
     0
100
AcDbPoint
 10
214.404842
 20
302.907994
 30
0.0
  0
POINT
  5
2B9
330
2AE
100
AcDbEntity
  8
Defpoints
 62
     0
100
AcDbPoint
 10
214.404842
 20
340.687968
 30
0.0
  0
ENDBLK
  5
2B0
330
2AE
100
AcDbEntity
  8
0
100
AcDbBlockEnd
  0
BLOCK
  5
2C1
330
2BA
100
AcDbEntity
  8
0
100
AcDbBlockBegin
  2
_U5
 70
     0
 10
0.0
 20
0.0
 30
0.0
  3
_U5
  1

  0
ENDBLK
  5
2C2
330
2BA
100
AcDbEntity
  8
0
100
AcDbBlockEnd
  0
BLOCK
  5
2C7
330
2C6
100
AcDbEntity
  8
0
100
AcDbBlockBegin
  2
*D14
 70
     1
 10
0.0
 20
0.0
 30
0.0
  3
*D14
  1

  0
LINE
  5
2C9
330
2C6
100
AcDbEntity
  8
0
 62
   254
370
    -2
100
AcDbLine
 10
371.404842
 20
306.907994
 30
0.0
 11
371.404842
 21
328.5109970000001
 31
0.0
  0
LINE
  5
2CA
330
2C6
100
AcDbEntity
  8
0
 62
   254
370
    -2
100
AcDbLine
 10
274.404842
 20
288.907994
 30
0.0
 11
274.404842
 21
328.5109970000001
 31
0.0
  0
LINE
  5
2CB
330
2C6
100
AcDbEntity
  8
0
 62
   254
370
    -2
100
AcDbLine
 10
367.904842
 20
327.510997
 30
0.0
 11
277.904842
 21
327.510997
 31
0.0
  0
SOLID
  5
2CC
330
2C6
100
AcDbEntity
  8
0
 62
   254
100
AcDbTrace
 10
367.904842
 20
326.927663
 30
0.0
 11
367.904842
 21
328.09433
 31
0.0
 12
371.404842
 22
327.510997
 32
0.0
 13
371.404842
 23
327.510997
 33
0.0
  0
SOLID
  5
2CD
330
2C6
100
AcDbEntity
  8
0
 62
   254
100
AcDbTrace
 10
277.904842
 20
328.09433
 30
0.0
 11
277.904842
 21
326.927663
 31
0.0
 12
274.404842
 22
327.510997
 32
0.0
 13
274.404842
 23
327.510997
 33
0.0
  0
MTEXT
  5
2CE
330
2C6
100
AcDbEntity
  8
0
 62
   254
370
    13
100
AcDbMText
 10
322.904842
 20
332.7609970000001
 30
0.0
 40
3.5
 41
0.0
 71
     5
 72
     1
  1
\A1;97
  7
cesky
 73
     1
 44
1.0
  0
POINT
  5
2CF
330
2C6
100
AcDbEntity
  8
Defpoints
 62
     0
100
AcDbPoint
 10
371.404842
 20
306.907994
 30
0.0
  0
POINT
  5
2D0
330
2C6
100
AcDbEntity
  8
Defpoints
 62
     0
100
AcDbPoint
 10
274.404842
 20
288.907994
 30
0.0
  0
POINT
  5
2D1
330
2C6
100
AcDbEntity
  8
Defpoints
 62
     0
100
AcDbPoint
 10
274.404842
 20
327.510997
 30
0.0
  0
ENDBLK
  5
2C8
330
2C6
100
AcDbEntity
  8
0
100
AcDbBlockEnd
  0
BLOCK
  5
2D9
330
2D2
100
AcDbEntity
  8
0
100
AcDbBlockBegin
  2
_U6
 70
     0
 10
0.0
 20
0.0
 30
0.0
  3
_U6
  1

  0
ENDBLK
  5
2DA
330
2D2
100
AcDbEntity
  8
0
100
AcDbBlockEnd
  0
ENDSEC
  0
SECTION
  2
ENTITIES
  0
POINT
  5
73
102
{ACAD_REACTORS
330
386
102
}
330
1F
100
AcDbEntity
  8
80
100
AcDbPoint
 10
274.404842
 20
288.907994
 30
0.0
  0
POINT
  5
76
330
1F
100
AcDbEntity
  8
SK4
 60
     1
100
AcDbPoint
 10
216.404842
 20
288.907994
 30
0.0
  0
POINT
  5
78
330
1F
100
AcDbEntity
  8
SK4
 60
     1
100
AcDbPoint
 10
274.404842
 20
288.907994
 30
0.0
  0
POINT
  5
79
330
1F
100
AcDbEntity
  8
4
 60
     1
100
AcDbPoint
 10
289.392334
 20
288.907994
 30
0.0
  0
POINT
  5
7A
330
1F
100
AcDbEntity
  8
4
 60
     1
100
AcDbPoint
 10
370.246921
 20
288.907994
 30
0.0
  0
POINT
  5
7B
330
1F
100
AcDbEntity
  8
SK6
 60
     1
100
AcDbPoint
 10
274.404842
 20
288.907994
 30
0.0
  0
POINT
  5
7C
330
1F
100
AcDbEntity
  8
SK6
 60
     1
100
AcDbPoint
 10
291.401364
 20
306.596863
 30
0.0
  0
LINE
  5
7D
330
1F
100
AcDbEntity
  8
1
100
AcDbLine
 10
362.942114
 20
300.9119609999999
 30
0.0
 11
362.908287
 21
300.816057
 31
0.0
  0
LINE
  5
7F
330
1F
100
AcDbEntity
  8
1
100
AcDbLine
 10
363.007245
 20
300.85232
 30
0.0
 11
362.972868
 21
300.754858
 31
0.0
  0
LINE
  5
80
330
1F
100
AcDbEntity
  8
1
100
AcDbLine
 10
365.763261
 20
300.110192
 30
0.0
 11
365.797653
 21
300.207697
 31
0.0
  0
LINE
  5
81
330
1F
100
AcDbEntity
  8
1
100
AcDbLine
 10
363.056052
 20
299.37001
 30
0.0
 11
363.021729
 21
299.272701
 31
0.0
  0
LINE
  5
82
330
1F
100
AcDbEntity
  8
1
100
AcDbLine
 10
363.012741
 20
299.3494490000001
 30
0.0
 11
362.978718
 21
299.25299
 31
0.0
  0
LINE
  5
83
330
1F
100
AcDbEntity
  8
1
100
AcDbLine
 10
365.071756
 20
298.801286
 30
0.0
 11
365.106092
 21
298.898635
 31
0.0
  0
LINE
  5
84
330
1F
100
AcDbEntity
  8
1
100
AcDbLine
 10
365.109328
 20
298.758333
 30
0.0
 11
365.143302
 21
298.8546559999999
 31
0.0
  0
LINE
  5
85
330
1F
100
AcDbEntity
  8
1
100
AcDbLine
 10
352.111046
 20
294.72186
 30
0.0
 11
352.555161
 21
294.465853
 31
0.0
  0
LINE
  5
87
330
1F
100
AcDbEntity
  8
1
100
AcDbLine
 10
355.839535
 20
293.109511
 30
0.0
 11
355.8429
 21
293.119052
 31
0.0
  0
LINE
  5
88
330
1F
100
AcDbEntity
  8
1
100
AcDbLine
 10
370.012832
 20
289.002636
 30
0.0
 11
370.131403
 21
288.931391
 31
0.0
  0
LINE
  5
8A
330
1F
100
AcDbEntity
  8
1
100
AcDbLine
 10
370.012839
 20
287.8757339999999
 30
0.0
 11
370.061292
 21
287.788323
 31
0.0
  0
LINE
  5
8B
330
1F
100
AcDbEntity
  8
1
100
AcDbLine
 10
360.915229
 20
301.335064
 30
0.0
 11
360.915121
 21
301.334756
 31
0.0
  0
LINE
  5
8C
330
1F
100
AcDbEntity
  8
1
100
AcDbLine
 10
360.915229
 20
301.335064
 30
0.0
 11
360.8991
 21
301.289334
 31
0.0
  0
LINE
  5
8D
330
1F
100
AcDbEntity
  8
1
100
AcDbLine
 10
367.689109
 20
298.894388
 30
0.0
 11
367.705239
 21
298.9401180000001
 31
0.0
  0
LINE
  5
8E
330
1F
100
AcDbEntity
  8
1
100
AcDbLine
 10
363.582068
 20
298.744664
 30
0.0
 11
363.616353
 21
298.8418660000001
 31
0.0
  0
LINE
  5
8F
330
1F
100
AcDbEntity
  8
1
100
AcDbLine
 10
364.377837
 20
298.688646
 30
0.0
 11
364.343422
 21
298.591073
 31
0.0
  0
LINE
  5
90
330
1F
100
AcDbEntity
  8
1
100
AcDbLine
 10
363.007939
 20
300.288445
 30
0.0
 11
363.043479
 21
300.389206
 31
0.0
  0
LINE
  5
91
330
1F
100
AcDbEntity
  8
1
100
AcDbLine
 10
365.595743
 20
299.939147
 30
0.0
 11
365.560203
 21
299.838386
 31
0.0
  0
LINE
  5
92
330
1F
100
AcDbEntity
  8
1
100
AcDbLine
 10
364.224721
 20
301.535758
 30
0.0
 11
364.259136
 21
301.633331
 31
0.0
  0
LINE
  5
93
330
1F
100
AcDbEntity
  8
1
100
AcDbLine
 10
365.002121
 20
301.427663
 30
0.0
 11
364.986074
 21
301.382168
 31
0.0
  0
LINE
  5
94
330
1F
100
AcDbEntity
  8
80
100
AcDbLine
 10
274.404842
 20
287.90842
 30
0.0
 11
274.404842
 21
289.907567
 31
0.0
  0
LINE
  5
95
330
1F
100
AcDbEntity
  8
81
100
AcDbLine
 10
369.404842
 20
306.907994
 30
0.0
 11
373.404842
 21
306.907994
 31
0.0
  0
LINE
  5
96
330
1F
100
AcDbEntity
  8
81
100
AcDbLine
 10
371.404842
 20
308.907994
 30
0.0
 11
371.404842
 21
304.907994
 31
0.0
  0
LINE
  5
97
330
1F
100
AcDbEntity
  8
SK1
100
AcDbLine
 10
216.404842
 20
272.907994
 30
0.0
 11
274.404842
 21
272.907994
 31
0.0
  0
LINE
  5
98
330
1F
100
AcDbEntity
  8
1
100
AcDbLine
 10
274.904842
 20
267.907994
 30
0.0
 11
279.404842
 21
267.907994
 31
0.0
  0
LINE
  5
9D
330
1F
100
AcDbEntity
  8
80
100
AcDbLine
 10
275.404416
 20
288.907994
 30
0.0
 11
273.405268
 21
288.907994
 31
0.0
  0
LINE
  5
9E
330
1F
100
AcDbEntity
  8
1
100
AcDbLine
 10
369.6138180000001
 20
279.39399
 30
0.0
 11
370.012841
 21
283.153494
 31
0.0
  0
LINE
  5
9F
330
1F
100
AcDbEntity
  8
1
100
AcDbLine
 10
370.012841
 20
283.153494
 30
0.0
 11
370.012841
 21
289.186266
 31
0.0
  0
LINE
  5
A0
330
1F
100
AcDbEntity
  8
1
100
AcDbLine
 10
370.048544
 20
278.497858
 30
0.0
 11
369.806754
 21
278.890839
 31
0.0
  0
LINE
  5
A1
330
1F
100
AcDbEntity
  8
1
100
AcDbLine
 10
370.048544
 20
278.497858
 30
0.0
 11
370.023262
 21
278.259657
 31
0.0
  0
LINE
  5
A2
330
1F
100
AcDbEntity
  8
1
100
AcDbLine
 10
370.2591799999999
 20
289.682042
 30
0.0
 11
370.54268
 21
290.066215
 31
0.0
  0
LINE
  5
A3
330
1F
100
AcDbEntity
  8
1
100
AcDbLine
 10
370.54268
 20
290.304826
 30
0.0
 11
370.54268
 21
290.066215
 31
0.0
  0
LINE
  5
A4
330
1F
100
AcDbEntity
  8
1
100
AcDbLine
 10
369.338208
 20
271.407994
 30
0.0
 11
370.065353
 21
278.258984
 31
0.0
  0
LINE
  5
A5
330
1F
100
AcDbEntity
  8
1
100
AcDbLine
 10
369.338208
 20
271.407994
 30
0.0
 11
353.736007
 21
271.407994
 31
0.0
  0
LINE
  5
A6
330
1F
100
AcDbEntity
  8
1
100
AcDbLine
 10
370.584842
 20
294.229468
 30
0.0
 11
370.584842
 21
290.30409
 31
0.0
  0
LINE
  5
A7
330
1F
100
AcDbEntity
  8
1
100
AcDbLine
 10
274.904842
 20
267.907994
 30
0.0
 11
274.904842
 21
288.907994
 31
0.0
  0
LINE
  5
A8
330
1F
100
AcDbEntity
  8
1
100
AcDbLine
 10
274.904842
 20
288.907994
 30
0.0
 11
274.904842
 21
309.907994
 31
0.0
  0
LINE
  5
A9
330
1F
100
AcDbEntity
  8
SK1
100
AcDbLine
 10
274.404842
 20
304.907994
 30
0.0
 11
216.404842
 21
304.907994
 31
0.0
  0
LINE
  5
AA
330
1F
100
AcDbEntity
  8
1
100
AcDbLine
 10
274.904842
 20
267.907994
 30
0.0
 11
274.404842
 21
268.407994
 31
0.0
  0
LINE
  5
AB
330
1F
100
AcDbEntity
  8
1
100
AcDbLine
 10
274.404842
 20
309.407994
 30
0.0
 11
274.904842
 21
309.907994
 31
0.0
  0
LINE
  5
AC
330
1F
100
AcDbEntity
  8
1
100
AcDbLine
 10
279.404842
 20
309.907994
 30
0.0
 11
274.904842
 21
309.907994
 31
0.0
  0
LINE
  5
AD
330
1F
100
AcDbEntity
  8
1
100
AcDbLine
 10
370.399317
 20
293.676422
 30
0.0
 11
370.397543
 21
293.931972
 31
0.0
  0
LINE
  5
AE
330
1F
100
AcDbEntity
  8
1
100
AcDbLine
 10
370.323397
 20
293.146373
 30
0.0
 11
359.293071
 21
292.761587
 31
0.0
  0
LINE
  5
AF
330
1F
100
AcDbEntity
  8
1
100
AcDbLine
 10
370.323397
 20
293.146373
 30
0.0
 11
368.126819
 21
289.507146
 31
0.0
  0
LINE
  5
B0
330
1F
100
AcDbEntity
  8
1
100
AcDbLine
 10
370.439548
 20
293.94809
 30
0.0
 11
361.679611
 21
293.6425040000001
 31
0.0
  0
LINE
  5
B1
330
1F
100
AcDbEntity
  8
1
100
AcDbLine
 10
361.674378
 20
293.627669
 30
0.0
 11
361.679611
 21
293.6425040000001
 31
0.0
  0
LINE
  5
B2
330
1F
100
AcDbEntity
  8
1
100
AcDbLine
 10
357.938073
 20
305.810938
 30
0.0
 11
357.919564
 21
306.349532
 31
0.0
  0
LINE
  5
B3
330
1F
100
AcDbEntity
  8
1
100
AcDbLine
 10
358.015587
 20
297.026985
 30
0.0
 11
358.010354
 21
297.01215
 31
0.0
  0
LINE
  5
B4
330
1F
100
AcDbEntity
  8
1
100
AcDbLine
 10
358.015587
 20
297.026985
 30
0.0
 11
357.6952
 21
306.349851
 31
0.0
  0
LINE
  5
B5
330
1F
100
AcDbEntity
  8
1
100
AcDbLine
 10
357.690386
 20
306.322834
 30
0.0
 11
358.010354
 21
297.01215
 31
0.0
  0
LINE
  5
B6
330
1F
100
AcDbEntity
  8
1
100
AcDbLine
 10
370.439548
 20
293.94809
 30
0.0
 11
370.437993
 21
294.172166
 31
0.0
  0
LINE
  5
B7
330
1F
100
AcDbEntity
  8
1
100
AcDbLine
 10
370.439548
 20
293.94809
 30
0.0
 11
370.397543
 21
293.931972
 31
0.0
  0
LINE
  5
B8
330
1F
100
AcDbEntity
  8
1
100
AcDbLine
 10
370.065353
 20
278.258984
 30
0.0
 11
370.023262
 21
278.259657
 31
0.0
  0
LINE
  5
B9
330
1F
100
AcDbEntity
  8
1
100
AcDbLine
 10
369.806754
 20
278.890839
 30
0.0
 11
369.630984
 21
278.893651
 31
0.0
  0
LINE
  5
BA
330
1F
100
AcDbEntity
  8
1
100
AcDbLine
 10
369.259317
 20
283.153494
 30
0.0
 11
370.012841
 21
283.153494
 31
0.0
  0
LINE
  5
BB
330
1F
100
AcDbEntity
  8
1
100
AcDbLine
 10
370.083111
 20
289.685116
 30
0.0
 11
370.2591799999999
 21
289.682042
 31
0.0
  0
LINE
  5
BC
330
1F
100
AcDbEntity
  8
1
100
AcDbLine
 10
370.54268
 20
290.304826
 30
0.0
 11
370.584842
 21
290.30409
 31
0.0
  0
LINE
  5
BD
330
1F
100
AcDbEntity
  8
1
100
AcDbLine
 10
370.323397
 20
293.146373
 30
0.0
 11
370.332777
 21
293.1499720000001
 31
0.0
  0
LINE
  5
BE
330
1F
100
AcDbEntity
  8
1
100
AcDbLine
 10
274.404842
 20
309.407994
 30
0.0
 11
274.404842
 21
288.907994
 31
0.0
  0
LINE
  5
BF
330
1F
100
AcDbEntity
  8
1
100
AcDbLine
 10
274.404842
 20
288.907994
 30
0.0
 11
274.404842
 21
268.407994
 31
0.0
  0
LINE
  5
C0
330
1F
100
AcDbEntity
  8
1
100
AcDbLine
 10
370.682658
 20
289.357775
 30
0.0
 11
370.190758
 21
288.882752
 31
0.0
  0
LINE
  5
C1
330
1F
100
AcDbEntity
  8
1
100
AcDbLine
 10
370.012837
 20
288.710937
 30
0.0
 11
370.190758
 21
288.882752
 31
0.0
  0
LINE
  5
C2
330
1F
100
AcDbEntity
  8
1
100
AcDbLine
 10
371.388062
 20
288.08519
 30
0.0
 11
370.724553
 21
287.919759
 31
0.0
  0
LINE
  5
C3
330
1F
100
AcDbEntity
  8
1
100
AcDbLine
 10
370.073508
 20
287.757435
 30
0.0
 11
370.724553
 21
287.919759
 31
0.0
  0
LINE
  5
C4
330
1F
100
AcDbEntity
  8
1
100
AcDbLine
 10
370.59984
 20
280.774907
 30
0.0
 11
369.954856
 21
280.959853
 31
0.0
  0
LINE
  5
C5
330
1F
100
AcDbEntity
  8
1
100
AcDbLine
 10
370.59984
 20
280.774907
 30
0.0
 11
371.264067
 21
280.584443
 31
0.0
  0
LINE
  5
C6
330
1F
100
AcDbEntity
  8
1
100
AcDbLine
 10
370.032761
 20
279.83113
 30
0.0
 11
369.697111
 21
280.178705
 31
0.0
  0
LINE
  5
C7
330
1F
100
AcDbEntity
  8
1
100
AcDbLine
 10
370.507783
 20
279.33923
 30
0.0
 11
370.032761
 21
279.83113
 31
0.0
  0
LINE
  5
C8
330
1F
100
AcDbEntity
  8
1
100
AcDbLine
 10
355.694183
 20
293.145466
 30
0.0
 11
355.724779
 21
292.251219
 31
0.0
  0
LINE
  5
C9
330
1F
100
AcDbEntity
  8
1
100
AcDbLine
 10
355.769262
 20
290.951071
 30
0.0
 11
355.81649
 21
289.570714
 31
0.0
  0
LINE
  5
CA
330
1F
100
AcDbEntity
  8
1
100
AcDbLine
 10
368.852144
 20
293.122742
 30
0.0
 11
359.285239
 21
292.789006
 31
0.0
  0
LINE
  5
CB
330
1F
100
AcDbEntity
  8
1
100
AcDbLine
 10
369.741431
 20
280.596325
 30
0.0
 11
369.941569
 21
280.92941
 31
0.0
  0
LINE
  5
CC
330
1F
100
AcDbEntity
  8
1
100
AcDbLine
 10
369.95972
 20
280.992711
 30
0.0
 11
369.994406
 21
282.97983
 31
0.0
  0
LINE
  5
CD
330
1F
100
AcDbEntity
  8
1
100
AcDbLine
 10
370.012843
 20
284.036078
 30
0.0
 11
370.077223
 21
287.724428
 31
0.0
  0
LINE
  5
CE
330
1F
100
AcDbEntity
  8
1
100
AcDbLine
 10
371.359382
 20
288.156592
 30
0.0
 11
370.728011
 21
289.295615
 31
0.0
  0
LINE
  5
CF
330
1F
100
AcDbEntity
  8
1
100
AcDbLine
 10
370.556683
 20
279.398314
 30
0.0
 11
370.67449
 21
279.583751
 31
0.0
  0
LINE
  5
D0
330
1F
100
AcDbEntity
  8
1
100
AcDbLine
 10
371.233406
 20
280.513944
 30
0.0
 11
370.67449
 21
279.583751
 31
0.0
  0
LINE
  5
D1
330
1F
100
AcDbEntity
  8
1
100
AcDbLine
 10
370.623573
 20
289.406675
 30
0.0
 11
370.438136
 21
289.524481
 31
0.0
  0
LINE
  5
D2
330
1F
100
AcDbEntity
  8
1
100
AcDbLine
 10
370.173409
 20
289.6835450000001
 30
0.0
 11
370.438136
 21
289.524481
 31
0.0
  0
LINE
  5
D3
330
1F
100
AcDbEntity
  8
1
100
AcDbLine
 10
371.399861
 20
287.789483
 30
0.0
 11
371.2754240000001
 21
280.660477
 31
0.0
  0
LINE
  5
D4
330
1F
100
AcDbEntity
  8
1
100
AcDbLine
 10
371.399861
 20
287.789483
 30
0.0
 11
371.398222
 21
288.009171
 31
0.0
  0
LINE
  5
D5
330
1F
100
AcDbEntity
  8
1
100
AcDbLine
 10
369.721009
 20
278.892216
 30
0.0
 11
370.445624
 21
279.293876
 31
0.0
  0
LINE
  5
D6
330
1F
100
AcDbEntity
  8
1
100
AcDbLine
 10
368.262149
 20
283.153494
 30
0.0
 11
368.594429
 21
283.153494
 31
0.0
  0
LINE
  5
D7
330
1F
100
AcDbEntity
  8
1
100
AcDbLine
 10
358.207892
 20
306.245683
 30
0.0
 11
358.202659
 21
306.397945
 31
0.0
  0
LINE
  5
D8
330
1F
100
AcDbEntity
  8
1
100
AcDbLine
 10
361.674378
 20
293.627669
 30
0.0
 11
370.397543
 21
293.931972
 31
0.0
  0
LINE
  5
D9
330
1F
100
AcDbEntity
  8
1
100
AcDbLine
 10
359.799395
 20
304.599112
 30
0.0
 11
368.79227
 21
304.912823
 31
0.0
  0
LINE
  5
DA
330
1F
100
AcDbEntity
  8
1
100
AcDbLine
 10
360.12121
 20
295.615599
 30
0.0
 11
359.799395
 21
304.599112
 31
0.0
  0
LINE
  5
DB
330
1F
100
AcDbEntity
  8
1
100
AcDbLine
 10
369.114084
 20
295.92931
 30
0.0
 11
360.12121
 21
295.615599
 31
0.0
  0
LINE
  5
DC
330
1F
100
AcDbEntity
  8
1
100
AcDbLine
 10
368.79227
 20
304.912823
 30
0.0
 11
369.114084
 21
295.92931
 31
0.0
  0
LINE
  5
DD
330
1F
100
AcDbEntity
  8
1
100
AcDbLine
 10
358.664726
 20
306.420024
 30
0.0
 11
369.802905
 21
306.808573
 31
0.0
  0
LINE
  5
DE
330
1F
100
AcDbEntity
  8
1
100
AcDbLine
 10
370.606553
 20
306.060564
 30
0.0
 11
371.005139
 21
294.933979
 31
0.0
  0
LINE
  5
DF
330
1F
100
AcDbEntity
  8
1
100
AcDbLine
 10
370.257021
 20
294.131837
 30
0.0
 11
359.118842
 21
293.743288
 31
0.0
  0
LINE
  5
E0
330
1F
100
AcDbEntity
  8
1
100
AcDbLine
 10
370.237296
 20
288.821736
 30
0.0
 11
370.69747
 21
287.991559
 31
0.0
  0
LINE
  5
E1
330
1F
100
AcDbEntity
  8
1
100
AcDbLine
 10
369.971745
 20
279.784592
 30
0.0
 11
369.635484
 21
279.598199
 31
0.0
  0
LINE
  5
E2
330
1F
100
AcDbEntity
  8
1
100
AcDbLine
 10
370.570267
 20
280.704096
 30
0.0
 11
370.0814
 21
279.890484
 31
0.0
  0
LINE
  5
E3
330
1F
100
AcDbEntity
  8
1
100
AcDbLine
 10
370.734349
 20
287.843649
 30
0.0
 11
370.612285
 21
280.850629
 31
0.0
  0
LINE
  5
E4
330
1F
100
AcDbEntity
  8
1
100
AcDbLine
 10
358.315194
 20
294.491297
 30
0.0
 11
357.916608
 21
305.617882
 31
0.0
  0
LINE
  5
E5
330
1F
100
AcDbEntity
  8
1
100
AcDbLine
 10
358.118982
 20
306.407994
 30
0.0
 11
354.378544
 21
306.407994
 31
0.0
  0
LINE
  5
E6
330
1F
100
AcDbEntity
  8
SK1
100
AcDbLine
 10
216.404842
 20
304.907994
 30
0.0
 11
216.404842
 21
272.907994
 31
0.0
  0
LINE
  5
E7
330
1F
100
AcDbEntity
  8
SK1
100
AcDbLine
 10
214.404842
 20
302.907994
 30
0.0
 11
214.404842
 21
274.907994
 31
0.0
  0
LINE
  5
E8
330
1F
100
AcDbEntity
  8
SK1
100
AcDbLine
 10
214.404842
 20
274.907994
 30
0.0
 11
216.404842
 21
272.907994
 31
0.0
  0
LINE
  5
E9
330
1F
100
AcDbEntity
  8
SK1
100
AcDbLine
 10
216.404842
 20
304.907994
 30
0.0
 11
214.404842
 21
302.907994
 31
0.0
  0
LINE
  5
EA
330
1F
100
AcDbEntity
  8
1
100
AcDbLine
 10
289.767363
 20
306.407994
 30
0.0
 11
289.392334
 21
306.407994
 31
0.0
  0
LINE
  5
EB
330
1F
100
AcDbEntity
  8
1
100
AcDbLine
 10
279.404842
 20
267.907994
 30
0.0
 11
279.404842
 21
269.012545
 31
0.0
  0
LINE
  5
EC
330
1F
100
AcDbEntity
  8
1
100
AcDbLine
 10
279.404842
 20
309.907994
 30
0.0
 11
279.404842
 21
277.462439
 31
0.0
  0
LINE
  5
141
330
1F
100
AcDbEntity
  8
NOCUT
100
AcDbLine
 10
370.584842
 20
288.907994
 30
0.0
 11
214.404842
 21
288.907994
 31
0.0
  0
LINE
  5
142
330
1F
100
AcDbEntity
  8
NOCUT
100
AcDbLine
 10
289.392334
 20
306.407994
 30
0.0
 11
370.164517
 21
306.407994
 31
0.0
  0
LINE
  5
143
330
1F
100
AcDbEntity
  8
NOCUT
100
AcDbLine
 10
370.164517
 20
306.407994
 30
0.0
 11
370.584842
 21
294.474829
 31
0.0
  0
LINE
  5
144
330
1F
100
AcDbEntity
  8
NOCUT
100
AcDbLine
 10
370.584842
 20
294.474829
 30
0.0
 11
370.584842
 21
288.907994
 31
0.0
  0
LINE
  5
145
330
1F
100
AcDbEntity
  8
NOCUT
100
AcDbLine
 10
214.404842
 20
302.907994
 30
0.0
 11
214.404842
 21
288.907994
 31
0.0
  0
LINE
  5
146
330
1F
100
AcDbEntity
  8
NOCUT
100
AcDbLine
 10
214.404842
 20
302.907994
 30
0.0
 11
216.404842
 21
304.907994
 31
0.0
  0
LINE
  5
147
330
1F
100
AcDbEntity
  8
NOCUT
100
AcDbLine
 10
274.404842
 20
304.907994
 30
0.0
 11
216.404842
 21
304.907994
 31
0.0
  0
LINE
  5
148
330
1F
100
AcDbEntity
  8
NOCUT
100
AcDbLine
 10
279.404842
 20
309.907994
 30
0.0
 11
274.904842
 21
309.907994
 31
0.0
  0
LINE
  5
149
330
1F
100
AcDbEntity
  8
NOCUT
100
AcDbLine
 10
274.404842
 20
304.907994
 30
0.0
 11
274.404842
 21
309.407994
 31
0.0
  0
LINE
  5
14A
330
1F
100
AcDbEntity
  8
NOCUT
100
AcDbLine
 10
274.404842
 20
309.407994
 30
0.0
 11
274.904842
 21
309.907994
 31
0.0
  0
ARC
  5
153
330
1F
100
AcDbEntity
  8
1
100
AcDbCircle
 10
365.418941
 20
284.60888
 30
0.0
 40
1.75
100
AcDbArc
 50
75.0
 51
345.0
  0
CIRCLE
  5
154
330
1F
100
AcDbEntity
  8
1
100
AcDbCircle
 10
365.418941
 20
284.60888
 30
0.0
 40
1.35
  0
ARC
  5
155
330
1F
100
AcDbEntity
  8
1
100
AcDbCircle
 10
289.392334
 20
255.407994
 30
0.0
 40
16.0
100
AcDbArc
 50
97.425595
 51
128.624833
  0
ARC
  5
156
330
1F
100
AcDbEntity
  8
1
100
AcDbCircle
 10
289.392334
 20
322.407994
 30
0.0
 40
16.0
100
AcDbArc
 50
231.375167
 51
270.0
  0
ARC
  5
162
330
1F
100
AcDbEntity
  8
NOCUT
100
AcDbCircle
 10
289.392334
 20
322.407994
 30
0.0
 40
16.0
100
AcDbArc
 50
231.375167
 51
270.0
  0
ELLIPSE
  5
163
330
1F
100
AcDbEntity
  8
1
100
AcDbEllipse
 10
369.761969
 20
287.67976
 30
0.0
 11
-0.3115396276772998
 21
-0.0776755531752887
 31
0.0
210
-0.0000000000000001
220
0.0
230
1.0
 40
0.6229040000000001
 41
2.976210626445503
 42
3.306974680734095
  0
ELLIPSE
  5
164
330
1F
100
AcDbEntity
  8
1
100
AcDbEllipse
 10
364.310234
 20
300.1375910000001
 30
0.0
 11
-3.395004864809725
 21
1.197473159581585
 31
0.0
210
0.0
220
0.0
230
0.9999999999999998
 40
0.9986239999999998
 41
3.141585274248855
 42
5.872218228534559
  0
ELLIPSE
  5
165
330
1F
100
AcDbEntity
  8
1
100
AcDbEllipse
 10
364.310234
 20
300.1375910000001
 30
0.0
 11
-3.395004864809725
 21
1.197473159581585
 31
0.0
210
0.0
220
0.0
230
0.9999999999999998
 40
0.9986239999999998
 41
5.872218228534562
 42
6.283185307179585
  0
ELLIPSE
  5
166
330
1F
100
AcDbEntity
  8
1
100
AcDbEllipse
 10
364.294104
 20
300.091861
 30
0.0
 11
3.395004864809725
 21
-1.197473159581583
 31
0.0
210
0.0
220
0.0
230
1.0
 40
0.9986239999999998
 41
0.0
 42
6.283185307179585
  0
ELLIPSE
  5
167
330
1F
100
AcDbEntity
  8
1
100
AcDbEllipse
 10
362.905622
 20
300.687457
 30
0.0
 11
-0.0898897536456661
 21
0.0317055708602406
 31
0.0
210
0.0
220
0.0
230
0.9999999999999998
 40
0.998624
 41
3.886489476374764
 42
4.563221393255449
  0
ELLIPSE
  5
168
330
1F
100
AcDbEntity
  8
1
100
AcDbEllipse
 10
362.99496
 20
300.855572
 30
0.0
 11
-0.0898897536456659
 21
0.0317055708602405
 31
0.0
210
0.0
220
0.0
230
0.9999999999999998
 40
0.998624
 41
0.2212980471867858
 42
1.421628739665668
  0
ELLIPSE
  5
169
330
1F
100
AcDbEntity
  8
1
100
AcDbEllipse
 10
363.496983
 20
300.7960109999999
 30
0.0
 11
-0.5666776289729544
 21
0.1998763706833382
 31
0.0
210
0.0
220
0.0
230
0.9999999999999998
 40
0.9986239999999998
 41
5.239953310136228
 42
6.504483354366412
  0
ELLIPSE
  5
16A
330
1F
100
AcDbEntity
  8
1
100
AcDbEllipse
 10
363.402059
 20
301.292069
 30
0.0
 11
-0.089889753645668
 21
0.0317055708602412
 31
0.0
210
0.0
220
0.0
230
0.9999999999999998
 40
0.9986239999999998
 41
4.039622617657141
 42
5.239953310136023
  0
ELLIPSE
  5
16B
330
1F
100
AcDbEntity
  8
1
100
AcDbEllipse
 10
302.904842
 20
276.474424
 30
0.0
 11
-2.246982534862955
 21
-9.744283939213845
 31
0.0
210
0.0
220
0.0
230
0.9999999999999998
 40
0.205081
 41
4.366338161626437
 42
5.24717311304597
  0
ELLIPSE
  5
16C
330
1F
100
AcDbEntity
  8
1
100
AcDbEllipse
 10
369.683969
 20
279.392867
 30
0.0
 11
0.0538770024358986
 21
0.4991611425114705
 31
0.0
210
0.0
220
0.0
230
0.9999999999999998
 40
0.139171
 41
1.583568179252939
 42
3.154364506042246
  0
ELLIPSE
  5
16D
330
1F
100
AcDbEntity
  8
1
100
AcDbEllipse
 10
370.083111
 20
289.18504
 30
0.0
 11
0.0001758288824345
 21
-0.500077667667699
 31
0.0
210
0.0
220
0.0
230
0.9999999999999996
 40
0.140519
 41
3.13909047597018
 42
4.709886802760494
  0
ELLIPSE
  5
16E
330
1F
100
AcDbEntity
  8
1
100
AcDbEllipse
 10
362.55256
 20
288.907994
 30
0.0
 11
30.014255192187
 21
-17.26491454329866
 31
0.0
210
0.0
220
0.0
230
1.0
 40
0.095248
 41
3.976693908197748
 42
4.433900572546179
  0
ELLIPSE
  5
16F
330
1F
100
AcDbEntity
  8
1
100
AcDbEllipse
 10
251.557459
 20
288.907993
 30
0.0
 11
457.2636540945047
 21
17.06585160011298
 31
0.0
210
0.0
220
0.0
230
1.0
 40
0.008472
 41
4.950195390313672
 42
4.969846140840241
  0
ELLIPSE
  5
170
330
1F
100
AcDbEntity
  8
1
100
AcDbEllipse
 10
359.959848
 20
295.456022
 30
0.0
 11
-2.357642267228975
 21
0.8315785830427678
 31
0.0
210
0.0
220
0.0
230
1.0
 40
0.9986239999999998
 41
2.66819997972176
 42
2.776747666076906
  0
ELLIPSE
  5
171
330
1F
100
AcDbEntity
  8
1
100
AcDbEllipse
 10
360.041127
 20
295.686459
 30
0.0
 11
-2.357642267228975
 21
0.8315785830427675
 31
0.0
210
0.0
220
0.0
230
1.0
 40
0.9986239999999998
 41
0.0520252572636132
 42
1.945227431237595
  0
ELLIPSE
  5
172
330
1F
100
AcDbEntity
  8
1
100
AcDbEllipse
 10
360.041127
 20
295.686459
 30
0.0
 11
-2.357642267228975
 21
0.8315785830427675
 31
0.0
210
0.0
220
0.0
230
1.0
 40
0.9986239999999998
 41
1.945227431237595
 42
2.645311779347058
  0
ELLIPSE
  5
173
330
1F
100
AcDbEntity
  8
1
100
AcDbEllipse
 10
359.959848
 20
295.456022
 30
0.0
 11
-2.357642267228975
 21
0.8315785830427678
 31
0.0
210
0.0
220
0.0
230
1.0
 40
0.9986239999999998
 41
5.822888314034132
 42
5.942244189143313
  0
ELLIPSE
  5
174
330
1F
100
AcDbEntity
  8
1
100
AcDbEllipse
 10
359.954616
 20
295.441187
 30
0.0
 11
2.357642267228976
 21
-0.8315785830427662
 31
0.0
210
0.0
220
0.0
230
1.0
 40
0.9986239999999998
 41
2.800651535553508
 42
4.525803034524086
  0
ELLIPSE
  5
175
330
1F
100
AcDbEntity
  8
1
100
AcDbEllipse
 10
358.305543
 20
288.907944
 30
0.0
 11
0.5852461702396151
 21
-17.50004546265898
 31
0.0
210
0.0
220
0.0
230
0.9999999999999998
 40
0.0191
 41
3.222492063868171
 42
3.239647080070636
  0
ELLIPSE
  5
176
330
1F
100
AcDbEntity
  8
1
100
AcDbEllipse
 10
370.329309
 20
293.649559
 30
0.0
 11
0.0003016037633771
 21
0.5003084758557771
 31
0.0
210
0.0
220
0.0
230
0.9999999999999998
 40
0.140101
 41
3.195395734394241
 42
4.766192061193211
  0
ELLIPSE
  5
177
330
1F
100
AcDbEntity
  8
1
100
AcDbEllipse
 10
327.76568
 20
288.907994
 30
0.0
 11
113.6914176155933
 21
-12.93856138617511
 31
0.0
210
0.0
220
0.0
230
1.0
 40
0.103642
 41
4.397201233597419
 42
4.503748205133933
  0
ELLIPSE
  5
178
330
1F
100
AcDbEntity
  8
1
100
AcDbEllipse
 10
371.195608
 20
288.907994
 30
0.0
 11
1.894178464854974
 21
17.4980208411922
 31
0.0
210
0.0
220
0.0
230
1.0
 40
0.138944
 41
1.920898967581774
 42
3.156632395651096
  0
ELLIPSE
  5
179
330
1F
100
AcDbEntity
  8
1
100
AcDbEllipse
 10
370.584842
 20
288.907994
 30
0.0
 11
0.0
 21
17.50000000112049
 31
0.0
210
0.0
220
0.0
230
1.0
 40
0.140541
 41
1.536552321268095
 42
1.905859225498808
  0
ELLIPSE
  5
17A
330
1F
100
AcDbEntity
  8
1
100
AcDbEllipse
 10
358.833024
 20
305.341446
 30
0.0
 11
-11.88251702683404
 21
4.19115605853555
 31
0.0
210
0.0
220
0.0
230
0.9999999999999998
 40
0.9986239999999998
 41
1.38672215462588
 42
1.94522751526413
  0
ELLIPSE
  5
17B
330
1F
100
AcDbEntity
  8
1
100
AcDbEllipse
 10
369.646217
 20
281.048354
 30
0.0
 11
-0.3086390084417319
 21
0.0885008115358406
 31
0.0
210
0.0
220
0.0
230
0.9999999999999998
 40
0.6229040000000001
 41
2.976210626445484
 42
3.306974680734073
  0
ELLIPSE
  5
17C
330
1F
100
AcDbEntity
  8
1
100
AcDbEllipse
 10
370.305732
 20
279.54846
 30
0.0
 11
0.2546671896690356
 21
0.1593661330169031
 31
0.0
210
0.0
220
0.0
230
1.0
 40
0.9668319999999999
 41
4.657557862363261
 42
5.171317120951802
  0
ELLIPSE
  5
17D
330
1F
100
AcDbEntity
  8
1
100
AcDbEllipse
 10
370.473427
 20
289.155723
 30
0.0
 11
0.1593661330187822
 21
-0.2546671896705173
 31
0.0
210
0.0
220
0.0
230
1.0
 40
0.9668319999999999
 41
1.515965208771073
 42
2.029724467355453
  0
ELLIPSE
  5
17E
330
1F
100
AcDbEntity
  8
1
100
AcDbEllipse
 10
358.776016
 20
288.907993
 30
0.0
 11
0.5852444468397064
 21
-17.4999964714652
 31
0.0
210
0.0
220
0.0
230
1.0
 40
0.0191
 41
3.017610107762221
 42
3.107063563851353
  0
ELLIPSE
  5
17F
330
1F
100
AcDbEntity
  8
1
100
AcDbEllipse
 10
359.954616
 20
295.441187
 30
0.0
 11
2.357642267228976
 21
-0.8315785830427662
 31
0.0
210
0.0
220
0.0
230
1.0
 40
0.9986239999999998
 41
5.637542175041879
 42
5.80979263331155
  0
ELLIPSE
  5
180
330
1F
100
AcDbEntity
  8
1
100
AcDbEllipse
 10
358.599976
 20
288.907994
 30
0.0
 11
0.4906897032081456
 21
-17.49986411085855
 31
0.0
210
0.0
220
0.0
230
1.0
 40
0.140543
 41
3.10376156742949
 42
3.219413948476203
  0
ELLIPSE
  5
181
330
1F
100
AcDbEntity
  8
1
100
AcDbEllipse
 10
369.197383
 20
305.339104
 30
0.0
 11
0.4817434593673915
 21
0.5170545787629339
 31
0.0
210
0.0
220
0.0
230
1.0
 40
0.01483
 41
1.536779664646246
 42
2.553685504947636
  0
ELLIPSE
  5
182
330
1F
100
AcDbEntity
  8
1
100
AcDbEllipse
 10
369.549608
 20
295.506664
 30
0.0
 11
0.5172967686953105
 21
-0.4819691094610013
 31
0.0
210
0.0
220
0.0
230
1.0
 40
0.033998
 41
1.58561088766983
 42
2.602516728108732
  0
ELLIPSE
  5
183
330
1F
100
AcDbEntity
  8
1
100
AcDbEllipse
 10
364.45674
 20
300.264211
 30
0.0
 11
-3.677921936877201
 21
1.297262589546717
 31
0.0
210
0.0
220
0.0
230
1.0
 40
0.9986239999999998
 41
0.0
 42
6.283185307179585
  0
ELLIPSE
  5
184
330
1F
100
AcDbEntity
  8
1
100
AcDbEllipse
 10
370.969907
 20
280.668792
 30
0.0
 11
-0.2941597133632818
 21
0.0843489404830548
 31
0.0
210
0.0
220
0.0
230
0.9999999999999998
 40
0.9803469999999999
 41
2.884713024277078
 42
3.3984722829025
  0
ELLIPSE
  5
185
330
1F
100
AcDbEntity
  8
1
100
AcDbEllipse
 10
371.105838
 20
288.014824
 30
0.0
 11
0.1315188411657876
 21
-0.2701031955403169
 31
0.0
210
0.0
220
0.0
230
1.0
 40
0.9668319999999999
 41
1.111868186999541
 42
1.625627445654829
  0
ELLIPSE
  5
186
330
1F
100
AcDbEntity
  8
1
100
AcDbEllipse
 10
370.37015
 20
287.831396
 30
0.0
 11
0.3432777560475848
 21
0.1251912077901853
 31
0.0
210
0.0
220
0.0
230
1.0
 40
0.81881
 41
6.264719809944295
 42
6.411625124168249
  0
ELLIPSE
  5
187
330
1F
100
AcDbEntity
  8
1
100
AcDbEllipse
 10
369.928017
 20
288.6290259999999
 30
0.0
 11
0.2880776699506633
 21
0.2247748192345823
 31
0.0
210
0.0
220
0.0
230
0.9999999999999998
 40
0.81881
 41
6.15474549582392
 42
6.301650808122496
  0
ELLIPSE
  5
188
330
1F
100
AcDbEntity
  8
1
100
AcDbEllipse
 10
369.928017
 20
288.6290259999999
 30
0.0
 11
0.2346916571783678
 21
0.2800576513054636
 31
0.0
210
0.0
220
0.0
230
1.0
 40
0.81881
 41
6.264719806558367
 42
6.411625119209375
  0
ELLIPSE
  5
189
330
1F
100
AcDbEntity
  8
1
100
AcDbEllipse
 10
369.779035
 20
280.0938700000001
 30
0.0
 11
0.2247748206407491
 21
-0.2880776723925687
 31
0.0
210
0.0
220
0.0
230
0.9999999999999998
 40
0.8188099999999998
 41
6.154745497196974
 42
6.30165080893362
  0
ELLIPSE
  5
18A
330
1F
100
AcDbEntity
  8
1
100
AcDbEllipse
 10
369.779035
 20
280.0938700000001
 30
0.0
 11
0.2800576546164343
 21
-0.2346916595605092
 31
0.0
210
0.0
220
0.0
230
1.0
 40
0.81881
 41
6.264719805985979
 42
6.411625117819509
  0
ELLIPSE
  5
18B
330
1F
100
AcDbEntity
  8
1
100
AcDbEllipse
 10
370.248736
 20
280.875584
 30
0.0
 11
0.3386995342576966
 21
-0.1370951680860152
 31
0.0
210
0.0
220
0.0
230
1.0
 40
0.8188099999999998
 41
6.15474549287546
 42
6.301650806185668
  0
ELLIPSE
  5
18C
330
1F
100
AcDbEntity
  8
1
100
AcDbEllipse
 10
370.248736
 20
280.875584
 30
0.0
 11
0.359882878054009
 21
-0.06322011226303
 31
0.0
210
0.0
220
0.0
230
1.0
 40
0.81881
 41
6.264719804968027
 42
6.411625115827517
  0
ELLIPSE
  5
18D
330
1F
100
AcDbEntity
  8
1
100
AcDbEllipse
 10
370.37015
 20
287.831396
 30
0.0
 11
0.3618699912401997
 21
0.0506218687170279
 31
0.0
210
0.0
220
0.0
230
1.0
 40
0.81881
 41
6.154745496168322
 42
6.301650808229053
  0
ELLIPSE
  5
18E
330
1F
100
AcDbEntity
  8
1
100
AcDbEllipse
 10
364.4596180000001
 20
300.27237
 30
0.0
 11
3.588083700633127
 21
-1.265575189707758
 31
0.0
210
0.0
220
0.0
230
1.0
 40
0.9986239999999998
 41
1.945227451328575
 42
3.745261875445966
  0
ELLIPSE
  5
18F
330
1F
100
AcDbEntity
  8
1
100
AcDbEllipse
 10
364.4596180000001
 20
300.27237
 30
0.0
 11
3.588083700633127
 21
-1.265575189707758
 31
0.0
210
0.0
220
0.0
230
1.0
 40
0.9986239999999998
 41
4.874566385899286
 42
6.283185307179585
  0
ELLIPSE
  5
190
330
1F
100
AcDbEntity
  8
1
100
AcDbEllipse
 10
364.4596180000001
 20
300.27237
 30
0.0
 11
3.588083700633127
 21
-1.265575189707758
 31
0.0
210
0.0
220
0.0
230
1.0
 40
0.9986239999999998
 41
0.0
 42
1.945227440221053
  0
ELLIPSE
  5
191
330
1F
100
AcDbEntity
  8
1
100
AcDbEllipse
 10
364.479414
 20
300.328496
 30
0.0
 11
3.531988007444661
 21
-1.245789330883938
 31
0.0
210
0.0
220
0.0
230
1.0
 40
0.9986239999999998
 41
1.945227552038378
 42
3.356097206659879
  0
ELLIPSE
  5
192
330
1F
100
AcDbEntity
  8
1
100
AcDbEllipse
 10
364.479414
 20
300.328496
 30
0.0
 11
3.531988007444661
 21
-1.245789330883938
 31
0.0
210
0.0
220
0.0
230
1.0
 40
0.9986239999999998
 41
5.419043491545747
 42
6.283185307179585
  0
ELLIPSE
  5
193
330
1F
100
AcDbEntity
  8
1
100
AcDbEllipse
 10
364.479414
 20
300.328496
 30
0.0
 11
3.531988007444661
 21
-1.245789330883938
 31
0.0
210
0.0
220
0.0
230
1.0
 40
0.9986239999999998
 41
0.0
 42
1.508938775396913
  0
ELLIPSE
  5
194
330
1F
100
AcDbEntity
  8
1
100
AcDbEllipse
 10
364.479414
 20
300.328496
 30
0.0
 11
3.531988007444661
 21
-1.245789330883938
 31
0.0
210
0.0
220
0.0
230
1.0
 40
0.9986239999999998
 41
1.63254085945862
 42
1.945227552038378
  0
ELLIPSE
  5
195
330
1F
100
AcDbEntity
  8
1
100
AcDbEllipse
 10
359.706923
 20
295.163307
 30
0.0
 11
0.4817434594942073
 21
0.5170545789036686
 31
0.0
210
0.0
220
0.0
230
0.9999999999999998
 40
0.01483
 41
0.5198738242501158
 42
1.536779664325308
  0
ELLIPSE
  5
196
330
1F
100
AcDbEntity
  8
1
100
AcDbEllipse
 10
359.3546970000001
 20
304.995748
 30
0.0
 11
0.5172967687689604
 21
-0.4819691095313844
 31
0.0
210
0.0
220
0.0
230
0.9999999999999998
 40
0.033998
 41
0.5687050474100462
 42
1.585610887725254
  0
ELLIPSE
  5
197
330
1F
100
AcDbEntity
  8
1
100
AcDbEllipse
 10
364.284071
 20
300.063416
 30
0.0
 11
1.98041950447234
 21
-0.698526009755924
 31
0.0
210
0.0
220
0.0
230
1.0
 40
0.9986239999999998
 41
0.0
 42
6.283185307179585
  0
ELLIPSE
  5
198
330
1F
100
AcDbEntity
  8
1
100
AcDbEllipse
 10
301.401313
 20
265.390698
 30
0.0
 11
-25.9746508170617
 21
5.466412662277411
 31
0.0
210
0.0
220
0.0
230
1.0
 40
0.6740610000000001
 41
5.930698858790955
 42
6.148952891330428
  0
ELLIPSE
  5
199
330
1F
100
AcDbEntity
  8
1
100
AcDbEllipse
 10
363.563615
 20
301.392966
 30
0.0
 11
-0.089889753645668
 21
0.0317055708602412
 31
0.0
210
0.0
220
0.0
230
0.9999999999999998
 40
0.9986239999999998
 41
0.8980299640675108
 42
1.574761880948188
  0
ELLIPSE
  5
19A
330
1F
100
AcDbEntity
  8
1
100
AcDbEllipse
 10
363.729662
 20
301.869761
 30
0.0
 11
-0.5666776289729542
 21
0.1998763706833381
 31
0.0
210
0.0
220
0.0
230
0.9999999999999998
 40
0.9986239999999998
 41
1.574761880948132
 42
2.839291925178306
  0
ELLIPSE
  5
19B
330
1F
100
AcDbEntity
  8
1
100
AcDbEllipse
 10
364.134831
 20
301.567464
 30
0.0
 11
-0.0898897536456661
 21
0.0317055708602406
 31
0.0
210
0.0
220
0.0
230
0.9999999999999998
 40
0.998624
 41
2.839291925178303
 42
3.516023842058904
  0
ELLIPSE
  5
19C
330
1F
100
AcDbEntity
  8
1
100
AcDbEllipse
 10
364.325315
 20
301.574109
 30
0.0
 11
-0.0898897536456659
 21
0.0317055708602405
 31
0.0
210
0.0
220
0.0
230
0.9999999999999998
 40
0.998624
 41
5.457285803169805
 42
6.657616495648713
  0
ELLIPSE
  5
19D
330
1F
100
AcDbEntity
  8
1
100
AcDbEllipse
 10
364.525066
 20
301.110074
 30
0.0
 11
-0.5666776289729544
 21
0.1998763706833382
 31
0.0
210
0.0
220
0.0
230
0.9999999999999998
 40
0.9986239999999998
 41
4.192755758939611
 42
5.457285803169802
  0
ELLIPSE
  5
19E
330
1F
100
AcDbEntity
  8
1
100
AcDbEllipse
 10
364.907592
 20
301.43985
 30
0.0
 11
-0.089889753645668
 21
0.0317055708602412
 31
0.0
210
0.0
220
0.0
230
0.9999999999999998
 40
0.9986239999999998
 41
2.992425066460483
 42
4.192755758939816
  0
ELLIPSE
  5
19F
330
1F
100
AcDbEntity
  8
1
100
AcDbEllipse
 10
365.075964
 20
301.350462
 30
0.0
 11
-0.089889753645668
 21
0.0317055708602412
 31
0.0
210
0.0
220
0.0
230
0.9999999999999998
 40
0.9986239999999998
 41
6.134017720050231
 42
6.810749636931161
  0
ELLIPSE
  5
1A0
330
1F
100
AcDbEntity
  8
1
100
AcDbEllipse
 10
365.572472
 20
301.444856
 30
0.0
 11
-0.5666776289729542
 21
0.1998763706833381
 31
0.0
210
0.0
220
0.0
230
0.9999999999999998
 40
0.9986239999999998
 41
0.5275643297515366
 42
1.792094373981718
  0
ELLIPSE
  5
1A1
330
1F
100
AcDbEntity
  8
1
100
AcDbEllipse
 10
365.513281
 20
300.943422
 30
0.0
 11
-0.0898897536456661
 21
0.0317055708602406
 31
0.0
210
0.0
220
0.0
230
0.9999999999999998
 40
0.998624
 41
1.7920943739819
 42
2.468826290862354
  0
ELLIPSE
  5
1A2
330
1F
100
AcDbEntity
  8
1
100
AcDbEllipse
 10
365.614426
 20
300.781952
 30
0.0
 11
-0.0898897536456659
 21
0.0317055708602405
 31
0.0
210
0.0
220
0.0
230
0.9999999999999998
 40
0.998624
 41
4.410088251973299
 42
5.61041894445245
  0
ELLIPSE
  5
1A3
330
1F
100
AcDbEntity
  8
1
100
AcDbEllipse
 10
365.312154
 20
300.377479
 30
0.0
 11
-0.5666776289729544
 21
0.1998763706833382
 31
0.0
210
0.0
220
0.0
230
0.9999999999999998
 40
0.9986239999999998
 41
3.145558207743012
 42
4.410088251973201
  0
ELLIPSE
  5
1A4
330
1F
100
AcDbEntity
  8
1
100
AcDbEllipse
 10
365.789604
 20
300.211197
 30
0.0
 11
-0.089889753645668
 21
0.0317055708602412
 31
0.0
210
0.0
220
0.0
230
0.9999999999999998
 40
0.9986239999999998
 41
1.945227515264276
 42
3.145558207743196
  0
ELLIPSE
  5
1A5
330
1F
100
AcDbEntity
  8
1
100
AcDbEllipse
 10
365.796421
 20
300.020912
 30
0.0
 11
-0.089889753645668
 21
0.0317055708602412
 31
0.0
210
0.0
220
0.0
230
0.9999999999999998
 40
0.9986239999999998
 41
5.08682016885407
 42
5.763552085734485
  0
ELLIPSE
  5
1A6
330
1F
100
AcDbEntity
  8
1
100
AcDbEllipse
 10
366.126881
 20
299.63851
 30
0.0
 11
-0.5666776289729542
 21
0.1998763706833381
 31
0.0
210
0.0
220
0.0
230
0.9999999999999998
 40
0.9986239999999998
 41
5.763552085734536
 42
7.028082129964699
  0
ELLIPSE
  5
1A7
330
1F
100
AcDbEntity
  8
1
100
AcDbEllipse
 10
365.662521
 20
299.4393740000001
 30
0.0
 11
-0.0898897536456661
 21
0.0317055708602406
 31
0.0
210
0.0
220
0.0
230
0.9999999999999998
 40
0.998624
 41
0.7448968227852287
 42
1.421628739665815
  0
ELLIPSE
  5
1A8
330
1F
100
AcDbEntity
  8
1
100
AcDbEllipse
 10
365.5731830000001
 20
299.27126
 30
0.0
 11
-0.0898897536456659
 21
0.0317055708602405
 31
0.0
210
0.0
220
0.0
230
0.9999999999999998
 40
0.998624
 41
3.362890700776466
 42
4.563221393255744
  0
ELLIPSE
  5
1A9
330
1F
100
AcDbEntity
  8
1
100
AcDbEllipse
 10
365.07116
 20
299.33082
 30
0.0
 11
-0.5666776289729544
 21
0.1998763706833382
 31
0.0
210
0.0
220
0.0
230
0.9999999999999998
 40
0.9986239999999998
 41
2.09836065654641
 42
3.362890700776606
  0
ELLIPSE
  5
1AA
330
1F
100
AcDbEntity
  8
1
100
AcDbEllipse
 10
365.166084
 20
298.834763
 30
0.0
 11
-0.089889753645668
 21
0.0317055708602412
 31
0.0
210
0.0
220
0.0
230
0.9999999999999998
 40
0.9986239999999998
 41
0.8980299640673477
 42
2.098360656546434
  0
ELLIPSE
  5
1AB
330
1F
100
AcDbEntity
  8
1
100
AcDbEllipse
 10
365.004528
 20
298.733865
 30
0.0
 11
-0.089889753645668
 21
0.0317055708602412
 31
0.0
210
0.0
220
0.0
230
0.9999999999999998
 40
0.9986239999999998
 41
4.03962261765721
 42
4.71635453453798
  0
ELLIPSE
  5
1AC
330
1F
100
AcDbEntity
  8
1
100
AcDbEllipse
 10
364.838481
 20
298.25707
 30
0.0
 11
-0.5666776289729542
 21
0.1998763706833381
 31
0.0
210
0.0
220
0.0
230
0.9999999999999998
 40
0.9986239999999998
 41
4.716354534537924
 42
5.980884578768099
  0
ELLIPSE
  5
1AD
330
1F
100
AcDbEntity
  8
1
100
AcDbEllipse
 10
364.433312
 20
298.559368
 30
0.0
 11
-0.0898897536456661
 21
0.0317055708602406
 31
0.0
210
0.0
220
0.0
230
0.9999999999999998
 40
0.998624
 41
5.98088457876824
 42
6.657616495648822
  0
ELLIPSE
  5
1AE
330
1F
100
AcDbEntity
  8
1
100
AcDbEllipse
 10
364.242828
 20
298.552723
 30
0.0
 11
-0.0898897536456659
 21
0.0317055708602405
 31
0.0
210
0.0
220
0.0
230
0.9999999999999998
 40
0.998624
 41
2.315693149580011
 42
3.516023842058973
  0
ELLIPSE
  5
1AF
330
1F
100
AcDbEntity
  8
1
100
AcDbEllipse
 10
364.043077
 20
299.016757
 30
0.0
 11
-0.5666776289729544
 21
0.1998763706833382
 31
0.0
210
0.0
220
0.0
230
0.9999999999999998
 40
0.9986239999999998
 41
1.051163105349854
 42
2.315693149579987
  0
ELLIPSE
  5
1B0
330
1F
100
AcDbEntity
  8
1
100
AcDbEllipse
 10
363.660551
 20
298.686981
 30
0.0
 11
-0.089889753645668
 21
0.0317055708602412
 31
0.0
210
0.0
220
0.0
230
0.9999999999999998
 40
0.9986239999999998
 41
6.134017720050543
 42
7.334348412529312
  0
ELLIPSE
  5
1B1
330
1F
100
AcDbEntity
  8
1
100
AcDbEllipse
 10
363.492179
 20
298.77637
 30
0.0
 11
-0.089889753645668
 21
0.0317055708602412
 31
0.0
210
0.0
220
0.0
230
0.9999999999999998
 40
0.9986239999999998
 41
2.992425066460556
 42
3.669156983341292
  0
ELLIPSE
  5
1B2
330
1F
100
AcDbEntity
  8
1
100
AcDbEllipse
 10
362.995671
 20
298.6819759999999
 30
0.0
 11
-0.5666776289729542
 21
0.1998763706833381
 31
0.0
210
0.0
220
0.0
230
0.9999999999999998
 40
0.9986239999999998
 41
3.66915698334133
 42
4.933687027571533
  0
ELLIPSE
  5
1B3
330
1F
100
AcDbEntity
  8
1
100
AcDbEllipse
 10
363.054862
 20
299.183409
 30
0.0
 11
-0.0898897536456661
 21
0.0317055708602406
 31
0.0
210
0.0
220
0.0
230
0.9999999999999998
 40
0.998624
 41
4.933687027571547
 42
5.610418944452053
  0
ELLIPSE
  5
1B4
330
1F
100
AcDbEntity
  8
1
100
AcDbEllipse
 10
362.953717
 20
299.344879
 30
0.0
 11
-0.0898897536456659
 21
0.0317055708602405
 31
0.0
210
0.0
220
0.0
230
0.9999999999999998
 40
0.998624
 41
1.268495598383551
 42
2.468826290862354
  0
ELLIPSE
  5
1B5
330
1F
100
AcDbEntity
  8
1
100
AcDbEllipse
 10
363.255989
 20
299.749353
 30
0.0
 11
-0.5666776289729544
 21
0.1998763706833382
 31
0.0
210
0.0
220
0.0
230
0.9999999999999998
 40
0.9986239999999998
 41
0.0039655541532316
 42
1.268495598383412
  0
ELLIPSE
  5
1B6
330
1F
100
AcDbEntity
  8
1
100
AcDbEllipse
 10
362.778539
 20
299.915634
 30
0.0
 11
-0.089889753645668
 21
0.0317055708602412
 31
0.0
210
0.0
220
0.0
230
0.9999999999999998
 40
0.9986239999999998
 41
5.086820168854181
 42
6.287150861332839
  0
ELLIPSE
  5
1B7
330
1F
100
AcDbEntity
  8
1
100
AcDbEllipse
 10
362.771722
 20
300.10592
 30
0.0
 11
-0.089889753645668
 21
0.0317055708602412
 31
0.0
210
0.0
220
0.0
230
0.9999999999999998
 40
0.9986239999999998
 41
1.945227515264083
 42
2.621959432144628
  0
ELLIPSE
  5
1B8
330
1F
100
AcDbEntity
  8
1
100
AcDbEllipse
 10
362.441262
 20
300.488322
 30
0.0
 11
-0.5666776289729542
 21
0.1998763706833381
 31
0.0
210
0.0
220
0.0
230
0.9999999999999998
 40
0.9986239999999998
 41
2.621959432144735
 42
3.886489476374906
  0
SPLINE
  5
1C9
330
1F
100
AcDbEntity
  8
1
100
AcDbSpline
210
0.0
220
0.0
230
1.0
 70
     8
 71
     3
 72
    27
 73
    23
 74
     0
 42
0.000000001
 43
0.0000000001
 40
0.0
 40
0.0
 40
0.0
 40
0.0
 40
0.1250000000000061
 40
0.1250000000000061
 40
0.1875000000000083
 40
0.1875000000000083
 40
0.2500000000000105
 40
0.2500000000000105
 40
0.3749999999999607
 40
0.3749999999999607
 40
0.4374999999999356
 40
0.4374999999999356
 40
0.4999999999999105
 40
0.4999999999999105
 40
0.6249999999999118
 40
0.6249999999999118
 40
0.6874999999999111
 40
0.6874999999999111
 40
0.7499999999999103
 40
0.7499999999999103
 40
0.8749999999999552
 40
1.0
 40
1.0
 40
1.0
 40
1.0
 10
364.3141105695221
 20
298.5605650371655
 30
0.0
 10
364.2848945938052
 20
298.5478435894082
 30
0.0
 10
364.254956646723
 20
298.5375515068606
 30
0.0
 10
364.2089877943785
 20
298.5257013477395
 30
0.0
 10
364.193487027324
 20
298.5223520313111
 30
0.0
 10
364.1621232504265
 20
298.5168792019203
 30
0.0
 10
364.1462141766189
 20
298.5147557988438
 30
0.0
 10
364.0986985514141
 20
298.5103427884159
 30
0.0
 10
364.0670871698436
 20
298.5099461359742
 30
0.0
 10
364.0197677274481
 20
298.5131083472229
 30
0.0
 10
364.0040109225266
 20
298.5147915351721
 30
0.0
 10
363.972530719576
 20
298.5194417955304
 30
0.0
 10
363.9567354680092
 20
298.5224279529295
 30
0.0
 10
363.9101064039602
 20
298.5332115399017
 30
0.0
 10
363.8799537904035
 20
298.5428045355781
 30
0.0
 10
363.8360829916007
 20
298.5606910810941
 30
0.0
 10
363.8216868434216
 20
298.5672389196354
 30
0.0
 10
363.7933554539429
 20
298.5815211047241
 30
0.0
 10
363.7793699566838
 20
298.5892866699965
 30
0.0
 10
363.7384858955091
 20
298.6141983164262
 30
0.0
 10
363.687357974898
 20
298.6513223386097
 30
0.0
 10
363.6427092846322
 20
298.6959164928132
 30
0.0
 10
363.6220558734864
 20
298.7201355068689
 30
0.0
  0
SPLINE
  5
1CA
330
1F
100
AcDbEntity
  8
1
100
AcDbSpline
210
0.0
220
0.0
230
1.0
 70
     8
 71
     3
 72
    16
 73
    12
 74
     0
 42
0.000000001
 43
0.0000000001
 40
0.0
 40
0.0
 40
0.0
 40
0.0
 40
0.3593307057844467
 40
0.3593307057844467
 40
0.5389960586766416
 40
0.5389960586766416
 40
0.7186614115688366
 40
0.7186614115688366
 40
0.8983267644610315
 40
0.8983267644610315
 40
1.0
 40
1.0
 40
1.0
 40
1.0
 10
363.6220558734864
 20
298.7201355068689
 30
0.0
 10
363.6155890203862
 20
298.7277187968651
 30
0.0
 10
363.610402796414
 20
298.7362549094924
 30
0.0
 10
363.6047887387998
 20
298.7496645405039
 30
0.0
 10
363.6032596240719
 20
298.7542608702523
 30
0.0
 10
363.6008909982896
 20
298.7637076492311
 30
0.0
 10
363.6000687264576
 20
298.7685122946622
 30
0.0
 10
363.5991481223668
 20
298.7780559398875
 30
0.0
 10
363.5990410706024
 20
298.7828285770398
 30
0.0
 10
363.599418337234
 20
298.7903027873417
 30
0.0
 10
363.5996693123752
 20
298.7930157621087
 30
0.0
 10
363.6000307224736
 20
298.7957106371206
 30
0.0
  0
SPLINE
  5
1CB
330
1F
100
AcDbEntity
  8
1
100
AcDbSpline
210
0.0
220
0.0
230
1.0
 70
     8
 71
     3
 72
    10
 73
     6
 74
     0
 42
0.000000001
 43
0.0000000001
 40
0.0
 40
0.0
 40
0.0
 40
0.0
 40
0.6429264930436512
 40
0.6429264930436512
 40
1.0
 40
1.0
 40
1.0
 40
1.0
 10
363.6203590390509
 20
298.8921847887593
 30
0.0
 10
363.6223744506469
 20
298.8812179986604
 30
0.0
 10
363.6224766281209
 20
298.8702346189056
 30
0.0
 10
363.6198344651449
 20
298.8533702633574
 30
0.0
 10
363.6183620747132
 20
298.8475302396037
 30
0.0
 10
363.6163645577523
 20
298.8418703511407
 30
0.0
  0
SPLINE
  5
1CC
330
1F
100
AcDbEntity
  8
1
100
AcDbSpline
210
0.0
220
0.0
230
1.0
 70
     8
 71
     3
 72
    10
 73
     6
 74
     0
 42
0.000000001
 43
0.0000000001
 40
0.0
 40
0.0
 40
0.0
 40
0.0
 40
0.1263075130077055
 40
0.1263075130077055
 40
1.0
 40
1.0
 40
1.0
 40
1.0
 10
364.3420079366002
 20
298.5791121780205
 30
0.0
 10
364.3409842179015
 20
298.5781355346956
 30
0.0
 10
364.3399375510804
 20
298.5771798107444
 30
0.0
 10
364.3314806783685
 20
298.5697956703475
 30
0.0
 10
364.3232451881125
 20
298.5645425039565
 30
0.0
 10
364.3141105695221
 20
298.5605650371655
 30
0.0
  0
SPLINE
  5
1CD
330
1F
100
AcDbEntity
  8
1
100
AcDbSpline
210
0.0
220
0.0
230
1.0
 70
     8
 71
     3
 72
     8
 73
     4
 74
     0
 42
0.000000001
 43
0.0000000001
 40
0.0
 40
0.0
 40
0.0
 40
0.0
 40
1.0
 40
1.0
 40
1.0
 40
1.0
 10
364.3778279870482
 20
298.6886244530307
 30
0.0
 10
364.3810566404123
 20
298.6978081074956
 30
0.0
 10
364.3855893997149
 20
298.7064026122276
 30
0.0
 10
364.3914971855297
 20
298.7143796572506
 30
0.0
  0
SPLINE
  5
1CE
330
1F
100
AcDbEntity
  8
1
100
AcDbSpline
210
0.0
220
0.0
230
1.0
 70
     8
 71
     3
 72
    20
 73
    16
 74
     0
 42
0.000000001
 43
0.0000000001
 40
0.0
 40
0.0
 40
0.0
 40
0.0
 40
0.1250000000000419
 40
0.1250000000000419
 40
0.2500000000000837
 40
0.2500000000000837
 40
0.3750000000001255
 40
0.3750000000001255
 40
0.5000000000001674
 40
0.5000000000001674
 40
0.6250000000002092
 40
0.6250000000002092
 40
0.7500000000002509
 40
0.7500000000002509
 40
1.0
 40
1.0
 40
1.0
 40
1.0
 10
363.0384840897128
 20
299.3610916806485
 30
0.0
 10
363.0344685166706
 20
299.3585178045608
 30
0.0
 10
363.0302954718024
 20
299.3562539663455
 30
0.0
 10
363.0216366305248
 20
299.3523423715777
 30
0.0
 10
363.0171431616348
 20
299.3506974968556
 30
0.0
 10
363.0080533974275
 20
299.34810556629
 30
0.0
 10
363.0034316892717
 20
299.3471452501921
 30
0.0
 10
362.9940326959211
 20
299.3459071480317
 30
0.0
 10
362.9892172754309
 20
299.3456318904429
 30
0.0
 10
362.9796580899958
 20
299.3458096870761
 30
0.0
 10
362.9749098438562
 20
299.3462552272085
 30
0.0
 10
362.9654774792279
 20
299.347866547073
 30
0.0
 10
362.9607626329172
 20
299.3490428426963
 30
0.0
 10
362.9469402721753
 20
299.3536631885983
 30
0.0
 10
362.9383257435638
 20
299.3580907284727
 30
0.0
 10
362.9303521047442
 20
299.3639503138308
 30
0.0
  0
SPLINE
  5
1CF
330
1F
100
AcDbEntity
  8
1
100
AcDbSpline
210
0.0
220
0.0
230
1.0
 70
     8
 71
     3
 72
    10
 73
     6
 74
     0
 42
0.000000001
 43
0.0000000001
 40
0.0
 40
0.0
 40
0.0
 40
0.0
 40
0.5
 40
0.5
 40
1.0
 40
1.0
 40
1.0
 40
1.0
 10
363.0384840897128
 20
299.3610916806484
 30
0.0
 10
363.0476627884491
 20
299.3669749837149
 30
0.0
 10
363.0575881694547
 20
299.3712276391865
 30
0.0
 10
363.078801741292
 20
299.3763488283183
 30
0.0
 10
363.0895958856186
 20
299.3771102892103
 30
0.0
 10
363.1005940745157
 20
299.3759646891004
 30
0.0
  0
SPLINE
  5
1D0
330
1F
100
AcDbEntity
  8
1
100
AcDbSpline
210
0.0
220
0.0
230
1.0
 70
     8
 71
     3
 72
    24
 73
    20
 74
     0
 42
0.000000001
 43
0.0000000001
 40
0.0
 40
0.0
 40
0.0
 40
0.0
 40
0.124999999999992
 40
0.124999999999992
 40
0.249999999999984
 40
0.249999999999984
 40
0.3125000000000039
 40
0.3125000000000039
 40
0.375000000000024
 40
0.375000000000024
 40
0.5000000000000192
 40
0.5000000000000192
 40
0.6250000000000144
 40
0.6250000000000144
 40
0.7500000000000096
 40
0.7500000000000096
 40
0.8750000000000047
 40
0.8750000000000047
 40
1.0
 40
1.0
 40
1.0
 40
1.0
 10
363.1005940745157
 20
299.3759646891004
 30
0.0
 10
363.131742447879
 20
299.3727201930946
 30
0.0
 10
363.1623741572786
 20
299.3670671443568
 30
0.0
 10
363.2226518987915
 20
299.3509440658632
 30
0.0
 10
363.252298356049
 20
299.340476392013
 30
0.0
 10
363.2960055765717
 20
299.3208620398427
 30
0.0
 10
363.3103534472237
 20
299.3137040282663
 30
0.0
 10
363.3382619791364
 20
299.2983271099785
 30
0.0
 10
363.351876767228
 20
299.2900844365261
 30
0.0
 10
363.3917052267201
 20
299.2636926413084
 30
0.0
 10
363.4169473812685
 20
299.2438565929093
 30
0.0
 10
363.4644324951046
 20
299.1996463396844
 30
0.0
 10
363.4859847596347
 20
299.175926736685
 30
0.0
 10
363.5249600243794
 20
299.1254393824439
 30
0.0
 10
363.5423877792695
 20
299.0986607736594
 30
0.0
 10
363.5730178404687
 20
299.0420298046948
 30
0.0
 10
363.585777399781
 20
299.0130058497838
 30
0.0
 10
363.6065952128417
 20
298.9536138539177
 30
0.0
 10
363.6146509511428
 20
298.9232451449051
 30
0.0
 10
363.6203590390509
 20
298.8921847887593
 30
0.0
  0
SPLINE
  5
1D1
330
1F
100
AcDbEntity
  8
1
100
AcDbSpline
210
0.0
220
0.0
230
1.0
 70
     8
 71
     3
 72
    18
 73
    14
 74
     0
 42
0.000000001
 43
0.0000000001
 40
0.0
 40
0.0
 40
0.0
 40
0.0
 40
0.2499999999996735
 40
0.2499999999996735
 40
0.3749999999996823
 40
0.3749999999996823
 40
0.499999999999691
 40
0.499999999999691
 40
0.6249999999996998
 40
0.6249999999996998
 40
0.7499999999997087
 40
0.7499999999997087
 40
1.0
 40
1.0
 40
1.0
 40
1.0
 10
365.2176032979316
 20
298.8365675082271
 30
0.0
 10
365.2078747522565
 20
298.8347842054464
 30
0.0
 10
365.1979837137021
 20
298.8345903617751
 30
0.0
 10
365.1837299412798
 20
298.8364809617404
 30
0.0
 10
365.1790446063134
 20
298.8374714251553
 30
0.0
 10
365.1698075239251
 20
298.8401779658636
 30
0.0
 10
365.1653034779553
 20
298.8418859094196
 30
0.0
 10
365.1567185619485
 20
298.845896102764
 30
0.0
 10
365.1526046537754
 20
298.8482077427388
 30
0.0
 10
365.1447293313279
 20
298.8534346402194
 30
0.0
 10
365.1409418671857
 20
298.8563769753936
 30
0.0
 10
365.1304168253969
 20
298.8658805564845
 30
0.0
 10
365.1244362590596
 20
298.8731173464447
 30
0.0
 10
365.1195007076491
 20
298.8812613997662
 30
0.0
  0
SPLINE
  5
1D2
330
1F
100
AcDbEntity
  8
1
100
AcDbSpline
210
0.0
220
0.0
230
1.0
 70
     8
 71
     3
 72
    24
 73
    20
 74
     0
 42
0.000000001
 43
0.0000000001
 40
0.0
 40
0.0
 40
0.0
 40
0.0
 40
0.1249999999999931
 40
0.1249999999999931
 40
0.2499999999999861
 40
0.2499999999999861
 40
0.3125000000000062
 40
0.3125000000000062
 40
0.3750000000000264
 40
0.3750000000000264
 40
0.5000000000000212
 40
0.5000000000000212
 40
0.6250000000000158
 40
0.6250000000000158
 40
0.7500000000000106
 40
0.7500000000000106
 40
0.8750000000000053
 40
0.8750000000000053
 40
1.0
 40
1.0
 40
1.0
 40
1.0
 10
364.3914971855297
 20
298.7143796572506
 30
0.0
 10
364.4103128442371
 20
298.7397856826809
 30
0.0
 10
364.4309189472568
 20
298.7635311979328
 30
0.0
 10
364.4757250003432
 20
298.8077405361059
 30
0.0
 10
364.4999231775162
 20
298.8282059167771
 30
0.0
 10
364.5391502019527
 20
298.8562697395602
 30
0.0
 10
364.5526378802113
 20
298.8651196389737
 30
0.0
 10
364.5801068330192
 20
298.8816011828054
 30
0.0
 10
364.5941361321981
 20
298.8892677633142
 30
0.0
 10
364.6371092624713
 20
298.9105462533715
 30
0.0
 10
364.6669812020971
 20
298.92246389547
 30
0.0
 10
364.7290155831151
 20
298.9414045906805
 30
0.0
 10
364.7602669423122
 20
298.9481583630021
 30
0.0
 10
364.8232183499257
 20
298.9565427220916
 30
0.0
 10
364.8549306450245
 20
298.9581719533792
 30
0.0
 10
364.9187830923224
 20
298.9562124760687
 30
0.0
 10
364.9499932339757
 20
298.952657131567
 30
0.0
 10
365.0111420588821
 20
298.9407895710841
 30
0.0
 10
365.041080004627
 20
298.9324748347028
 30
0.0
 10
365.0704061161452
 20
298.9217753966778
 30
0.0
  0
SPLINE
  5
1D3
330
1F
100
AcDbEntity
  8
1
100
AcDbSpline
210
0.0
220
0.0
230
1.0
 70
     8
 71
     3
 72
    10
 73
     6
 74
     0
 42
0.000000001
 43
0.0000000001
 40
0.0
 40
0.0
 40
0.0
 40
0.0
 40
0.5
 40
0.5
 40
1.0
 40
1.0
 40
1.0
 40
1.0
 10
365.0704061161452
 20
298.9217753966778
 30
0.0
 10
365.0807608970671
 20
298.9179975232744
 30
0.0
 10
365.0901563700398
 20
298.9125528242274
 30
0.0
 10
365.1068774513792
 20
298.8986839007509
 30
0.0
 10
365.1138654183815
 20
298.8905600763398
 30
0.0
 10
365.1195007076491
 20
298.8812613997662
 30
0.0
  0
SPLINE
  5
1D4
330
1F
100
AcDbEntity
  8
1
100
AcDbSpline
210
0.0
220
0.0
230
1.0
 70
     8
 71
     3
 72
    27
 73
    23
 74
     0
 42
0.000000001
 43
0.0000000001
 40
0.0
 40
0.0
 40
0.0
 40
0.0
 40
0.1379168277077906
 40
0.1379168277077906
 40
0.2068752415617095
 40
0.2068752415617095
 40
0.2758336554156283
 40
0.2758336554156283
 40
0.4137504831234601
 40
0.4137504831234601
 40
0.4827088969773626
 40
0.4827088969773626
 40
0.5516673108312651
 40
0.5516673108312651
 40
0.6895841385390701
 40
0.6895841385390701
 40
0.7585425523929768
 40
0.7585425523929768
 40
0.8275009662468834
 40
0.8275009662468834
 40
0.9654177939547031
 40
1.0
 40
1.0
 40
1.0
 40
1.0
 10
362.9303521047442
 20
299.3639503138308
 30
0.0
 10
362.9048499186546
 20
299.382691097003
 30
0.0
 10
362.8810724200509
 20
299.4032926343442
 30
0.0
 10
362.8479572356233
 20
299.4369373226789
 30
0.0
 10
362.8373459538291
 20
299.4486113998043
 30
0.0
 10
362.8169954354775
 20
299.4728957257977
 30
0.0
 10
362.8072332571167
 20
299.4855458472834
 30
0.0
 10
362.7797334769574
 20
299.5243090050863
 30
0.0
 10
362.763619614438
 20
299.5513887212987
 30
0.0
 10
362.7427257892861
 20
299.5938336661042
 30
0.0
 10
362.7363098802413
 20
299.6082876387853
 30
0.0
 10
362.7245979159421
 20
299.6378192337912
 30
0.0
 10
362.7192823969332
 20
299.6529685828841
 30
0.0
 10
362.7052815709574
 20
299.6986914885954
 30
0.0
 10
362.698479133305
 20
299.7295894813884
 30
0.0
 10
362.6919578338093
 20
299.7765417904972
 30
0.0
 10
362.6904007549007
 20
299.7922939357093
 30
0.0
 10
362.6885359077979
 20
299.8240036414355
 30
0.0
 10
362.6882298829471
 20
299.8400203692538
 30
0.0
 10
362.6892340911187
 20
299.8879669992574
 30
0.0
 10
362.6932269330314
 20
299.9273629848886
 30
0.0
 10
362.7009922499852
 20
299.9660593524572
 30
0.0
 10
362.7027017633726
 20
299.9737887539789
 30
0.0
  0
SPLINE
  5
1D5
330
1F
100
AcDbEntity
  8
1
100
AcDbSpline
210
0.0
220
0.0
230
1.0
 70
     8
 71
     3
 72
    21
 73
    17
 74
     0
 42
0.000000001
 43
0.0000000001
 40
0.0
 40
0.0
 40
0.0
 40
0.0
 40
0.124362081915764
 40
0.124362081915764
 40
0.2119258737242132
 40
0.2119258737242132
 40
0.2994896655326625
 40
0.2994896655326625
 40
0.4746172491495092
 40
0.4746172491495092
 40
0.5621810409579023
 40
0.5621810409579023
 40
0.6497448327662953
 40
0.6497448327662953
 40
0.8248724163831477
 40
1.0
 40
1.0
 40
1.0
 40
1.0
 10
365.6374627411783
 20
299.1477396780435
 30
0.0
 10
365.6270775990422
 20
299.1277666404352
 30
0.0
 10
365.6156166495628
 20
299.1084649060943
 30
0.0
 10
365.5942732761047
 20
299.076703827173
 30
0.0
 10
365.5849247793658
 20
299.0639113326149
 30
0.0
 10
365.5651465050898
 20
299.0390010122933
 30
0.0
 10
365.5546643138318
 20
299.0268305435279
 30
0.0
 10
365.5220357534349
 20
298.9918912819572
 30
0.0
 10
365.4986957753717
 20
298.9706155715357
 30
0.0
 10
365.4613768880568
 20
298.9416365318896
 30
0.0
 10
365.4485505900634
 20
298.9324683073036
 30
0.0
 10
365.422114852245
 20
298.9151276192134
 30
0.0
 10
365.4084536633269
 20
298.906927444031
 30
0.0
 10
365.3666263123794
 20
298.8840666877237
 30
0.0
 10
365.3092143139414
 20
298.8584813121111
 30
0.0
 10
365.2486743330784
 20
298.8422630217424
 30
0.0
 10
365.2176032979316
 20
298.8365675082271
 30
0.0
  0
SPLINE
  5
1D6
330
1F
100
AcDbEntity
  8
1
100
AcDbSpline
210
0.0
220
0.0
230
1.0
 70
     8
 71
     3
 72
    18
 73
    14
 74
     0
 42
0.000000001
 43
0.0000000001
 40
0.0
 40
0.0
 40
0.0
 40
0.0
 40
0.2126755714230703
 40
0.2126755714230703
 40
0.4253511428461407
 40
0.4253511428461407
 40
0.5316889285576801
 40
0.5316889285576801
 40
0.6380267142692197
 40
0.6380267142692197
 40
0.85070228569231
 40
0.85070228569231
 40
1.0
 40
1.0
 40
1.0
 40
1.0
 10
363.0277411568274
 20
300.8230198396023
 30
0.0
 10
363.040226837125
 20
300.7948022938724
 30
0.0
 10
363.050391969346
 20
300.7657985376068
 30
0.0
 10
363.0661121686554
 20
300.7061691823386
 30
0.0
 10
363.0716694537643
 20
300.6755444357816
 30
0.0
 10
363.0762854087767
 20
300.6282502119433
 30
0.0
 10
363.077185551077
 20
300.6123565454919
 30
0.0
 10
363.077694078402
 20
300.5806942836722
 30
0.0
 10
363.0773086034508
 20
300.5648675870542
 30
0.0
 10
363.0742341979528
 20
300.5173968956533
 30
0.0
 10
363.0696291610074
 20
300.4857116680564
 30
0.0
 10
363.0572472081133
 20
300.4319707117437
 30
0.0
 10
363.0509334986202
 20
300.4103139553922
 30
0.0
 10
363.0434605933374
 20
300.3891457527816
 30
0.0
  0
SPLINE
  5
1D7
330
1F
100
AcDbEntity
  8
1
100
AcDbSpline
210
0.0
220
0.0
230
1.0
 70
     8
 71
     3
 72
    10
 73
     6
 74
     0
 42
0.000000001
 43
0.0000000001
 40
0.0
 40
0.0
 40
0.0
 40
0.0
 40
0.5
 40
0.5
 40
1.0
 40
1.0
 40
1.0
 40
1.0
 10
362.9844858276198
 20
300.8684620699988
 30
0.0
 10
362.9940488240392
 20
300.8636148283452
 30
0.0
 10
363.0025757466059
 20
300.8573034607808
 30
0.0
 10
363.017383841395
 20
300.8418049366077
 30
0.0
 10
363.0233324355219
 20
300.8329835173587
 30
0.0
 10
363.0277411568274
 20
300.8230198396023
 30
0.0
  0
SPLINE
  5
1D8
330
1F
100
AcDbEntity
  8
1
100
AcDbSpline
210
0.0
220
0.0
230
1.0
 70
     8
 71
     3
 72
    20
 73
    16
 74
     0
 42
0.000000001
 43
0.0000000001
 40
0.0
 40
0.0
 40
0.0
 40
0.0
 40
0.125
 40
0.125
 40
0.25
 40
0.25
 40
0.375
 40
0.375
 40
0.5
 40
0.5
 40
0.625
 40
0.625
 40
0.75
 40
0.75
 40
1.0
 40
1.0
 40
1.0
 40
1.0
 10
362.9844858276198
 20
300.8684620699988
 30
0.0
 10
362.9803020717596
 20
300.8705827103071
 30
0.0
 10
362.9763079431997
 20
300.8729947771743
 30
0.0
 10
362.9686965548997
 20
300.8783977885956
 30
0.0
 10
362.965077579743
 20
300.8813970813558
 30
0.0
 10
362.9583899624549
 20
300.8878369012452
 30
0.0
 10
362.9552974598449
 20
300.8912923332114
 30
0.0
 10
362.9496237595818
 20
300.8986813810513
 30
0.0
 10
362.9470259846147
 20
300.902648820314
 30
0.0
 10
362.9424919695646
 20
300.9108924051166
 30
0.0
 10
362.9405474415122
 20
300.9151679524288
 30
0.0
 10
362.9373100044954
 20
300.9240286552647
 30
0.0
 10
362.9360111403768
 20
300.928644948208
 30
0.0
 10
362.933211699869
 20
300.9427743738072
 30
0.0
 10
362.9328003293796
 20
300.9523630560411
 30
0.0
 10
362.9339364338782
 20
300.9621284892224
 30
0.0
  0
SPLINE
  5
1D9
330
1F
100
AcDbEntity
  8
1
100
AcDbSpline
210
0.0
220
0.0
230
1.0
 70
     8
 71
     3
 72
    14
 73
    10
 74
     0
 42
0.000000001
 43
0.0000000001
 40
0.0
 40
0.0
 40
0.0
 40
0.0
 40
0.0903563733847494
 40
0.0903563733847494
 40
0.393570915589833
 40
0.393570915589833
 40
0.6967854577949167
 40
0.6967854577949167
 40
1.0
 40
1.0
 40
1.0
 40
1.0
 10
365.5957924946781
 20
299.9392936443448
 30
0.0
 10
365.5989448715635
 20
299.9482231731835
 30
0.0
 10
365.6023020463559
 20
299.9570530846498
 30
0.0
 10
365.6178017758677
 20
299.9950882611747
 30
0.0
 10
365.6320169241652
 20
300.0233005573677
 30
0.0
 10
365.6650585805235
 20
300.0774581155108
 30
0.0
 10
365.6834002385923
 20
300.1026176100394
 30
0.0
 10
365.7234830305439
 20
300.1494380652817
 30
0.0
 10
365.7452259192559
 20
300.1710971152491
 30
0.0
 10
365.7686913449359
 20
300.1910254156709
 30
0.0
  0
SPLINE
  5
1DA
330
1F
100
AcDbEntity
  8
1
100
AcDbSpline
210
0.0
220
0.0
230
1.0
 70
     8
 71
     3
 72
    10
 73
     6
 74
     0
 42
0.000000001
 43
0.0000000001
 40
0.0
 40
0.0
 40
0.0
 40
0.0
 40
0.5
 40
0.5
 40
1.0
 40
1.0
 40
1.0
 40
1.0
 10
365.7686913449359
 20
300.1910254156709
 30
0.0
 10
365.7769771520716
 20
300.1980622389568
 30
0.0
 10
365.7862083017244
 20
300.2034296900471
 30
0.0
 10
365.8062002307527
 20
300.2108801881331
 30
0.0
 10
365.8165354317443
 20
300.2128205098501
 30
0.0
 10
365.8272073934186
 20
300.2130017168087
 30
0.0
  0
SPLINE
  5
1DB
330
1F
100
AcDbEntity
  8
1
100
AcDbSpline
210
0.0
220
0.0
230
1.0
 70
     8
 71
     3
 72
    16
 73
    12
 74
     0
 42
0.000000001
 43
0.0000000001
 40
0.0
 40
0.0
 40
0.0
 40
0.0
 40
0.052647942566625
 40
0.052647942566625
 40
0.2421183540533901
 40
0.2421183540533901
 40
0.4315887655401552
 40
0.4315887655401552
 40
0.6210591770269202
 40
0.6210591770269202
 40
1.0
 40
1.0
 40
1.0
 40
1.0
 10
365.8929865494609
 20
300.241852392807
 30
0.0
 10
365.892081356747
 20
300.2408969779815
 30
0.0
 10
365.8911548774587
 20
300.2399600893529
 30
0.0
 10
365.8867961203116
 20
300.2357369010451
 30
0.0
 10
365.8831378829991
 20
300.232708405146
 30
0.0
 10
365.8755234365014
 20
300.2273171945162
 30
0.0
 10
365.8715426799158
 20
300.2249302626632
 30
0.0
 10
365.8632401585176
 20
300.220764830677
 30
0.0
 10
365.8588824115879
 20
300.218977348025
 30
0.0
 10
365.8456409020686
 20
300.2146779146379
 30
0.0
 10
365.8365540272474
 20
300.2131604200668
 30
0.0
 10
365.8272073934185
 20
300.2130017168087
 30
0.0
  0
SPLINE
  5
1DC
330
1F
100
AcDbEntity
  8
1
100
AcDbSpline
210
0.0
220
0.0
230
1.0
 70
     8
 71
     3
 72
     8
 73
     4
 74
     0
 42
0.000000001
 43
0.0000000001
 40
0.0
 40
0.0
 40
0.0
 40
0.0
 40
1.0
 40
1.0
 40
1.0
 40
1.0
 10
362.9339364338782
 20
300.9621284892224
 30
0.0
 10
362.935216009016
 20
300.9731271302124
 30
0.0
 10
362.936800201123
 20
300.984058860024
 30
0.0
 10
362.9386873195908
 20
300.9949238022808
 30
0.0
  0
SPLINE
  5
1DD
330
1F
100
AcDbEntity
  8
1
100
AcDbSpline
210
0.0
220
0.0
230
1.0
 70
     8
 71
     3
 72
    10
 73
     6
 74
     0
 42
0.000000001
 43
0.0000000001
 40
0.0
 40
0.0
 40
0.0
 40
0.0
 40
0.6735543505311252
 40
0.6735543505311252
 40
1.0
 40
1.0
 40
1.0
 40
1.0
 10
364.2621202928793
 20
301.6436815739886
 30
0.0
 10
364.2615913514798
 20
301.6413407507513
 30
0.0
 10
364.2609682518966
 20
301.6390118984042
 30
0.0
 10
364.2599030187771
 20
301.6355736838854
 30
0.0
 10
364.2595350260376
 20
301.6344600400737
 30
0.0
 10
364.259146642193
 20
301.6333551926213
 30
0.0
  0
SPLINE
  5
1E5
330
1F
100
AcDbEntity
  8
1
100
AcDbSpline
210
0.0
220
0.0
230
1.0
 70
     8
 71
     3
 72
    32
 73
    28
 74
     0
 42
0.000000001
 43
0.0000000001
 40
0.0
 40
0.0
 40
0.0
 40
0.0
 40
0.1249999999999969
 40
0.1249999999999969
 40
0.2499999999999938
 40
0.2499999999999938
 40
0.2812499999999932
 40
0.2968749999999932
 40
0.2968749999999932
 40
0.3124999999999932
 40
0.3124999999999932
 40
0.3749999999999935
 40
0.3749999999999935
 40
0.4999999999999937
 40
0.4999999999999937
 40
0.562499999999994
 40
0.562499999999994
 40
0.5937499999999943
 40
0.6093749999999942
 40
0.6093749999999942
 40
0.6249999999999939
 40
0.6249999999999939
 40
0.749999999999996
 40
0.749999999999996
 40
0.8749999999999978
 40
0.8749999999999978
 40
1.0
 40
1.0
 40
1.0
 40
1.0
 10
276.1534425800717
 20
273.1510928543188
 30
0.0
 10
276.1086170436944
 20
272.8954706640208
 30
0.0
 10
276.0911174608076
 20
272.6492725867542
 30
0.0
 10
276.1071009626813
 20
272.1751318929752
 30
0.0
 10
276.1406032758896
 20
271.9471912117205
 30
0.0
 10
276.2135715973866
 20
271.6734649829012
 30
0.0
 10
276.2378016404945
 20
271.592187903904
 30
0.0
 10
276.2655413859088
 20
271.5121684091684
 30
0.0
 10
276.2848154417035
 20
271.4591012348193
 30
0.0
 10
276.2948492997359
 20
271.4326911448059
 30
0.0
 10
276.3469015636341
 20
271.3015186384019
 30
0.0
 10
276.3943034512154
 20
271.2000147462664
 30
0.0
 10
276.5528593739204
 20
270.9051478878654
 30
0.0
 10
276.6803067178309
 20
270.7214058696283
 30
0.0
 10
276.9016417454214
 20
270.4629681869671
 30
0.0
 10
276.980462944331
 20
270.3796914754496
 30
0.0
 10
277.106073167943
 20
270.2588696537986
 30
0.0
 10
277.1707239922264
 20
270.1994824865274
 30
0.0
 10
277.238117941244
 20
270.1415950097263
 30
0.0
 10
277.2836546022991
 20
270.1033328493309
 30
0.0
 10
277.306742950557
 20
270.084353617487
 30
0.0
 10
277.5167520617691
 20
269.9154115002341
 30
0.0
 10
277.7194485199263
 20
269.7781623383817
 30
0.0
 10
278.1536678366184
 20
269.525448334132
 30
0.0
 10
278.3852080685164
 20
269.4099989617588
 30
0.0
 10
278.8751536289746
 20
269.1978293534132
 30
0.0
 10
279.1335683630192
 20
269.1011179878606
 30
0.0
 10
279.4048419452957
 20
269.0125452105011
 30
0.0
  0
SPLINE
  5
1E6
330
1F
100
AcDbEntity
  8
1
100
AcDbSpline
210
0.0
220
0.0
230
1.0
 70
     8
 71
     3
 72
    65
 73
    61
 74
     0
 42
0.000000001
 43
0.0000000001
 40
0.0
 40
0.0
 40
0.0
 40
0.0
 40
0.0624999999999995
 40
0.0624999999999995
 40
0.1249999999999989
 40
0.1249999999999989
 40
0.1562499999999985
 40
0.1562499999999985
 40
0.1874999999999981
 40
0.1874999999999981
 40
0.2187499999999976
 40
0.2187499999999976
 40
0.2499999999999972
 40
0.2499999999999972
 40
0.2812499999999967
 40
0.2812499999999967
 40
0.3124999999999963
 40
0.3124999999999963
 40
0.3437499999999958
 40
0.3437499999999958
 40
0.3749999999999954
 40
0.3749999999999954
 40
0.3906249999999952
 40
0.3906249999999952
 40
0.4062499999999952
 40
0.4062499999999952
 40
0.4374999999999951
 40
0.4374999999999951
 40
0.4687499999999949
 40
0.4687499999999949
 40
0.4999999999999949
 40
0.4999999999999949
 40
0.5312499999999949
 40
0.5312499999999949
 40
0.5624999999999948
 40
0.5624999999999948
 40
0.5781249999999947
 40
0.5781249999999947
 40
0.5937499999999946
 40
0.5937499999999946
 40
0.6249999999999945
 40
0.6249999999999945
 40
0.6562499999999945
 40
0.6562499999999945
 40
0.6874999999999944
 40
0.6874999999999944
 40
0.7499999999999949
 40
0.7499999999999949
 40
0.7656249999999949
 40
0.7656249999999949
 40
0.7812499999999949
 40
0.8124999999999957
 40
0.8124999999999957
 40
0.8437499999999964
 40
0.8437499999999964
 40
0.8749999999999971
 40
0.8749999999999971
 40
0.9374999999999987
 40
0.9374999999999987
 40
1.0
 40
1.0
 40
1.0
 40
1.0
 10
302.9048419452957
 20
280.0603074421896
 30
0.0
 10
303.9974989713706
 20
279.8150407122411
 30
0.0
 10
305.0845494826516
 20
279.5604401947556
 30
0.0
 10
307.2469239282913
 20
279.0345024194111
 30
0.0
 10
308.3222374196907
 20
278.7631489021002
 30
0.0
 10
309.9264973556109
 20
278.3464627332704
 30
0.0
 10
310.4598050192751
 20
278.2059750745348
 30
0.0
 10
311.5236316033072
 20
277.9225173580513
 30
0.0
 10
312.0541502748624
 20
277.7795473972402
 30
0.0
 10
313.1125695700908
 20
277.4919751597399
 30
0.0
 10
313.6404700527777
 20
277.3473733470716
 30
0.0
 10
314.6938984567057
 20
277.0575276860906
 30
0.0
 10
315.2194263888213
 20
276.9122847161297
 30
0.0
 10
316.2684320876636
 20
276.62226722655
 30
0.0
 10
316.7919100510442
 20
276.4774939967793
 30
0.0
 10
317.8372121223829
 20
276.1896140860825
 30
0.0
 10
318.3590366264028
 20
276.0465090386601
 30
0.0
 10
319.4014931405272
 20
275.7632070199364
 30
0.0
 10
319.9221257314257
 20
275.6230118908058
 30
0.0
 10
320.9627100917729
 20
275.3467619405417
 30
0.0
 10
321.4826625813025
 20
275.2107089835408
 30
0.0
 10
322.2624873973738
 20
275.0106097107028
 30
0.0
 10
322.5224118524044
 20
274.9445726220938
 30
0.0
 10
323.04229510457
 20
274.8139586541696
 30
0.0
 10
323.302297057319
 20
274.749371338099
 30
0.0
 10
324.0820584167641
 20
274.558085889097
 30
0.0
 10
324.6015870378823
 20
274.4338650844427
 30
0.0
 10
325.6405915303765
 20
274.1928590954562
 30
0.0
 10
326.1600837222489
 20
274.076102854503
 30
0.0
 10
327.1999376234163
 20
273.8511430127791
 30
0.0
 10
327.7202989933851
 20
273.7429358162543
 30
0.0
 10
328.7625989877709
 20
273.5356220158012
 30
0.0
 10
329.2845366590173
 20
273.4365114862755
 30
0.0
 10
330.3305333466975
 20
273.2475471324056
 30
0.0
 10
330.854590494626
 20
273.1576891162688
 30
0.0
 10
331.6425834264031
 20
273.0297594314766
 30
0.0
 10
331.905568392197
 20
272.9882612764679
 30
0.0
 10
332.4322028384271
 20
272.9075004745039
 30
0.0
 10
332.695842750744
 20
272.8682266969576
 30
0.0
 10
333.4876204366943
 20
272.7534978931772
 30
0.0
 10
334.0166125268585
 20
272.6811262200989
 30
0.0
 10
335.0763884663321
 20
272.5436541426652
 30
0.0
 10
335.6071734842009
 20
272.478556564795
 30
0.0
 10
336.6701506071495
 20
272.3549417246196
 30
0.0
 10
337.2023437465032
 20
272.2964264625407
 30
0.0
 10
338.8005590420288
 20
272.1299944376165
 30
0.0
 10
339.8682077651224
 20
272.0311395652124
 30
0.0
 10
341.2041601015839
 20
271.9211379541924
 30
0.0
 10
341.4714375883382
 20
271.899819115136
 30
0.0
 10
342.0058920583358
 20
271.8585400541636
 30
0.0
 10
342.8074949692966
 20
271.798654818551
 30
0.0
 10
343.6087412246808
 20
271.7447734458598
 30
0.0
 10
344.6765540865939
 20
271.67819270641
 30
0.0
 10
345.2102019581509
 20
271.6475329218753
 30
0.0
 10
346.2768141781832
 20
271.5915011161536
 30
0.0
 10
346.8097594391868
 20
271.5661278537116
 30
0.0
 10
348.4080034644002
 20
271.4983156490231
 30
0.0
 10
349.472741720006
 20
271.4642448256042
 30
0.0
 10
351.6031927562955
 20
271.4190945946005
 30
0.0
 10
352.6689129603801
 20
271.4079935137006
 30
0.0
 10
353.7360069764027
 20
271.4079935137005
 30
0.0
  0
SPLINE
  5
1E7
330
1F
100
AcDbEntity
  8
1
100
AcDbSpline
210
0.0
220
0.0
230
1.0
 70
     8
 71
     3
 72
    48
 73
    44
 74
     0
 42
0.000000001
 43
0.0000000001
 40
0.0
 40
0.0
 40
0.0
 40
0.0
 40
0.0625000000000016
 40
0.0625000000000016
 40
0.1250000000000031
 40
0.1250000000000031
 40
0.1875000000000047
 40
0.1875000000000047
 40
0.2031250000000051
 40
0.2031250000000051
 40
0.2187500000000055
 40
0.2187500000000055
 40
0.2500000000000062
 40
0.2500000000000062
 40
0.3125000000000072
 40
0.3125000000000072
 40
0.3750000000000081
 40
0.3750000000000081
 40
0.4375000000000091
 40
0.4375000000000091
 40
0.50000000000001
 40
0.50000000000001
 40
0.5625000000000111
 40
0.5625000000000111
 40
0.5781250000000111
 40
0.5781250000000111
 40
0.5937500000000109
 40
0.5937500000000109
 40
0.6250000000000103
 40
0.6250000000000103
 40
0.6562500000000096
 40
0.6562500000000096
 40
0.6875000000000089
 40
0.6875000000000089
 40
0.7500000000000071
 40
0.7500000000000071
 40
0.8125000000000055
 40
0.8125000000000055
 40
0.8750000000000037
 40
0.8750000000000037
 40
0.9375000000000019
 40
0.9375000000000019
 40
1.0
 40
1.0
 40
1.0
 40
1.0
 10
302.9048419452958
 20
306.0783830907491
 30
0.0
 10
303.7309093986749
 20
306.0384149125331
 30
0.0
 10
304.5542750006416
 20
305.9931106169122
 30
0.0
 10
306.1954682417497
 20
305.8897564781146
 30
0.0
 10
307.0132941431997
 20
305.831702872503
 30
0.0
 10
308.6434347244606
 20
305.7006707246261
 30
0.0
 10
309.4557468652888
 20
305.627685422345
 30
0.0
 10
310.4678512225437
 20
305.525795498667
 30
0.0
 10
310.6701084724818
 20
305.5048850474399
 30
0.0
 10
311.0743026356459
 20
305.4619685507328
 30
0.0
 10
311.2762566000247
 20
305.4399604715978
 30
0.0
 10
311.8813682393127
 20
305.372281362735
 30
0.0
 10
312.2838541205828
 20
305.3249462087092
 30
0.0
 10
313.4886759990709
 20
305.1760121184895
 30
0.0
 10
314.288358471206
 20
305.0674552937317
 30
0.0
 10
315.881744505846
 20
304.830873454728
 30
0.0
 10
316.6754468380383
 20
304.7028351576295
 30
0.0
 10
318.2585378106322
 20
304.427430813936
 30
0.0
 10
319.0479295497522
 20
304.2800561555167
 30
0.0
 10
320.6246310522442
 20
303.9675691080006
 30
0.0
 10
321.4119492469922
 20
303.8024586446183
 30
0.0
 10
322.9871308948657
 20
303.4576617404093
 30
0.0
 10
323.7750066218967
 20
303.2779906386057
 30
0.0
 10
324.7618816754122
 20
303.0470918404942
 30
0.0
 10
324.9593578500125
 20
303.0005990041035
 30
0.0
 10
325.3545521900892
 20
302.9070649460855
 30
0.0
 10
325.5522730718579
 20
302.8600284331826
 30
0.0
 10
326.1457377815955
 20
302.7180246932452
 30
0.0
 10
326.541779572667
 20
302.6221591393842
 30
0.0
 10
327.3343536358873
 20
302.4276084656063
 30
0.0
 10
327.7308616594261
 20
302.3289283715318
 30
0.0
 10
328.5236745987407
 20
302.1285288026716
 30
0.0
 10
328.9200377828249
 20
302.0267951676562
 30
0.0
 10
330.1087904074899
 20
301.7166312268878
 30
0.0
 10
330.9008177564127
 20
301.5031992676322
 30
0.0
 10
332.4835816484094
 20
301.0621323050331
 30
0.0
 10
333.2742409414778
 20
300.834323612793
 30
0.0
 10
334.8559170771592
 20
300.3672601944479
 30
0.0
 10
335.6470911369856
 20
300.1280257327969
 30
0.0
 10
337.229688213598
 20
299.640912983473
 30
0.0
 10
338.021230320093
 20
299.3929943313291
 30
0.0
 10
339.605283840602
 20
298.889642786018
 30
0.0
 10
340.3977920769615
 20
298.6342095380846
 30
0.0
 10
341.1907784293691
 20
298.3751116562794
 30
0.0
  0
SPLINE
  5
1E8
330
1F
100
AcDbEntity
  8
1
100
AcDbSpline
210
0.0
220
0.0
230
1.0
 70
     8
 71
     3
 72
    46
 73
    42
 74
     0
 42
0.000000001
 43
0.0000000001
 40
0.0
 40
0.0
 40
0.0
 40
0.0
 40
0.051747781721151
 40
0.051747781721151
 40
0.1034955634423021
 40
0.1034955634423021
 40
0.1293694543028781
 40
0.1293694543028781
 40
0.1552433451634542
 40
0.1552433451634542
 40
0.2069911268846063
 40
0.2069911268846063
 40
0.2587389086057584
 40
0.2587389086057584
 40
0.3104866903269105
 40
0.3104866903269105
 40
0.3363605811874865
 40
0.3363605811874865
 40
0.3622344720480624
 40
0.3622344720480624
 40
0.4139822537692135
 40
0.4139822537692135
 40
0.5174778172115165
 40
0.5174778172115165
 40
0.6209733806538195
 40
0.6209733806538195
 40
0.6727211623749711
 40
0.6727211623749711
 40
0.7244689440961225
 40
0.7244689440961225
 40
0.776216725817274
 40
0.776216725817274
 40
0.8279645075384253
 40
0.8279645075384253
 40
0.8797122892595771
 40
0.8797122892595771
 40
0.9314600709807281
 40
0.9314600709807281
 40
0.9832078527018795
 40
0.9832078527018795
 40
1.0
 40
1.0
 40
1.0
 40
1.0
 10
357.1046426292129
 20
306.3238394742991
 30
0.0
 10
356.6165917572377
 20
306.3583341676395
 30
0.0
 10
356.1169719122217
 20
306.3806234448619
 30
0.0
 10
355.0934089235791
 20
306.4064816504475
 30
0.0
 10
354.5694529766968
 20
306.4100647836875
 30
0.0
 10
353.7654045542942
 20
306.4053634384223
 30
0.0
 10
353.4943715698168
 20
306.4021121013679
 30
0.0
 10
352.946515742794
 20
306.3928223053795
 30
0.0
 10
352.6711225015846
 20
306.3868103746467
 30
0.0
 10
351.8408344944006
 20
306.365531428357
 30
0.0
 10
351.28180325686
 20
306.3470805800945
 30
0.0
 10
350.154963296019
 20
306.3047998694412
 30
0.0
 10
349.5871589597486
 20
306.2809674186844
 30
0.0
 10
348.4458626369691
 20
306.2292068248457
 30
0.0
 10
347.8723776440899
 20
306.2012746160407
 30
0.0
 10
347.0107124886631
 20
306.1559460009148
 30
0.0
 10
346.7232557964463
 20
306.1402514160548
 30
0.0
 10
346.1483865678121
 20
306.1074779916491
 30
0.0
 10
345.8610041338159
 20
306.0903805412412
 30
0.0
 10
344.9991083234513
 20
306.0368925131846
 30
0.0
 10
344.4248233551172
 20
305.9983206024366
 30
0.0
 10
342.7032104918429
 20
305.8734924944716
 30
0.0
 10
341.5571575244003
 20
305.7781325112943
 30
0.0
 10
339.2695422954038
 20
305.5605764371252
 30
0.0
 10
338.1279586201567
 20
305.4383808923891
 30
0.0
 10
336.4192169549371
 20
305.2328469448756
 30
0.0
 10
335.8502379630337
 20
305.1606282458472
 30
0.0
 10
334.7135681175343
 20
305.0083161776599
 30
0.0
 10
334.1458741706909
 20
304.9282283198021
 30
0.0
 10
333.0119767318942
 20
304.7595085887934
 30
0.0
 10
332.4457790750114
 20
304.6708730237748
 30
0.0
 10
331.3152581926814
 20
304.4840200982026
 30
0.0
 10
330.750903558054
 20
304.3858330942383
 30
0.0
 10
329.6237793859157
 20
304.1795981933732
 30
0.0
 10
329.0610144629462
 20
304.0715415248338
 30
0.0
 10
327.9367073073922
 20
303.8454622173952
 30
0.0
 10
327.3751673202203
 20
303.7274316172703
 30
0.0
 10
326.2526956445262
 20
303.4818058328572
 30
0.0
 10
325.6917166899821
 20
303.3541937206078
 30
0.0
 10
324.948634251846
 20
303.1796123796147
 30
0.0
 10
324.766638767333
 20
303.1364145304686
 30
0.0
 10
324.5846899377376
 20
303.0928104828437
 30
0.0
  0
SPLINE
  5
1E9
330
1F
100
AcDbEntity
  8
1
100
AcDbSpline
210
0.0
220
0.0
230
1.0
 70
     8
 71
     3
 72
    31
 73
    27
 74
     0
 42
0.000000001
 43
0.0000000001
 40
0.0
 40
0.0
 40
0.0
 40
0.0
 40
0.0625
 40
0.0625
 40
0.125
 40
0.125
 40
0.1874999999999999
 40
0.1874999999999999
 40
0.2499999999999999
 40
0.2499999999999999
 40
0.3750000000000002
 40
0.3750000000000002
 40
0.4375000000000007
 40
0.4375000000000007
 40
0.4687500000000008
 40
0.4687500000000008
 40
0.4843750000000007
 40
0.4843750000000007
 40
0.5000000000000007
 40
0.6250000000000006
 40
0.6250000000000006
 40
0.7500000000000004
 40
0.7500000000000004
 40
0.8750000000000001
 40
0.8750000000000001
 40
1.0
 40
1.0
 40
1.0
 40
1.0
 10
289.3923341230149
 20
271.4357382973793
 30
0.0
 10
289.1386788518495
 20
271.4299019668957
 30
0.0
 10
288.8886169080045
 20
271.4186895842155
 30
0.0
 10
288.3949282304873
 20
271.3869879855629
 30
0.0
 10
288.1513035666931
 20
271.3664962419717
 30
0.0
 10
287.6699319279871
 20
271.317448500376
 30
0.0
 10
287.4321863034324
 20
271.2888907541224
 30
0.0
 10
286.9621529717829
 20
271.2247308975402
 30
0.0
 10
286.7298661752408
 20
271.1891275205174
 30
0.0
 10
286.0407201924652
 20
271.0730579483783
 30
0.0
 10
285.5915440845061
 20
270.9833746012279
 30
0.0
 10
284.931962119001
 20
270.8346607962094
 30
0.0
 10
284.7144737203205
 20
270.7827129522731
 30
0.0
 10
284.3917157120222
 20
270.7016739190776
 30
0.0
 10
284.2847092105476
 20
270.6741408750925
 30
0.0
 10
284.1250616364086
 20
270.6321133385024
 30
0.0
 10
284.0719745971482
 20
270.6179787084017
 30
0.0
 10
283.9662363145486
 20
270.589515689051
 30
0.0
 10
283.4922431840972
 20
270.4605208503971
 30
0.0
 10
283.0344468176323
 20
270.3237801557489
 30
0.0
 10
282.2446823799452
 20
270.0727393370879
 30
0.0
 10
281.8618574902079
 20
269.9432288020361
 30
0.0
 10
281.1196473491286
 20
269.6800496920442
 30
0.0
 10
280.7602668287001
 20
269.5463647884513
 30
0.0
 10
280.0648946856668
 20
269.2786458581806
 30
0.0
 10
279.7289044769245
 20
269.1445906196279
 30
0.0
 10
279.4048419452957
 20
269.0125452105011
 30
0.0
  0
SPLINE
  5
1EA
330
1F
100
AcDbEntity
  8
1
100
AcDbSpline
210
0.0
220
0.0
230
1.0
 70
     8
 71
     3
 72
    30
 73
    26
 74
     0
 42
0.000000001
 43
0.0000000001
 40
0.0
 40
0.0
 40
0.0
 40
0.0
 40
0.0625000000000024
 40
0.0625000000000024
 40
0.1250000000000047
 40
0.1250000000000047
 40
0.1562500000000046
 40
0.1562500000000046
 40
0.1875000000000044
 40
0.1875000000000044
 40
0.2500000000000041
 40
0.2500000000000041
 40
0.3125000000000037
 40
0.3125000000000037
 40
0.3750000000000034
 40
0.3750000000000034
 40
0.4375000000000031
 40
0.4375000000000031
 40
0.5000000000000027
 40
0.5000000000000027
 40
0.6250000000000022
 40
0.6250000000000022
 40
0.7500000000000015
 40
0.7500000000000015
 40
1.0
 40
1.0
 40
1.0
 40
1.0
 10
352.6880587363613
 20
291.8528455499616
 30
0.0
 10
352.4578900024177
 20
291.9643154369272
 30
0.0
 10
352.2246958504414
 20
292.0804557133015
 30
0.0
 10
351.7538284692526
 20
292.3196506939613
 30
0.0
 10
351.5161470169882
 20
292.4427180923121
 30
0.0
 10
351.1570519987591
 20
292.6312909265613
 30
0.0
 10
351.0369216772586
 20
292.6948153960982
 30
0.0
 10
350.79589827713
 20
292.8230418163561
 30
0.0
 10
350.6748842531371
 20
292.8878093839534
 30
0.0
 10
350.3122548605518
 20
293.0829102229509
 30
0.0
 10
350.0707300440837
 20
293.2142019641942
 30
0.0
 10
349.5880372297964
 20
293.4787008655304
 30
0.0
 10
349.346869677179
 20
293.6119104154863
 30
0.0
 10
348.8648249257732
 20
293.8798881480506
 30
0.0
 10
348.6239479839759
 20
294.0146577102
 30
0.0
 10
348.1424394371178
 20
294.2855138133347
 30
0.0
 10
347.9018079870102
 20
294.421601186117
 30
0.0
 10
347.4207609607846
 20
294.6949347531444
 30
0.0
 10
347.1803454806918
 20
294.8321814628569
 30
0.0
 10
346.4593965584087
 20
295.2455186822197
 30
0.0
 10
345.9791567975042
 20
295.5231856864635
 30
0.0
 10
345.0194337890646
 20
296.0825806933652
 30
0.0
 10
344.5399535848637
 20
296.3643250327805
 30
0.0
 10
343.102648983675
 20
297.2156562123249
 30
0.0
 10
342.1459583831061
 20
297.7913293235583
 30
0.0
 10
341.190778429387
 20
298.3751116562685
 30
0.0
  0
SPLINE
  5
1EB
330
1F
100
AcDbEntity
  8
1
100
AcDbSpline
210
0.0
220
0.0
230
1.0
 70
     8
 71
     3
 72
    34
 73
    30
 74
     0
 42
0.000000001
 43
0.0000000001
 40
0.0
 40
0.0
 40
0.0
 40
0.0
 40
0.0624999999999989
 40
0.0624999999999989
 40
0.1249999999999978
 40
0.1249999999999978
 40
0.2499999999999955
 40
0.2499999999999955
 40
0.2812499999999992
 40
0.2812499999999992
 40
0.3125000000000029
 40
0.3125000000000029
 40
0.3750000000000283
 40
0.3750000000000283
 40
0.5000000000000606
 40
0.5000000000000606
 40
0.5625000000000674
 40
0.5625000000000674
 40
0.5937500000000706
 40
0.5937500000000706
 40
0.6250000000000739
 40
0.6250000000000739
 40
0.6875000000000617
 40
0.6875000000000617
 40
0.7500000000000492
 40
0.7500000000000492
 40
0.8750000000000246
 40
0.8750000000000246
 40
1.0
 40
1.0
 40
1.0
 40
1.0
 10
361.3380126728468
 20
293.3603236991528
 30
0.0
 10
361.2999622560779
 20
293.3350996095003
 30
0.0
 10
361.2614931747655
 20
293.3110332058268
 30
0.0
 10
361.1836865616236
 20
293.2651156681803
 30
0.0
 10
361.144349290975
 20
293.2432649075881
 30
0.0
 10
361.0249876079719
 20
293.180948804018
 30
0.0
 10
360.9436199277821
 20
293.1437048053572
 30
0.0
 10
360.8394437556929
 20
293.1024782751797
 30
0.0
 10
360.8184846943013
 20
293.0945005938551
 30
0.0
 10
360.776310975641
 20
293.0790841611783
 30
0.0
 10
360.7550711296759
 20
293.0716372135551
 30
0.0
 10
360.6911862639587
 20
293.0501895811628
 30
0.0
 10
360.6483704115792
 20
293.0370749462492
 30
0.0
 10
360.5191604294983
 20
293.0012446648514
 30
0.0
 10
360.4320077790178
 20
292.9820242726894
 30
0.0
 10
360.2993386433559
 20
292.9603759293933
 30
0.0
 10
360.2547909606352
 20
292.9543615692643
 30
0.0
 10
360.1874277081408
 20
292.9472054642368
 30
0.0
 10
360.1648830434453
 20
292.9451312653656
 30
0.0
 10
360.1196052335812
 20
292.9416185286848
 30
0.0
 10
360.0968394845829
 20
292.9401784731942
 30
0.0
 10
360.0284641977743
 20
292.9368442450851
 30
0.0
 10
359.9832079565239
 20
292.9359525560919
 30
0.0
 10
359.8933107068904
 20
292.9367159445441
 30
0.0
 10
359.8486691556169
 20
292.9383706921188
 30
0.0
 10
359.7155606072089
 20
292.9470117964417
 30
0.0
 10
359.6279078669567
 20
292.957657259218
 30
0.0
 10
359.454101268262
 20
292.9883266981396
 30
0.0
 10
359.3679439677784
 20
293.008349494685
 30
0.0
 10
359.2822360954111
 20
293.0331473106678
 30
0.0
  0
SPLINE
  5
1EC
330
1F
100
AcDbEntity
  8
1
100
AcDbSpline
210
0.0
220
0.0
230
1.0
 70
     8
 71
     3
 72
    26
 73
    22
 74
     0
 42
0.000000001
 43
0.0000000001
 40
0.0
 40
0.0
 40
0.0
 40
0.0
 40
0.1249999999999926
 40
0.2499999999999851
 40
0.3749999999999776
 40
0.4062499999999772
 40
0.4062499999999772
 40
0.4374999999999771
 40
0.4374999999999771
 40
0.4999999999999764
 40
0.4999999999999764
 40
0.624999999999975
 40
0.624999999999975
 40
0.6874999999999773
 40
0.7187499999999784
 40
0.7187499999999784
 40
0.7499999999999794
 40
0.7499999999999794
 40
0.8749999999999896
 40
0.8749999999999896
 40
1.0
 40
1.0
 40
1.0
 40
1.0
 10
359.2823956729575
 20
292.7612127972697
 30
0.0
 10
359.0035840010714
 20
292.7514185119904
 30
0.0
 10
358.4474781284539
 20
292.7501835955169
 30
0.0
 10
357.617794653274
 20
292.8024282277466
 30
0.0
 10
356.9988763188121
 20
292.8820003791847
 30
0.0
 10
356.6562052614019
 20
292.9403490831701
 30
0.0
 10
356.5192312335794
 20
292.9648266353465
 30
0.0
 10
356.4507618694361
 20
292.9776398146544
 30
0.0
 10
356.2457032392243
 20
293.0177526673866
 30
0.0
 10
356.1096536495472
 20
293.0466857374458
 30
0.0
 10
355.7034595671023
 20
293.140004925835
 30
0.0
 10
355.4352675877111
 20
293.2109041851804
 30
0.0
 10
355.0368703683428
 20
293.3301952589605
 30
0.0
 10
354.838645264199
 20
293.3930789282017
 30
0.0
 10
354.6418849471679
 20
293.4608265438803
 30
0.0
 10
354.511037931254
 20
293.507074841697
 30
0.0
 10
354.4457472389019
 20
293.5307520548862
 30
0.0
 10
354.120586958287
 20
293.6516746268938
 30
0.0
 10
353.8645371805137
 20
293.7565298362004
 30
0.0
 10
353.3605096351806
 20
293.9822187427454
 30
0.0
 10
353.1125319272419
 20
294.1030529503061
 30
0.0
 10
352.8686026549642
 20
294.231844407632
 30
0.0
  0
SPLINE
  5
1ED
330
1F
100
AcDbEntity
  8
1
100
AcDbSpline
210
0.0
220
0.0
230
1.0
 70
     8
 71
     3
 72
     8
 73
     4
 74
     0
 42
0.000000001
 43
0.0000000001
 40
0.0
 40
0.0
 40
0.0
 40
0.0
 40
1.0
 40
1.0
 40
1.0
 40
1.0
 10
359.2823956729575
 20
292.7612127972697
 30
0.0
 10
359.2859533140278
 20
292.7613377724952
 30
0.0
 10
359.2895119197909
 20
292.7614623472325
 30
0.0
 10
359.2930714918052
 20
292.7615865208344
 30
0.0
  0
SPLINE
  5
1EE
330
1F
100
AcDbEntity
  8
1
100
AcDbSpline
210
0.0
220
0.0
230
1.0
 70
     8
 71
     3
 72
    25
 73
    21
 74
     0
 42
0.000000001
 43
0.0000000001
 40
0.0
 40
0.0
 40
0.0
 40
0.0
 40
0.125000000000001
 40
0.125000000000001
 40
0.2500000000000019
 40
0.2500000000000019
 40
0.3125000000000052
 40
0.3125000000000052
 40
0.3750000000000084
 40
0.3750000000000084
 40
0.5000000000000148
 40
0.5000000000000148
 40
0.5625000000000151
 40
0.5625000000000151
 40
0.6250000000000156
 40
0.6250000000000156
 40
0.7500000000000105
 40
0.8750000000000051
 40
0.8750000000000051
 40
1.0
 40
1.0
 40
1.0
 40
1.0
 10
352.7204709670386
 20
290.9055091549888
 30
0.0
 10
352.9705120538353
 20
290.752472816835
 30
0.0
 10
353.2255360522744
 20
290.6090520235109
 30
0.0
 10
353.7454454580192
 20
290.3413656373775
 30
0.0
 10
354.0103305991629
 20
290.2170993976561
 30
0.0
 10
354.4150799943529
 20
290.0452001880041
 30
0.0
 10
354.5513376160274
 20
289.9902846807789
 30
0.0
 10
354.8252508223837
 20
289.8857388061986
 30
0.0
 10
354.963017164422
 20
289.8360570141541
 30
0.0
 10
355.378729494459
 20
289.6947432942528
 30
0.0
 10
355.659085533593
 20
289.6108328811724
 30
0.0
 10
356.0844357620828
 20
289.5004289226824
 30
0.0
 10
356.2270573639949
 20
289.4661994292123
 30
0.0
 10
356.5137743118593
 20
289.4029640207975
 30
0.0
 10
356.6573768756111
 20
289.3740653585336
 30
0.0
 10
357.0889071497465
 20
289.2954212189722
 30
0.0
 10
357.6662056753927
 20
289.2120113251538
 30
0.0
 10
358.2473014176458
 20
289.1709351941772
 30
0.0
 10
358.8303023939164
 20
289.1511048441549
 30
0.0
 10
359.1227554227808
 20
289.1518117137874
 30
0.0
 10
359.4161812386492
 20
289.1633663019859
 30
0.0
  0
SPLINE
  5
1EF
330
1F
100
AcDbEntity
  8
1
100
AcDbSpline
210
0.0
220
0.0
230
1.0
 70
     8
 71
     3
 72
    80
 73
    76
 74
     0
 42
0.000000001
 43
0.0000000001
 40
0.0
 40
0.0
 40
0.0
 40
0.0
 40
0.0624999999999967
 40
0.0624999999999967
 40
0.1249999999999933
 40
0.1249999999999933
 40
0.1562499999999925
 40
0.1562499999999925
 40
0.1874999999999916
 40
0.1874999999999916
 40
0.2499999999999885
 40
0.2499999999999885
 40
0.3124999999999855
 40
0.3124999999999855
 40
0.3749999999999823
 40
0.3749999999999823
 40
0.4062499999999807
 40
0.4062499999999807
 40
0.4218749999999798
 40
0.4296874999999795
 40
0.4296874999999795
 40
0.4374999999999791
 40
0.4374999999999791
 40
0.4687499999999791
 40
0.4687499999999791
 40
0.4999999999999791
 40
0.4999999999999791
 40
0.5156249999999786
 40
0.5156249999999786
 40
0.5234374999999783
 40
0.5234374999999783
 40
0.5312499999999778
 40
0.5312499999999778
 40
0.5624999999999759
 40
0.5624999999999759
 40
0.5937499999999738
 40
0.5937499999999738
 40
0.6093749999999727
 40
0.6093749999999727
 40
0.6171874999999723
 40
0.6171874999999723
 40
0.6249999999999717
 40
0.6249999999999717
 40
0.6562499999999694
 40
0.6562499999999694
 40
0.6718749999999679
 40
0.6718749999999679
 40
0.6796874999999675
 40
0.6796874999999675
 40
0.6874999999999673
 40
0.6874999999999673
 40
0.7187499999999665
 40
0.7187499999999665
 40
0.7343749999999659
 40
0.7421874999999666
 40
0.7421874999999666
 40
0.7499999999999673
 40
0.7499999999999673
 40
0.7812499999999699
 40
0.7812499999999699
 40
0.8124999999999728
 40
0.8124999999999728
 40
0.8281249999999742
 40
0.8281249999999742
 40
0.8437499999999754
 40
0.8437499999999754
 40
0.8749999999999804
 40
0.8749999999999804
 40
0.9062499999999852
 40
0.9062499999999852
 40
0.9374999999999902
 40
0.9374999999999902
 40
0.9687499999999952
 40
0.9687499999999952
 40
1.0
 40
1.0
 40
1.0
 40
1.0
 10
352.8686026549642
 20
294.231844407632
 30
0.0
 10
353.0617497923983
 20
294.0790988595105
 30
0.0
 10
353.2540950400521
 20
293.9324674119772
 30
0.0
 10
353.6355944461076
 20
293.6505898740291
 30
0.0
 10
353.824751910772
 20
293.515346046385
 30
0.0
 10
354.104629528002
 20
293.3203599212678
 30
0.0
 10
354.1972757779835
 20
293.2566772840204
 30
0.0
 10
354.3809861531816
 20
293.1318178997107
 30
0.0
 10
354.4721318453828
 20
293.0705876583011
 30
0.0
 10
354.7417854981996
 20
292.8910733501701
 30
0.0
 10
354.9167030569631
 20
292.7768468709422
 30
0.0
 10
355.2538736272396
 20
292.5579598261397
 30
0.0
 10
355.4161185443827
 20
292.4533028544008
 30
0.0
 10
355.7242534837616
 20
292.2520913125256
 30
0.0
 10
355.8702954557376
 20
292.155519625004
 30
0.0
 10
356.0736121691129
 20
292.0155361340633
 30
0.0
 10
356.1387474739206
 20
291.9696864320366
 30
0.0
 10
356.2318583147718
 20
291.9019756509749
 30
0.0
 10
356.2772634138302
 20
291.8683861508
 30
0.0
 10
356.3207978829632
 20
291.8351664136798
 30
0.0
 10
356.3493867967537
 20
291.8130988567606
 30
0.0
 10
356.363468867079
 20
291.8021007982235
 30
0.0
 10
356.4325911067054
 20
291.7474238902709
 30
0.0
 10
356.4838977574857
 20
291.7045942825971
 30
0.0
 10
356.5773043164318
 20
291.6205934606228
 30
0.0
 10
356.6194110802091
 20
291.5794211765598
 30
0.0
 10
356.6744223620224
 20
291.5188257391695
 30
0.0
 10
356.6913972483696
 20
291.4988216436753
 30
0.0
 10
356.7146125609328
 20
291.4691039070356
 30
0.0
 10
356.721976112995
 20
291.4592461189465
 30
0.0
 10
356.7359142890976
 20
291.4396270502987
 30
0.0
 10
356.7424892422596
 20
291.4298639032513
 30
0.0
 10
356.7731758667767
 20
291.381475269192
 30
0.0
 10
356.7908617628724
 20
291.3439760344551
 30
0.0
 10
356.8100808268084
 20
291.2716231950841
 30
0.0
 10
356.8116285635614
 20
291.2367636469498
 30
0.0
 10
356.7992701276879
 20
291.1868746636095
 30
0.0
 10
356.7926947385938
 20
291.1706482253404
 30
0.0
 10
356.7787204121556
 20
291.1470047124693
 30
0.0
 10
356.7733762602933
 20
291.1392398836962
 30
0.0
 10
356.761233448593
 20
291.1239625432605
 30
0.0
 10
356.7544216484486
 20
291.1164406506032
 30
0.0
 10
356.716852612694
 20
291.079829899331
 30
0.0
 10
356.6754186941269
 20
291.0534806407168
 30
0.0
 10
356.5947041357583
 20
291.019327042465
 30
0.0
 10
356.5647042985557
 20
291.0088417817778
 30
0.0
 10
356.5148776133969
 20
290.9946223306793
 30
0.0
 10
356.4974643128984
 20
290.9901342009848
 30
0.0
 10
356.4609998438784
 20
290.9816912604989
 30
0.0
 10
356.4419144158392
 20
290.977732060425
 30
0.0
 10
356.343330085205
 20
290.9595161492431
 30
0.0
 10
356.2536225550738
 20
290.9498836535531
 30
0.0
 10
356.10482885241
 20
290.9431587996262
 30
0.0
 10
356.0268841953865
 20
290.9417247878845
 30
0.0
 10
355.9440441805297
 20
290.9432290714288
 30
0.0
 10
355.8877788322537
 20
290.9448889544155
 30
0.0
 10
355.8590896784652
 20
290.946050305437
 30
0.0
 10
355.7142329366866
 20
290.9534449231638
 30
0.0
 10
355.5931563429693
 20
290.964439315
 30
0.0
 10
355.3438575720422
 20
290.9956077877771
 30
0.0
 10
355.2156267116671
 20
291.0157847112027
 30
0.0
 10
355.0197292937081
 20
291.0523635436488
 30
0.0
 10
354.9538328065005
 20
291.0656101018053
 30
0.0
 10
354.8210903269558
 20
291.0941292056035
 30
0.0
 10
354.7542001745877
 20
291.1094124865747
 30
0.0
 10
354.5527120114936
 20
291.1581222024847
 30
0.0
 10
354.4179462048579
 20
291.194241302109
 30
0.0
 10
354.1485303222463
 20
291.2731060989703
 30
0.0
 10
354.0138761907933
 20
291.3158537175354
 30
0.0
 10
353.7453693829833
 20
291.4074952737884
 30
0.0
 10
353.6115141249397
 20
291.4563903901226
 30
0.0
 10
353.3450890758952
 20
291.5599807564958
 30
0.0
 10
353.2125175682833
 20
291.6146767688888
 30
0.0
 10
352.9490047463469
 20
291.7296287955301
 30
0.0
 10
352.8180622520943
 20
291.7898853165902
 30
0.0
 10
352.6880587363613
 20
291.8528455499616
 30
0.0
  0
SPLINE
  5
1F0
330
1F
100
AcDbEntity
  8
1
100
AcDbSpline
210
0.0
220
0.0
230
1.0
 70
     8
 71
     3
 72
    12
 73
     8
 74
     0
 42
0.000000001
 43
0.0000000001
 40
0.0
 40
0.0
 40
0.0
 40
0.0
 40
0.4999999999999709
 40
0.4999999999999709
 40
0.7499999999999855
 40
0.7499999999999855
 40
1.0
 40
1.0
 40
1.0
 40
1.0
 10
359.2822360954103
 20
293.0331473106681
 30
0.0
 10
359.1807343345895
 20
293.0625147645234
 30
0.0
 10
359.081761823036
 20
293.0979886004818
 30
0.0
 10
358.936639547403
 20
293.1601504170266
 30
0.0
 10
358.888824152446
 20
293.1823689883089
 30
0.0
 10
358.7942524540425
 20
293.2298417710138
 30
0.0
 10
358.7474966663955
 20
293.2550956397272
 30
0.0
 10
358.7012400822171
 20
293.2819148097167
 30
0.0
  0
SPLINE
  5
1F1
330
1F
100
AcDbEntity
  8
1
100
AcDbSpline
210
0.0
220
0.0
230
1.0
 70
    12
 71
     2
 72
     6
 73
     3
 74
     0
 42
0.000000001
 43
0.0000000001
 40
0.0
 40
0.0
 40
0.0
 40
1.0
 40
1.0
 40
1.0
 10
357.6952001765022
 20
306.3498514516804
 30
0.0
 41
0.5000005929675368
 10
357.8073826368417
 20
306.3496919792026
 30
0.0
 41
0.4999994070324634
 10
357.9195642864896
 20
306.3495320700584
 30
0.0
 41
0.5000005929675368
  0
SPLINE
  5
1F2
330
1F
100
AcDbEntity
  8
1
100
AcDbSpline
210
0.0
220
0.0
230
1.0
 70
     8
 71
     3
 72
    15
 73
    11
 74
     0
 42
0.000000001
 43
0.0000000001
 40
0.0
 40
0.0
 40
0.0
 40
0.0
 40
0.0624999999999983
 40
0.0624999999999983
 40
0.1249999999999966
 40
0.2499999999999971
 40
0.2499999999999971
 40
0.4999999999999981
 40
0.7499999999999991
 40
1.0
 40
1.0
 40
1.0
 40
1.0
 10
302.9048419453915
 20
306.0783830907491
 30
0.0
 10
302.8477846381481
 20
306.078383090749
 30
0.0
 10
302.7907046431703
 20
306.0784927502742
 30
0.0
 10
302.6768522696952
 20
306.0789289736508
 30
0.0
 10
302.5063775961019
 20
306.0799084888269
 30
0.0
 10
302.3368057495332
 20
306.0818508220287
 30
0.0
 10
301.9988465832967
 20
306.0869763133756
 30
0.0
 10
301.5513903099719
 20
306.0971252384697
 30
0.0
 10
300.8894696583438
 20
306.1213809867748
 30
0.0
 10
300.4543123690512
 20
306.1427660656204
 30
0.0
 10
300.2382713817424
 20
306.154507431056
 30
0.0
  0
SPLINE
  5
1F3
330
1F
100
AcDbEntity
  8
1
100
AcDbSpline
210
0.0
220
0.0
230
1.0
 70
     8
 71
     3
 72
     8
 73
     4
 74
     0
 42
0.000000001
 43
0.0000000001
 40
0.0
 40
0.0
 40
0.0
 40
0.0
 40
1.0
 40
1.0
 40
1.0
 40
1.0
 10
357.151359088907
 20
301.6217092543481
 30
0.0
 10
357.1331605153428
 20
303.189062299567
 30
0.0
 10
357.1179653565473
 20
304.75644244069
 30
0.0
 10
357.1046426292129
 20
306.3238394743257
 30
0.0
  0
SPLINE
  5
1F4
330
1F
100
AcDbEntity
  8
1
100
AcDbSpline
210
0.0
220
0.0
230
1.0
 70
    12
 71
     2
 72
     6
 73
     3
 74
     0
 42
0.000000001
 43
0.0000000001
 40
0.0
 40
0.0
 40
0.0
 40
1.0
 40
1.0
 40
1.0
 10
357.1046426291387
 20
306.3238394742992
 30
0.0
 41
0.4999999104115849
 10
357.3975186456938
 20
306.3233384420757
 30
0.0
 41
0.5000000895884153
 10
357.6903862804602
 20
306.3228344341049
 30
0.0
 41
0.4999999104115849
  0
SPLINE
  5
1F5
330
1F
100
AcDbEntity
  8
1
100
AcDbSpline
210
0.0
220
0.0
230
1.0
 70
    28
 71
     4
 72
    13
 73
     8
 74
     0
 42
0.000000001
 43
0.0000000001
 40
0.0
 40
0.0
 40
0.0
 40
0.0
 40
0.0
 40
0.1744423325724952
 40
0.1744423325724952
 40
0.1744423325724952
 40
1.0
 40
1.0
 40
1.0
 40
1.0
 40
1.0
 10
302.9048419452957
 20
280.0616863376596
 30
0.0
 41
1.000549984382063
 10
302.9048419452958
 20
279.7300465788229
 30
0.0
 41
1.000975740911982
 10
302.9048419452958
 20
279.3952822787945
 30
0.0
 41
1.001336146467599
 10
302.9048419452957
 20
279.0592471668719
 30
0.0
 41
1.00156323924462
 10
302.9048419452957
 20
277.1370510237744
 30
0.0
 41
1.00156323924462
 10
302.9048419452957
 20
275.3612019666315
 30
0.0
 41
0.9964770281457223
 10
302.9048419452957
 20
273.6042290377369
 30
0.0
 41
0.9962448445977072
 10
302.9048419452957
 20
272.0468223376715
 30
0.0
 41
0.9978557877225442
  0
SPLINE
  5
1F6
330
1F
100
AcDbEntity
  8
1
100
AcDbSpline
210
0.0
220
0.0
230
1.0
 70
     9
 71
     3
 72
   133
 73
   129
 74
     0
 42
0.000000001
 43
0.0000000001
 40
0.0
 40
0.0
 40
0.0
 40
0.0
 40
0.0312500000000179
 40
0.0312500000000179
 40
0.0468750000000268
 40
0.0468750000000268
 40
0.0546875000000305
 40
0.0546875000000305
 40
0.0625000000000343
 40
0.0625000000000343
 40
0.0937500000000461
 40
0.0937500000000461
 40
0.1093750000000507
 40
0.1093750000000507
 40
0.1250000000000554
 40
0.1250000000000554
 40
0.1562500000000615
 40
0.1562500000000615
 40
0.164062500000063
 40
0.164062500000063
 40
0.1718750000000646
 40
0.1718750000000646
 40
0.1875000000000635
 40
0.2031250000000624
 40
0.2031250000000624
 40
0.210937500000064
 40
0.210937500000064
 40
0.2187500000000657
 40
0.2187500000000657
 40
0.2500000000000633
 40
0.2500000000000633
 40
0.2656250000000622
 40
0.2656250000000622
 40
0.2734375000000638
 40
0.2734375000000638
 40
0.2812500000000655
 40
0.2812500000000655
 40
0.3125000000000677
 40
0.3125000000000677
 40
0.3203125000000672
 40
0.3203125000000672
 40
0.3281250000000667
 40
0.3281250000000667
 40
0.3437500000000657
 40
0.3593750000000647
 40
0.3593750000000647
 40
0.3671875000000641
 40
0.3671875000000641
 40
0.3750000000000635
 40
0.3750000000000635
 40
0.4062500000000611
 40
0.4062500000000611
 40
0.4218750000000611
 40
0.4218750000000611
 40
0.4296875000000611
 40
0.4296875000000611
 40
0.4375000000000611
 40
0.4375000000000611
 40
0.4687500000000596
 40
0.4687500000000596
 40
0.4765625000000594
 40
0.4765625000000594
 40
0.4843750000000589
 40
0.4843750000000589
 40
0.5000000000000579
 40
0.5000000000000579
 40
0.5312500000000564
 40
0.5312500000000564
 40
0.5390625000000568
 40
0.5390625000000568
 40
0.546875000000057
 40
0.546875000000057
 40
0.5625000000000564
 40
0.5781250000000559
 40
0.5781250000000559
 40
0.5859375000000555
 40
0.5859375000000555
 40
0.5937500000000552
 40
0.5937500000000552
 40
0.6250000000000623
 40
0.6250000000000623
 40
0.6406250000000661
 40
0.6406250000000661
 40
0.6484375000000675
 40
0.6484375000000675
 40
0.6562500000000691
 40
0.6562500000000691
 40
0.6875000000000715
 40
0.6875000000000715
 40
0.6953125000000742
 40
0.6953125000000742
 40
0.703125000000077
 40
0.703125000000077
 40
0.718750000000078
 40
0.718750000000078
 40
0.7500000000000762
 40
0.7500000000000762
 40
0.7578125000000746
 40
0.7578125000000746
 40
0.765625000000073
 40
0.765625000000073
 40
0.7812500000000741
 40
0.7968750000000754
 40
0.7968750000000754
 40
0.8046875000000738
 40
0.8046875000000738
 40
0.8125000000000722
 40
0.8125000000000722
 40
0.8437500000000577
 40
0.8437500000000577
 40
0.8515625000000541
 40
0.8515625000000541
 40
0.8593750000000504
 40
0.8593750000000504
 40
0.8750000000000465
 40
0.8750000000000465
 40
0.9062500000000358
 40
0.9062500000000358
 40
0.9218750000000294
 40
0.9218750000000294
 40
0.9375000000000227
 40
0.9531250000000163
 40
0.9531250000000163
 40
0.9609375000000138
 40
0.9609375000000138
 40
0.9687500000000111
 40
0.9687500000000111
 40
1.0
 40
1.0
 40
1.0
 40
1.0
 10
363.9691615337858
 20
284.6341862655649
 30
0.0
 10
363.9708086294634
 20
284.7285483137394
 30
0.0
 10
363.9815596843043
 20
284.8214617960857
 30
0.0
 10
364.0109920926524
 20
284.9586938095029
 30
0.0
 10
364.0230359812999
 20
285.0040786932953
 30
0.0
 10
364.0445492295677
 20
285.0715962215273
 30
0.0
 10
364.0522958839734
 20
285.0940085833115
 30
0.0
 10
364.0689697060513
 20
285.138640450957
 30
0.0
 10
364.0778343814219
 20
285.1606912381801
 30
0.0
 10
364.124700158229
 20
285.2695049920588
 30
0.0
 10
364.1703115188744
 20
285.3521304625005
 30
0.0
 10
364.2509048667843
 20
285.4693692211115
 30
0.0
 10
364.2798122624907
 20
285.5073246807974
 30
0.0
 10
364.3418903794136
 20
285.5808774733159
 30
0.0
 10
364.3745886708002
 20
285.6159072320845
 30
0.0
 10
364.477231334185
 20
285.7155786180866
 30
0.0
 10
364.5518019763817
 20
285.7749983729742
 30
0.0
 10
364.6528726661655
 20
285.840228557836
 30
0.0
 10
364.6734991623384
 20
285.8528274632595
 30
0.0
 10
364.715498426099
 20
285.8770508707428
 30
0.0
 10
364.7367194740689
 20
285.8885889378485
 30
0.0
 10
364.8010334691222
 20
285.9215153183964
 30
0.0
 10
364.8885177920612
 20
285.9609246303268
 30
0.0
 10
364.9794047556103
 20
285.9914946232323
 30
0.0
 10
365.0488608354008
 20
286.0110640972192
 30
0.0
 10
365.0722283983409
 20
286.0170265737738
 30
0.0
 10
365.1194020465131
 20
286.0278101581121
 30
0.0
 10
365.1432768447955
 20
286.0326425188198
 30
0.0
 10
365.2628291450478
 20
286.0537196666555
 30
0.0
 10
365.3586917679096
 20
286.0608122271399
 30
0.0
 10
365.5028064407312
 20
286.0572502624133
 30
0.0
 10
365.5508985275945
 20
286.0536784087054
 30
0.0
 10
365.6231198739398
 20
286.0446377383656
 30
0.0
 10
365.6472341468673
 20
286.0410006938856
 30
0.0
 10
365.6949435990715
 20
286.0325758853638
 30
0.0
 10
365.7186057567362
 20
286.0277814786756
 30
0.0
 10
365.8359705406051
 20
286.0009515677269
 30
0.0
 10
365.9268631133486
 20
285.9704257972816
 30
0.0
 10
366.0367114824328
 20
285.9209168466854
 30
0.0
 10
366.0584910385257
 20
285.9104422538557
 30
0.0
 10
366.1016622160054
 20
285.8883252918448
 30
0.0
 10
366.1229221705424
 20
285.8767486928823
 30
0.0
 10
366.1855096379607
 20
285.840623847228
 30
0.0
 10
366.2659922812413
 20
285.7886405504526
 30
0.0
 10
366.3406829723118
 20
285.7292265808474
 30
0.0
 10
366.3945192403338
 20
285.6818749938661
 30
0.0
 10
366.4121003913481
 20
285.6656251223863
 30
0.0
 10
366.4465245341274
 20
285.6321824337912
 30
0.0
 10
366.4634094950562
 20
285.6149437691245
 30
0.0
 10
366.5454140858401
 20
285.5269320269634
 30
0.0
 10
366.602903982569
 20
285.4513131690234
 30
0.0
 10
366.6775181804937
 20
285.3304918532365
 30
0.0
 10
366.7004385603606
 20
285.2889766573942
 30
0.0
 10
366.7318357596572
 20
285.2248133159529
 30
0.0
 10
366.7418204096936
 20
285.2030641707803
 30
0.0
 10
366.7605891619966
 20
285.1593751726417
 30
0.0
 10
366.7693970531434
 20
285.1373921315126
 30
0.0
 10
366.8106146185341
 20
285.0268017093023
 30
0.0
 10
366.8346358829019
 20
284.9361884348899
 30
0.0
 10
366.8536341286162
 20
284.8203187100778
 30
0.0
 10
366.8568775697265
 20
284.7970133863443
 30
0.0
 10
366.8622366112093
 20
284.7501368549741
 30
0.0
 10
366.8643487083503
 20
284.7265599480396
 30
0.0
 10
366.8689320396466
 20
284.6561713890765
 30
0.0
 10
366.8696872435941
 20
284.6094535938172
 30
0.0
 10
366.8652635527797
 20
284.4699064402897
 30
0.0
 10
366.8534574787141
 20
284.3776790869693
 30
0.0
 10
366.8273788253745
 20
284.2634073410966
 30
0.0
 10
366.8215851563851
 20
284.2405926629918
 30
0.0
 10
366.8089747038222
 20
284.1955369497829
 30
0.0
 10
366.8021455246391
 20
284.1732361957004
 30
0.0
 10
366.7801110939055
 20
284.1070028667224
 30
0.0
 10
366.7466134819904
 20
284.0204727218552
 30
0.0
 10
366.7049631173894
 20
283.9374480256119
 30
0.0
 10
366.670610258404
 20
283.8765094462955
 30
0.0
 10
366.6586391957239
 20
283.856418623197
 30
0.0
 10
366.6336353197049
 20
283.8166884554837
 30
0.0
 10
366.6205675328073
 20
283.7970021774925
 30
0.0
 10
366.5531632164448
 20
283.7006462415297
 30
0.0
 10
366.4924496253512
 20
283.6296708849723
 30
0.0
 10
366.3912764004987
 20
283.5321925846867
 30
0.0
 10
366.3558561757073
 20
283.5012079783267
 30
0.0
 10
366.3000771434963
 20
283.4570727014486
 30
0.0
 10
366.2809937690389
 20
283.4427181274658
 30
0.0
 10
366.2421460324039
 20
283.4149780053588
 30
0.0
 10
366.2224403596742
 20
283.4016303738588
 30
0.0
 10
366.1225214756757
 20
283.3374642269808
 30
0.0
 10
366.0381772992708
 20
283.2942856788534
 30
0.0
 10
365.9271197206075
 20
283.2506374287022
 30
0.0
 10
365.904624274768
 20
283.2424288181074
 30
0.0
 10
365.859051884003
 20
283.2270770092375
 30
0.0
 10
365.8359212356477
 20
283.2199189276939
 30
0.0
 10
365.7660027711401
 20
283.2001952440496
 30
0.0
 10
365.7190725345303
 20
283.1894710709746
 30
0.0
 10
365.577352968803
 20
283.164369282669
 30
0.0
 10
365.481643752653
 20
283.1569921899075
 30
0.0
 10
365.3604167591567
 20
283.1598588418215
 30
0.0
 10
365.3360327807311
 20
283.161049307322
 30
0.0
 10
365.28765810375
 20
283.1646319879065
 30
0.0
 10
365.2636129983156
 20
283.1670225642798
 30
0.0
 10
365.1918956623773
 20
283.1759560558656
 30
0.0
 10
365.0973850820006
 20
283.1925564827342
 30
0.0
 10
365.0050574545437
 20
283.2183719393499
 30
0.0
 10
364.9366384287682
 20
283.241231666625
 30
0.0
 10
364.9139441297322
 20
283.2494458808001
 30
0.0
 10
364.8689466284699
 20
283.2670196525127
 30
0.0
 10
364.8467816386222
 20
283.2763236306297
 30
0.0
 10
364.7375795567116
 20
283.3253624006774
 30
0.0
 10
364.6553634331884
 20
283.3725788101917
 30
0.0
 10
364.5587973072738
 20
283.4413121498816
 30
0.0
 10
364.5397972030984
 20
283.4555490660063
 30
0.0
 10
364.5024292060563
 20
283.4850151372097
 30
0.0
 10
364.4840545526641
 20
283.5002551425025
 30
0.0
 10
364.430453043853
 20
283.5469766597091
 30
0.0
 10
364.3965431485377
 20
283.579609658411
 30
0.0
 10
364.300081456082
 20
283.6818241964123
 30
0.0
 10
364.24274743276
 20
283.7556801751272
 30
0.0
 10
364.1673410118581
 20
283.875246518812
 30
0.0
 10
364.1443168684999
 20
283.9160587603092
 30
0.0
 10
364.1024975613959
 20
283.9992532214972
 30
0.0
 10
364.0648490541768
 20
284.0841119516138
 30
0.0
 10
364.0354449505588
 20
284.1722828187296
 30
0.0
 10
364.0165368547149
 20
284.2396812387314
 30
0.0
 10
364.0107592502475
 20
284.2623594474389
 30
0.0
 10
364.0002749399875
 20
284.3081492639381
 30
0.0
 10
363.9955886116068
 20
284.3311793977173
 30
0.0
 10
363.9750165914593
 20
284.4465043397781
 30
0.0
 10
363.9675144381082
 20
284.5398242173908
 30
0.0
 10
363.9691615337858
 20
284.634186265565
 30
0.0
  0
SPLINE
  5
1F7
330
1F
100
AcDbEntity
  8
1
100
AcDbSpline
210
0.0
220
0.0
230
1.0
 70
     8
 71
     3
 72
     8
 73
     4
 74
     0
 42
0.000000001
 43
0.0000000001
 40
0.0
 40
0.0
 40
0.0
 40
0.0
 40
1.0
 40
1.0
 40
1.0
 40
1.0
 10
352.8686026549642
 20
294.231844407632
 30
0.0
 10
352.7583466028548
 20
294.2964866867947
 30
0.0
 10
352.6485850559757
 20
294.363000048808
 30
0.0
 10
352.5393636626122
 20
294.4314103145523
 30
0.0
  0
SPLINE
  5
1F8
330
1F
100
AcDbEntity
  8
1
100
AcDbSpline
210
0.0
220
0.0
230
1.0
 70
     8
 71
     3
 72
    47
 73
    43
 74
     0
 42
0.000000001
 43
0.0000000001
 40
0.0
 40
0.0
 40
0.0
 40
0.0
 40
0.1249999999999787
 40
0.1249999999999787
 40
0.1406249999999765
 40
0.1406249999999765
 40
0.1562499999999743
 40
0.1874999999999742
 40
0.2499999999999744
 40
0.2499999999999744
 40
0.3749999999999706
 40
0.3749999999999706
 40
0.3906249999999708
 40
0.3906249999999708
 40
0.4062499999999711
 40
0.4062499999999711
 40
0.4374999999999714
 40
0.4374999999999714
 40
0.4999999999999722
 40
0.4999999999999722
 40
0.562499999999973
 40
0.562499999999973
 40
0.6249999999999738
 40
0.6249999999999738
 40
0.6562499999999753
 40
0.6562499999999753
 40
0.6718749999999761
 40
0.6718749999999761
 40
0.6874999999999769
 40
0.6874999999999769
 40
0.7499999999999809
 40
0.8124999999999849
 40
0.8124999999999849
 40
0.8749999999999891
 40
0.8749999999999891
 40
0.9062499999999914
 40
0.9062499999999914
 40
0.9218749999999927
 40
0.9218749999999927
 40
0.9374999999999939
 40
0.9374999999999939
 40
1.0
 40
1.0
 40
1.0
 40
1.0
 10
352.2703457859777
 20
295.2063890815489
 30
0.0
 10
352.6120975101457
 20
295.3169821572202
 30
0.0
 10
352.9482469538252
 20
295.4463372638116
 30
0.0
 10
353.3183766073898
 20
295.6187825874472
 30
0.0
 10
353.3594276019697
 20
295.6383370488342
 30
0.0
 10
353.4410904369972
 20
295.6781174184251
 30
0.0
 10
353.5628944622562
 20
295.7387768224339
 30
0.0
 10
353.8422086658841
 20
295.8873284919306
 30
0.0
 10
354.0730160349812
 20
296.0269861128562
 30
0.0
 10
354.5225991278851
 20
296.3235384130084
 30
0.0
 10
354.8063023432551
 20
296.5441892426964
 30
0.0
 10
355.1056342409016
 20
296.8208367917526
 30
0.0
 10
355.1386173610604
 20
296.8519707886624
 30
0.0
 10
355.2040242682895
 20
296.9150401073908
 30
0.0
 10
355.2364829358142
 20
296.9470115641063
 30
0.0
 10
355.3325809362677
 20
297.0437082967552
 30
0.0
 10
355.3950392157383
 20
297.1093028529818
 30
0.0
 10
355.5776691951748
 20
297.3094230690104
 30
0.0
 10
355.6931009667434
 20
297.4472818090181
 30
0.0
 10
355.9116226318164
 20
297.731678000193
 30
0.0
 10
356.0147139374188
 20
297.8782144583838
 30
0.0
 10
356.20868403991
 20
298.1798751144197
 30
0.0
 10
356.2995647299784
 20
298.3349979809956
 30
0.0
 10
356.4266564657949
 20
298.5741722512102
 30
0.0
 10
356.4674802504517
 20
298.6549800132867
 30
0.0
 10
356.5263769563036
 20
298.7778364024256
 30
0.0
 10
356.5456326988045
 20
298.8190947506552
 30
0.0
 10
356.5831897863316
 20
298.901786207433
 30
0.0
 10
356.6015113465363
 20
298.943259786931
 30
0.0
 10
356.6908592226254
 20
299.1512599476673
 30
0.0
 10
356.8193852735895
 20
299.4880974658869
 30
0.0
 10
356.9197934999323
 20
299.8328015582698
 30
0.0
 10
357.0060842641999
 20
300.1814553183071
 30
0.0
 10
357.0421727713928
 20
300.3577565128695
 30
0.0
 10
357.0853292800605
 20
300.6252791504313
 30
0.0
 10
357.0978816440572
 20
300.7149662235037
 30
0.0
 10
357.1138744993057
 20
300.8502901793923
 30
0.0
 10
357.1187351757676
 20
300.8955627493165
 30
0.0
 10
357.1274692217049
 20
300.9861111266033
 30
0.0
 10
357.1313458494533
 20
301.0314084798022
 30
0.0
 10
357.1482622306992
 20
301.2580117667949
 30
0.0
 10
357.1539218708725
 20
301.4396663113363
 30
0.0
 10
357.151359088907
 20
301.6217092543481
 30
0.0
  0
SPLINE
  5
1F9
330
1F
100
AcDbEntity
  8
1
100
AcDbSpline
210
0.0
220
0.0
230
1.0
 70
    12
 71
     3
 72
    10
 73
     6
 74
     0
 42
0.000000001
 43
0.0000000001
 40
0.0
 40
0.0
 40
0.0
 40
0.0
 40
0.0110951914085878
 40
0.5643460124534063
 40
1.0
 40
1.0
 40
1.0
 40
1.0
 10
331.8925476997517
 20
301.2211898902734
 30
0.0
 41
1.001423658773294
 10
331.9862027664026
 20
301.2316640432211
 30
0.0
 41
1.00143388583439
 10
336.7486645334249
 20
301.7463623147067
 30
0.0
 41
1.001936911205185
 10
345.3079545332625
 20
300.9957028869429
 30
0.0
 41
1.000951493395652
 10
353.694626522446
 20
300.432245712956
 30
0.0
 41
1.001716575127171
 10
357.151359088907
 20
301.6217092543481
 30
0.0
 41
1.001652307507953
  0
SPLINE
  5
1FA
330
1F
100
AcDbEntity
  8
1
100
AcDbSpline
210
0.0
220
0.0
230
1.0
 70
     8
 71
     3
 72
    22
 73
    18
 74
     0
 42
0.000000001
 43
0.0000000001
 40
0.0
 40
0.0
 40
0.0
 40
0.0
 40
0.1296176335941664
 40
0.1296176335941664
 40
0.2592352671883328
 40
0.2592352671883328
 40
0.3888529007824992
 40
0.3888529007824992
 40
0.5184705343766656
 40
0.5184705343766656
 40
0.6480881679708319
 40
0.6480881679708319
 40
0.7777058015649984
 40
0.7777058015649984
 40
0.9073234351591647
 40
0.9073234351591647
 40
1.0
 40
1.0
 40
1.0
 40
1.0
 10
300.2382713817429
 20
306.1545074310567
 30
0.0
 10
299.769665021571
 20
306.1668803828012
 30
0.0
 10
299.3035267675521
 20
306.1802543925374
 30
0.0
 10
298.3757378293083
 20
306.208070492278
 30
0.0
 10
297.9140864200439
 20
306.2225117242446
 30
0.0
 10
296.9949097509933
 20
306.2515382458474
 30
0.0
 10
296.537383818426
 20
306.2661235167622
 30
0.0
 10
295.6262068192719
 20
306.2945408943008
 30
0.0
 10
295.172555307199
 20
306.3083738774625
 30
0.0
 10
294.2690033911781
 20
306.3344034735617
 30
0.0
 10
293.8191028471115
 20
306.3466017828918
 30
0.0
 10
292.9230656026478
 20
306.3684538527061
 30
0.0
 10
292.4769290149173
 20
306.378109990966
 30
0.0
 10
291.5885689930223
 20
306.3938829194488
 30
0.0
 10
291.1463457571151
 20
306.4000026909158
 30
0.0
 10
290.3915290940677
 20
306.4064667187915
 30
0.0
 10
290.0779108179374
 20
306.4079618144617
 30
0.0
 10
289.7654388782848
 20
306.4079946225197
 30
0.0
  0
SPLINE
  5
1FB
330
1F
100
AcDbEntity
  8
1
100
AcDbSpline
210
0.0
220
0.0
230
1.0
 70
     8
 71
     3
 72
    36
 73
    32
 74
     0
 42
0.000000001
 43
0.0000000001
 40
0.0
 40
0.0
 40
0.0
 40
0.0
 40
0.1249999999999948
 40
0.1249999999999948
 40
0.187499999999984
 40
0.187499999999984
 40
0.218749999999973
 40
0.218749999999973
 40
0.249999999999962
 40
0.249999999999962
 40
0.3749999999999412
 40
0.3749999999999412
 40
0.4062499999999343
 40
0.4062499999999343
 40
0.4374999999999274
 40
0.4374999999999274
 40
0.4999999999999137
 40
0.4999999999999137
 40
0.6249999999999111
 40
0.6249999999999111
 40
0.6562499999999116
 40
0.6562499999999116
 40
0.687499999999912
 40
0.7499999999999167
 40
0.8124999999999214
 40
0.8124999999999214
 40
0.8437499999999237
 40
0.8437499999999237
 40
0.8749999999999262
 40
0.8749999999999262
 40
1.0
 40
1.0
 40
1.0
 40
1.0
 10
370.606553292615
 20
306.0605638276022
 30
0.0
 10
370.6047220960321
 20
306.1116819821351
 30
0.0
 10
370.5977612719321
 20
306.1617409483903
 30
0.0
 10
370.5800655543896
 20
306.2353314602277
 30
0.0
 10
370.5729480997577
 20
306.2596099506456
 30
0.0
 10
370.5604138379036
 20
306.2956440216793
 30
0.0
 10
370.5559129026971
 20
306.3076216324022
 30
0.0
 10
370.546342706956
 20
306.3312900838336
 30
0.0
 10
370.5412834239738
 20
306.3429614168061
 30
0.0
 10
370.5146463691092
 20
306.4005216105606
 30
0.0
 10
370.4890860641431
 20
306.4440444576123
 30
0.0
 10
370.4518946422372
 20
306.4953343262222
 30
0.0
 10
370.4441918658026
 20
306.5054351658245
 30
0.0
 10
370.4282492103413
 20
306.5253177536167
 30
0.0
 10
370.4199892651055
 20
306.535120499922
 30
0.0
 10
370.3946430561664
 20
306.5637577226049
 30
0.0
 10
370.3769394723581
 20
306.5818975480981
 30
0.0
 10
370.32147915539
 20
306.6335432399057
 30
0.0
 10
370.2813959964199
 20
306.6643026392101
 30
0.0
 10
370.2272807176986
 20
306.6980163040437
 30
0.0
 10
370.2162347265678
 20
306.7045297628251
 30
0.0
 10
370.1939691825586
 20
306.7169374467593
 30
0.0
 10
370.1602353051245
 20
306.7346696150476
 30
0.0
 10
370.1023645234126
 20
306.7599054622192
 30
0.0
 10
370.0543251900307
 20
306.7755272753924
 30
0.0
 10
370.0176279282769
 20
306.7854937280582
 30
0.0
 10
370.0052840084794
 20
306.7885236889755
 30
0.0
 10
369.9803681433067
 20
306.7939860569321
 30
0.0
 10
369.9677778577421
 20
306.7964201615233
 30
0.0
 10
369.9048293019798
 20
306.8069659016412
 30
0.0
 10
369.8540716955832
 20
306.8103579165976
 30
0.0
 10
369.8029048644206
 20
306.8085729914153
 30
0.0
  0
SPLINE
  5
1FC
330
1F
100
AcDbEntity
  8
1
100
AcDbSpline
210
0.0
220
0.0
230
1.0
 70
     8
 71
     3
 72
    36
 73
    32
 74
     0
 42
0.000000001
 43
0.0000000001
 40
0.0
 40
0.0
 40
0.0
 40
0.0
 40
0.1249999999999564
 40
0.1249999999999564
 40
0.1874999999999346
 40
0.1874999999999346
 40
0.2187499999999398
 40
0.2187499999999398
 40
0.249999999999945
 40
0.249999999999945
 40
0.3750000000000517
 40
0.3750000000000517
 40
0.4062500000000714
 40
0.4062500000000714
 40
0.4375000000000912
 40
0.4375000000000912
 40
0.5000000000000995
 40
0.5000000000000995
 40
0.62500000000011
 40
0.62500000000011
 40
0.6562500000001072
 40
0.6562500000001072
 40
0.6875000000001044
 40
0.7500000000000836
 40
0.8125000000000628
 40
0.8125000000000628
 40
0.8437500000000529
 40
0.8437500000000529
 40
0.8750000000000428
 40
0.8750000000000428
 40
1.0
 40
1.0
 40
1.0
 40
1.0
 10
358.6647256653424
 20
306.4200240802164
 30
0.0
 10
358.6135542444815
 20
306.4182389949251
 30
0.0
 10
358.563447578748
 20
306.4113288614929
 30
0.0
 10
358.4897933905079
 20
306.3937156562505
 30
0.0
 10
358.4654949973956
 20
306.3866267938522
 30
0.0
 10
358.4294330887732
 20
306.3741370791134
 30
0.0
 10
358.4174465139013
 20
306.3696513095913
 30
0.0
 10
358.3937609327193
 20
306.3601118062555
 30
0.0
 10
358.3820814464589
 20
306.3550680224591
 30
0.0
 10
358.3244824987389
 20
306.3285092115396
 30
0.0
 10
358.2809350293074
 20
306.3030138734078
 30
0.0
 10
358.2296222502035
 20
306.2659065843111
 30
0.0
 10
358.2195172255392
 20
306.258220782013
 30
0.0
 10
358.1996270738836
 20
306.242312374504
 30
0.0
 10
358.1898209435775
 20
306.2340697427118
 30
0.0
 10
358.1611748853322
 20
306.2087754148135
 30
0.0
 10
358.143030886782
 20
306.1911064598351
 30
0.0
 10
358.0913776812558
 20
306.1357501502263
 30
0.0
 10
358.0606198974458
 20
306.0957364894655
 30
0.0
 10
358.0269167976119
 20
306.0417082898632
 30
0.0
 10
358.0204058903791
 20
306.0306797553146
 30
0.0
 10
358.0080041238596
 20
306.0084487755437
 30
0.0
 10
357.9902820650307
 20
305.974766344389
 30
0.0
 10
357.9650691228157
 20
305.9169793420364
 30
0.0
 10
357.9494720388356
 20
305.8690049543707
 30
0.0
 10
357.9395265873862
 20
305.832355605755
 30
0.0
 10
357.9365040366836
 20
305.8200275240668
 30
0.0
 10
357.9310573272521
 20
305.7951430632456
 30
0.0
 10
357.9286314849899
 20
305.7825683650331
 30
0.0
 10
357.9181287973687
 20
305.7196963396549
 30
0.0
 10
357.9147769814602
 20
305.6689960277437
 30
0.0
 10
357.9166080137983
 20
305.6178824581313
 30
0.0
  0
SPLINE
  5
1FD
330
1F
100
AcDbEntity
  8
1
100
AcDbSpline
210
0.0
220
0.0
230
1.0
 70
     8
 71
     3
 72
    36
 73
    32
 74
     0
 42
0.000000001
 43
0.0000000001
 40
0.0
 40
0.0
 40
0.0
 40
0.0
 40
0.1249999999998614
 40
0.1249999999998614
 40
0.1874999999997921
 40
0.1874999999997921
 40
0.2187499999997732
 40
0.2187499999997732
 40
0.2499999999997543
 40
0.2499999999997543
 40
0.3749999999997743
 40
0.3749999999997743
 40
0.4062499999997938
 40
0.4062499999997938
 40
0.4374999999998133
 40
0.4374999999998133
 40
0.4999999999998254
 40
0.4999999999998254
 40
0.6249999999998496
 40
0.6249999999998496
 40
0.6562499999998552
 40
0.6562499999998552
 40
0.6874999999998607
 40
0.7499999999998851
 40
0.8124999999999095
 40
0.8124999999999095
 40
0.8437499999999252
 40
0.8437499999999252
 40
0.8749999999999406
 40
0.8749999999999406
 40
1.0
 40
1.0
 40
1.0
 40
1.0
 10
370.2570213231993
 20
294.1318371716219
 30
0.0
 10
370.3081927440601
 20
294.1336222569131
 30
0.0
 10
370.3582994097936
 20
294.1405323903453
 30
0.0
 10
370.4319535980336
 20
294.1581455955877
 30
0.0
 10
370.456251991146
 20
294.1652344579861
 30
0.0
 10
370.4923138997685
 20
294.1777241727248
 30
0.0
 10
370.5043004746404
 20
294.1822099422468
 30
0.0
 10
370.5279860558222
 20
294.1917494455827
 30
0.0
 10
370.5396655420829
 20
294.1967932293792
 30
0.0
 10
370.5972644898028
 20
294.2233520402987
 30
0.0
 10
370.6408119592343
 20
294.2488473784304
 30
0.0
 10
370.6921247383382
 20
294.2859546675271
 30
0.0
 10
370.7022297630025
 20
294.2936404698252
 30
0.0
 10
370.722119914658
 20
294.3095488773342
 30
0.0
 10
370.7319260449641
 20
294.3177915091264
 30
0.0
 10
370.7605721032095
 20
294.3430858370247
 30
0.0
 10
370.7787161017598
 20
294.3607547920032
 30
0.0
 10
370.8303693072858
 20
294.4161111016119
 30
0.0
 10
370.8611270910959
 20
294.4561247623727
 30
0.0
 10
370.8948301909298
 20
294.5101529619751
 30
0.0
 10
370.9013410981626
 20
294.5211814965237
 30
0.0
 10
370.9137428646822
 20
294.5434124762945
 30
0.0
 10
370.931464923511
 20
294.5770949074492
 30
0.0
 10
370.9566779420749
 20
294.6348818806734
 30
0.0
 10
370.9722749497062
 20
294.6828562974675
 30
0.0
 10
370.9822204011555
 20
294.7195056460832
 30
0.0
 10
370.985242951858
 20
294.7318337277714
 30
0.0
 10
370.9906896612896
 20
294.7567181885926
 30
0.0
 10
370.9931155035518
 20
294.7692928868051
 30
0.0
 10
371.003618191173
 20
294.8321649121833
 30
0.0
 10
371.0069700070815
 20
294.8828652240946
 30
0.0
 10
371.0051389747434
 20
294.9339787937068
 30
0.0
  0
SPLINE
  5
1FE
330
1F
100
AcDbEntity
  8
1
100
AcDbSpline
210
0.0
220
0.0
230
1.0
 70
     8
 71
     3
 72
     8
 73
     4
 74
     0
 42
0.000000001
 43
0.0000000001
 40
0.0
 40
0.0
 40
0.0
 40
0.0
 40
1.0
 40
1.0
 40
1.0
 40
1.0
 10
370.0081269389877
 20
279.8092402055162
 30
0.0
 10
370.0251824081699
 20
279.8231778142169
 30
0.0
 10
370.0409723155494
 20
279.8384259505285
 30
0.0
 10
370.0554966611258
 20
279.8549846144509
 30
0.0
  0
SPLINE
  5
1FF
330
1F
100
AcDbEntity
  8
1
100
AcDbSpline
210
0.0
220
0.0
230
1.0
 70
     8
 71
     3
 72
     8
 73
     4
 74
     0
 42
0.000000001
 43
0.0000000001
 40
0.0
 40
0.0
 40
0.0
 40
0.0
 40
1.0
 40
1.0
 40
1.0
 40
1.0
 10
370.5894505876547
 20
280.7436331788933
 30
0.0
 10
370.5972522528897
 20
280.7642312366872
 30
0.0
 10
370.6033026456479
 20
280.7853314637831
 30
0.0
 10
370.6076017659293
 20
280.8069338601809
 30
0.0
  0
SPLINE
  5
200
330
1F
100
AcDbEntity
  8
1
100
AcDbSpline
210
0.0
220
0.0
230
1.0
 70
     8
 71
     3
 72
     8
 73
     4
 74
     0
 42
0.000000001
 43
0.0000000001
 40
0.0
 40
0.0
 40
0.0
 40
0.0
 40
1.0
 40
1.0
 40
1.0
 40
1.0
 10
370.7311931720172
 20
287.8874807728481
 30
0.0
 10
370.7276505834055
 20
287.9092200467837
 30
0.0
 10
370.7223402636891
 20
287.9305185758535
 30
0.0
 10
370.7152622128679
 20
287.9513763600573
 30
0.0
  0
SPLINE
  5
201
330
1F
100
AcDbEntity
  8
1
100
AcDbSpline
210
0.0
220
0.0
230
1.0
 70
     8
 71
     3
 72
     8
 73
     4
 74
     0
 42
0.000000001
 43
0.0000000001
 40
0.0
 40
0.0
 40
0.0
 40
0.0
 40
1.0
 40
1.0
 40
1.0
 40
1.0
 10
370.2126469442886
 20
288.8581183071029
 30
0.0
 10
370.1987093355878
 20
288.8751737762852
 30
0.0
 10
370.1834611992763
 20
288.8909636836646
 30
0.0
 10
370.166902535354
 20
288.9054880292412
 30
0.0
  0
SPLINE
  5
202
330
1F
100
AcDbEntity
  8
1
100
AcDbSpline
210
0.0
220
0.0
230
1.0
 70
     8
 71
     3
 72
    36
 73
    32
 74
     0
 42
0.000000001
 43
0.0000000001
 40
0.0
 40
0.0
 40
0.0
 40
0.0
 40
0.1250000000000176
 40
0.1250000000000176
 40
0.1875000000000223
 40
0.1875000000000223
 40
0.2187500000000191
 40
0.2187500000000191
 40
0.2500000000000159
 40
0.2500000000000159
 40
0.3750000000000069
 40
0.3750000000000069
 40
0.4062500000000047
 40
0.4062500000000047
 40
0.4375000000000024
 40
0.4375000000000024
 40
0.4999999999999979
 40
0.4999999999999979
 40
0.6250000000000142
 40
0.6250000000000142
 40
0.6562500000000182
 40
0.6562500000000182
 40
0.6875000000000223
 40
0.7500000000000313
 40
0.8125000000000403
 40
0.8125000000000403
 40
0.8437500000000447
 40
0.8437500000000447
 40
0.8750000000000493
 40
0.8750000000000493
 40
1.0
 40
1.0
 40
1.0
 40
1.0
 10
358.3151936959266
 20
294.491297424236
 30
0.0
 10
358.3170248925096
 20
294.4401792697032
 30
0.0
 10
358.3239857166095
 20
294.3901203034479
 30
0.0
 10
358.3416814341521
 20
294.3165297916105
 30
0.0
 10
358.348798888784
 20
294.2922513011925
 30
0.0
 10
358.3613331506381
 20
294.2562172301589
 30
0.0
 10
358.3658340858445
 20
294.244239619436
 30
0.0
 10
358.3754042815857
 20
294.2205711680047
 30
0.0
 10
358.3804635645678
 20
294.2088998350321
 30
0.0
 10
358.4071006194323
 20
294.1513396412776
 30
0.0
 10
358.4326609243987
 20
294.1078167942259
 30
0.0
 10
358.4698523463044
 20
294.056526925616
 30
0.0
 10
358.4775551227391
 20
294.0464260860137
 30
0.0
 10
358.4934977782004
 20
294.0265434982215
 30
0.0
 10
358.5017577234362
 20
294.0167407519162
 30
0.0
 10
358.5271039323753
 20
293.9881035292334
 30
0.0
 10
358.5448075161836
 20
293.9699637037401
 30
0.0
 10
358.6002678331517
 20
293.9183180119326
 30
0.0
 10
358.6403509921218
 20
293.8875586126282
 30
0.0
 10
358.6944662708431
 20
293.8538449477945
 30
0.0
 10
358.7055122619739
 20
293.8473314890131
 30
0.0
 10
358.7277778059832
 20
293.8349238050789
 30
0.0
 10
358.7615116834172
 20
293.8171916367905
 30
0.0
 10
358.819382465129
 20
293.7919557896191
 30
0.0
 10
358.867421798511
 20
293.7763339764458
 30
0.0
 10
358.9041190602648
 20
293.76636752378
 30
0.0
 10
358.9164629800622
 20
293.7633375628628
 30
0.0
 10
358.941378845235
 20
293.7578751949061
 30
0.0
 10
358.9539691307995
 20
293.7554410903149
 30
0.0
 10
359.0169176865619
 20
293.744895350197
 30
0.0
 10
359.0676752929584
 20
293.7415033352406
 30
0.0
 10
359.1188421241211
 20
293.7432882604229
 30
0.0
  0
SPLINE
  5
203
330
1F
100
AcDbEntity
  8
1
100
AcDbSpline
210
0.0
220
0.0
230
1.0
 70
     8
 71
     3
 72
    17
 73
    13
 74
     0
 42
0.000000001
 43
0.0000000001
 40
0.0
 40
0.0
 40
0.0
 40
0.0
 40
0.2500000000000001
 40
0.5000000000000001
 40
0.5000000000000001
 40
0.7500000000000002
 40
0.7500000000000002
 40
0.8124999999999992
 40
0.8124999999999992
 40
0.8749999999999984
 40
0.8749999999999984
 40
1.0
 40
1.0
 40
1.0
 40
1.0
 10
300.0403037285351
 20
271.9046718338824
 30
0.0
 10
300.2685940145324
 20
271.9264568220236
 30
0.0
 10
300.7305192419717
 20
271.9661928745739
 30
0.0
 10
301.2031961473053
 20
271.9964134400255
 30
0.0
 10
301.6813777452231
 20
272.0210835456662
 30
0.0
 10
301.9232203226243
 20
272.0306436187994
 30
0.0
 10
302.2291119610709
 20
272.038703787463
 30
0.0
 10
302.2904700022352
 20
272.0401216084295
 30
0.0
 10
302.4135504540747
 20
272.0425594308781
 30
0.0
 10
302.4752256204741
 20
272.0435778295875
 30
0.0
 10
302.6597599089458
 20
272.0460149649683
 30
0.0
 10
302.7824596254282
 20
272.0468223376715
 30
0.0
 10
302.9048419452938
 20
272.0468223376715
 30
0.0
  0
SPLINE
  5
204
330
1F
100
AcDbEntity
  8
1
100
AcDbSpline
210
0.0
220
0.0
230
1.0
 70
     8
 71
     3
 72
    30
 73
    26
 74
     0
 42
0.000000001
 43
0.0000000001
 40
0.0
 40
0.0
 40
0.0
 40
0.0
 40
0.0305850432142945
 40
0.0305850432142945
 40
0.1275265388928649
 40
0.1275265388928649
 40
0.2244680345714355
 40
0.2244680345714355
 40
0.2729387824107204
 40
0.2729387824107204
 40
0.3214095302500052
 40
0.3214095302500052
 40
0.4183510259285756
 40
0.4183510259285756
 40
0.5152925216071465
 40
0.5152925216071465
 40
0.6122340172857172
 40
0.6122340172857172
 40
0.709175512964288
 40
0.709175512964288
 40
0.8061170086428585
 40
0.8061170086428585
 40
0.9030585043214291
 40
0.9030585043214291
 40
1.0
 40
1.0
 40
1.0
 40
1.0
 10
322.1424894940965
 20
275.04345650845
 30
0.0
 10
321.9500711258814
 20
274.9949132229568
 30
0.0
 10
321.7576664778289
 20
274.9467830692566
 30
0.0
 10
320.9553999002167
 20
274.7479490932079
 30
0.0
 10
320.3454886234218
 20
274.6012588021121
 30
0.0
 10
319.1243526900903
 20
274.318352123858
 30
0.0
 10
318.5131256825873
 20
274.1821378768781
 30
0.0
 10
317.5944483935704
 20
273.9865097039744
 30
0.0
 10
317.2878692631136
 20
273.9227359617228
 30
0.0
 10
316.6743073933856
 20
273.7982397779618
 30
0.0
 10
316.367307769302
 20
273.737513203279
 30
0.0
 10
315.4454963850159
 20
273.5599828792589
 30
0.0
 10
314.8298672346779
 20
273.4478427211642
 30
0.0
 10
313.5957057140984
 20
273.2360808159686
 30
0.0
 10
312.9771729372036
 20
273.1364561916115
 30
0.0
 10
311.7366367031481
 20
272.9493936788304
 30
0.0
 10
311.114633382739
 20
272.8619524379953
 30
0.0
 10
309.8667535956217
 20
272.6986011348473
 30
0.0
 10
309.2408776546739
 20
272.6226877787248
 30
0.0
 10
307.9850045841589
 20
272.4815144356579
 30
0.0
 10
307.3550082037777
 20
272.4162515694652
 30
0.0
 10
306.090780874298
 20
272.2953729564317
 30
0.0
 10
305.4565507551292
 20
272.2397549202882
 30
0.0
 10
304.1838530176272
 20
272.137109339163
 30
0.0
 10
303.5453862060675
 20
272.0900801279243
 30
0.0
 10
302.9048419452957
 20
272.0468223376715
 30
0.0
  0
SPLINE
  5
205
330
1F
100
AcDbEntity
  8
1
100
AcDbSpline
210
0.0
220
0.0
230
1.0
 70
     8
 71
     3
 72
    22
 73
    18
 74
     0
 42
0.000000001
 43
0.0000000001
 40
0.0
 40
0.0
 40
0.0
 40
0.0
 40
0.125
 40
0.125
 40
0.25
 40
0.25
 40
0.375
 40
0.375
 40
0.5
 40
0.5
 40
0.625
 40
0.625
 40
0.75
 40
0.75
 40
0.875
 40
0.875
 40
1.0
 40
1.0
 40
1.0
 40
1.0
 10
289.3923341230149
 20
271.4357382973793
 30
0.0
 10
289.8232608356968
 20
271.445653449932
 30
0.0
 10
290.2562589979066
 20
271.4578052348338
 30
0.0
 10
291.1258228744781
 20
271.4855704281639
 30
0.0
 10
291.5623874085543
 20
271.5011873256677
 30
0.0
 10
292.4386051456557
 20
271.5351407705211
 30
0.0
 10
292.8782566962213
 20
271.5534810209161
 30
0.0
 10
293.7603107691391
 20
271.5922948034635
 30
0.0
 10
294.2027117067599
 20
271.6127721958492
 30
0.0
 10
295.0901189208151
 20
271.6553153399769
 30
0.0
 10
295.5351243396819
 20
271.6773845746664
 30
0.0
 10
296.4278261205048
 20
271.7224952971486
 30
0.0
 10
296.8755228195153
 20
271.7455390911522
 30
0.0
 10
297.7739332445539
 20
271.7918216495886
 30
0.0
 10
298.2246484784692
 20
271.8150609075697
 30
0.0
 10
299.1296342193846
 20
271.8607518730674
 30
0.0
 10
299.583906877512
 20
271.8832021657342
 30
0.0
 10
300.0403037285352
 20
271.9046718338824
 30
0.0
  0
SPLINE
  5
206
330
1F
100
AcDbEntity
  8
1
100
AcDbSpline
210
0.0
220
0.0
230
1.0
 70
     8
 71
     3
 72
   105
 73
   101
 74
     0
 42
0.000000001
 43
0.0000000001
 40
0.0
 40
0.0
 40
0.0
 40
0.0
 40
0.0312500000000019
 40
0.0312500000000019
 40
0.046875000000003
 40
0.046875000000003
 40
0.0625000000000041
 40
0.0781250000000052
 40
0.0781250000000052
 40
0.0937500000000063
 40
0.0937500000000063
 40
0.1250000000000084
 40
0.1250000000000084
 40
0.1406250000000094
 40
0.1406250000000094
 40
0.1562500000000105
 40
0.1562500000000105
 40
0.1640625000000107
 40
0.1640625000000107
 40
0.171875000000011
 40
0.171875000000011
 40
0.1875000000000116
 40
0.1875000000000116
 40
0.2187500000000125
 40
0.2500000000000134
 40
0.2500000000000134
 40
0.2656250000000138
 40
0.2656250000000138
 40
0.2812500000000143
 40
0.2968750000000148
 40
0.2968750000000148
 40
0.3125000000000152
 40
0.3125000000000152
 40
0.3437500000000164
 40
0.3437500000000164
 40
0.3593750000000169
 40
0.3593750000000169
 40
0.3750000000000175
 40
0.3750000000000175
 40
0.3906250000000179
 40
0.3906250000000179
 40
0.4062500000000186
 40
0.4218750000000192
 40
0.4218750000000192
 40
0.4375000000000198
 40
0.4375000000000198
 40
0.468750000000021
 40
0.468750000000021
 40
0.4843750000000214
 40
0.4843750000000214
 40
0.5000000000000218
 40
0.5000000000000218
 40
0.5312500000000226
 40
0.5312500000000226
 40
0.5468750000000227
 40
0.5468750000000227
 40
0.5625000000000227
 40
0.5781250000000228
 40
0.5781250000000228
 40
0.5937500000000228
 40
0.5937500000000228
 40
0.6250000000000217
 40
0.6250000000000217
 40
0.6406250000000209
 40
0.6406250000000209
 40
0.6562500000000201
 40
0.6718750000000192
 40
0.6718750000000192
 40
0.6875000000000185
 40
0.6875000000000185
 40
0.7031250000000176
 40
0.7031250000000176
 40
0.7187500000000168
 40
0.7187500000000168
 40
0.7500000000000141
 40
0.7500000000000141
 40
0.7656250000000132
 40
0.7656250000000132
 40
0.7812500000000121
 40
0.7968750000000112
 40
0.7968750000000112
 40
0.8125000000000103
 40
0.8125000000000103
 40
0.8437500000000087
 40
0.8437500000000087
 40
0.8750000000000071
 40
0.8750000000000071
 40
0.8906250000000063
 40
0.8906250000000063
 40
0.9062500000000055
 40
0.9218750000000047
 40
0.9218750000000047
 40
0.9375000000000039
 40
0.9375000000000039
 40
0.9687500000000024
 40
0.9687500000000024
 40
0.9765625000000015
 40
0.9765625000000015
 40
0.984375000000001
 40
1.0
 40
1.0
 40
1.0
 40
1.0
 10
368.5944286280587
 20
283.1534935136763
 30
0.0
 10
368.5808161480679
 20
283.0608342287994
 30
0.0
 10
368.567876190315
 20
282.9668833229633
 30
0.0
 10
368.5494664012844
 20
282.8240361182836
 30
0.0
 10
368.5434876308407
 20
282.7760195142615
 30
0.0
 10
368.5319302440667
 20
282.6798624124876
 30
0.0
 10
368.5207665671138
 20
282.5835440782352
 30
0.0
 10
368.5103840764203
 20
282.4869058317272
 30
0.0
 10
368.5003931897477
 20
282.3901072151103
 30
0.0
 10
368.4955935903375
 20
282.3416192075882
 30
0.0
 10
368.4818757367198
 20
282.1968705793656
 30
0.0
 10
368.4736020950901
 20
282.1010032499728
 30
0.0
 10
368.4624969673733
 20
281.9581483994468
 30
0.0
 10
368.4590263071559
 20
281.9108507482878
 30
0.0
 10
368.4525563513562
 20
281.8170896144725
 30
0.0
 10
368.4495545229441
 20
281.7705936316745
 30
0.0
 10
368.4454002097772
 20
281.7014243978799
 30
0.0
 10
368.4440735480738
 20
281.6784638389958
 30
0.0
 10
368.4415366806458
 20
281.6327348173776
 30
0.0
 10
368.4403251974167
 20
281.6099400835954
 30
0.0
 10
368.4368794481002
 20
281.5421120383213
 30
0.0
 10
368.4348312606826
 20
281.4976006389568
 30
0.0
 10
368.4294146689135
 20
281.3661344551099
 30
0.0
 10
368.4241290004488
 20
281.1963472767582
 30
0.0
 10
368.4226384182896
 20
281.0373411571509
 30
0.0
 10
368.4229726418123
 20
280.9222118553943
 30
0.0
 10
368.423328338693
 20
280.8845111435654
 30
0.0
 10
368.4245209051099
 20
280.8111946569286
 30
0.0
 10
368.4261942401946
 20
280.7397820685093
 30
0.0
 10
368.4288231007582
 20
280.6721534688944
 30
0.0
 10
368.4319315810199
 20
280.6064242174478
 30
0.0
 10
368.4337246157609
 20
280.5745503444706
 30
0.0
 10
368.4397885397454
 20
280.4823445373211
 30
0.0
 10
368.4447501903749
 20
280.4252316912572
 30
0.0
 10
368.4535749526704
 20
280.3461166671942
 30
0.0
 10
368.4567385384645
 20
280.3209249448366
 30
0.0
 10
368.4634925006752
 20
280.2729872425469
 30
0.0
 10
368.4670848562861
 20
280.2502233763656
 30
0.0
 10
368.4746999152751
 20
280.2071033690323
 30
0.0
 10
368.4787247239001
 20
280.1867377642848
 30
0.0
 10
368.487199800204
 20
280.1484760493306
 30
0.0
 10
368.4960698922956
 20
280.1128167657396
 30
0.0
 10
368.5057235937077
 20
280.0823200339681
 30
0.0
 10
368.5157698496581
 20
280.0544095184293
 30
0.0
 10
368.5209976350614
 20
280.0417305371402
 30
0.0
 10
368.5372157480149
 20
280.007743395483
 30
0.0
 10
368.5486998770393
 20
279.9905294723159
 30
0.0
 10
368.5669234371878
 20
279.9727880527552
 30
0.0
 10
368.5731646038086
 20
279.9682242164029
 30
0.0
 10
368.5859835013311
 20
279.9618229828618
 30
0.0
 10
368.5925735937906
 20
279.9599859282023
 30
0.0
 10
368.612757978083
 20
279.9586462760545
 30
0.0
 10
368.6267465309804
 20
279.9632773989575
 30
0.0
 10
368.64853130053
 20
279.9785466928019
 30
0.0
 10
368.6559378041448
 20
279.9850408677158
 30
0.0
 10
368.670937289524
 20
280.0007597437562
 30
0.0
 10
368.6861354071715
 20
280.0192100070919
 30
0.0
 10
368.7017304369065
 20
280.0431181984991
 30
0.0
 10
368.7175257948873
 20
280.069781098547
 30
0.0
 10
368.7255300004331
 20
280.0845063948504
 30
0.0
 10
368.7496924902957
 20
280.1325620484282
 30
0.0
 10
368.7660471723646
 20
280.1698297624063
 30
0.0
 10
368.7909532645289
 20
280.2336735551438
 30
0.0
 10
368.7993106487817
 20
280.2562679842838
 30
0.0
 10
368.8160428975349
 20
280.3038303885521
 30
0.0
 10
368.8328183305249
 20
280.3538307981585
 30
0.0
 10
368.8496803545096
 20
280.4087197811031
 30
0.0
 10
368.8665862438961
 20
280.4660852251878
 30
0.0
 10
368.8750270601172
 20
280.495891721987
 30
0.0
 10
368.8918606514092
 20
280.5576571264588
 30
0.0
 10
368.9002573274541
 20
280.5896292461958
 30
0.0
 10
368.9170102707834
 20
280.6557615017774
 30
0.0
 10
368.9253776959053
 20
280.6899692146131
 30
0.0
 10
368.9503388002996
 20
280.7955836838482
 30
0.0
 10
368.9667308044914
 20
280.8696988951059
 30
0.0
 10
368.9909453832391
 20
280.986434967482
 30
0.0
 10
368.9989664223687
 20
281.0263402403926
 30
0.0
 10
369.0147873372754
 20
281.1075467720678
 30
0.0
 10
369.0304022862043
 20
281.1902147299799
 30
0.0
 10
369.0456067164733
 20
281.2757955123651
 30
0.0
 10
369.0606044117954
 20
281.3628431771879
 30
0.0
 10
369.0679959892044
 20
281.40708339896
 30
0.0
 10
369.0897111804854
 20
281.5411135244819
 30
0.0
 10
369.103627349308
 20
281.6324967053495
 30
0.0
 10
369.1303310889992
 20
281.8193491956762
 30
0.0
 10
369.1429884992197
 20
281.9139100428405
 30
0.0
 10
369.1609334130077
 20
282.0573513518097
 30
0.0
 10
369.1667504636662
 20
282.1055133546356
 30
0.0
 10
369.1779885752097
 20
282.2019888225369
 30
0.0
 10
369.1888219126736
 20
282.2985268804258
 30
0.0
 10
369.1988533341822
 20
282.3951889381267
 30
0.0
 10
369.2084833737613
 20
282.491913061289
 30
0.0
 10
369.213101993348
 20
282.540359326207
 30
0.0
 10
369.2262691687691
 20
282.6848819654919
 30
0.0
 10
369.2341593416068
 20
282.7804072930396
 30
0.0
 10
369.2429170695859
 20
282.8987896603271
 30
0.0
 10
369.2446138085121
 20
282.9224256384888
 30
0.0
 10
369.2478806461289
 20
282.9693684864658
 30
0.0
 10
369.2525972084616
 20
283.0393721890256
 30
0.0
 10
369.2567707957119
 20
283.1081623035279
 30
0.0
 10
369.259316565612
 20
283.1534935137009
 30
0.0
  0
SPLINE
  5
207
330
1F
100
AcDbEntity
  8
1
100
AcDbSpline
210
0.0
220
0.0
230
1.0
 70
     8
 71
     3
 72
    87
 73
    83
 74
     0
 42
0.000000001
 43
0.0000000001
 40
0.0
 40
0.0
 40
0.0
 40
0.0
 40
0.0312500000000022
 40
0.0312500000000022
 40
0.0625000000000045
 40
0.0625000000000045
 40
0.0781250000000052
 40
0.0781250000000052
 40
0.093750000000006
 40
0.093750000000006
 40
0.1250000000000069
 40
0.1250000000000069
 40
0.140625000000007
 40
0.140625000000007
 40
0.1562500000000071
 40
0.1562500000000071
 40
0.1875000000000069
 40
0.1875000000000069
 40
0.2500000000000063
 40
0.2500000000000063
 40
0.2656250000000067
 40
0.2656250000000067
 40
0.2812500000000073
 40
0.2812500000000073
 40
0.3125000000000083
 40
0.3437500000000093
 40
0.3437500000000093
 40
0.3750000000000103
 40
0.3750000000000103
 40
0.4062500000000112
 40
0.4062500000000112
 40
0.4218750000000114
 40
0.4218750000000114
 40
0.4375000000000114
 40
0.4687500000000114
 40
0.4687500000000114
 40
0.4843750000000117
 40
0.4843750000000117
 40
0.5000000000000117
 40
0.5312500000000119
 40
0.5312500000000119
 40
0.5625000000000121
 40
0.5625000000000121
 40
0.5937500000000125
 40
0.5937500000000125
 40
0.6250000000000127
 40
0.6250000000000127
 40
0.6562500000000129
 40
0.6562500000000129
 40
0.6718750000000127
 40
0.6718750000000127
 40
0.6875000000000125
 40
0.6875000000000125
 40
0.7187500000000121
 40
0.7187500000000121
 40
0.7343750000000114
 40
0.7343750000000114
 40
0.7500000000000107
 40
0.7500000000000107
 40
0.7812500000000095
 40
0.7812500000000095
 40
0.7968750000000087
 40
0.7968750000000087
 40
0.8125000000000078
 40
0.8125000000000078
 40
0.8437500000000067
 40
0.8437500000000067
 40
0.8593750000000062
 40
0.8593750000000062
 40
0.8750000000000056
 40
0.8750000000000056
 40
0.9062500000000044
 40
0.9062500000000044
 40
0.9218750000000035
 40
0.9218750000000035
 40
0.9375000000000028
 40
0.9375000000000028
 40
0.9687500000000012
 40
0.9687500000000012
 40
0.9843750000000007
 40
0.9843750000000007
 40
1.0
 40
1.0
 40
1.0
 40
1.0
 10
369.259316565612
 20
283.1534935137009
 30
0.0
 10
369.2563104139307
 20
283.2157578117762
 30
0.0
 10
369.2529583189397
 20
283.2773850759892
 30
0.0
 10
369.2456245714386
 20
283.3982717471384
 30
0.0
 10
369.2416412246587
 20
283.4575969992799
 30
0.0
 10
369.2351944571251
 20
283.5449182175787
 30
0.0
 10
369.2329668196137
 20
283.5737471941736
 30
0.0
 10
369.2283535233641
 20
283.630846866249
 30
0.0
 10
369.2259689902359
 20
283.6591008035001
 30
0.0
 10
369.2186069999842
 20
283.7426943293682
 30
0.0
 10
369.2134129122406
 20
283.7969751536009
 30
0.0
 10
369.2051950080645
 20
283.8762360911797
 30
0.0
 10
369.2023844966105
 20
283.9022959423651
 30
0.0
 10
369.1966204715471
 20
283.9536917758446
 30
0.0
 10
369.1936661691809
 20
283.9790306896425
 30
0.0
 10
369.1846426215332
 20
284.0535137220035
 30
0.0
 10
369.1783959809607
 20
284.1012825986522
 30
0.0
 10
369.1589787880021
 20
284.2390568581645
 30
0.0
 10
369.1451349307504
 20
284.3235622704039
 30
0.0
 10
369.1266965225258
 20
284.4199341986677
 30
0.0
 10
369.1229518447538
 20
284.4387430046993
 30
0.0
 10
369.1153469500386
 20
284.4754168213411
 30
0.0
 10
369.1114808136998
 20
284.4933075666908
 30
0.0
 10
369.0997543391682
 20
284.5453266167973
 30
0.0
 10
369.0837955974505
 20
284.6102253238652
 30
0.0
 10
369.067193323324
 20
284.6662502034763
 30
0.0
 10
369.0502650488781
 20
284.7177797840958
 30
0.0
 10
369.0416810098538
 20
284.7411622024734
 30
0.0
 10
369.0243066439468
 20
284.7830970774689
 30
0.0
 10
369.0155111265426
 20
284.8016654689619
 30
0.0
 10
369.0021534588882
 20
284.8258776363506
 30
0.0
 10
368.9976710244213
 20
284.8333432743446
 30
0.0
 10
368.9886887130937
 20
284.8469916403373
 30
0.0
 10
368.9751759546881
 20
284.8655644320392
 30
0.0
 10
368.9615457655233
 20
284.8784593944868
 30
0.0
 10
368.9478365137787
 20
284.8875316461577
 30
0.0
 10
368.9432486292809
 20
284.889919383038
 30
0.0
 10
368.9340737388686
 20
284.8933947458053
 30
0.0
 10
368.9203164763672
 20
284.8966599425511
 30
0.0
 10
368.9065743616645
 20
284.8941090697505
 30
0.0
 10
368.8882651162398
 20
284.8854960354236
 30
0.0
 10
368.8791047925895
 20
284.8785605242654
 30
0.0
 10
368.8609530279755
 20
284.8595378504948
 30
0.0
 10
368.8519442423858
 20
284.8474499194646
 30
0.0
 10
368.8340617069892
 20
284.8180885219329
 30
0.0
 10
368.825171214915
 20
284.8007695655326
 30
0.0
 10
368.8076696177372
 20
284.7611638142788
 30
0.0
 10
368.7990460007968
 20
284.7388671878603
 30
0.0
 10
368.7863021259383
 20
284.7016663656296
 30
0.0
 10
368.7820861302758
 20
284.6886393752053
 30
0.0
 10
368.7737186550128
 20
284.6613203770983
 30
0.0
 10
368.7695719027958
 20
284.6470422104427
 30
0.0
 10
368.7572823614589
 20
284.6024937712475
 30
0.0
 10
368.7492742220998
 20
284.5704613818292
 30
0.0
 10
368.7375398144936
 20
284.5189067319436
 30
0.0
 10
368.7336747003826
 20
284.5011368120763
 30
0.0
 10
368.7260379308992
 20
284.464417451846
 30
0.0
 10
368.7222682445076
 20
284.4454752802467
 30
0.0
 10
368.7111505077868
 20
284.3871337608865
 30
0.0
 10
368.703976586842
 20
284.3461422230189
 30
0.0
 10
368.6935722641528
 20
284.281511743182
 30
0.0
 10
368.6901636539141
 20
284.2594437629933
 30
0.0
 10
368.6834662398733
 20
284.2142516726348
 30
0.0
 10
368.6801780141047
 20
284.1911286871848
 30
0.0
 10
368.6705381834906
 20
284.1204910200025
 30
0.0
 10
368.6643955759528
 20
284.0716076778826
 30
0.0
 10
368.6556061290161
 20
283.9956044986583
 30
0.0
 10
368.6527471422282
 20
283.9698232095535
 30
0.0
 10
368.6471716083166
 20
283.9173619055649
 30
0.0
 10
368.6444548602954
 20
283.8906764753079
 30
0.0
 10
368.6365553923727
 20
283.8096362548196
 30
0.0
 10
368.6316100883301
 20
283.7541810439203
 30
0.0
 10
368.6246707899919
 20
283.6688683318233
 30
0.0
 10
368.622437562766
 20
283.6400753516252
 30
0.0
 10
368.6181315294372
 20
283.5817755611799
 30
0.0
 10
368.6160581507941
 20
283.5522563085553
 30
0.0
 10
368.6101063718639
 20
283.4630241953028
 30
0.0
 10
368.6064861334477
 20
283.4025119434675
 30
0.0
 10
368.601572946699
 20
283.3102198242634
 30
0.0
 10
368.6000215166826
 20
283.2792015219297
 30
0.0
 10
368.5970917860411
 20
283.2166548258365
 30
0.0
 10
368.5957126391111
 20
283.1850979448022
 30
0.0
 10
368.5944286280613
 20
283.1534935136762
 30
0.0
  0
SPLINE
  5
208
330
1F
100
AcDbEntity
  8
1
100
AcDbSpline
210
0.0
220
0.0
230
1.0
 70
     8
 71
     3
 72
     8
 73
     4
 74
     0
 42
0.000000001
 43
0.0000000001
 40
0.0
 40
0.0
 40
0.0
 40
0.0
 40
1.0
 40
1.0
 40
1.0
 40
1.0
 10
352.5393636625998
 20
294.43141031456
 30
0.0
 10
352.4458273857906
 20
294.4899962871081
 30
0.0
 10
352.3515874616307
 20
294.5489180764329
 30
0.0
 10
352.2566756123932
 20
294.6081605430308
 30
0.0
  0
SPLINE
  5
209
330
1F
100
AcDbEntity
  8
1
100
AcDbSpline
210
0.0
220
0.0
230
1.0
 70
     8
 71
     3
 72
    41
 73
    37
 74
     0
 42
0.000000001
 43
0.0000000001
 40
0.0
 40
0.0
 40
0.0
 40
0.0
 40
0.1250000000000028
 40
0.1250000000000028
 40
0.2500000000000057
 40
0.2500000000000057
 40
0.3125000000000063
 40
0.3125000000000063
 40
0.375000000000007
 40
0.375000000000007
 40
0.4375000000000078
 40
0.4375000000000078
 40
0.4687500000000072
 40
0.4687500000000072
 40
0.5000000000000066
 40
0.5000000000000066
 40
0.5625000000000075
 40
0.5625000000000075
 40
0.5937500000000066
 40
0.5937500000000066
 40
0.6250000000000057
 40
0.6562500000000049
 40
0.6562500000000049
 40
0.687500000000004
 40
0.687500000000004
 40
0.7500000000000023
 40
0.7500000000000023
 40
0.7812500000000014
 40
0.7812500000000014
 40
0.8125000000000003
 40
0.8125000000000003
 40
0.8750000000000001
 40
0.8750000000000001
 40
0.9375
 40
0.9375
 40
1.0
 40
1.0
 40
1.0
 40
1.0
 10
352.2566756123932
 20
294.6081605430307
 30
0.0
 10
352.2276286249336
 20
294.626291210573
 30
0.0
 10
352.1999644893903
 20
294.6455153903169
 30
0.0
 10
352.1479367911961
 20
294.6865645443947
 30
0.0
 10
352.1235595475892
 20
294.7083788638855
 30
0.0
 10
352.0902414046018
 20
294.7436509631408
 30
0.0
 10
352.0796813916033
 20
294.7558371369506
 30
0.0
 10
352.0598892662018
 20
294.7812506139399
 30
0.0
 10
352.0507088489858
 20
294.7944213980805
 30
0.0
 10
352.0342731325165
 20
294.8215764037578
 30
0.0
 10
352.0269842401188
 20
294.8355968317871
 30
0.0
 10
352.0177912050862
 20
294.8574556996298
 30
0.0
 10
352.0150114151015
 20
294.8649064210591
 30
0.0
 10
352.010171211964
 20
294.8799530980933
 30
0.0
 10
352.0081056488795
 20
294.8875547911753
 30
0.0
 10
352.0030724000147
 20
294.9106166128866
 30
0.0
 10
352.001254565865
 20
294.9263305078556
 30
0.0
 10
352.0014220691447
 20
294.9505383622057
 30
0.0
 10
352.0019650014976
 20
294.9587282187489
 30
0.0
 10
352.0041632463985
 20
294.9752970795385
 30
0.0
 10
352.0074367834097
 20
294.9917825144907
 30
0.0
 10
352.0129521275005
 20
295.0080935706769
 30
0.0
 10
352.0196507987096
 20
295.0243123907926
 30
0.0
 10
352.0236215457127
 20
295.0324258206378
 30
0.0
 10
352.0372126677228
 20
295.0562452513572
 30
0.0
 10
352.0483615346157
 20
295.071248176983
 30
0.0
 10
352.0679633154427
 20
295.0925438026839
 30
0.0
 10
352.0750266061704
 20
295.0994796175535
 30
0.0
 10
352.0897804739685
 20
295.1126902078499
 30
0.0
 10
352.0974772292053
 20
295.118982251027
 30
0.0
 10
352.1214186572422
 20
295.1370248016072
 30
0.0
 10
352.1385090262385
 20
295.1479470759324
 30
0.0
 10
352.1745589533458
 20
295.1679618559853
 30
0.0
 10
352.1931822371
 20
295.1768665519256
 30
0.0
 10
352.2311826753636
 20
295.1928775236067
 30
0.0
 10
352.250594771256
 20
295.1999975250146
 30
0.0
 10
352.2703457859777
 20
295.2063890815489
 30
0.0
  0
SPLINE
  5
20A
330
1F
100
AcDbEntity
  8
1
100
AcDbSpline
210
0.0
220
0.0
230
1.0
 70
     8
 71
     3
 72
     8
 73
     4
 74
     0
 42
0.000000001
 43
0.0000000001
 40
0.0
 40
0.0
 40
0.0
 40
0.0
 40
1.0
 40
1.0
 40
1.0
 40
1.0
 10
291.2469938914242
 20
281.7161512049762
 30
0.0
 10
290.6324419563002
 20
281.8072076463165
 30
0.0
 10
290.0143503346558
 20
281.8678744018202
 30
0.0
 10
289.3923341230149
 20
281.8943232799431
 30
0.0
  0
SPLINE
  5
20B
330
1F
100
AcDbEntity
  8
1
100
AcDbSpline
210
0.0
220
0.0
230
1.0
 70
     8
 71
     3
 72
    33
 73
    29
 74
     0
 42
0.000000001
 43
0.0000000001
 40
0.0
 40
0.0
 40
0.0
 40
0.0
 40
0.1249999999999987
 40
0.1249999999999987
 40
0.2499999999999974
 40
0.2499999999999974
 40
0.3749999999999962
 40
0.3749999999999962
 40
0.4374999999999958
 40
0.4374999999999958
 40
0.4687499999999958
 40
0.4687499999999958
 40
0.499999999999996
 40
0.499999999999996
 40
0.6249999999999964
 40
0.6249999999999964
 40
0.6874999999999968
 40
0.6874999999999968
 40
0.7499999999999972
 40
0.7499999999999972
 40
0.7812499999999975
 40
0.7812499999999975
 40
0.8124999999999978
 40
0.8124999999999978
 40
0.8749999999999984
 40
0.9374999999999992
 40
0.9374999999999992
 40
1.0
 40
1.0
 40
1.0
 40
1.0
 10
279.4048419452957
 20
277.4624388376203
 30
0.0
 10
279.7288905685324
 20
277.8009685510265
 30
0.0
 10
280.0649966985155
 20
278.1229029803969
 30
0.0
 10
280.7618845264707
 20
278.7342723863791
 30
0.0
 10
281.1226609348659
 20
279.0237077627812
 30
0.0
 10
281.8702415180348
 20
279.5694676360209
 30
0.0
 10
282.2570341498375
 20
279.8258031917242
 30
0.0
 10
282.8585356103421
 20
280.183926768241
 30
0.0
 10
283.0625973047735
 20
280.2988923382089
 30
0.0
 10
283.3743589418999
 20
280.4643989076305
 30
0.0
 10
283.4789028680871
 20
280.5182369638621
 30
0.0
 10
283.6889704780237
 20
280.6230886156217
 30
0.0
 10
283.7945390420874
 20
280.6741260951081
 30
0.0
 10
284.3250895102857
 20
280.9223148875498
 30
0.0
 10
284.7581647853695
 20
281.0985596649898
 30
0.0
 10
285.4217170724319
 20
281.3273527156375
 30
0.0
 10
285.6452301688084
 20
281.3976706383935
 30
0.0
 10
286.0971595907548
 20
281.5258186368788
 30
0.0
 10
286.3255754830448
 20
281.5836500399305
 30
0.0
 10
286.6721105645215
 20
281.6604351246345
 30
0.0
 10
286.7882746973059
 20
281.6843681165218
 30
0.0
 10
287.0219544191168
 20
281.72878770234
 30
0.0
 10
287.139596243756
 20
281.7492896878817
 30
0.0
 10
287.4925692631268
 20
281.8051189051808
 30
0.0
 10
287.9644440215697
 20
281.8646744790435
 30
0.0
 10
288.4388673291925
 20
281.8934630380486
 30
0.0
 10
288.9146038468322
 20
281.9061755077806
 30
0.0
 10
289.1531286973356
 20
281.9044945826065
 30
0.0
 10
289.3923341230149
 20
281.8943232799431
 30
0.0
  0
SPLINE
  5
20C
330
1F
100
AcDbEntity
  8
1
100
AcDbSpline
210
0.0
220
0.0
230
1.0
 70
     8
 71
     3
 72
    29
 73
    25
 74
     0
 42
0.000000001
 43
0.0000000001
 40
0.0
 40
0.0
 40
0.0
 40
0.0
 40
0.1250000000000018
 40
0.1250000000000018
 40
0.2500000000000036
 40
0.2500000000000036
 40
0.3750000000000056
 40
0.3750000000000056
 40
0.4375000000000064
 40
0.4375000000000064
 40
0.4687500000000068
 40
0.4687500000000068
 40
0.5000000000000071
 40
0.5000000000000071
 40
0.6250000000000059
 40
0.6250000000000059
 40
0.7500000000000041
 40
0.7500000000000041
 40
0.8750000000000024
 40
0.8750000000000024
 40
0.9062500000000021
 40
0.9062500000000021
 40
0.9375000000000015
 40
1.0
 40
1.0
 40
1.0
 40
1.0
 10
279.4048419452957
 20
277.4624388376203
 30
0.0
 10
279.1884827406471
 20
277.3101272122729
 30
0.0
 10
278.9809412537701
 20
277.1527004541658
 30
0.0
 10
278.583521226685
 20
276.8283293323866
 30
0.0
 10
278.393641623487
 20
276.6613845199207
 30
0.0
 10
278.0319634327916
 20
276.3184838546796
 30
0.0
 10
277.8601620245498
 20
276.1425282992449
 30
0.0
 10
277.6166690305914
 20
275.8720656590184
 30
0.0
 10
277.5378766313691
 20
275.7808216273436
 30
0.0
 10
277.4233658411549
 20
275.6423340122838
 30
0.0
 10
277.3857959377265
 20
275.5958813959842
 30
0.0
 10
277.312313280705
 20
275.5029642583384
 30
0.0
 10
277.2763470325455
 20
275.4564363152488
 30
0.0
 10
277.100375160652
 20
275.2234817118738
 30
0.0
 10
276.9719255297796
 20
275.0361155855146
 30
0.0
 10
276.7396267056874
 20
274.6601090605555
 30
0.0
 10
276.6357762409991
 20
274.471467725397
 30
0.0
 10
276.4531986950319
 20
274.0935237129401
 30
0.0
 10
276.3744678709119
 20
273.9042204612465
 30
0.0
 10
276.29248944647
 20
273.6675032835347
 30
0.0
 10
276.2769081205856
 20
273.6201255091314
 30
0.0
 10
276.247459295974
 20
273.5255003063414
 30
0.0
 10
276.2059316259539
 20
273.3840069047305
 30
0.0
 10
276.1723234845462
 20
273.2438782846033
 30
0.0
 10
276.1534425800717
 20
273.1510928543188
 30
0.0
  0
LINE
  5
226
330
1F
100
AcDbEntity
  8
SK4
100
AcDbLine
 10
210.904842
 20
288.907994
 30
0.0
 11
277.404842
 21
288.907994
 31
0.0
  0
LINE
  5
227
330
1F
100
AcDbEntity
  8
4
100
AcDbLine
 10
266.392334
 20
288.907994
 30
0.0
 11
375.046921
 21
288.907994
 31
0.0
  0
MTEXT
  5
228
330
1F
100
AcDbEntity
  8
SK6
100
AcDbMText
 10
268.202386
 20
243.089042
 30
0.0
 40
3.5
 41
0.0
 71
     7
 72
     5
  1
\W0.7022;802D-36-72-S32
  7
cesky
 73
     2
 44
0.8433729999999998
  0
MTEXT
  5
33E
330
1F
100
AcDbEntity
  8
2
100
AcDbMText
 10
384.172391
 20
289.986796
 30
0.0
 40
3.5
 41
0.0
 71
     7
 72
     5
  1
\W0.7259;36
  7
cesky
 11
0.0000000000000001
 21
1.0
 31
0.0
 73
     2
 44
0.8433729999999998
  0
MTEXT
  5
33F
330
1F
100
AcDbEntity
  8
2
100
AcDbMText
 10
384.172391
 20
283.249296
 30
0.0
 40
3.5
 41
0.0
 71
     7
 72
     5
  1
\W3.0115;\H2.63;%%c\H3.50;
  7
cesky
 11
0.0000000000000001
 21
1.0
 31
0.0
 73
     2
 44
0.8433729999999998
  0
LINE
  5
340
330
1F
100
AcDbEntity
  8
2
100
AcDbLine
 10
373.404842
 20
306.907994
 30
0.0
 11
385.359807
 21
306.907994
 31
0.0
  0
LINE
  5
341
330
1F
100
AcDbEntity
  8
2
100
AcDbLine
 10
384.359807
 20
306.907994
 30
0.0
 11
384.359807
 21
283.091796
 31
0.0
  0
SOLID
  5
342
330
1F
100
AcDbEntity
  8
2
100
AcDbTrace
 10
384.359807
 20
306.907994
 30
0.0
 11
384.976952
 21
303.407996
 31
0.0
 12
383.742663
 22
303.407991
 32
0.0
 13
383.742663
 23
303.407991
 33
0.0
  0
MTEXT
  5
343
330
1F
100
AcDbEntity
  8
2
100
AcDbMText
 10
242.590342
 20
327.385163
 30
0.0
 40
3.5
 41
0.0
 71
     7
 72
     5
  1
\W0.7045;60
  7
cesky
 73
     2
 44
0.8433729999999998
  0
LINE
  5
344
330
1F
100
AcDbEntity
  8
2
100
AcDbLine
 10
274.404842
 20
288.907994
 30
0.0
 11
274.404842
 21
328.5109970000001
 31
0.0
  0
LINE
  5
345
330
1F
100
AcDbEntity
  8
2
100
AcDbLine
 10
214.404842
 20
302.907994
 30
0.0
 11
214.404842
 21
328.5109970000001
 31
0.0
  0
LINE
  5
346
330
1F
100
AcDbEntity
  8
2
100
AcDbLine
 10
274.404842
 20
327.510997
 30
0.0
 11
214.404842
 21
327.510997
 31
0.0
  0
SOLID
  5
347
330
1F
100
AcDbEntity
  8
2
100
AcDbTrace
 10
274.404842
 20
327.510997
 30
0.0
 11
270.904844
 21
326.893852
 31
0.0
 12
270.90484
 22
328.128141
 32
0.0
 13
270.90484
 23
328.128141
 33
0.0
  0
SOLID
  5
348
330
1F
100
AcDbEntity
  8
2
100
AcDbTrace
 10
214.404842
 20
327.510997
 30
0.0
 11
217.90484
 21
328.128141
 31
0.0
 12
217.904844
 22
326.893852
 32
0.0
 13
217.904844
 23
326.893852
 33
0.0
  0
MTEXT
  5
349
330
1F
100
AcDbEntity
  8
2
100
AcDbMText
 10
329.588603
 20
315.780723
 30
0.0
 40
3.5
 41
0.0
 71
     7
 72
     5
  1
\W0.7045;80
  7
cesky
 73
     2
 44
0.8433729999999998
  0
LINE
  5
34A
330
1F
100
AcDbEntity
  8
2
100
AcDbLine
 10
371.404842
 20
308.907994
 30
0.0
 11
371.404842
 21
316.906556
 31
0.0
  0
LINE
  5
34B
330
1F
100
AcDbEntity
  8
2
100
AcDbLine
 10
291.401364
 20
306.596863
 30
0.0
 11
291.401364
 21
316.906556
 31
0.0
  0
LINE
  5
34C
330
1F
100
AcDbEntity
  8
2
100
AcDbLine
 10
371.404842
 20
315.906556
 30
0.0
 11
291.401364
 21
315.906556
 31
0.0
  0
SOLID
  5
34D
330
1F
100
AcDbEntity
  8
2
100
AcDbTrace
 10
371.404842
 20
315.906556
 30
0.0
 11
367.904844
 21
315.289412
 31
0.0
 12
367.90484
 22
316.5237
 32
0.0
 13
367.90484
 23
316.5237
 33
0.0
  0
SOLID
  5
34E
330
1F
100
AcDbEntity
  8
2
100
AcDbTrace
 10
291.401364
 20
315.906556
 30
0.0
 11
294.901361
 21
316.5237
 31
0.0
 12
294.901366
 22
315.289412
 32
0.0
 13
294.901366
 23
315.289412
 33
0.0
  0
MTEXT
  5
34F
330
1F
100
AcDbEntity
  8
2
100
AcDbMText
 10
289.827842
 20
340.562135
 30
0.0
 40
3.5
 41
0.0
 71
     7
 72
     5
  1
\W0.7809;157
  7
cesky
 73
     2
 44
0.8433729999999998
  0
LINE
  5
350
330
1F
100
AcDbEntity
  8
2
100
AcDbLine
 10
371.404842
 20
308.907994
 30
0.0
 11
371.404842
 21
341.687968
 31
0.0
  0
LINE
  5
351
330
1F
100
AcDbEntity
  8
2
100
AcDbLine
 10
214.404842
 20
302.907994
 30
0.0
 11
214.404842
 21
341.687968
 31
0.0
  0
LINE
  5
352
330
1F
100
AcDbEntity
  8
2
100
AcDbLine
 10
371.404842
 20
340.687968
 30
0.0
 11
214.404842
 21
340.687968
 31
0.0
  0
SOLID
  5
353
330
1F
100
AcDbEntity
  8
2
100
AcDbTrace
 10
371.404842
 20
340.687968
 30
0.0
 11
367.904844
 21
340.070823
 31
0.0
 12
367.90484
 22
341.305112
 32
0.0
 13
367.90484
 23
341.305112
 33
0.0
  0
SOLID
  5
354
330
1F
100
AcDbEntity
  8
2
100
AcDbTrace
 10
214.404842
 20
340.687968
 30
0.0
 11
217.90484
 21
341.305112
 31
0.0
 12
217.904844
 22
340.070823
 32
0.0
 13
217.904844
 23
340.070823
 33
0.0
  0
MTEXT
  5
355
330
1F
100
AcDbEntity
  8
2
100
AcDbMText
 10
321.090342
 20
327.385163
 30
0.0
 40
3.5
 41
0.0
 71
     7
 72
     5
  1
\W0.7045;97
  7
cesky
 73
     2
 44
0.8433729999999998
  0
LINE
  5
356
330
1F
100
AcDbEntity
  8
2
100
AcDbLine
 10
371.404842
 20
306.907994
 30
0.0
 11
371.404842
 21
328.5109970000001
 31
0.0
  0
LINE
  5
357
330
1F
100
AcDbEntity
  8
2
100
AcDbLine
 10
274.404842
 20
289.907567
 30
0.0
 11
274.404842
 21
328.5109970000001
 31
0.0
  0
LINE
  5
358
330
1F
100
AcDbEntity
  8
2
100
AcDbLine
 10
371.404842
 20
327.510997
 30
0.0
 11
274.404842
 21
327.510997
 31
0.0
  0
SOLID
  5
359
330
1F
100
AcDbEntity
  8
2
100
AcDbTrace
 10
371.404842
 20
327.510997
 30
0.0
 11
367.904844
 21
326.893852
 31
0.0
 12
367.90484
 22
328.128141
 32
0.0
 13
367.90484
 23
328.128141
 33
0.0
  0
SOLID
  5
35A
330
1F
100
AcDbEntity
  8
2
100
AcDbTrace
 10
274.404842
 20
327.510997
 30
0.0
 11
277.90484
 21
328.128141
 31
0.0
 12
277.904844
 22
326.893852
 32
0.0
 13
277.904844
 23
326.893852
 33
0.0
  0
MTEXT
  5
35B
330
1F
100
AcDbEntity
  8
SK2
100
AcDbMText
 10
203.850458
 20
290.434244
 30
0.0
 40
3.5
 41
0.0
 71
     7
 72
     5
  1
\W0.7045;32
  7
cesky
 11
0.0000000000000001
 21
1.0
 31
0.0
 73
     2
 44
0.8433729999999998
  0
MTEXT
  5
35C
330
1F
100
AcDbEntity
  8
SK2
100
AcDbMText
 10
203.850458
 20
283.696744
 30
0.0
 40
3.5
 41
0.0
 71
     7
 72
     5
  1
\W3.0115;\H2.63;%%c\H3.50;
  7
cesky
 11
0.0000000000000001
 21
1.0
 31
0.0
 73
     2
 44
0.8433729999999998
  0
LINE
  5
35D
330
1F
100
AcDbEntity
  8
SK2
100
AcDbLine
 10
216.404842
 20
304.907994
 30
0.0
 11
203.037875
 21
304.907994
 31
0.0
  0
LINE
  5
35E
330
1F
100
AcDbEntity
  8
SK2
100
AcDbLine
 10
216.404842
 20
272.907994
 30
0.0
 11
203.037875
 21
272.907994
 31
0.0
  0
LINE
  5
35F
330
1F
100
AcDbEntity
  8
SK2
100
AcDbLine
 10
204.037875
 20
304.907994
 30
0.0
 11
204.037875
 21
272.907994
 31
0.0
  0
SOLID
  5
360
330
1F
100
AcDbEntity
  8
SK2
100
AcDbTrace
 10
204.037875
 20
304.907994
 30
0.0
 11
204.65502
 21
301.407996
 31
0.0
 12
203.420731
 22
301.407991
 32
0.0
 13
203.420731
 23
301.407991
 33
0.0
  0
SOLID
  5
361
330
1F
100
AcDbEntity
  8
SK2
100
AcDbTrace
 10
204.037875
 20
272.907994
 30
0.0
 11
203.420731
 21
276.407991
 31
0.0
 12
204.65502
 22
276.407996
 32
0.0
 13
204.65502
 23
276.407996
 33
0.0
  0
MTEXT
  5
362
330
1F
100
AcDbEntity
  8
SK2
100
AcDbMText
 10
191.10057
 20
290.434244
 30
0.0
 40
3.5
 41
0.0
 71
     7
 72
     5
  1
\W0.7045;42
  7
cesky
 11
0.0000000000000001
 21
1.0
 31
0.0
 73
     2
 44
0.8433729999999998
  0
MTEXT
  5
363
330
1F
100
AcDbEntity
  8
SK2
100
AcDbMText
 10
191.10057
 20
283.696744
 30
0.0
 40
3.5
 41
0.0
 71
     7
 72
     5
  1
\W3.0115;\H2.63;%%c\H3.50;
  7
cesky
 11
0.0000000000000001
 21
1.0
 31
0.0
 73
     2
 44
0.8433729999999998
  0
LINE
  5
364
330
1F
100
AcDbEntity
  8
SK2
100
AcDbLine
 10
274.904842
 20
309.907994
 30
0.0
 11
190.287987
 21
309.907994
 31
0.0
  0
LINE
  5
365
330
1F
100
AcDbEntity
  8
SK2
100
AcDbLine
 10
274.904842
 20
267.907994
 30
0.0
 11
190.287987
 21
267.907994
 31
0.0
  0
LINE
  5
366
330
1F
100
AcDbEntity
  8
SK2
100
AcDbLine
 10
191.287987
 20
309.907994
 30
0.0
 11
191.287987
 21
267.907994
 31
0.0
  0
SOLID
  5
367
330
1F
100
AcDbEntity
  8
SK2
100
AcDbTrace
 10
191.287987
 20
309.907994
 30
0.0
 11
191.905131
 21
306.407996
 31
0.0
 12
190.670842
 22
306.407991
 32
0.0
 13
190.670842
 23
306.407991
 33
0.0
  0
SOLID
  5
368
330
1F
100
AcDbEntity
  8
SK2
100
AcDbTrace
 10
191.287987
 20
267.907994
 30
0.0
 11
190.670842
 21
271.4079910000001
 31
0.0
 12
191.905131
 22
271.407996
 32
0.0
 13
191.905131
 23
271.407996
 33
0.0
  0
LINE
  5
369
330
1F
100
AcDbEntity
  8
CUT
100
AcDbLine
 10
369.8029048644206
 20
306.9049267109345
 30
0.0
 11
358.6647256653424
 21
306.4972119845732
 31
0.0
  0
LINE
  5
36C
330
1F
100
AcDbEntity
  8
CUT
100
AcDbLine
 10
371.2334058386328
 20
297.3026386918775
 30
0.0
 11
370.9048193077228
 21
297.849462084272
 31
0.0
  0
LINE
  5
36E
330
1F
100
AcDbEntity
  8
CUT
100
AcDbLine
 10
371.3998607906599
 20
290.0309651127017
 30
0.0
 11
371.2754235247553
 21
297.1561161883041
 31
0.0
  0
LINE
  5
36F
330
1F
100
AcDbEntity
  8
CUT
100
AcDbLine
 10
370.9048193077228
 20
297.849462084272
 30
0.0
 11
370.606553292615
 21
306.1586309572965
 31
0.0
  0
LINE
  5
370
330
1F
100
AcDbEntity
  8
CUT
100
AcDbLine
 10
357.916608
 20
288.907994
 30
0.0
 11
371.399861
 21
288.907994
 31
0.0
  0
LINE
  5
371
330
1F
100
AcDbEntity
  8
CUT
100
AcDbLine
 10
357.916608
 20
305.693666
 30
0.0
 11
357.916608
 21
288.907994
 31
0.0
  0
LINE
  5
372
330
1F
100
AcDbEntity
  8
CUT
100
AcDbLine
 10
371.399861
 20
288.907994
 30
0.0
 11
371.399861
 21
290.030965
 31
0.0
  0
LINE
  5
373
330
1F
100
AcDbEntity
  8
CUT
100
AcDbLine
 10
370.606553292615
 20
306.1586309572965
 30
0.0
 11
370.606553292615
 21
306.1586309572965
 31
0.0
  0
ARC
  5
374
330
1F
100
AcDbEntity
  8
CUT
100
AcDbCircle
 10
369.8268464748907
 20
306.1248560304327
 30
0.0
 40
0.7804379970826463
100
AcDbArc
 50
2.480357615116428
 51
91.75794680368261
  0
LINE
  5
375
330
1F
100
AcDbEntity
  8
CUT
100
AcDbLine
 10
358.6647256653424
 20
306.4972119845732
 30
0.0
 11
358.6647256653424
 21
306.4972119845732
 31
0.0
  0
ARC
  5
376
330
1F
100
AcDbEntity
  8
CUT
100
AcDbCircle
 10
358.6984734754421
 20
305.7157627124535
 30
0.0
 40
0.7821776521883734
100
AcDbArc
 50
92.47284937097267
 51
181.618859831642
  0
LINE
  5
377
330
1F
100
AcDbEntity
  8
CUT
100
AcDbLine
 10
371.2754235247554
 20
297.1561161883041
 30
0.0
 11
371.2754235247554
 21
297.1561161883041
 31
0.0
  0
ARC
  5
378
330
1F
100
AcDbEntity
  8
CUT
100
AcDbCircle
 10
370.9810540226306
 20
297.1509868714708
 30
0.0
 40
0.2944141872810484
100
AcDbArc
 50
0.9982639708976115
 51
31.00392878131692
  0
ENDSEC
  0
SECTION
  2
OBJECTS
  0
DICTIONARY
  5
C
330
0
100
AcDbDictionary
281
     1
  3
ACAD_CIP_PREVIOUS_PRODUCT_INFO
350
33B
  3
ACAD_COLOR
350
336
  3
ACAD_DETAILVIEWSTYLE
350
332
  3
ACAD_GROUP
350
D
  3
ACAD_LAYOUT
350
1A
  3
ACAD_MATERIAL
350
43
  3
ACAD_MLEADERSTYLE
350
6B
  3
ACAD_MLINESTYLE
350
17
  3
ACAD_PLOTSETTINGS
350
19
  3
ACAD_PLOTSTYLENAME
350
E
  3
ACAD_SCALELIST
350
47
  3
ACAD_SECTIONVIEWSTYLE
350
333
  3
ACAD_TABLESTYLE
350
69
  3
ACAD_VISUALSTYLE
350
2A
  3
ACDB_RECOMPOSE_DATA
350
3A4
  3
AcDbVariableDictionary
350
2EF
  0
DICTIONARY
  5
387
330
10
100
AcDbDictionary
280
     1
281
     1
  3
ADSK_XREC_LAYER_RECONCILED
360
388
  0
DICTIONARY
  5
389
330
379
100
AcDbDictionary
280
     1
281
     1
  3
ADSK_XREC_LAYER_RECONCILED
360
38A
  0
DICTIONARY
  5
38B
330
37A
100
AcDbDictionary
280
     1
281
     1
  3
ADSK_XREC_LAYER_RECONCILED
360
38C
  0
DICTIONARY
  5
38D
330
37B
100
AcDbDictionary
280
     1
281
     1
  3
ADSK_XREC_LAYER_RECONCILED
360
38E
  0
DICTIONARY
  5
38F
330
37D
100
AcDbDictionary
280
     1
281
     1
  3
ADSK_XREC_LAYER_RECONCILED
360
390
  0
DICTIONARY
  5
391
330
37E
100
AcDbDictionary
280
     1
281
     1
  3
ADSK_XREC_LAYER_RECONCILED
360
392
  0
DICTIONARY
  5
393
330
380
100
AcDbDictionary
280
     1
281
     1
  3
ADSK_XREC_LAYER_RECONCILED
360
394
  0
DICTIONARY
  5
395
330
381
100
AcDbDictionary
280
     1
281
     1
  3
ADSK_XREC_LAYER_RECONCILED
360
396
  0
DICTIONARY
  5
397
330
382
100
AcDbDictionary
280
     1
281
     1
  3
ADSK_XREC_LAYER_RECONCILED
360
398
  0
DICTIONARY
  5
399
330
383
100
AcDbDictionary
280
     1
281
     1
  3
ADSK_XREC_LAYER_RECONCILED
360
39A
  0
DICTIONARY
  5
39B
330
384
100
AcDbDictionary
280
     1
281
     1
  3
ADSK_XREC_LAYER_RECONCILED
360
39C
  0
DICTIONARY
  5
39D
330
385
100
AcDbDictionary
280
     1
281
     1
  3
ADSK_XREC_LAYER_RECONCILED
360
39E
  0
DICTIONARY
  5
33C
330
1F
100
AcDbDictionary
280
     1
281
     1
  3
ACAD_SORTENTS
360
33D
  0
XRECORD
  5
33B
102
{ACAD_REACTORS
330
C
102
}
330
C
100
AcDbXrecord
280
     1
300
ACD
300
2019
300
87084ACD_2019_0F
  0
DICTIONARY
  5
336
102
{ACAD_REACTORS
330
C
102
}
330
C
100
AcDbDictionary
281
     1
  0
DICTIONARY
  5
332
102
{ACAD_REACTORS
330
C
102
}
330
C
100
AcDbDictionary
281
     1
  3
Metric50
350
338
  0
DICTIONARY
  5
D
102
{ACAD_REACTORS
330
C
102
}
330
C
100
AcDbDictionary
281
     1
  3
NULOVY_BOD
350
386
  0
DICTIONARY
  5
1A
102
{ACAD_REACTORS
330
C
102
}
330
C
100
AcDbDictionary
281
     1
  3
Layout1
350
1E
  3
Layout2
350
26
  3
Model
350
22
  0
DICTIONARY
  5
43
102
{ACAD_REACTORS
330
C
102
}
330
C
100
AcDbDictionary
281
     1
  3
ByBlock
350
45
  3
ByLayer
350
44
  3
Global
350
46
  0
DICTIONARY
  5
6B
102
{ACAD_REACTORS
330
C
102
}
330
C
100
AcDbDictionary
281
     1
  3
Standard
350
6C
  0
DICTIONARY
  5
17
102
{ACAD_REACTORS
330
C
102
}
330
C
100
AcDbDictionary
281
     1
  3
Standard
350
18
  0
DICTIONARY
  5
19
102
{ACAD_REACTORS
330
C
102
}
330
C
100
AcDbDictionary
281
     1
  0
ACDBDICTIONARYWDFLT
  5
E
102
{ACAD_REACTORS
330
C
102
}
330
C
100
AcDbDictionary
281
     1
  3
Normal
350
F
100
AcDbDictionaryWithDefault
340
F
  0
DICTIONARY
  5
47
102
{ACAD_REACTORS
330
C
102
}
330
C
100
AcDbDictionary
281
     1
  3
A0
350
48
  3
A1
350
49
  3
A2
350
4A
  3
A3
350
4B
  3
A4
350
4C
  3
A5
350
4D
  3
A6
350
4E
  3
A7
350
4F
  3
A8
350
50
  3
A9
350
51
  3
B0
350
52
  3
B1
350
53
  3
B2
350
54
  3
B3
350
55
  3
B4
350
56
  3
B5
350
57
  3
B6
350
58
  3
B7
350
59
  3
B8
350
5A
  3
B9
350
5B
  3
C0
350
5C
  3
C1
350
5D
  3
C2
350
5E
  3
C3
350
5F
  3
C4
350
60
  3
C5
350
61
  3
C6
350
62
  3
C7
350
63
  3
C8
350
64
  3
C9
350
65
  3
D0
350
66
  3
D1
350
67
  3
D2
350
68
  0
DICTIONARY
  5
333
102
{ACAD_REACTORS
330
C
102
}
330
C
100
AcDbDictionary
281
     1
  3
Metric50
350
337
  0
DICTIONARY
  5
69
102
{ACAD_REACTORS
330
C
102
}
330
C
100
AcDbDictionary
281
     1
  3
Standard
350
6A
  0
DICTIONARY
  5
2A
102
{ACAD_REACTORS
330
C
102
}
330
C
100
AcDbDictionary
281
     1
  3
2dWireframe
350
2F
  3
Basic
350
32
  3
Brighten
350
36
  3
ColorChange
350
3A
  3
Conceptual
350
34
  3
Dim
350
35
  3
EdgeColorOff
350
3D
  3
Facepattern
350
39
  3
Flat
350
2B
  3
FlatWithEdges
350
2C
  3
Gouraud
350
2D
  3
GouraudWithEdges
350
2E
  3
Hidden
350
31
  3
JitterOff
350
3B
  3
Linepattern
350
38
  3
OverhangOff
350
3C
  3
Realistic
350
33
  3
Shaded
350
42
  3
Shaded with edges
350
41
  3
Shades of Gray
350
3E
  3
Sketchy
350
3F
  3
Thicken
350
37
  3
Wireframe
350
30
  3
X-Ray
350
40
  0
XRECORD
  5
3A4
102
{ACAD_REACTORS
330
C
102
}
330
C
100
AcDbXrecord
280
     1
 90
        1
330
6A
  0
DICTIONARY
  5
2EF
102
{ACAD_REACTORS
330
C
102
}
330
C
100
AcDbDictionary
281
     1
  3
CANNOSCALE
350
2F0
  3
CMLEADERSTYLE
350
331
  3
CTABLESTYLE
350
330
  3
CVIEWDETAILSTYLE
350
39F
  3
CVIEWSECTIONSTYLE
350
3A0
  3
MSLTSCALE
350
2F1
  3
XCLIPFRAME
350
3A1
  0
XRECORD
  5
388
102
{ACAD_REACTORS
330
387
102
}
330
387
100
AcDbXrecord
280
     1
290
     1
  0
XRECORD
  5
38A
102
{ACAD_REACTORS
330
389
102
}
330
389
100
AcDbXrecord
280
     1
290
     1
  0
XRECORD
  5
38C
102
{ACAD_REACTORS
330
38B
102
}
330
38B
100
AcDbXrecord
280
     1
290
     1
  0
XRECORD
  5
38E
102
{ACAD_REACTORS
330
38D
102
}
330
38D
100
AcDbXrecord
280
     1
290
     1
  0
XRECORD
  5
390
102
{ACAD_REACTORS
330
38F
102
}
330
38F
100
AcDbXrecord
280
     1
290
     1
  0
XRECORD
  5
392
102
{ACAD_REACTORS
330
391
102
}
330
391
100
AcDbXrecord
280
     1
290
     1
  0
XRECORD
  5
394
102
{ACAD_REACTORS
330
393
102
}
330
393
100
AcDbXrecord
280
     1
290
     1
  0
XRECORD
  5
396
102
{ACAD_REACTORS
330
395
102
}
330
395
100
AcDbXrecord
280
     1
290
     1
  0
XRECORD
  5
398
102
{ACAD_REACTORS
330
397
102
}
330
397
100
AcDbXrecord
280
     1
290
     1
  0
XRECORD
  5
39A
102
{ACAD_REACTORS
330
399
102
}
330
399
100
AcDbXrecord
280
     1
290
     1
  0
XRECORD
  5
39C
102
{ACAD_REACTORS
330
39B
102
}
330
39B
100
AcDbXrecord
280
     1
290
     1
  0
XRECORD
  5
39E
102
{ACAD_REACTORS
330
39D
102
}
330
39D
100
AcDbXrecord
280
     1
290
     1
  0
SORTENTSTABLE
  5
33D
102
{ACAD_REACTORS
330
33C
102
}
330
33C
100
AcDbSortentsTable
330
1F
331
33E
  5
249
331
33F
  5
262
331
340
  5
33E
331
341
  5
33F
331
342
  5
340
331
343
  5
351
331
344
  5
352
331
345
  5
353
331
346
  5
354
331
347
  5
355
331
348
  5
356
331
349
  5
357
331
34A
  5
358
331
34B
  5
359
331
34C
  5
35A
331
34D
  5
35B
331
34E
  5
35C
331
34F
  5
35D
331
350
  5
35E
331
351
  5
35F
331
352
  5
360
331
353
  5
361
331
354
  5
362
331
355
  5
363
331
356
  5
364
331
357
  5
365
331
358
  5
366
331
359
  5
367
331
35A
  5
368
331
35B
  5
343
331
35C
  5
344
331
35D
  5
345
331
35E
  5
346
331
35F
  5
347
331
360
  5
348
331
361
  5
349
331
362
  5
34A
331
363
  5
34B
331
364
  5
34C
331
365
  5
34D
331
366
  5
34E
331
367
  5
34F
331
368
  5
350
331
36C
  5
371
331
36E
  5
374
331
36F
  5
375
331
370
  5
376
331
371
  5
377
331
372
  5
378
331
373
  5
36C
331
374
  5
36E
331
375
  5
36F
331
376
  5
370
331
377
  5
372
331
378
  5
373
  0
ACDBDETAILVIEWSTYLE
  5
338
102
{ACAD_XDICTIONARY
360
3D8
102
}
102
{ACAD_REACTORS
330
332
102
}
330
332
100
AcDbModelDocViewStyle
 70
     0
  3
Metric50
290
     0
100
AcDbDetailViewStyle
 70
     0
 71
     0
 90
        3
 71
     1
340
11
 62
   256
 40
5.0
340
0
 62
   256
 40
5.0
300

 40
0.0
280
     1
 71
     2
340
16
 90
       25
 62
   256
 71
     3
340
11
 62
   256
 40
5.0
 90
        0
 40
15.0
 90
        1
300
%<\AcVar ViewDetailId>% (%<\AcVar ViewScale \f "%sn">%)
 71
     4
340
16
 90
       25
 62
   256
340
16
 90
       25
 62
   256
280
     0
  0
GROUP
  5
386
102
{ACAD_REACTORS
330
D
102
}
330
D
100
AcDbGroup
300

 70
     0
 71
     1
340
73
  0
LAYOUT
  5
1E
102
{ACAD_REACTORS
330
1A
102
}
330
1A
100
AcDbPlotSettings
  1

  2
none_device
  4

  6

 40
0.0
 41
0.0
 42
0.0
 43
0.0
 44
0.0
 45
0.0
 46
0.0
 47
0.0
 48
0.0
 49
0.0
140
0.0
141
0.0
142
1.0
143
1.0
 70
   688
 72
     0
 73
     0
 74
     5
  7

 75
    16
147
1.0
 76
     0
 77
     2
 78
   300
148
0.0
149
0.0
100
AcDbLayout
  1
Layout1
 70
     1
 71
     1
 10
-0.5
 20
-0.5
 11
5.0
 21
5.0
 12
0.0
 22
0.0
 32
0.0
 14
-0.5
 24
-0.5
 34
-0.5
 15
5.0
 25
5.0
 35
5.0
146
0.0
 13
0.0
 23
0.0
 33
0.0
 16
1.0
 26
0.0
 36
0.0
 17
0.0
 27
1.0
 37
0.0
 76
     0
330
1B
  0
LAYOUT
  5
26
102
{ACAD_REACTORS
330
1A
102
}
330
1A
100
AcDbPlotSettings
  1

  2
none_device
  4

  6

 40
0.0
 41
0.0
 42
0.0
 43
0.0
 44
0.0
 45
0.0
 46
0.0
 47
0.0
 48
0.0
 49
0.0
140
0.0
141
0.0
142
1.0
143
1.0
 70
   688
 72
     0
 73
     0
 74
     5
  7

 75
    16
147
1.0
 76
     0
 77
     2
 78
   300
148
0.0
149
0.0
100
AcDbLayout
  1
Layout2
 70
     1
 71
     2
 10
0.0
 20
0.0
 11
0.0
 21
0.0
 12
0.0
 22
0.0
 32
0.0
 14
0.0
 24
0.0
 34
0.0
 15
0.0
 25
0.0
 35
0.0
146
0.0
 13
0.0
 23
0.0
 33
0.0
 16
1.0
 26
0.0
 36
0.0
 17
0.0
 27
1.0
 37
0.0
 76
     0
330
23
  0
LAYOUT
  5
22
102
{ACAD_REACTORS
330
1A
102
}
330
1A
100
AcDbPlotSettings
  1

  2
none_device
  4
Letter_(8.50_x_11.00_Inches)
  6

 40
6.349999999999999
 41
6.349999999999999
 42
6.350005
 43
6.350005
 44
215.9
 45
279.4
 46
0.0
 47
0.0
 48
0.0
 49
0.0
140
0.0
141
0.0
142
1.0
143
1.0
 70
  1712
 72
     0
 73
     0
 74
     0
  7

 75
     0
147
1.0
 76
     0
 77
     2
 78
   300
148
0.0
149
0.0
100
AcDbLayout
  1
Model
 70
     1
 71
     0
 10
-0.5
 20
-0.5
 11
5.0
 21
5.0
 12
0.0
 22
0.0
 32
0.0
 14
-0.5
 24
-0.5
 34
-0.5
 15
5.0
 25
5.0
 35
5.0
146
0.0
 13
0.0
 23
0.0
 33
0.0
 16
1.0
 26
0.0
 36
0.0
 17
0.0
 27
1.0
 37
0.0
 76
     0
330
1F
331
29
  0
MATERIAL
  5
45
102
{ACAD_XDICTIONARY
360
325
102
}
102
{ACAD_REACTORS
330
43
102
}
330
43
100
AcDbMaterial
  1
ByBlock
  0
MATERIAL
  5
44
102
{ACAD_XDICTIONARY
360
323
102
}
102
{ACAD_REACTORS
330
43
102
}
330
43
100
AcDbMaterial
  1
ByLayer
  0
MATERIAL
  5
46
102
{ACAD_XDICTIONARY
360
327
102
}
102
{ACAD_REACTORS
330
43
102
}
330
43
100
AcDbMaterial
  1
Global
  0
MLEADERSTYLE
  5
6C
102
{ACAD_REACTORS
330
6B
102
}
330
6B
100
AcDbMLeaderStyle
170
     2
171
     1
172
     0
 90
        2
 40
0.0
 41
0.0
173
     1
 91
-1056964608
340
14
 92
       -2
290
     1
 42
0.09
291
     1
 43
0.36
  3
Standard
 44
0.18
300

342
11
174
     1
178
     6
175
     1
176
     0
 93
-1056964608
 45
0.18
292
     0
297
     0
 46
0.18
 94
-1056964608
 47
1.0
 49
1.0
140
1.0
293
     1
141
0.0
294
     1
177
     0
142
1.0
295
     0
296
     0
143
0.125
1001
ACAD_MLEADERVER
1070
     2
  0
MLINESTYLE
  5
18
102
{ACAD_REACTORS
330
17
102
}
330
17
100
AcDbMlineStyle
  2
STANDARD
 70
     0
  3

 62
   256
 51
90.0
 52
90.0
 71
     2
 49
0.5
 62
   256
  6
BYLAYER
 49
-0.5
 62
   256
  6
BYLAYER
  0
ACDBPLACEHOLDER
  5
F
102
{ACAD_REACTORS
330
E
102
}
330
E
  0
SCALE
  5
48
102
{ACAD_REACTORS
330
47
102
}
330
47
100
AcDbScale
 70
     0
300
1:1
140
1.0
141
1.0
290
     1
  0
SCALE
  5
49
102
{ACAD_REACTORS
330
47
102
}
330
47
100
AcDbScale
 70
     0
300
1:2
140
1.0
141
2.0
290
     0
  0
SCALE
  5
4A
102
{ACAD_REACTORS
330
47
102
}
330
47
100
AcDbScale
 70
     0
300
1:4
140
1.0
141
4.0
290
     0
  0
SCALE
  5
4B
102
{ACAD_REACTORS
330
47
102
}
330
47
100
AcDbScale
 70
     0
300
1:5
140
1.0
141
5.0
290
     0
  0
SCALE
  5
4C
102
{ACAD_REACTORS
330
47
102
}
330
47
100
AcDbScale
 70
     0
300
1:8
140
1.0
141
8.0
290
     0
  0
SCALE
  5
4D
102
{ACAD_REACTORS
330
47
102
}
330
47
100
AcDbScale
 70
     0
300
1:10
140
1.0
141
10.0
290
     0
  0
SCALE
  5
4E
102
{ACAD_REACTORS
330
47
102
}
330
47
100
AcDbScale
 70
     0
300
1:16
140
1.0
141
16.0
290
     0
  0
SCALE
  5
4F
102
{ACAD_REACTORS
330
47
102
}
330
47
100
AcDbScale
 70
     0
300
1:20
140
1.0
141
20.0
290
     0
  0
SCALE
  5
50
102
{ACAD_REACTORS
330
47
102
}
330
47
100
AcDbScale
 70
     0
300
1:30
140
1.0
141
30.0
290
     0
  0
SCALE
  5
51
102
{ACAD_REACTORS
330
47
102
}
330
47
100
AcDbScale
 70
     0
300
1:40
140
1.0
141
40.0
290
     0
  0
SCALE
  5
52
102
{ACAD_REACTORS
330
47
102
}
330
47
100
AcDbScale
 70
     0
300
1:50
140
1.0
141
50.0
290
     0
  0
SCALE
  5
53
102
{ACAD_REACTORS
330
47
102
}
330
47
100
AcDbScale
 70
     0
300
1:100
140
1.0
141
100.0
290
     0
  0
SCALE
  5
54
102
{ACAD_REACTORS
330
47
102
}
330
47
100
AcDbScale
 70
     0
300
2:1
140
2.0
141
1.0
290
     0
  0
SCALE
  5
55
102
{ACAD_REACTORS
330
47
102
}
330
47
100
AcDbScale
 70
     0
300
4:1
140
4.0
141
1.0
290
     0
  0
SCALE
  5
56
102
{ACAD_REACTORS
330
47
102
}
330
47
100
AcDbScale
 70
     0
300
8:1
140
8.0
141
1.0
290
     0
  0
SCALE
  5
57
102
{ACAD_REACTORS
330
47
102
}
330
47
100
AcDbScale
 70
     0
300
10:1
140
10.0
141
1.0
290
     0
  0
SCALE
  5
58
102
{ACAD_REACTORS
330
47
102
}
330
47
100
AcDbScale
 70
     0
300
100:1
140
100.0
141
1.0
290
     0
  0
SCALE
  5
59
102
{ACAD_REACTORS
330
47
102
}
330
47
100
AcDbScale
 70
     0
300
1/128" = 1'-0"
140
0.007812
141
12.0
290
     0
  0
SCALE
  5
5A
102
{ACAD_REACTORS
330
47
102
}
330
47
100
AcDbScale
 70
     0
300
1/64" = 1'-0"
140
0.015625
141
12.0
290
     0
  0
SCALE
  5
5B
102
{ACAD_REACTORS
330
47
102
}
330
47
100
AcDbScale
 70
     0
300
1/32" = 1'-0"
140
0.03125
141
12.0
290
     0
  0
SCALE
  5
5C
102
{ACAD_REACTORS
330
47
102
}
330
47
100
AcDbScale
 70
     0
300
1/16" = 1'-0"
140
0.0625
141
12.0
290
     0
  0
SCALE
  5
5D
102
{ACAD_REACTORS
330
47
102
}
330
47
100
AcDbScale
 70
     0
300
3/32" = 1'-0"
140
0.09375
141
12.0
290
     0
  0
SCALE
  5
5E
102
{ACAD_REACTORS
330
47
102
}
330
47
100
AcDbScale
 70
     0
300
1/8" = 1'-0"
140
0.125
141
12.0
290
     0
  0
SCALE
  5
5F
102
{ACAD_REACTORS
330
47
102
}
330
47
100
AcDbScale
 70
     0
300
3/16" = 1'-0"
140
0.1875
141
12.0
290
     0
  0
SCALE
  5
60
102
{ACAD_REACTORS
330
47
102
}
330
47
100
AcDbScale
 70
     0
300
1/4" = 1'-0"
140
0.25
141
12.0
290
     0
  0
SCALE
  5
61
102
{ACAD_REACTORS
330
47
102
}
330
47
100
AcDbScale
 70
     0
300
3/8" = 1'-0"
140
0.375
141
12.0
290
     0
  0
SCALE
  5
62
102
{ACAD_REACTORS
330
47
102
}
330
47
100
AcDbScale
 70
     0
300
1/2" = 1'-0"
140
0.5
141
12.0
290
     0
  0
SCALE
  5
63
102
{ACAD_REACTORS
330
47
102
}
330
47
100
AcDbScale
 70
     0
300
3/4" = 1'-0"
140
0.75
141
12.0
290
     0
  0
SCALE
  5
64
102
{ACAD_REACTORS
330
47
102
}
330
47
100
AcDbScale
 70
     0
300
1" = 1'-0"
140
1.0
141
12.0
290
     0
  0
SCALE
  5
65
102
{ACAD_REACTORS
330
47
102
}
330
47
100
AcDbScale
 70
     0
300
1-1/2" = 1'-0"
140
1.5
141
12.0
290
     0
  0
SCALE
  5
66
102
{ACAD_REACTORS
330
47
102
}
330
47
100
AcDbScale
 70
     0
300
3" = 1'-0"
140
3.0
141
12.0
290
     0
  0
SCALE
  5
67
102
{ACAD_REACTORS
330
47
102
}
330
47
100
AcDbScale
 70
     0
300
6" = 1'-0"
140
6.0
141
12.0
290
     0
  0
SCALE
  5
68
102
{ACAD_REACTORS
330
47
102
}
330
47
100
AcDbScale
 70
     0
300
1'-0" = 1'-0"
140
12.0
141
12.0
290
     0
  0
ACDBSECTIONVIEWSTYLE
  5
337
102
{ACAD_XDICTIONARY
360
3D6
102
}
102
{ACAD_REACTORS
330
333
102
}
330
333
100
AcDbModelDocViewStyle
 70
     0
  3
Metric50
290
     0
100
AcDbSectionViewStyle
 70
     0
 71
     0
 90
      102
 71
     1
340
11
 62
   256
 40
5.0
340
0
340
0
 62
   256
 40
5.0
300
I, O, Q, S, X, Z
 40
10.0
 90
        0
 40
2.5
 90
        0
 71
     2
340
16
 90
       25
 62
   256
340
16
 90
       50
 62
   256
 40
5.0
 40
2.5
 40
5.0
 71
     3
340
11
 62
   256
 40
5.0
 90
        0
 40
15.0
 90
        1
300
%<\AcVar ViewSectionStartId>%-%<\AcVar ViewSectionEndId>% (%<\AcVar ViewScale \f "%sn">%)
 71
     4
 62
   256
 62
   257
300
ANSI31
 40
1.0
 90
        0
290
     0
290
     0
 90
        6
 40
0.0
 40
1.570796326794896
 40
0.2617993877991494
 40
1.308996938995747
 40
-0.2617993877991494
 40
1.832595714594046
  0
TABLESTYLE
  5
6A
102
{ACAD_XDICTIONARY
360
329
102
}
102
{ACAD_REACTORS
330
69
102
}
330
69
100
AcDbTableStyle
  3
Standard
 70
     0
 71
     0
 40
0.06
 41
0.06
280
     0
281
     0
  7
Standard
140
0.18
170
     2
 62
     0
 63
     7
283
     0
274
    -2
284
     1
 64
     0
275
    -2
285
     1
 65
     0
276
    -2
286
     1
 66
     0
277
    -2
287
     1
 67
     0
278
    -2
288
     1
 68
     0
279
    -2
289
     1
 69
     0
  7
Standard
140
0.25
170
     5
 62
     0
 63
     7
283
     0
274
    -2
284
     1
 64
     0
275
    -2
285
     1
 65
     0
276
    -2
286
     1
 66
     0
277
    -2
287
     1
 67
     0
278
    -2
288
     1
 68
     0
279
    -2
289
     1
 69
     0
  7
Standard
140
0.18
170
     5
 62
     0
 63
     7
283
     0
274
    -2
284
     1
 64
     0
275
    -2
285
     1
 65
     0
276
    -2
286
     1
 66
     0
277
    -2
287
     1
 67
     0
278
    -2
288
     1
 68
     0
279
    -2
289
     1
 69
     0
  0
VISUALSTYLE
  5
2F
102
{ACAD_XDICTIONARY
360
3AD
102
}
102
{ACAD_REACTORS
330
2A
102
}
330
2A
100
AcDbVisualStyle
  2

 70
     4
 71
     0
 72
     2
 73
     0
 90
        0
 40
-0.6
 41
-30.0
 62
     5
 63
     7
421
 16777215
 74
     1
 91
        4
 64
     7
 65
   257
 75
     1
175
     1
 42
1.0
 92
        0
 66
   257
 43
1.0
 76
     1
 77
     6
 78
     2
 67
     7
 79
     5
170
     0
171
     0
290
     0
174
     0
 93
        1
 44
0.0
173
     0
291
     0
 45
0.0
1001
ACAD
1000
AcDbSavedByObjectVersion
1070
     0
  0
VISUALSTYLE
  5
32
102
{ACAD_XDICTIONARY
360
3B3
102
}
102
{ACAD_REACTORS
330
2A
102
}
330
2A
100
AcDbVisualStyle
  2

 70
     7
 71
     1
 72
     0
 73
     1
 90
        0
 40
-0.6
 41
-30.0
 62
     5
 63
     7
421
 16777215
 74
     0
 91
        4
 64
     7
 65
   257
 75
     1
175
     1
 42
1.0
 92
        8
 66
     7
 43
1.0
 76
     1
 77
     6
 78
     2
 67
     7
 79
     5
170
     0
171
     0
290
     0
174
     0
 93
        1
 44
0.0
173
     0
291
     1
 45
0.0
1001
ACAD
1000
AcDbSavedByObjectVersion
1070
     0
  0
VISUALSTYLE
  5
36
102
{ACAD_XDICTIONARY
360
3BB
102
}
102
{ACAD_REACTORS
330
2A
102
}
330
2A
100
AcDbVisualStyle
  2

 70
    12
 71
     2
 72
     2
 73
     0
 90
        0
 40
-0.6
 41
-30.0
 62
     5
 63
     7
421
 16777215
 74
     1
 91
        4
 64
     7
 65
   257
 75
     1
175
     1
 42
1.0
 92
        8
 66
     7
 43
1.0
 76
     1
 77
     6
 78
     2
 67
     7
 79
     5
170
     0
171
     0
290
     0
174
     0
 93
        1
 44
50.0
173
     0
291
     1
 45
0.0
1001
ACAD
1000
AcDbSavedByObjectVersion
1070
     0
  0
VISUALSTYLE
  5
3A
102
{ACAD_XDICTIONARY
360
3C3
102
}
102
{ACAD_REACTORS
330
2A
102
}
330
2A
100
AcDbVisualStyle
  2

 70
    16
 71
     2
 72
     2
 73
     3
 90
        0
 40
-0.6
 41
-30.0
 62
     5
 63
     8
421
  8421504
 74
     1
 91
        4
 64
     7
 65
   257
 75
     1
175
     1
 42
1.0
 92
        8
 66
     8
424
  8421504
 43
1.0
 76
     1
 77
     6
 78
     2
 67
     7
 79
     5
170
     0
171
     0
290
     0
174
     0
 93
        1
 44
0.0
173
     0
291
     1
 45
0.0
1001
ACAD
1000
AcDbSavedByObjectVersion
1070
     0
  0
VISUALSTYLE
  5
34
102
{ACAD_XDICTIONARY
360
3B7
102
}
102
{ACAD_REACTORS
330
2A
102
}
330
2A
100
AcDbVisualStyle
  2

 70
     9
 71
     3
 72
     2
 73
     0
 90
        0
 40
-0.6
 41
-30.0
 62
     5
 63
     7
421
 16777215
 74
     2
 91
        2
 64
     7
 65
   257
 75
     1
175
     1
 42
179.0
 92
        8
 66
     7
 43
1.0
 76
     1
 77
     6
 78
     2
 67
     7
 79
     3
170
     0
171
     0
290
     0
174
     0
 93
        1
 44
0.0
173
     0
291
     0
 45
0.0
1001
ACAD
1000
AcDbSavedByObjectVersion
1070
     0
  0
VISUALSTYLE
  5
35
102
{ACAD_XDICTIONARY
360
3B9
102
}
102
{ACAD_REACTORS
330
2A
102
}
330
2A
100
AcDbVisualStyle
  2

 70
    11
 71
     2
 72
     2
 73
     0
 90
        0
 40
-0.6
 41
-30.0
 62
     5
 63
     7
421
 16777215
 74
     1
 91
        4
 64
     7
 65
   257
 75
     1
175
     1
 42
1.0
 92
        8
 66
     7
 43
1.0
 76
     1
 77
     6
 78
     2
 67
     7
 79
     5
170
     0
171
     0
290
     0
174
     0
 93
        1
 44
-50.0
173
     0
291
     1
 45
0.0
1001
ACAD
1000
AcDbSavedByObjectVersion
1070
     0
  0
VISUALSTYLE
  5
3D
102
{ACAD_XDICTIONARY
360
3C9
102
}
102
{ACAD_REACTORS
330
2A
102
}
330
2A
100
AcDbVisualStyle
  2

 70
    22
 71
     2
 72
     2
 73
     0
 90
        0
 40
-0.6
 41
-30.0
 62
     5
 63
     7
421
 16777215
 74
     1
 91
        4
 64
     7
 65
   257
 75
     1
175
     1
 42
1.0
 92
        8
 66
     7
 43
1.0
 76
     1
 77
     6
 78
     2
 67
     7
 79
     5
170
     0
171
     0
290
     0
174
     0
 93
        1
 44
0.0
173
     0
291
     1
 45
0.0
1001
ACAD
1000
AcDbSavedByObjectVersion
1070
     0
  0
VISUALSTYLE
  5
39
102
{ACAD_XDICTIONARY
360
3C1
102
}
102
{ACAD_REACTORS
330
2A
102
}
330
2A
100
AcDbVisualStyle
  2

 70
    15
 71
     2
 72
     2
 73
     0
 90
        0
 40
-0.6
 41
-30.0
 62
     5
 63
     7
421
 16777215
 74
     1
 91
        4
 64
     7
 65
   257
 75
     1
175
     1
 42
1.0
 92
        8
 66
     7
 43
1.0
 76
     1
 77
     6
 78
     2
 67
     7
 79
     5
170
     0
171
     0
290
     0
174
     0
 93
        1
 44
0.0
173
     0
291
     1
 45
0.0
1001
ACAD
1000
AcDbSavedByObjectVersion
1070
     0
  0
VISUALSTYLE
  5
2B
102
{ACAD_XDICTIONARY
360
3A5
102
}
102
{ACAD_REACTORS
330
2A
102
}
330
2A
100
AcDbVisualStyle
  2

 70
     0
 71
     2
 72
     1
 73
     1
 90
        2
 40
-0.6
 41
30.0
 62
     5
 63
     7
421
 16777215
 74
     0
 91
        0
 64
     7
 65
   257
 75
     1
175
     1
 42
1.0
 92
        8
 66
     7
 43
1.0
 76
     1
 77
     6
 78
     2
 67
     7
 79
     5
170
     0
171
     0
290
     0
174
     0
 93
       13
 44
0.0
173
     0
291
     1
 45
0.0
1001
ACAD
1000
AcDbSavedByObjectVersion
1070
     0
  0
VISUALSTYLE
  5
2C
102
{ACAD_XDICTIONARY
360
3A7
102
}
102
{ACAD_REACTORS
330
2A
102
}
330
2A
100
AcDbVisualStyle
  2

 70
     1
 71
     2
 72
     1
 73
     1
 90
        2
 40
-0.6
 41
30.0
 62
     5
 63
     7
421
 16777215
 74
     1
 91
        0
 64
     7
 65
   257
 75
     1
175
     1
 42
1.0
 92
        0
 66
   257
 43
1.0
 76
     1
 77
     6
 78
     2
 67
     7
 79
     5
170
     0
171
     0
290
     0
174
     0
 93
       13
 44
0.0
173
     0
291
     1
 45
0.0
1001
ACAD
1000
AcDbSavedByObjectVersion
1070
     0
  0
VISUALSTYLE
  5
2D
102
{ACAD_XDICTIONARY
360
3A9
102
}
102
{ACAD_REACTORS
330
2A
102
}
330
2A
100
AcDbVisualStyle
  2

 70
     2
 71
     2
 72
     2
 73
     1
 90
        2
 40
-0.6
 41
30.0
 62
     5
 63
     7
421
 16777215
 74
     0
 91
        0
 64
     7
 65
   257
 75
     1
175
     1
 42
1.0
 92
        0
 66
     7
 43
1.0
 76
     1
 77
     6
 78
     2
 67
     7
 79
     5
170
     0
171
     0
290
     0
174
     0
 93
       13
 44
0.0
173
     0
291
     1
 45
0.0
1001
ACAD
1000
AcDbSavedByObjectVersion
1070
     0
  0
VISUALSTYLE
  5
2E
102
{ACAD_XDICTIONARY
360
3AB
102
}
102
{ACAD_REACTORS
330
2A
102
}
330
2A
100
AcDbVisualStyle
  2

 70
     3
 71
     2
 72
     2
 73
     1
 90
        2
 40
-0.6
 41
30.0
 62
     5
 63
     7
421
 16777215
 74
     1
 91
        0
 64
     7
 65
   257
 75
     1
175
     1
 42
1.0
 92
        0
 66
   257
 43
1.0
 76
     1
 77
     6
 78
     2
 67
     7
 79
     5
170
     0
171
     0
290
     0
174
     0
 93
       13
 44
0.0
173
     0
291
     1
 45
0.0
1001
ACAD
1000
AcDbSavedByObjectVersion
1070
     0
  0
VISUALSTYLE
  5
31
102
{ACAD_XDICTIONARY
360
3B1
102
}
102
{ACAD_REACTORS
330
2A
102
}
330
2A
100
AcDbVisualStyle
  2

 70
     6
 71
     1
 72
     2
 73
     2
 90
        0
 40
-0.6
 41
-30.0
 62
     5
 63
     7
421
 16777215
 74
     2
 91
        2
 64
     7
 65
   257
 75
     2
175
     1
 42
40.0
 92
        0
 66
   257
 43
1.0
 76
     1
 77
     6
 78
     2
 67
     7
 79
     3
170
     0
171
     0
290
     0
174
     0
 93
        1
 44
0.0
173
     0
291
     0
 45
0.0
1001
ACAD
1000
AcDbSavedByObjectVersion
1070
     0
  0
VISUALSTYLE
  5
3B
102
{ACAD_XDICTIONARY
360
3C5
102
}
102
{ACAD_REACTORS
330
2A
102
}
330
2A
100
AcDbVisualStyle
  2

 70
    20
 71
     2
 72
     2
 73
     0
 90
        0
 40
-0.6
 41
-30.0
 62
     5
 63
     7
421
 16777215
 74
     1
 91
        4
 64
     7
 65
   257
 75
     1
175
     1
 42
1.0
 92
       10
 66
     7
 43
1.0
 76
     1
 77
     6
 78
     2
 67
     7
 79
     5
170
     0
171
     0
290
     0
174
     0
 93
        1
 44
0.0
173
     0
291
     1
 45
0.0
1001
ACAD
1000
AcDbSavedByObjectVersion
1070
     0
  0
VISUALSTYLE
  5
38
102
{ACAD_XDICTIONARY
360
3BF
102
}
102
{ACAD_REACTORS
330
2A
102
}
330
2A
100
AcDbVisualStyle
  2

 70
    14
 71
     2
 72
     2
 73
     0
 90
        0
 40
-0.6
 41
-30.0
 62
     5
 63
     7
421
 16777215
 74
     1
 91
        4
 64
     7
 65
   257
 75
     7
175
     7
 42
1.0
 92
        8
 66
     7
 43
1.0
 76
     1
 77
     6
 78
     2
 67
     7
 79
     5
170
     0
171
     0
290
     0
174
     0
 93
        1
 44
0.0
173
     0
291
     1
 45
0.0
1001
ACAD
1000
AcDbSavedByObjectVersion
1070
     0
  0
VISUALSTYLE
  5
3C
102
{ACAD_XDICTIONARY
360
3C7
102
}
102
{ACAD_REACTORS
330
2A
102
}
330
2A
100
AcDbVisualStyle
  2

 70
    21
 71
     2
 72
     2
 73
     0
 90
        0
 40
-0.6
 41
-30.0
 62
     5
 63
     7
421
 16777215
 74
     1
 91
        4
 64
     7
 65
   257
 75
     1
175
     1
 42
1.0
 92
        9
 66
     7
 43
1.0
 76
     1
 77
     6
 78
     2
 67
     7
 79
     5
170
     0
171
     0
290
     0
174
     0
 93
        1
 44
0.0
173
     0
291
     1
 45
0.0
1001
ACAD
1000
AcDbSavedByObjectVersion
1070
     0
  0
VISUALSTYLE
  5
33
102
{ACAD_XDICTIONARY
360
3B5
102
}
102
{ACAD_REACTORS
330
2A
102
}
330
2A
100
AcDbVisualStyle
  2

 70
     8
 71
     2
 72
     3
 73
     0
 90
        2
 40
-0.6
 41
30.0
 62
     5
 63
     7
421
 16777215
 74
     0
 91
        0
 64
     7
 65
   257
 75
     1
175
     1
 42
1.0
 92
        8
 66
   257
 43
1.0
 76
     1
 77
     6
 78
     2
 67
     7
 79
     3
170
     0
171
     0
290
     0
174
     0
 93
       13
 44
0.0
173
     0
291
     0
 45
0.0
1001
ACAD
1000
AcDbSavedByObjectVersion
1070
     0
  0
VISUALSTYLE
  5
42
102
{ACAD_XDICTIONARY
360
3D3
102
}
102
{ACAD_REACTORS
330
2A
102
}
330
2A
100
AcDbVisualStyle
  2

 70
    27
 71
     2
 72
     2
 73
     1
 90
        2
 40
-0.6
 41
30.0
 62
     5
 63
     7
421
 16777215
 74
     0
 91
        4
 64
     7
 65
   257
 75
     1
175
     1
 42
1.0
 92
        8
 66
   257
 43
1.0
 76
     1
 77
     6
 78
     2
 67
     8
425
  7895160
 79
     3
170
     0
171
     0
290
     0
174
     0
 93
        5
 44
0.0
173
     0
291
     0
 45
0.0
1001
ACAD
1000
AcDbSavedByObjectVersion
1070
     0
  0
VISUALSTYLE
  5
41
102
{ACAD_XDICTIONARY
360
3D1
102
}
102
{ACAD_REACTORS
330
2A
102
}
330
2A
100
AcDbVisualStyle
  2

 70
    26
 71
     2
 72
     2
 73
     1
 90
        2
 40
-0.6
 41
30.0
 62
     5
 63
     7
421
 16777215
 74
     1
 91
       10
 64
     7
 65
   257
 75
     2
175
     1
 42
1.0
 92
        8
 66
   257
 43
1.0
 76
     1
 77
     6
 78
     2
 67
     7
 79
     3
170
     0
171
     0
290
     0
174
     0
 93
        5
 44
0.0
173
     0
291
     0
 45
0.0
1001
ACAD
1000
AcDbSavedByObjectVersion
1070
     0
  0
VISUALSTYLE
  5
3E
102
{ACAD_XDICTIONARY
360
3CB
102
}
102
{ACAD_REACTORS
330
2A
102
}
330
2A
100
AcDbVisualStyle
  2

 70
    23
 71
     2
 72
     2
 73
     3
 90
        0
 40
-0.6
 41
-30.0
 62
     5
 63
     7
421
 16777215
 74
     2
 91
        2
 64
     7
 65
     7
 75
     1
175
     1
 42
40.0
 92
        8
 66
     7
 43
1.0
 76
     1
 77
     6
 78
     2
 67
     7
 79
     3
170
     0
171
     0
290
     0
174
     0
 93
        1
 44
0.0
173
     0
291
     0
 45
0.0
1001
ACAD
1000
AcDbSavedByObjectVersion
1070
     0
  0
VISUALSTYLE
  5
3F
102
{ACAD_XDICTIONARY
360
3CD
102
}
102
{ACAD_REACTORS
330
2A
102
}
330
2A
100
AcDbVisualStyle
  2

 70
    24
 71
     1
 72
     2
 73
     2
 90
        0
 40
-0.6
 41
-30.0
 62
     5
 63
     7
421
 16777215
 74
     2
 91
        2
 64
     7
 65
     7
 75
     1
175
     1
 42
40.0
 92
       11
 66
     7
 43
1.0
 76
     1
 77
     6
 78
     2
 67
     7
 79
     6
170
     0
171
     0
290
     0
174
     0
 93
        1
 44
0.0
173
     0
291
     0
 45
0.0
1001
ACAD
1000
AcDbSavedByObjectVersion
1070
     0
  0
VISUALSTYLE
  5
37
102
{ACAD_XDICTIONARY
360
3BD
102
}
102
{ACAD_REACTORS
330
2A
102
}
330
2A
100
AcDbVisualStyle
  2

 70
    13
 71
     2
 72
     2
 73
     0
 90
        0
 40
-0.6
 41
-30.0
 62
     5
 63
     7
421
 16777215
 74
     1
 91
        4
 64
     7
 65
   257
 75
     1
175
     1
 42
1.0
 92
       12
 66
     7
 43
1.0
 76
     1
 77
     6
 78
     2
 67
     7
 79
     5
170
     0
171
     0
290
     0
174
     0
 93
        1
 44
0.0
173
     0
291
     1
 45
0.0
1001
ACAD
1000
AcDbSavedByObjectVersion
1070
     0
  0
VISUALSTYLE
  5
30
102
{ACAD_XDICTIONARY
360
3AF
102
}
102
{ACAD_REACTORS
330
2A
102
}
330
2A
100
AcDbVisualStyle
  2

 70
     5
 71
     0
 72
     2
 73
     0
 90
        0
 40
-0.6
 41
-30.0
 62
     5
 63
     7
421
 16777215
 74
     1
 91
        4
 64
     7
 65
   257
 75
     1
175
     1
 42
1.0
 92
        0
 66
   257
 43
1.0
 76
     1
 77
     6
 78
     2
 67
     7
 79
     3
170
     0
171
     0
290
     0
174
     0
 93
        1
 44
0.0
173
     0
291
     0
 45
0.0
1001
ACAD
1000
AcDbSavedByObjectVersion
1070
     0
  0
VISUALSTYLE
  5
40
102
{ACAD_XDICTIONARY
360
3CF
102
}
102
{ACAD_REACTORS
330
2A
102
}
330
2A
100
AcDbVisualStyle
  2

 70
    25
 71
     2
 72
     2
 73
     1
 90
        1
 40
0.5
 41
-30.0
 62
     5
 63
     7
421
 16777215
 74
     1
 91
        0
 64
     7
 65
   257
 75
     1
175
     1
 42
1.0
 92
        8
 66
     7
 43
1.0
 76
     1
 77
     6
 78
     2
 67
     7
 79
     3
170
     0
171
     0
290
     0
174
     0
 93
       13
 44
0.0
173
     0
291
     0
 45
0.0
1001
ACAD
1000
AcDbSavedByObjectVersion
1070
     0
  0
DICTIONARYVAR
  5
2F0
102
{ACAD_REACTORS
330
2EF
102
}
330
2EF
100
DictionaryVariables
280
     0
  1
1:1
  0
DICTIONARYVAR
  5
331
102
{ACAD_REACTORS
330
2EF
102
}
330
2EF
100
DictionaryVariables
280
     0
  1
STANDARD
  0
DICTIONARYVAR
  5
330
102
{ACAD_REACTORS
330
2EF
102
}
330
2EF
100
DictionaryVariables
280
     0
  1
STANDARD
  0
DICTIONARYVAR
  5
39F
102
{ACAD_REACTORS
330
2EF
102
}
330
2EF
100
DictionaryVariables
280
     0
  1
Metric50
  0
DICTIONARYVAR
  5
3A0
102
{ACAD_REACTORS
330
2EF
102
}
330
2EF
100
DictionaryVariables
280
     0
  1
Metric50
  0
DICTIONARYVAR
  5
2F1
102
{ACAD_REACTORS
330
2EF
102
}
330
2EF
100
DictionaryVariables
280
     0
  1
1
  0
DICTIONARYVAR
  5
3A1
102
{ACAD_REACTORS
330
2EF
102
}
330
2EF
100
DictionaryVariables
280
     0
  1
2
  0
DICTIONARY
  5
3D8
330
338
100
AcDbDictionary
280
     1
281
     1
  3
ACAD_XREC_ROUNDTRIP
360
3D9
  0
DICTIONARY
  5
325
330
45
100
AcDbDictionary
280
     1
281
     1
  3
ACAD_XREC_ROUNDTRIP
360
326
  0
DICTIONARY
  5
323
330
44
100
AcDbDictionary
280
     1
281
     1
  3
ACAD_XREC_ROUNDTRIP
360
324
  0
DICTIONARY
  5
327
330
46
100
AcDbDictionary
280
     1
281
     1
  3
ACAD_XREC_ROUNDTRIP
360
328
  0
DICTIONARY
  5
3D6
330
337
100
AcDbDictionary
280
     1
281
     1
  3
ACAD_XREC_ROUNDTRIP
360
3D7
  0
DICTIONARY
  5
329
330
6A
100
AcDbDictionary
280
     1
281
     1
  3
ACAD_ROUNDTRIP_2008_TABLESTYLE_CELLSTYLEMAP
360
3A3
  3
ACAD_XREC_ROUNDTRIP
360
3D5
  0
DICTIONARY
  5
3AD
330
2F
100
AcDbDictionary
280
     1
281
     1
  3
ACAD_XREC_ROUNDTRIP
360
3AE
  0
DICTIONARY
  5
3B3
330
32
100
AcDbDictionary
280
     1
281
     1
  3
ACAD_XREC_ROUNDTRIP
360
3B4
  0
DICTIONARY
  5
3BB
330
36
100
AcDbDictionary
280
     1
281
     1
  3
ACAD_XREC_ROUNDTRIP
360
3BC
  0
DICTIONARY
  5
3C3
330
3A
100
AcDbDictionary
280
     1
281
     1
  3
ACAD_XREC_ROUNDTRIP
360
3C4
  0
DICTIONARY
  5
3B7
330
34
100
AcDbDictionary
280
     1
281
     1
  3
ACAD_XREC_ROUNDTRIP
360
3B8
  0
DICTIONARY
  5
3B9
330
35
100
AcDbDictionary
280
     1
281
     1
  3
ACAD_XREC_ROUNDTRIP
360
3BA
  0
DICTIONARY
  5
3C9
330
3D
100
AcDbDictionary
280
     1
281
     1
  3
ACAD_XREC_ROUNDTRIP
360
3CA
  0
DICTIONARY
  5
3C1
330
39
100
AcDbDictionary
280
     1
281
     1
  3
ACAD_XREC_ROUNDTRIP
360
3C2
  0
DICTIONARY
  5
3A5
330
2B
100
AcDbDictionary
280
     1
281
     1
  3
ACAD_XREC_ROUNDTRIP
360
3A6
  0
DICTIONARY
  5
3A7
330
2C
100
AcDbDictionary
280
     1
281
     1
  3
ACAD_XREC_ROUNDTRIP
360
3A8
  0
DICTIONARY
  5
3A9
330
2D
100
AcDbDictionary
280
     1
281
     1
  3
ACAD_XREC_ROUNDTRIP
360
3AA
  0
DICTIONARY
  5
3AB
330
2E
100
AcDbDictionary
280
     1
281
     1
  3
ACAD_XREC_ROUNDTRIP
360
3AC
  0
DICTIONARY
  5
3B1
330
31
100
AcDbDictionary
280
     1
281
     1
  3
ACAD_XREC_ROUNDTRIP
360
3B2
  0
DICTIONARY
  5
3C5
330
3B
100
AcDbDictionary
280
     1
281
     1
  3
ACAD_XREC_ROUNDTRIP
360
3C6
  0
DICTIONARY
  5
3BF
330
38
100
AcDbDictionary
280
     1
281
     1
  3
ACAD_XREC_ROUNDTRIP
360
3C0
  0
DICTIONARY
  5
3C7
330
3C
100
AcDbDictionary
280
     1
281
     1
  3
ACAD_XREC_ROUNDTRIP
360
3C8
  0
DICTIONARY
  5
3B5
330
33
100
AcDbDictionary
280
     1
281
     1
  3
ACAD_XREC_ROUNDTRIP
360
3B6
  0
DICTIONARY
  5
3D3
330
42
100
AcDbDictionary
280
     1
281
     1
  3
ACAD_XREC_ROUNDTRIP
360
3D4
  0
DICTIONARY
  5
3D1
330
41
100
AcDbDictionary
280
     1
281
     1
  3
ACAD_XREC_ROUNDTRIP
360
3D2
  0
DICTIONARY
  5
3CB
330
3E
100
AcDbDictionary
280
     1
281
     1
  3
ACAD_XREC_ROUNDTRIP
360
3CC
  0
DICTIONARY
  5
3CD
330
3F
100
AcDbDictionary
280
     1
281
     1
  3
ACAD_XREC_ROUNDTRIP
360
3CE
  0
DICTIONARY
  5
3BD
330
37
100
AcDbDictionary
280
     1
281
     1
  3
ACAD_XREC_ROUNDTRIP
360
3BE
  0
DICTIONARY
  5
3AF
330
30
100
AcDbDictionary
280
     1
281
     1
  3
ACAD_XREC_ROUNDTRIP
360
3B0
  0
DICTIONARY
  5
3CF
330
40
100
AcDbDictionary
280
     1
281
     1
  3
ACAD_XREC_ROUNDTRIP
360
3D0
  0
XRECORD
  5
3D9
102
{ACAD_REACTORS
330
3D8
102
}
330
3D8
100
AcDbXrecord
280
     1
102
DISPLAYNAME
  1
Metric50
102
FLAGS
 90
        0
  0
XRECORD
  5
326
102
{ACAD_REACTORS
330
325
102
}
330
325
100
AcDbXrecord
280
     1
102
MATERIAL
148
0.0
149
0.0
149
0.0
 93
        0
 94
      127
282
     0
 72
     1
 77
     1
171
     1
175
     1
179
     1
273
     0
  0
XRECORD
  5
324
102
{ACAD_REACTORS
330
323
102
}
330
323
100
AcDbXrecord
280
     1
102
MATERIAL
148
0.0
149
0.0
149
0.0
 93
        0
 94
      127
282
     0
 72
     1
 77
     1
171
     1
175
     1
179
     1
273
     0
  0
XRECORD
  5
328
102
{ACAD_REACTORS
330
327
102
}
330
327
100
AcDbXrecord
280
     1
102
MATERIAL
148
0.0
149
0.0
149
0.0
 93
        0
 94
      127
282
     0
 72
     1
 77
     1
171
     1
175
     1
179
     1
273
     0
  0
XRECORD
  5
3D7
102
{ACAD_REACTORS
330
3D6
102
}
330
3D6
100
AcDbXrecord
280
     1
102
DISPLAYNAME
  1
Metric50
102
FLAGS
 90
        0
  0
CELLSTYLEMAP
  5
3A3
102
{ACAD_REACTORS
330
329
102
}
330
329
100
AcDbCellStyleMap
 90
        3
300
CELLSTYLE
  1
TABLEFORMAT_BEGIN
 90
        5
170
     1
 91
        0
 92
    32768
 62
   257
 93
        1
300
CONTENTFORMAT
  1
CONTENTFORMAT_BEGIN
 90
        0
 91
        0
 92
        4
 93
        0
300

 40
0.0
140
1.0
 94
        5
 62
     0
340
11
144
0.25
309
CONTENTFORMAT_END
171
     1
301
MARGIN
  1
CELLMARGIN_BEGIN
 40
0.06
 40
0.06
 40
0.06
 40
0.06
 40
0.18
 40
0.18
309
CELLMARGIN_END
 94
        6
 95
        1
302
GRIDFORMAT
  1
GRIDFORMAT_BEGIN
 90
        0
 91
        1
 62
     0
 92
       -2
340
14
 93
        0
 40
0.045
309
GRIDFORMAT_END
 95
        2
302
GRIDFORMAT
  1
GRIDFORMAT_BEGIN
 90
        0
 91
        1
 62
     0
 92
       -2
340
14
 93
        0
 40
0.045
309
GRIDFORMAT_END
 95
        4
302
GRIDFORMAT
  1
GRIDFORMAT_BEGIN
 90
        0
 91
        1
 62
     0
 92
       -2
340
14
 93
        0
 40
0.045
309
GRIDFORMAT_END
 95
        8
302
GRIDFORMAT
  1
GRIDFORMAT_BEGIN
 90
        0
 91
        1
 62
     0
 92
       -2
340
14
 93
        0
 40
0.045
309
GRIDFORMAT_END
 95
       16
302
GRIDFORMAT
  1
GRIDFORMAT_BEGIN
 90
        0
 91
        1
 62
     0
 92
       -2
340
14
 93
        0
 40
0.045
309
GRIDFORMAT_END
 95
       32
302
GRIDFORMAT
  1
GRIDFORMAT_BEGIN
 90
        0
 91
        1
 62
     0
 92
       -2
340
14
 93
        0
 40
0.045
309
GRIDFORMAT_END
309
TABLEFORMAT_END
  1
CELLSTYLE_BEGIN
 90
        1
 91
        1
300
_TITLE
309
CELLSTYLE_END
300
CELLSTYLE
  1
TABLEFORMAT_BEGIN
 90
        5
170
     1
 91
        0
 92
        0
 62
   257
 93
        1
300
CONTENTFORMAT
  1
CONTENTFORMAT_BEGIN
 90
        0
 91
        0
 92
        4
 93
        0
300

 40
0.0
140
1.0
 94
        5
 62
     0
340
11
144
0.18
309
CONTENTFORMAT_END
171
     1
301
MARGIN
  1
CELLMARGIN_BEGIN
 40
0.06
 40
0.06
 40
0.06
 40
0.06
 40
0.18
 40
0.18
309
CELLMARGIN_END
 94
        6
 95
        1
302
GRIDFORMAT
  1
GRIDFORMAT_BEGIN
 90
        0
 91
        1
 62
     0
 92
       -2
340
14
 93
        0
 40
0.045
309
GRIDFORMAT_END
 95
        2
302
GRIDFORMAT
  1
GRIDFORMAT_BEGIN
 90
        0
 91
        1
 62
     0
 92
       -2
340
14
 93
        0
 40
0.045
309
GRIDFORMAT_END
 95
        4
302
GRIDFORMAT
  1
GRIDFORMAT_BEGIN
 90
        0
 91
        1
 62
     0
 92
       -2
340
14
 93
        0
 40
0.045
309
GRIDFORMAT_END
 95
        8
302
GRIDFORMAT
  1
GRIDFORMAT_BEGIN
 90
        0
 91
        1
 62
     0
 92
       -2
340
14
 93
        0
 40
0.045
309
GRIDFORMAT_END
 95
       16
302
GRIDFORMAT
  1
GRIDFORMAT_BEGIN
 90
        0
 91
        1
 62
     0
 92
       -2
340
14
 93
        0
 40
0.045
309
GRIDFORMAT_END
 95
       32
302
GRIDFORMAT
  1
GRIDFORMAT_BEGIN
 90
        0
 91
        1
 62
     0
 92
       -2
340
14
 93
        0
 40
0.045
309
GRIDFORMAT_END
309
TABLEFORMAT_END
  1
CELLSTYLE_BEGIN
 90
        2
 91
        1
300
_HEADER
309
CELLSTYLE_END
300
CELLSTYLE
  1
TABLEFORMAT_BEGIN
 90
        5
170
     1
 91
        0
 92
        0
 62
   257
 93
        1
300
CONTENTFORMAT
  1
CONTENTFORMAT_BEGIN
 90
        0
 91
        0
 92
        4
 93
        0
300

 40
0.0
140
1.0
 94
        2
 62
     0
340
11
144
0.18
309
CONTENTFORMAT_END
171
     1
301
MARGIN
  1
CELLMARGIN_BEGIN
 40
0.06
 40
0.06
 40
0.06
 40
0.06
 40
0.18
 40
0.18
309
CELLMARGIN_END
 94
        6
 95
        1
302
GRIDFORMAT
  1
GRIDFORMAT_BEGIN
 90
        0
 91
        1
 62
     0
 92
       -2
340
14
 93
        0
 40
0.045
309
GRIDFORMAT_END
 95
        2
302
GRIDFORMAT
  1
GRIDFORMAT_BEGIN
 90
        0
 91
        1
 62
     0
 92
       -2
340
14
 93
        0
 40
0.045
309
GRIDFORMAT_END
 95
        4
302
GRIDFORMAT
  1
GRIDFORMAT_BEGIN
 90
        0
 91
        1
 62
     0
 92
       -2
340
14
 93
        0
 40
0.045
309
GRIDFORMAT_END
 95
        8
302
GRIDFORMAT
  1
GRIDFORMAT_BEGIN
 90
        0
 91
        1
 62
     0
 92
       -2
340
14
 93
        0
 40
0.045
309
GRIDFORMAT_END
 95
       16
302
GRIDFORMAT
  1
GRIDFORMAT_BEGIN
 90
        0
 91
        1
 62
     0
 92
       -2
340
14
 93
        0
 40
0.045
309
GRIDFORMAT_END
 95
       32
302
GRIDFORMAT
  1
GRIDFORMAT_BEGIN
 90
        0
 91
        1
 62
     0
 92
       -2
340
14
 93
        0
 40
0.045
309
GRIDFORMAT_END
309
TABLEFORMAT_END
  1
CELLSTYLE_BEGIN
 90
        3
 91
        2
300
_DATA
309
CELLSTYLE_END
  0
XRECORD
  5
3D5
102
{ACAD_REACTORS
330
329
102
}
330
329
100
AcDbXrecord
280
     1
102
ACAD_ROUNDTRIP_PRE2007_TABLESTYLE
 90
        4
 91
        0
  1

 92
        4
 93
        0
  2

 94
        4
 95
        0
  3

  0
XRECORD
  5
3AE
102
{ACAD_REACTORS
330
3AD
102
}
330
3AD
100
AcDbXrecord
280
     1
102
RTVSPost2010Prop28
280
     1
102
RTVSPost2010PropOp28
 70
     1
102
RTVSPost2010Prop29
280
     1
102
RTVSPost2010PropOp29
 70
     1
102
RTVSPost2010Prop30
280
     0
102
RTVSPost2010PropOp30
 70
     1
102
RTVSPost2010Prop31
280
     0
102
RTVSPost2010PropOp31
 70
     1
102
RTVSPost2010Prop32
280
     0
102
RTVSPost2010PropOp32
 70
     1
102
RTVSPost2010Prop33
280
     0
102
RTVSPost2010PropOp33
 70
     1
102
RTVSPost2010Prop34
280
     0
102
RTVSPost2010PropOp34
 70
     1
102
RTVSPost2010Prop35
280
     0
102
RTVSPost2010PropOp35
 70
     1
102
RTVSPost2010Prop36
280
     0
102
RTVSPost2010PropOp36
 70
     1
102
RTVSPost2010Prop37
 90
       50
102
RTVSPost2010PropOp37
 70
     1
102
RTVSPost2010Prop38
140
0.0
102
RTVSPost2010PropOp38
 70
     1
102
RTVSPost2010Prop39
140
1.0
102
RTVSPost2010PropOp39
 70
     1
102
RTVSPost2010Prop40
 90
        0
102
RTVSPost2010PropOp40
 70
     1
102
RTVSPost2010Prop41ColorIndex
 90
       18
102
RTVSPost2010Prop41ColorRGB
 90
        0
102
RTVSPost2010PropOp41
 70
     1
102
RTVSPost2010Prop42
 90
       50
102
RTVSPost2010PropOp42
 70
     1
102
RTVSPost2010Prop43
 90
        3
102
RTVSPost2010PropOp43
 70
     1
102
RTVSPost2010Prop44ColorIndex
 90
        5
102
RTVSPost2010Prop44ColorRGB
 90
      255
102
RTVSPost2010PropOp44
 70
     1
102
RTVSPost2010Prop45
280
     0
102
RTVSPost2010PropOp45
 70
     1
102
RTVSPost2010Prop46
 90
       50
102
RTVSPost2010PropOp46
 70
     1
102
RTVSPost2010Prop47
 90
       50
102
RTVSPost2010PropOp47
 70
     1
102
RTVSPost2010Prop48
 90
       50
102
RTVSPost2010PropOp48
 70
     1
102
RTVSPost2010Prop49
280
     0
102
RTVSPost2010PropOp49
 70
     1
102
RTVSPost2010Prop50
 90
       50
102
RTVSPost2010PropOp50
 70
     1
102
RTVSPost2010Prop51ColorIndex
 90
      256
102
RTVSPost2010Prop51ColorRGB
 90
-16777216
102
RTVSPost2010PropOp51
 70
     0
102
RTVSPost2010Prop52
140
1.0
102
RTVSPost2010PropOp52
 70
     0
102
RTVSPost2010Prop53
 90
        2
102
RTVSPost2010PropOp53
 70
     1
102
RTVSPost2010Prop54
  1
strokes_ogs.tif
102
RTVSPost2010PropOp54
 70
     1
102
RTVSPost2010Prop55
280
     0
102
RTVSPost2010PropOp55
 70
     1
102
RTVSPost2010Prop56
140
1.0
102
RTVSPost2010PropOp56
 70
     1
102
RTVSPost2010Prop57
140
1.0
102
RTVSPost2010PropOp57
 70
     1
102
RTVSPropertyOp0
 70
     1
102
RTVSPropertyOp1
 70
     1
102
RTVSPropertyOp2
 70
     1
102
RTVSPropertyOp3
 70
     1
102
RTVSPropertyOp4
 70
     1
102
RTVSPropertyOp5
 70
     1
102
RTVSPropertyOp6
 70
     1
102
RTVSPropertyOp7
 70
     1
102
RTVSPropertyOp8
 70
     1
102
RTVSPropertyOp9
 70
     1
102
RTVSPropertyOp10
 70
     1
102
RTVSPropertyOp11
 70
     1
102
RTVSPropertyOp12
 70
     1
102
RTVSPropertyOp13
 70
     1
102
RTVSPropertyOp14
 70
     1
102
RTVSPropertyOp15
 70
     1
102
RTVSPropertyOp16
 70
     1
102
RTVSPropertyOp17
 70
     1
102
RTVSPropertyOp18
 70
     1
102
RTVSPropertyOp19
 70
     1
102
RTVSPropertyOp20
 70
     1
102
RTVSPropertyOp21
 70
     1
102
RTVSPropertyOp22
 70
     1
102
RTVSPropertyOp23
 70
     1
102
RTVSPropertyOp24
 70
     1
102
RTVSPropertyOp25
 70
     1
102
RTVSPropertyOp26
 70
     1
102
RTVSPropertyOp27
 70
     1
102
RTVSPropertyOp28
 70
     1
102
RTVSPropertyOp29
 70
     1
102
RTVSPropertyOp30
 70
     1
102
RTVSPropertyOp31
 70
     1
102
RTVSPropertyOp32
 70
     1
102
RTVSPropertyOp33
 70
     1
102
RTVSPropertyOp34
 70
     1
102
RTVSPropertyOp35
 70
     1
102
RTVSPropertyOp36
 70
     1
102
RTVSPropertyOp37
 70
     1
102
RTVSPropertyOp38
 70
     1
102
RTVSPropertyOp39
 70
     1
102
RTVSPropertyOp40
 70
     1
102
RTVSPropertyOp41
 70
     1
102
RTVSPropertyOp42
 70
     1
102
RTVSPropertyOp43
 70
     1
102
RTVSPropertyOp44
 70
     1
102
RTVSPropertyOp45
 70
     1
102
RTVSPropertyOp46
 70
     1
102
RTVSPropertyOp47
 70
     1
102
RTVSPropertyOp48
 70
     1
102
RTVSPropertyOp49
 70
     1
102
RTVSPropertyOp50
 70
     1
102
RTVSPropertyOp51
 70
     0
102
RTVSPropertyOp52
 70
     0
102
RTVSPropertyOp53
 70
     1
102
RTVSPropertyOp54
 70
     1
102
RTVSPropertyOp55
 70
     1
102
RTVSPropertyOp56
 70
     1
102
RTVSPropertyOp57
 70
     1
102
RTVSPropertyOp58
 70
     1
102
RTVSPropertyOp59
 70
     1
102
RTVSPropertyOp60
 70
     1
102
RTVSPropertyOp61
 70
     1
102
RTVSPropertyOp62
 70
     1
  0
XRECORD
  5
3B4
102
{ACAD_REACTORS
330
3B3
102
}
330
3B3
100
AcDbXrecord
280
     1
102
RTVSPost2010Prop28
280
     0
102
RTVSPost2010PropOp28
 70
     1
102
RTVSPost2010Prop29
280
     1
102
RTVSPost2010PropOp29
 70
     1
102
RTVSPost2010Prop30
280
     1
102
RTVSPost2010PropOp30
 70
     1
102
RTVSPost2010Prop31
280
     0
102
RTVSPost2010PropOp31
 70
     1
102
RTVSPost2010Prop32
280
     0
102
RTVSPost2010PropOp32
 70
     1
102
RTVSPost2010Prop33
280
     0
102
RTVSPost2010PropOp33
 70
     1
102
RTVSPost2010Prop34
280
     0
102
RTVSPost2010PropOp34
 70
     1
102
RTVSPost2010Prop35
280
     0
102
RTVSPost2010PropOp35
 70
     1
102
RTVSPost2010Prop36
280
     0
102
RTVSPost2010PropOp36
 70
     1
102
RTVSPost2010Prop37
 90
       50
102
RTVSPost2010PropOp37
 70
     1
102
RTVSPost2010Prop38
140
0.0
102
RTVSPost2010PropOp38
 70
     1
102
RTVSPost2010Prop39
140
1.0
102
RTVSPost2010PropOp39
 70
     1
102
RTVSPost2010Prop40
 90
        0
102
RTVSPost2010PropOp40
 70
     1
102
RTVSPost2010Prop41ColorIndex
 90
       18
102
RTVSPost2010Prop41ColorRGB
 90
        0
102
RTVSPost2010PropOp41
 70
     1
102
RTVSPost2010Prop42
 90
       50
102
RTVSPost2010PropOp42
 70
     1
102
RTVSPost2010Prop43
 90
        3
102
RTVSPost2010PropOp43
 70
     1
102
RTVSPost2010Prop44ColorIndex
 90
        5
102
RTVSPost2010Prop44ColorRGB
 90
      255
102
RTVSPost2010PropOp44
 70
     1
102
RTVSPost2010Prop45
280
     0
102
RTVSPost2010PropOp45
 70
     1
102
RTVSPost2010Prop46
 90
       50
102
RTVSPost2010PropOp46
 70
     1
102
RTVSPost2010Prop47
 90
       50
102
RTVSPost2010PropOp47
 70
     1
102
RTVSPost2010Prop48
 90
       50
102
RTVSPost2010PropOp48
 70
     1
102
RTVSPost2010Prop49
280
     0
102
RTVSPost2010PropOp49
 70
     1
102
RTVSPost2010Prop50
 90
       50
102
RTVSPost2010PropOp50
 70
     1
102
RTVSPost2010Prop51ColorIndex
 90
      256
102
RTVSPost2010Prop51ColorRGB
 90
-16777216
102
RTVSPost2010PropOp51
 70
     0
102
RTVSPost2010Prop52
140
1.0
102
RTVSPost2010PropOp52
 70
     0
102
RTVSPost2010Prop53
 90
        2
102
RTVSPost2010PropOp53
 70
     1
102
RTVSPost2010Prop54
  1
strokes_ogs.tif
102
RTVSPost2010PropOp54
 70
     1
102
RTVSPost2010Prop55
280
     0
102
RTVSPost2010PropOp55
 70
     1
102
RTVSPost2010Prop56
140
1.0
102
RTVSPost2010PropOp56
 70
     1
102
RTVSPost2010Prop57
140
1.0
102
RTVSPost2010PropOp57
 70
     1
102
RTVSPropertyOp0
 70
     1
102
RTVSPropertyOp1
 70
     1
102
RTVSPropertyOp2
 70
     1
102
RTVSPropertyOp3
 70
     1
102
RTVSPropertyOp4
 70
     1
102
RTVSPropertyOp5
 70
     1
102
RTVSPropertyOp6
 70
     1
102
RTVSPropertyOp7
 70
     1
102
RTVSPropertyOp8
 70
     1
102
RTVSPropertyOp9
 70
     1
102
RTVSPropertyOp10
 70
     1
102
RTVSPropertyOp11
 70
     1
102
RTVSPropertyOp12
 70
     1
102
RTVSPropertyOp13
 70
     1
102
RTVSPropertyOp14
 70
     1
102
RTVSPropertyOp15
 70
     1
102
RTVSPropertyOp16
 70
     1
102
RTVSPropertyOp17
 70
     1
102
RTVSPropertyOp18
 70
     1
102
RTVSPropertyOp19
 70
     1
102
RTVSPropertyOp20
 70
     1
102
RTVSPropertyOp21
 70
     1
102
RTVSPropertyOp22
 70
     1
102
RTVSPropertyOp23
 70
     1
102
RTVSPropertyOp24
 70
     1
102
RTVSPropertyOp25
 70
     1
102
RTVSPropertyOp26
 70
     1
102
RTVSPropertyOp27
 70
     1
102
RTVSPropertyOp28
 70
     1
102
RTVSPropertyOp29
 70
     1
102
RTVSPropertyOp30
 70
     1
102
RTVSPropertyOp31
 70
     1
102
RTVSPropertyOp32
 70
     1
102
RTVSPropertyOp33
 70
     1
102
RTVSPropertyOp34
 70
     1
102
RTVSPropertyOp35
 70
     1
102
RTVSPropertyOp36
 70
     1
102
RTVSPropertyOp37
 70
     1
102
RTVSPropertyOp38
 70
     1
102
RTVSPropertyOp39
 70
     1
102
RTVSPropertyOp40
 70
     1
102
RTVSPropertyOp41
 70
     1
102
RTVSPropertyOp42
 70
     1
102
RTVSPropertyOp43
 70
     1
102
RTVSPropertyOp44
 70
     1
102
RTVSPropertyOp45
 70
     1
102
RTVSPropertyOp46
 70
     1
102
RTVSPropertyOp47
 70
     1
102
RTVSPropertyOp48
 70
     1
102
RTVSPropertyOp49
 70
     1
102
RTVSPropertyOp50
 70
     1
102
RTVSPropertyOp51
 70
     0
102
RTVSPropertyOp52
 70
     0
102
RTVSPropertyOp53
 70
     1
102
RTVSPropertyOp54
 70
     1
102
RTVSPropertyOp55
 70
     1
102
RTVSPropertyOp56
 70
     1
102
RTVSPropertyOp57
 70
     1
102
RTVSPropertyOp58
 70
     1
102
RTVSPropertyOp59
 70
     1
102
RTVSPropertyOp60
 70
     1
102
RTVSPropertyOp61
 70
     1
102
RTVSPropertyOp62
 70
     1
  0
XRECORD
  5
3BC
102
{ACAD_REACTORS
330
3BB
102
}
330
3BB
100
AcDbXrecord
280
     1
102
RTVSPost2010Prop28
280
     0
102
RTVSPost2010PropOp28
 70
     1
102
RTVSPost2010Prop29
280
     1
102
RTVSPost2010PropOp29
 70
     1
102
RTVSPost2010Prop30
280
     1
102
RTVSPost2010PropOp30
 70
     1
102
RTVSPost2010Prop31
280
     0
102
RTVSPost2010PropOp31
 70
     1
102
RTVSPost2010Prop32
280
     0
102
RTVSPost2010PropOp32
 70
     1
102
RTVSPost2010Prop33
280
     0
102
RTVSPost2010PropOp33
 70
     1
102
RTVSPost2010Prop34
280
     0
102
RTVSPost2010PropOp34
 70
     1
102
RTVSPost2010Prop35
280
     0
102
RTVSPost2010PropOp35
 70
     1
102
RTVSPost2010Prop36
280
     0
102
RTVSPost2010PropOp36
 70
     1
102
RTVSPost2010Prop37
 90
       50
102
RTVSPost2010PropOp37
 70
     1
102
RTVSPost2010Prop38
140
0.0
102
RTVSPost2010PropOp38
 70
     1
102
RTVSPost2010Prop39
140
1.0
102
RTVSPost2010PropOp39
 70
     1
102
RTVSPost2010Prop40
 90
        0
102
RTVSPost2010PropOp40
 70
     1
102
RTVSPost2010Prop41ColorIndex
 90
       18
102
RTVSPost2010Prop41ColorRGB
 90
        0
102
RTVSPost2010PropOp41
 70
     1
102
RTVSPost2010Prop42
 90
       50
102
RTVSPost2010PropOp42
 70
     1
102
RTVSPost2010Prop43
 90
        3
102
RTVSPost2010PropOp43
 70
     1
102
RTVSPost2010Prop44ColorIndex
 90
        5
102
RTVSPost2010Prop44ColorRGB
 90
      255
102
RTVSPost2010PropOp44
 70
     1
102
RTVSPost2010Prop45
280
     0
102
RTVSPost2010PropOp45
 70
     1
102
RTVSPost2010Prop46
 90
       50
102
RTVSPost2010PropOp46
 70
     1
102
RTVSPost2010Prop47
 90
       50
102
RTVSPost2010PropOp47
 70
     1
102
RTVSPost2010Prop48
 90
       50
102
RTVSPost2010PropOp48
 70
     1
102
RTVSPost2010Prop49
280
     0
102
RTVSPost2010PropOp49
 70
     1
102
RTVSPost2010Prop50
 90
       50
102
RTVSPost2010PropOp50
 70
     1
102
RTVSPost2010Prop51ColorIndex
 90
      256
102
RTVSPost2010Prop51ColorRGB
 90
-16777216
102
RTVSPost2010PropOp51
 70
     0
102
RTVSPost2010Prop52
140
1.0
102
RTVSPost2010PropOp52
 70
     0
102
RTVSPost2010Prop53
 90
        2
102
RTVSPost2010PropOp53
 70
     1
102
RTVSPost2010Prop54
  1
strokes_ogs.tif
102
RTVSPost2010PropOp54
 70
     1
102
RTVSPost2010Prop55
280
     0
102
RTVSPost2010PropOp55
 70
     1
102
RTVSPost2010Prop56
140
1.0
102
RTVSPost2010PropOp56
 70
     1
102
RTVSPost2010Prop57
140
1.0
102
RTVSPost2010PropOp57
 70
     1
102
RTVSPropertyOp0
 70
     1
102
RTVSPropertyOp1
 70
     1
102
RTVSPropertyOp2
 70
     1
102
RTVSPropertyOp3
 70
     1
102
RTVSPropertyOp4
 70
     1
102
RTVSPropertyOp5
 70
     1
102
RTVSPropertyOp6
 70
     1
102
RTVSPropertyOp7
 70
     1
102
RTVSPropertyOp8
 70
     1
102
RTVSPropertyOp9
 70
     1
102
RTVSPropertyOp10
 70
     1
102
RTVSPropertyOp11
 70
     1
102
RTVSPropertyOp12
 70
     1
102
RTVSPropertyOp13
 70
     1
102
RTVSPropertyOp14
 70
     1
102
RTVSPropertyOp15
 70
     1
102
RTVSPropertyOp16
 70
     1
102
RTVSPropertyOp17
 70
     1
102
RTVSPropertyOp18
 70
     1
102
RTVSPropertyOp19
 70
     1
102
RTVSPropertyOp20
 70
     1
102
RTVSPropertyOp21
 70
     1
102
RTVSPropertyOp22
 70
     1
102
RTVSPropertyOp23
 70
     1
102
RTVSPropertyOp24
 70
     1
102
RTVSPropertyOp25
 70
     1
102
RTVSPropertyOp26
 70
     1
102
RTVSPropertyOp27
 70
     1
102
RTVSPropertyOp28
 70
     1
102
RTVSPropertyOp29
 70
     1
102
RTVSPropertyOp30
 70
     1
102
RTVSPropertyOp31
 70
     1
102
RTVSPropertyOp32
 70
     1
102
RTVSPropertyOp33
 70
     1
102
RTVSPropertyOp34
 70
     1
102
RTVSPropertyOp35
 70
     1
102
RTVSPropertyOp36
 70
     1
102
RTVSPropertyOp37
 70
     1
102
RTVSPropertyOp38
 70
     1
102
RTVSPropertyOp39
 70
     1
102
RTVSPropertyOp40
 70
     1
102
RTVSPropertyOp41
 70
     1
102
RTVSPropertyOp42
 70
     1
102
RTVSPropertyOp43
 70
     1
102
RTVSPropertyOp44
 70
     1
102
RTVSPropertyOp45
 70
     1
102
RTVSPropertyOp46
 70
     1
102
RTVSPropertyOp47
 70
     1
102
RTVSPropertyOp48
 70
     1
102
RTVSPropertyOp49
 70
     1
102
RTVSPropertyOp50
 70
     1
102
RTVSPropertyOp51
 70
     0
102
RTVSPropertyOp52
 70
     0
102
RTVSPropertyOp53
 70
     1
102
RTVSPropertyOp54
 70
     1
102
RTVSPropertyOp55
 70
     1
102
RTVSPropertyOp56
 70
     1
102
RTVSPropertyOp57
 70
     1
102
RTVSPropertyOp58
 70
     1
102
RTVSPropertyOp59
 70
     1
102
RTVSPropertyOp60
 70
     1
102
RTVSPropertyOp61
 70
     1
102
RTVSPropertyOp62
 70
     1
  0
XRECORD
  5
3C4
102
{ACAD_REACTORS
330
3C3
102
}
330
3C3
100
AcDbXrecord
280
     1
102
RTVSPost2010Prop28
280
     0
102
RTVSPost2010PropOp28
 70
     1
102
RTVSPost2010Prop29
280
     1
102
RTVSPost2010PropOp29
 70
     1
102
RTVSPost2010Prop30
280
     1
102
RTVSPost2010PropOp30
 70
     1
102
RTVSPost2010Prop31
280
     0
102
RTVSPost2010PropOp31
 70
     1
102
RTVSPost2010Prop32
280
     0
102
RTVSPost2010PropOp32
 70
     1
102
RTVSPost2010Prop33
280
     0
102
RTVSPost2010PropOp33
 70
     1
102
RTVSPost2010Prop34
280
     0
102
RTVSPost2010PropOp34
 70
     1
102
RTVSPost2010Prop35
280
     0
102
RTVSPost2010PropOp35
 70
     1
102
RTVSPost2010Prop36
280
     0
102
RTVSPost2010PropOp36
 70
     1
102
RTVSPost2010Prop37
 90
       50
102
RTVSPost2010PropOp37
 70
     1
102
RTVSPost2010Prop38
140
0.0
102
RTVSPost2010PropOp38
 70
     1
102
RTVSPost2010Prop39
140
1.0
102
RTVSPost2010PropOp39
 70
     1
102
RTVSPost2010Prop40
 90
        0
102
RTVSPost2010PropOp40
 70
     1
102
RTVSPost2010Prop41ColorIndex
 90
       18
102
RTVSPost2010Prop41ColorRGB
 90
        0
102
RTVSPost2010PropOp41
 70
     1
102
RTVSPost2010Prop42
 90
       50
102
RTVSPost2010PropOp42
 70
     1
102
RTVSPost2010Prop43
 90
        3
102
RTVSPost2010PropOp43
 70
     1
102
RTVSPost2010Prop44ColorIndex
 90
        5
102
RTVSPost2010Prop44ColorRGB
 90
      255
102
RTVSPost2010PropOp44
 70
     1
102
RTVSPost2010Prop45
280
     0
102
RTVSPost2010PropOp45
 70
     1
102
RTVSPost2010Prop46
 90
       50
102
RTVSPost2010PropOp46
 70
     1
102
RTVSPost2010Prop47
 90
       50
102
RTVSPost2010PropOp47
 70
     1
102
RTVSPost2010Prop48
 90
       50
102
RTVSPost2010PropOp48
 70
     1
102
RTVSPost2010Prop49
280
     0
102
RTVSPost2010PropOp49
 70
     1
102
RTVSPost2010Prop50
 90
       50
102
RTVSPost2010PropOp50
 70
     1
102
RTVSPost2010Prop51ColorIndex
 90
      256
102
RTVSPost2010Prop51ColorRGB
 90
-16777216
102
RTVSPost2010PropOp51
 70
     0
102
RTVSPost2010Prop52
140
1.0
102
RTVSPost2010PropOp52
 70
     0
102
RTVSPost2010Prop53
 90
        2
102
RTVSPost2010PropOp53
 70
     1
102
RTVSPost2010Prop54
  1
strokes_ogs.tif
102
RTVSPost2010PropOp54
 70
     1
102
RTVSPost2010Prop55
280
     0
102
RTVSPost2010PropOp55
 70
     1
102
RTVSPost2010Prop56
140
1.0
102
RTVSPost2010PropOp56
 70
     1
102
RTVSPost2010Prop57
140
1.0
102
RTVSPost2010PropOp57
 70
     1
102
RTVSPropertyOp0
 70
     1
102
RTVSPropertyOp1
 70
     1
102
RTVSPropertyOp2
 70
     1
102
RTVSPropertyOp3
 70
     1
102
RTVSPropertyOp4
 70
     1
102
RTVSPropertyOp5
 70
     1
102
RTVSPropertyOp6
 70
     1
102
RTVSPropertyOp7
 70
     1
102
RTVSPropertyOp8
 70
     1
102
RTVSPropertyOp9
 70
     1
102
RTVSPropertyOp10
 70
     1
102
RTVSPropertyOp11
 70
     1
102
RTVSPropertyOp12
 70
     1
102
RTVSPropertyOp13
 70
     1
102
RTVSPropertyOp14
 70
     1
102
RTVSPropertyOp15
 70
     1
102
RTVSPropertyOp16
 70
     1
102
RTVSPropertyOp17
 70
     1
102
RTVSPropertyOp18
 70
     1
102
RTVSPropertyOp19
 70
     1
102
RTVSPropertyOp20
 70
     1
102
RTVSPropertyOp21
 70
     1
102
RTVSPropertyOp22
 70
     1
102
RTVSPropertyOp23
 70
     1
102
RTVSPropertyOp24
 70
     1
102
RTVSPropertyOp25
 70
     1
102
RTVSPropertyOp26
 70
     1
102
RTVSPropertyOp27
 70
     1
102
RTVSPropertyOp28
 70
     1
102
RTVSPropertyOp29
 70
     1
102
RTVSPropertyOp30
 70
     1
102
RTVSPropertyOp31
 70
     1
102
RTVSPropertyOp32
 70
     1
102
RTVSPropertyOp33
 70
     1
102
RTVSPropertyOp34
 70
     1
102
RTVSPropertyOp35
 70
     1
102
RTVSPropertyOp36
 70
     1
102
RTVSPropertyOp37
 70
     1
102
RTVSPropertyOp38
 70
     1
102
RTVSPropertyOp39
 70
     1
102
RTVSPropertyOp40
 70
     1
102
RTVSPropertyOp41
 70
     1
102
RTVSPropertyOp42
 70
     1
102
RTVSPropertyOp43
 70
     1
102
RTVSPropertyOp44
 70
     1
102
RTVSPropertyOp45
 70
     1
102
RTVSPropertyOp46
 70
     1
102
RTVSPropertyOp47
 70
     1
102
RTVSPropertyOp48
 70
     1
102
RTVSPropertyOp49
 70
     1
102
RTVSPropertyOp50
 70
     1
102
RTVSPropertyOp51
 70
     0
102
RTVSPropertyOp52
 70
     0
102
RTVSPropertyOp53
 70
     1
102
RTVSPropertyOp54
 70
     1
102
RTVSPropertyOp55
 70
     1
102
RTVSPropertyOp56
 70
     1
102
RTVSPropertyOp57
 70
     1
102
RTVSPropertyOp58
 70
     1
102
RTVSPropertyOp59
 70
     1
102
RTVSPropertyOp60
 70
     1
102
RTVSPropertyOp61
 70
     1
102
RTVSPropertyOp62
 70
     1
  0
XRECORD
  5
3B8
102
{ACAD_REACTORS
330
3B7
102
}
330
3B7
100
AcDbXrecord
280
     1
102
RTVSPost2010Prop28
280
     0
102
RTVSPost2010PropOp28
 70
     1
102
RTVSPost2010Prop29
280
     1
102
RTVSPost2010PropOp29
 70
     1
102
RTVSPost2010Prop30
280
     1
102
RTVSPost2010PropOp30
 70
     1
102
RTVSPost2010Prop31
280
     0
102
RTVSPost2010PropOp31
 70
     1
102
RTVSPost2010Prop32
280
     0
102
RTVSPost2010PropOp32
 70
     1
102
RTVSPost2010Prop33
280
     0
102
RTVSPost2010PropOp33
 70
     1
102
RTVSPost2010Prop34
280
     0
102
RTVSPost2010PropOp34
 70
     1
102
RTVSPost2010Prop35
280
     0
102
RTVSPost2010PropOp35
 70
     1
102
RTVSPost2010Prop36
280
     0
102
RTVSPost2010PropOp36
 70
     1
102
RTVSPost2010Prop37
 90
       50
102
RTVSPost2010PropOp37
 70
     1
102
RTVSPost2010Prop38
140
0.0
102
RTVSPost2010PropOp38
 70
     1
102
RTVSPost2010Prop39
140
1.0
102
RTVSPost2010PropOp39
 70
     1
102
RTVSPost2010Prop40
 90
        0
102
RTVSPost2010PropOp40
 70
     1
102
RTVSPost2010Prop41ColorIndex
 90
       18
102
RTVSPost2010Prop41ColorRGB
 90
        0
102
RTVSPost2010PropOp41
 70
     1
102
RTVSPost2010Prop42
 90
       50
102
RTVSPost2010PropOp42
 70
     1
102
RTVSPost2010Prop43
 90
        3
102
RTVSPost2010PropOp43
 70
     1
102
RTVSPost2010Prop44ColorIndex
 90
        5
102
RTVSPost2010Prop44ColorRGB
 90
      255
102
RTVSPost2010PropOp44
 70
     1
102
RTVSPost2010Prop45
280
     0
102
RTVSPost2010PropOp45
 70
     1
102
RTVSPost2010Prop46
 90
       50
102
RTVSPost2010PropOp46
 70
     1
102
RTVSPost2010Prop47
 90
       50
102
RTVSPost2010PropOp47
 70
     1
102
RTVSPost2010Prop48
 90
       50
102
RTVSPost2010PropOp48
 70
     1
102
RTVSPost2010Prop49
280
     0
102
RTVSPost2010PropOp49
 70
     1
102
RTVSPost2010Prop50
 90
       50
102
RTVSPost2010PropOp50
 70
     1
102
RTVSPost2010Prop51ColorIndex
 90
      256
102
RTVSPost2010Prop51ColorRGB
 90
-16777216
102
RTVSPost2010PropOp51
 70
     0
102
RTVSPost2010Prop52
140
1.0
102
RTVSPost2010PropOp52
 70
     0
102
RTVSPost2010Prop53
 90
        2
102
RTVSPost2010PropOp53
 70
     1
102
RTVSPost2010Prop54
  1
strokes_ogs.tif
102
RTVSPost2010PropOp54
 70
     1
102
RTVSPost2010Prop55
280
     0
102
RTVSPost2010PropOp55
 70
     1
102
RTVSPost2010Prop56
140
1.0
102
RTVSPost2010PropOp56
 70
     1
102
RTVSPost2010Prop57
140
1.0
102
RTVSPost2010PropOp57
 70
     1
102
RTVSPropertyOp0
 70
     1
102
RTVSPropertyOp1
 70
     1
102
RTVSPropertyOp2
 70
     1
102
RTVSPropertyOp3
 70
     1
102
RTVSPropertyOp4
 70
     1
102
RTVSPropertyOp5
 70
     1
102
RTVSPropertyOp6
 70
     1
102
RTVSPropertyOp7
 70
     1
102
RTVSPropertyOp8
 70
     1
102
RTVSPropertyOp9
 70
     1
102
RTVSPropertyOp10
 70
     1
102
RTVSPropertyOp11
 70
     1
102
RTVSPropertyOp12
 70
     1
102
RTVSPropertyOp13
 70
     1
102
RTVSPropertyOp14
 70
     1
102
RTVSPropertyOp15
 70
     1
102
RTVSPropertyOp16
 70
     1
102
RTVSPropertyOp17
 70
     1
102
RTVSPropertyOp18
 70
     1
102
RTVSPropertyOp19
 70
     1
102
RTVSPropertyOp20
 70
     1
102
RTVSPropertyOp21
 70
     1
102
RTVSPropertyOp22
 70
     1
102
RTVSPropertyOp23
 70
     1
102
RTVSPropertyOp24
 70
     1
102
RTVSPropertyOp25
 70
     1
102
RTVSPropertyOp26
 70
     1
102
RTVSPropertyOp27
 70
     1
102
RTVSPropertyOp28
 70
     1
102
RTVSPropertyOp29
 70
     1
102
RTVSPropertyOp30
 70
     1
102
RTVSPropertyOp31
 70
     1
102
RTVSPropertyOp32
 70
     1
102
RTVSPropertyOp33
 70
     1
102
RTVSPropertyOp34
 70
     1
102
RTVSPropertyOp35
 70
     1
102
RTVSPropertyOp36
 70
     1
102
RTVSPropertyOp37
 70
     1
102
RTVSPropertyOp38
 70
     1
102
RTVSPropertyOp39
 70
     1
102
RTVSPropertyOp40
 70
     1
102
RTVSPropertyOp41
 70
     1
102
RTVSPropertyOp42
 70
     1
102
RTVSPropertyOp43
 70
     1
102
RTVSPropertyOp44
 70
     1
102
RTVSPropertyOp45
 70
     1
102
RTVSPropertyOp46
 70
     1
102
RTVSPropertyOp47
 70
     1
102
RTVSPropertyOp48
 70
     1
102
RTVSPropertyOp49
 70
     1
102
RTVSPropertyOp50
 70
     1
102
RTVSPropertyOp51
 70
     0
102
RTVSPropertyOp52
 70
     0
102
RTVSPropertyOp53
 70
     1
102
RTVSPropertyOp54
 70
     1
102
RTVSPropertyOp55
 70
     1
102
RTVSPropertyOp56
 70
     1
102
RTVSPropertyOp57
 70
     1
102
RTVSPropertyOp58
 70
     1
102
RTVSPropertyOp59
 70
     1
102
RTVSPropertyOp60
 70
     1
102
RTVSPropertyOp61
 70
     1
102
RTVSPropertyOp62
 70
     1
  0
XRECORD
  5
3BA
102
{ACAD_REACTORS
330
3B9
102
}
330
3B9
100
AcDbXrecord
280
     1
102
RTVSPost2010Prop28
280
     0
102
RTVSPost2010PropOp28
 70
     1
102
RTVSPost2010Prop29
280
     1
102
RTVSPost2010PropOp29
 70
     1
102
RTVSPost2010Prop30
280
     1
102
RTVSPost2010PropOp30
 70
     1
102
RTVSPost2010Prop31
280
     0
102
RTVSPost2010PropOp31
 70
     1
102
RTVSPost2010Prop32
280
     0
102
RTVSPost2010PropOp32
 70
     1
102
RTVSPost2010Prop33
280
     0
102
RTVSPost2010PropOp33
 70
     1
102
RTVSPost2010Prop34
280
     0
102
RTVSPost2010PropOp34
 70
     1
102
RTVSPost2010Prop35
280
     0
102
RTVSPost2010PropOp35
 70
     1
102
RTVSPost2010Prop36
280
     0
102
RTVSPost2010PropOp36
 70
     1
102
RTVSPost2010Prop37
 90
       50
102
RTVSPost2010PropOp37
 70
     1
102
RTVSPost2010Prop38
140
0.0
102
RTVSPost2010PropOp38
 70
     1
102
RTVSPost2010Prop39
140
1.0
102
RTVSPost2010PropOp39
 70
     1
102
RTVSPost2010Prop40
 90
        0
102
RTVSPost2010PropOp40
 70
     1
102
RTVSPost2010Prop41ColorIndex
 90
       18
102
RTVSPost2010Prop41ColorRGB
 90
        0
102
RTVSPost2010PropOp41
 70
     1
102
RTVSPost2010Prop42
 90
       50
102
RTVSPost2010PropOp42
 70
     1
102
RTVSPost2010Prop43
 90
        3
102
RTVSPost2010PropOp43
 70
     1
102
RTVSPost2010Prop44ColorIndex
 90
        5
102
RTVSPost2010Prop44ColorRGB
 90
      255
102
RTVSPost2010PropOp44
 70
     1
102
RTVSPost2010Prop45
280
     0
102
RTVSPost2010PropOp45
 70
     1
102
RTVSPost2010Prop46
 90
       50
102
RTVSPost2010PropOp46
 70
     1
102
RTVSPost2010Prop47
 90
       50
102
RTVSPost2010PropOp47
 70
     1
102
RTVSPost2010Prop48
 90
       50
102
RTVSPost2010PropOp48
 70
     1
102
RTVSPost2010Prop49
280
     0
102
RTVSPost2010PropOp49
 70
     1
102
RTVSPost2010Prop50
 90
       50
102
RTVSPost2010PropOp50
 70
     1
102
RTVSPost2010Prop51ColorIndex
 90
      256
102
RTVSPost2010Prop51ColorRGB
 90
-16777216
102
RTVSPost2010PropOp51
 70
     0
102
RTVSPost2010Prop52
140
1.0
102
RTVSPost2010PropOp52
 70
     0
102
RTVSPost2010Prop53
 90
        2
102
RTVSPost2010PropOp53
 70
     1
102
RTVSPost2010Prop54
  1
strokes_ogs.tif
102
RTVSPost2010PropOp54
 70
     1
102
RTVSPost2010Prop55
280
     0
102
RTVSPost2010PropOp55
 70
     1
102
RTVSPost2010Prop56
140
1.0
102
RTVSPost2010PropOp56
 70
     1
102
RTVSPost2010Prop57
140
1.0
102
RTVSPost2010PropOp57
 70
     1
102
RTVSPropertyOp0
 70
     1
102
RTVSPropertyOp1
 70
     1
102
RTVSPropertyOp2
 70
     1
102
RTVSPropertyOp3
 70
     1
102
RTVSPropertyOp4
 70
     1
102
RTVSPropertyOp5
 70
     1
102
RTVSPropertyOp6
 70
     1
102
RTVSPropertyOp7
 70
     1
102
RTVSPropertyOp8
 70
     1
102
RTVSPropertyOp9
 70
     1
102
RTVSPropertyOp10
 70
     1
102
RTVSPropertyOp11
 70
     1
102
RTVSPropertyOp12
 70
     1
102
RTVSPropertyOp13
 70
     1
102
RTVSPropertyOp14
 70
     1
102
RTVSPropertyOp15
 70
     1
102
RTVSPropertyOp16
 70
     1
102
RTVSPropertyOp17
 70
     1
102
RTVSPropertyOp18
 70
     1
102
RTVSPropertyOp19
 70
     1
102
RTVSPropertyOp20
 70
     1
102
RTVSPropertyOp21
 70
     1
102
RTVSPropertyOp22
 70
     1
102
RTVSPropertyOp23
 70
     1
102
RTVSPropertyOp24
 70
     1
102
RTVSPropertyOp25
 70
     1
102
RTVSPropertyOp26
 70
     1
102
RTVSPropertyOp27
 70
     1
102
RTVSPropertyOp28
 70
     1
102
RTVSPropertyOp29
 70
     1
102
RTVSPropertyOp30
 70
     1
102
RTVSPropertyOp31
 70
     1
102
RTVSPropertyOp32
 70
     1
102
RTVSPropertyOp33
 70
     1
102
RTVSPropertyOp34
 70
     1
102
RTVSPropertyOp35
 70
     1
102
RTVSPropertyOp36
 70
     1
102
RTVSPropertyOp37
 70
     1
102
RTVSPropertyOp38
 70
     1
102
RTVSPropertyOp39
 70
     1
102
RTVSPropertyOp40
 70
     1
102
RTVSPropertyOp41
 70
     1
102
RTVSPropertyOp42
 70
     1
102
RTVSPropertyOp43
 70
     1
102
RTVSPropertyOp44
 70
     1
102
RTVSPropertyOp45
 70
     1
102
RTVSPropertyOp46
 70
     1
102
RTVSPropertyOp47
 70
     1
102
RTVSPropertyOp48
 70
     1
102
RTVSPropertyOp49
 70
     1
102
RTVSPropertyOp50
 70
     1
102
RTVSPropertyOp51
 70
     0
102
RTVSPropertyOp52
 70
     0
102
RTVSPropertyOp53
 70
     1
102
RTVSPropertyOp54
 70
     1
102
RTVSPropertyOp55
 70
     1
102
RTVSPropertyOp56
 70
     1
102
RTVSPropertyOp57
 70
     1
102
RTVSPropertyOp58
 70
     1
102
RTVSPropertyOp59
 70
     1
102
RTVSPropertyOp60
 70
     1
102
RTVSPropertyOp61
 70
     1
102
RTVSPropertyOp62
 70
     1
  0
XRECORD
  5
3CA
102
{ACAD_REACTORS
330
3C9
102
}
330
3C9
100
AcDbXrecord
280
     1
102
RTVSPost2010Prop28
280
     0
102
RTVSPost2010PropOp28
 70
     0
102
RTVSPost2010Prop29
280
     1
102
RTVSPost2010PropOp29
 70
     0
102
RTVSPost2010Prop30
280
     1
102
RTVSPost2010PropOp30
 70
     0
102
RTVSPost2010Prop31
280
     0
102
RTVSPost2010PropOp31
 70
     0
102
RTVSPost2010Prop32
280
     0
102
RTVSPost2010PropOp32
 70
     0
102
RTVSPost2010Prop33
280
     0
102
RTVSPost2010PropOp33
 70
     0
102
RTVSPost2010Prop34
280
     0
102
RTVSPost2010PropOp34
 70
     0
102
RTVSPost2010Prop35
280
     0
102
RTVSPost2010PropOp35
 70
     0
102
RTVSPost2010Prop36
280
     0
102
RTVSPost2010PropOp36
 70
     0
102
RTVSPost2010Prop37
 90
       50
102
RTVSPost2010PropOp37
 70
     0
102
RTVSPost2010Prop38
140
0.0
102
RTVSPost2010PropOp38
 70
     0
102
RTVSPost2010Prop39
140
1.0
102
RTVSPost2010PropOp39
 70
     0
102
RTVSPost2010Prop40
 90
        0
102
RTVSPost2010PropOp40
 70
     0
102
RTVSPost2010Prop41ColorIndex
 90
       18
102
RTVSPost2010Prop41ColorRGB
 90
        0
102
RTVSPost2010PropOp41
 70
     0
102
RTVSPost2010Prop42
 90
       50
102
RTVSPost2010PropOp42
 70
     0
102
RTVSPost2010Prop43
 90
        3
102
RTVSPost2010PropOp43
 70
     0
102
RTVSPost2010Prop44ColorIndex
 90
        5
102
RTVSPost2010Prop44ColorRGB
 90
      255
102
RTVSPost2010PropOp44
 70
     0
102
RTVSPost2010Prop45
280
     0
102
RTVSPost2010PropOp45
 70
     0
102
RTVSPost2010Prop46
 90
       50
102
RTVSPost2010PropOp46
 70
     0
102
RTVSPost2010Prop47
 90
       50
102
RTVSPost2010PropOp47
 70
     0
102
RTVSPost2010Prop48
 90
       50
102
RTVSPost2010PropOp48
 70
     0
102
RTVSPost2010Prop49
280
     0
102
RTVSPost2010PropOp49
 70
     0
102
RTVSPost2010Prop50
 90
       50
102
RTVSPost2010PropOp50
 70
     0
102
RTVSPost2010Prop51ColorIndex
 90
      256
102
RTVSPost2010Prop51ColorRGB
 90
-16777216
102
RTVSPost2010PropOp51
 70
     0
102
RTVSPost2010Prop52
140
1.0
102
RTVSPost2010PropOp52
 70
     0
102
RTVSPost2010Prop53
 90
        2
102
RTVSPost2010PropOp53
 70
     0
102
RTVSPost2010Prop54
  1
strokes_ogs.tif
102
RTVSPost2010PropOp54
 70
     0
102
RTVSPost2010Prop55
280
     0
102
RTVSPost2010PropOp55
 70
     0
102
RTVSPost2010Prop56
140
1.0
102
RTVSPost2010PropOp56
 70
     0
102
RTVSPost2010Prop57
140
1.0
102
RTVSPost2010PropOp57
 70
     0
102
RTVSPropertyOp0
 70
     0
102
RTVSPropertyOp1
 70
     0
102
RTVSPropertyOp2
 70
     0
102
RTVSPropertyOp3
 70
     0
102
RTVSPropertyOp4
 70
     0
102
RTVSPropertyOp5
 70
     0
102
RTVSPropertyOp6
 70
     0
102
RTVSPropertyOp7
 70
     0
102
RTVSPropertyOp8
 70
     0
102
RTVSPropertyOp9
 70
     0
102
RTVSPropertyOp10
 70
     0
102
RTVSPropertyOp11
 70
     0
102
RTVSPropertyOp12
 70
     0
102
RTVSPropertyOp13
 70
     0
102
RTVSPropertyOp14
 70
     2
102
RTVSPropertyOp15
 70
     0
102
RTVSPropertyOp16
 70
     0
102
RTVSPropertyOp17
 70
     0
102
RTVSPropertyOp18
 70
     0
102
RTVSPropertyOp19
 70
     0
102
RTVSPropertyOp20
 70
     0
102
RTVSPropertyOp21
 70
     0
102
RTVSPropertyOp22
 70
     0
102
RTVSPropertyOp23
 70
     0
102
RTVSPropertyOp24
 70
     0
102
RTVSPropertyOp25
 70
     0
102
RTVSPropertyOp26
 70
     0
102
RTVSPropertyOp27
 70
     0
102
RTVSPropertyOp28
 70
     0
102
RTVSPropertyOp29
 70
     0
102
RTVSPropertyOp30
 70
     0
102
RTVSPropertyOp31
 70
     0
102
RTVSPropertyOp32
 70
     0
102
RTVSPropertyOp33
 70
     0
102
RTVSPropertyOp34
 70
     0
102
RTVSPropertyOp35
 70
     0
102
RTVSPropertyOp36
 70
     0
102
RTVSPropertyOp37
 70
     0
102
RTVSPropertyOp38
 70
     0
102
RTVSPropertyOp39
 70
     0
102
RTVSPropertyOp40
 70
     0
102
RTVSPropertyOp41
 70
     0
102
RTVSPropertyOp42
 70
     0
102
RTVSPropertyOp43
 70
     0
102
RTVSPropertyOp44
 70
     0
102
RTVSPropertyOp45
 70
     0
102
RTVSPropertyOp46
 70
     0
102
RTVSPropertyOp47
 70
     0
102
RTVSPropertyOp48
 70
     0
102
RTVSPropertyOp49
 70
     0
102
RTVSPropertyOp50
 70
     0
102
RTVSPropertyOp51
 70
     0
102
RTVSPropertyOp52
 70
     0
102
RTVSPropertyOp53
 70
     0
102
RTVSPropertyOp54
 70
     0
102
RTVSPropertyOp55
 70
     0
102
RTVSPropertyOp56
 70
     0
102
RTVSPropertyOp57
 70
     0
102
RTVSPropertyOp58
 70
     1
102
RTVSPropertyOp59
 70
     1
102
RTVSPropertyOp60
 70
     1
102
RTVSPropertyOp61
 70
     1
102
RTVSPropertyOp62
 70
     1
  0
XRECORD
  5
3C2
102
{ACAD_REACTORS
330
3C1
102
}
330
3C1
100
AcDbXrecord
280
     1
102
RTVSPost2010Prop28
280
     0
102
RTVSPost2010PropOp28
 70
     1
102
RTVSPost2010Prop29
280
     1
102
RTVSPost2010PropOp29
 70
     1
102
RTVSPost2010Prop30
280
     1
102
RTVSPost2010PropOp30
 70
     1
102
RTVSPost2010Prop31
280
     0
102
RTVSPost2010PropOp31
 70
     1
102
RTVSPost2010Prop32
280
     0
102
RTVSPost2010PropOp32
 70
     1
102
RTVSPost2010Prop33
280
     0
102
RTVSPost2010PropOp33
 70
     1
102
RTVSPost2010Prop34
280
     0
102
RTVSPost2010PropOp34
 70
     1
102
RTVSPost2010Prop35
280
     0
102
RTVSPost2010PropOp35
 70
     1
102
RTVSPost2010Prop36
280
     0
102
RTVSPost2010PropOp36
 70
     1
102
RTVSPost2010Prop37
 90
       50
102
RTVSPost2010PropOp37
 70
     1
102
RTVSPost2010Prop38
140
0.0
102
RTVSPost2010PropOp38
 70
     1
102
RTVSPost2010Prop39
140
1.0
102
RTVSPost2010PropOp39
 70
     1
102
RTVSPost2010Prop40
 90
        0
102
RTVSPost2010PropOp40
 70
     1
102
RTVSPost2010Prop41ColorIndex
 90
       18
102
RTVSPost2010Prop41ColorRGB
 90
        0
102
RTVSPost2010PropOp41
 70
     1
102
RTVSPost2010Prop42
 90
       50
102
RTVSPost2010PropOp42
 70
     1
102
RTVSPost2010Prop43
 90
        3
102
RTVSPost2010PropOp43
 70
     1
102
RTVSPost2010Prop44ColorIndex
 90
        5
102
RTVSPost2010Prop44ColorRGB
 90
      255
102
RTVSPost2010PropOp44
 70
     1
102
RTVSPost2010Prop45
280
     0
102
RTVSPost2010PropOp45
 70
     1
102
RTVSPost2010Prop46
 90
       50
102
RTVSPost2010PropOp46
 70
     1
102
RTVSPost2010Prop47
 90
       50
102
RTVSPost2010PropOp47
 70
     1
102
RTVSPost2010Prop48
 90
       50
102
RTVSPost2010PropOp48
 70
     1
102
RTVSPost2010Prop49
280
     0
102
RTVSPost2010PropOp49
 70
     1
102
RTVSPost2010Prop50
 90
       50
102
RTVSPost2010PropOp50
 70
     1
102
RTVSPost2010Prop51ColorIndex
 90
      256
102
RTVSPost2010Prop51ColorRGB
 90
-16777216
102
RTVSPost2010PropOp51
 70
     0
102
RTVSPost2010Prop52
140
1.0
102
RTVSPost2010PropOp52
 70
     0
102
RTVSPost2010Prop53
 90
        2
102
RTVSPost2010PropOp53
 70
     1
102
RTVSPost2010Prop54
  1
strokes_ogs.tif
102
RTVSPost2010PropOp54
 70
     1
102
RTVSPost2010Prop55
280
     0
102
RTVSPost2010PropOp55
 70
     1
102
RTVSPost2010Prop56
140
1.0
102
RTVSPost2010PropOp56
 70
     1
102
RTVSPost2010Prop57
140
1.0
102
RTVSPost2010PropOp57
 70
     1
102
RTVSPropertyOp0
 70
     1
102
RTVSPropertyOp1
 70
     1
102
RTVSPropertyOp2
 70
     1
102
RTVSPropertyOp3
 70
     1
102
RTVSPropertyOp4
 70
     1
102
RTVSPropertyOp5
 70
     1
102
RTVSPropertyOp6
 70
     1
102
RTVSPropertyOp7
 70
     1
102
RTVSPropertyOp8
 70
     1
102
RTVSPropertyOp9
 70
     1
102
RTVSPropertyOp10
 70
     1
102
RTVSPropertyOp11
 70
     1
102
RTVSPropertyOp12
 70
     1
102
RTVSPropertyOp13
 70
     1
102
RTVSPropertyOp14
 70
     1
102
RTVSPropertyOp15
 70
     1
102
RTVSPropertyOp16
 70
     1
102
RTVSPropertyOp17
 70
     1
102
RTVSPropertyOp18
 70
     1
102
RTVSPropertyOp19
 70
     1
102
RTVSPropertyOp20
 70
     1
102
RTVSPropertyOp21
 70
     1
102
RTVSPropertyOp22
 70
     1
102
RTVSPropertyOp23
 70
     1
102
RTVSPropertyOp24
 70
     1
102
RTVSPropertyOp25
 70
     1
102
RTVSPropertyOp26
 70
     1
102
RTVSPropertyOp27
 70
     1
102
RTVSPropertyOp28
 70
     1
102
RTVSPropertyOp29
 70
     1
102
RTVSPropertyOp30
 70
     1
102
RTVSPropertyOp31
 70
     1
102
RTVSPropertyOp32
 70
     1
102
RTVSPropertyOp33
 70
     1
102
RTVSPropertyOp34
 70
     1
102
RTVSPropertyOp35
 70
     1
102
RTVSPropertyOp36
 70
     1
102
RTVSPropertyOp37
 70
     1
102
RTVSPropertyOp38
 70
     1
102
RTVSPropertyOp39
 70
     1
102
RTVSPropertyOp40
 70
     1
102
RTVSPropertyOp41
 70
     1
102
RTVSPropertyOp42
 70
     1
102
RTVSPropertyOp43
 70
     1
102
RTVSPropertyOp44
 70
     1
102
RTVSPropertyOp45
 70
     1
102
RTVSPropertyOp46
 70
     1
102
RTVSPropertyOp47
 70
     1
102
RTVSPropertyOp48
 70
     1
102
RTVSPropertyOp49
 70
     1
102
RTVSPropertyOp50
 70
     1
102
RTVSPropertyOp51
 70
     0
102
RTVSPropertyOp52
 70
     0
102
RTVSPropertyOp53
 70
     1
102
RTVSPropertyOp54
 70
     1
102
RTVSPropertyOp55
 70
     1
102
RTVSPropertyOp56
 70
     1
102
RTVSPropertyOp57
 70
     1
102
RTVSPropertyOp58
 70
     1
102
RTVSPropertyOp59
 70
     1
102
RTVSPropertyOp60
 70
     1
102
RTVSPropertyOp61
 70
     1
102
RTVSPropertyOp62
 70
     1
  0
XRECORD
  5
3A6
102
{ACAD_REACTORS
330
3A5
102
}
330
3A5
100
AcDbXrecord
280
     1
102
RTVSPost2010Prop28
280
     0
102
RTVSPost2010PropOp28
 70
     1
102
RTVSPost2010Prop29
280
     1
102
RTVSPost2010PropOp29
 70
     1
102
RTVSPost2010Prop30
280
     1
102
RTVSPost2010PropOp30
 70
     1
102
RTVSPost2010Prop31
280
     0
102
RTVSPost2010PropOp31
 70
     1
102
RTVSPost2010Prop32
280
     0
102
RTVSPost2010PropOp32
 70
     1
102
RTVSPost2010Prop33
280
     0
102
RTVSPost2010PropOp33
 70
     1
102
RTVSPost2010Prop34
280
     0
102
RTVSPost2010PropOp34
 70
     1
102
RTVSPost2010Prop35
280
     0
102
RTVSPost2010PropOp35
 70
     1
102
RTVSPost2010Prop36
280
     0
102
RTVSPost2010PropOp36
 70
     1
102
RTVSPost2010Prop37
 90
       50
102
RTVSPost2010PropOp37
 70
     1
102
RTVSPost2010Prop38
140
0.0
102
RTVSPost2010PropOp38
 70
     1
102
RTVSPost2010Prop39
140
1.0
102
RTVSPost2010PropOp39
 70
     1
102
RTVSPost2010Prop40
 90
        0
102
RTVSPost2010PropOp40
 70
     1
102
RTVSPost2010Prop41ColorIndex
 90
       18
102
RTVSPost2010Prop41ColorRGB
 90
        0
102
RTVSPost2010PropOp41
 70
     1
102
RTVSPost2010Prop42
 90
       50
102
RTVSPost2010PropOp42
 70
     1
102
RTVSPost2010Prop43
 90
        3
102
RTVSPost2010PropOp43
 70
     1
102
RTVSPost2010Prop44ColorIndex
 90
        5
102
RTVSPost2010Prop44ColorRGB
 90
      255
102
RTVSPost2010PropOp44
 70
     1
102
RTVSPost2010Prop45
280
     0
102
RTVSPost2010PropOp45
 70
     1
102
RTVSPost2010Prop46
 90
       50
102
RTVSPost2010PropOp46
 70
     1
102
RTVSPost2010Prop47
 90
       50
102
RTVSPost2010PropOp47
 70
     1
102
RTVSPost2010Prop48
 90
       50
102
RTVSPost2010PropOp48
 70
     1
102
RTVSPost2010Prop49
280
     0
102
RTVSPost2010PropOp49
 70
     1
102
RTVSPost2010Prop50
 90
       50
102
RTVSPost2010PropOp50
 70
     1
102
RTVSPost2010Prop51ColorIndex
 90
      256
102
RTVSPost2010Prop51ColorRGB
 90
-16777216
102
RTVSPost2010PropOp51
 70
     0
102
RTVSPost2010Prop52
140
1.0
102
RTVSPost2010PropOp52
 70
     0
102
RTVSPost2010Prop53
 90
        2
102
RTVSPost2010PropOp53
 70
     1
102
RTVSPost2010Prop54
  1
strokes_ogs.tif
102
RTVSPost2010PropOp54
 70
     1
102
RTVSPost2010Prop55
280
     0
102
RTVSPost2010PropOp55
 70
     1
102
RTVSPost2010Prop56
140
1.0
102
RTVSPost2010PropOp56
 70
     1
102
RTVSPost2010Prop57
140
1.0
102
RTVSPost2010PropOp57
 70
     1
102
RTVSPropertyOp0
 70
     1
102
RTVSPropertyOp1
 70
     1
102
RTVSPropertyOp2
 70
     1
102
RTVSPropertyOp3
 70
     1
102
RTVSPropertyOp4
 70
     1
102
RTVSPropertyOp5
 70
     1
102
RTVSPropertyOp6
 70
     1
102
RTVSPropertyOp7
 70
     1
102
RTVSPropertyOp8
 70
     1
102
RTVSPropertyOp9
 70
     1
102
RTVSPropertyOp10
 70
     1
102
RTVSPropertyOp11
 70
     1
102
RTVSPropertyOp12
 70
     1
102
RTVSPropertyOp13
 70
     1
102
RTVSPropertyOp14
 70
     1
102
RTVSPropertyOp15
 70
     1
102
RTVSPropertyOp16
 70
     1
102
RTVSPropertyOp17
 70
     1
102
RTVSPropertyOp18
 70
     1
102
RTVSPropertyOp19
 70
     1
102
RTVSPropertyOp20
 70
     1
102
RTVSPropertyOp21
 70
     1
102
RTVSPropertyOp22
 70
     1
102
RTVSPropertyOp23
 70
     1
102
RTVSPropertyOp24
 70
     1
102
RTVSPropertyOp25
 70
     1
102
RTVSPropertyOp26
 70
     1
102
RTVSPropertyOp27
 70
     1
102
RTVSPropertyOp28
 70
     1
102
RTVSPropertyOp29
 70
     1
102
RTVSPropertyOp30
 70
     1
102
RTVSPropertyOp31
 70
     1
102
RTVSPropertyOp32
 70
     1
102
RTVSPropertyOp33
 70
     1
102
RTVSPropertyOp34
 70
     1
102
RTVSPropertyOp35
 70
     1
102
RTVSPropertyOp36
 70
     1
102
RTVSPropertyOp37
 70
     1
102
RTVSPropertyOp38
 70
     1
102
RTVSPropertyOp39
 70
     1
102
RTVSPropertyOp40
 70
     1
102
RTVSPropertyOp41
 70
     1
102
RTVSPropertyOp42
 70
     1
102
RTVSPropertyOp43
 70
     1
102
RTVSPropertyOp44
 70
     1
102
RTVSPropertyOp45
 70
     1
102
RTVSPropertyOp46
 70
     1
102
RTVSPropertyOp47
 70
     1
102
RTVSPropertyOp48
 70
     1
102
RTVSPropertyOp49
 70
     1
102
RTVSPropertyOp50
 70
     1
102
RTVSPropertyOp51
 70
     0
102
RTVSPropertyOp52
 70
     0
102
RTVSPropertyOp53
 70
     1
102
RTVSPropertyOp54
 70
     1
102
RTVSPropertyOp55
 70
     1
102
RTVSPropertyOp56
 70
     1
102
RTVSPropertyOp57
 70
     1
102
RTVSPropertyOp58
 70
     1
102
RTVSPropertyOp59
 70
     1
102
RTVSPropertyOp60
 70
     1
102
RTVSPropertyOp61
 70
     1
102
RTVSPropertyOp62
 70
     1
  0
XRECORD
  5
3A8
102
{ACAD_REACTORS
330
3A7
102
}
330
3A7
100
AcDbXrecord
280
     1
102
RTVSPost2010Prop28
280
     0
102
RTVSPost2010PropOp28
 70
     1
102
RTVSPost2010Prop29
280
     1
102
RTVSPost2010PropOp29
 70
     1
102
RTVSPost2010Prop30
280
     1
102
RTVSPost2010PropOp30
 70
     1
102
RTVSPost2010Prop31
280
     0
102
RTVSPost2010PropOp31
 70
     1
102
RTVSPost2010Prop32
280
     0
102
RTVSPost2010PropOp32
 70
     1
102
RTVSPost2010Prop33
280
     0
102
RTVSPost2010PropOp33
 70
     1
102
RTVSPost2010Prop34
280
     0
102
RTVSPost2010PropOp34
 70
     1
102
RTVSPost2010Prop35
280
     0
102
RTVSPost2010PropOp35
 70
     1
102
RTVSPost2010Prop36
280
     0
102
RTVSPost2010PropOp36
 70
     1
102
RTVSPost2010Prop37
 90
       50
102
RTVSPost2010PropOp37
 70
     1
102
RTVSPost2010Prop38
140
0.0
102
RTVSPost2010PropOp38
 70
     1
102
RTVSPost2010Prop39
140
1.0
102
RTVSPost2010PropOp39
 70
     1
102
RTVSPost2010Prop40
 90
        0
102
RTVSPost2010PropOp40
 70
     1
102
RTVSPost2010Prop41ColorIndex
 90
       18
102
RTVSPost2010Prop41ColorRGB
 90
        0
102
RTVSPost2010PropOp41
 70
     1
102
RTVSPost2010Prop42
 90
       50
102
RTVSPost2010PropOp42
 70
     1
102
RTVSPost2010Prop43
 90
        3
102
RTVSPost2010PropOp43
 70
     1
102
RTVSPost2010Prop44ColorIndex
 90
        5
102
RTVSPost2010Prop44ColorRGB
 90
      255
102
RTVSPost2010PropOp44
 70
     1
102
RTVSPost2010Prop45
280
     0
102
RTVSPost2010PropOp45
 70
     1
102
RTVSPost2010Prop46
 90
       50
102
RTVSPost2010PropOp46
 70
     1
102
RTVSPost2010Prop47
 90
       50
102
RTVSPost2010PropOp47
 70
     1
102
RTVSPost2010Prop48
 90
       50
102
RTVSPost2010PropOp48
 70
     1
102
RTVSPost2010Prop49
280
     0
102
RTVSPost2010PropOp49
 70
     1
102
RTVSPost2010Prop50
 90
       50
102
RTVSPost2010PropOp50
 70
     1
102
RTVSPost2010Prop51ColorIndex
 90
      256
102
RTVSPost2010Prop51ColorRGB
 90
-16777216
102
RTVSPost2010PropOp51
 70
     0
102
RTVSPost2010Prop52
140
1.0
102
RTVSPost2010PropOp52
 70
     0
102
RTVSPost2010Prop53
 90
        2
102
RTVSPost2010PropOp53
 70
     1
102
RTVSPost2010Prop54
  1
strokes_ogs.tif
102
RTVSPost2010PropOp54
 70
     1
102
RTVSPost2010Prop55
280
     0
102
RTVSPost2010PropOp55
 70
     1
102
RTVSPost2010Prop56
140
1.0
102
RTVSPost2010PropOp56
 70
     1
102
RTVSPost2010Prop57
140
1.0
102
RTVSPost2010PropOp57
 70
     1
102
RTVSPropertyOp0
 70
     1
102
RTVSPropertyOp1
 70
     1
102
RTVSPropertyOp2
 70
     1
102
RTVSPropertyOp3
 70
     1
102
RTVSPropertyOp4
 70
     1
102
RTVSPropertyOp5
 70
     1
102
RTVSPropertyOp6
 70
     1
102
RTVSPropertyOp7
 70
     1
102
RTVSPropertyOp8
 70
     1
102
RTVSPropertyOp9
 70
     1
102
RTVSPropertyOp10
 70
     1
102
RTVSPropertyOp11
 70
     1
102
RTVSPropertyOp12
 70
     1
102
RTVSPropertyOp13
 70
     1
102
RTVSPropertyOp14
 70
     1
102
RTVSPropertyOp15
 70
     1
102
RTVSPropertyOp16
 70
     1
102
RTVSPropertyOp17
 70
     1
102
RTVSPropertyOp18
 70
     1
102
RTVSPropertyOp19
 70
     1
102
RTVSPropertyOp20
 70
     1
102
RTVSPropertyOp21
 70
     1
102
RTVSPropertyOp22
 70
     1
102
RTVSPropertyOp23
 70
     1
102
RTVSPropertyOp24
 70
     1
102
RTVSPropertyOp25
 70
     1
102
RTVSPropertyOp26
 70
     1
102
RTVSPropertyOp27
 70
     1
102
RTVSPropertyOp28
 70
     1
102
RTVSPropertyOp29
 70
     1
102
RTVSPropertyOp30
 70
     1
102
RTVSPropertyOp31
 70
     1
102
RTVSPropertyOp32
 70
     1
102
RTVSPropertyOp33
 70
     1
102
RTVSPropertyOp34
 70
     1
102
RTVSPropertyOp35
 70
     1
102
RTVSPropertyOp36
 70
     1
102
RTVSPropertyOp37
 70
     1
102
RTVSPropertyOp38
 70
     1
102
RTVSPropertyOp39
 70
     1
102
RTVSPropertyOp40
 70
     1
102
RTVSPropertyOp41
 70
     1
102
RTVSPropertyOp42
 70
     1
102
RTVSPropertyOp43
 70
     1
102
RTVSPropertyOp44
 70
     1
102
RTVSPropertyOp45
 70
     1
102
RTVSPropertyOp46
 70
     1
102
RTVSPropertyOp47
 70
     1
102
RTVSPropertyOp48
 70
     1
102
RTVSPropertyOp49
 70
     1
102
RTVSPropertyOp50
 70
     1
102
RTVSPropertyOp51
 70
     0
102
RTVSPropertyOp52
 70
     0
102
RTVSPropertyOp53
 70
     1
102
RTVSPropertyOp54
 70
     1
102
RTVSPropertyOp55
 70
     1
102
RTVSPropertyOp56
 70
     1
102
RTVSPropertyOp57
 70
     1
102
RTVSPropertyOp58
 70
     1
102
RTVSPropertyOp59
 70
     1
102
RTVSPropertyOp60
 70
     1
102
RTVSPropertyOp61
 70
     1
102
RTVSPropertyOp62
 70
     1
  0
XRECORD
  5
3AA
102
{ACAD_REACTORS
330
3A9
102
}
330
3A9
100
AcDbXrecord
280
     1
102
RTVSPost2010Prop28
280
     0
102
RTVSPost2010PropOp28
 70
     1
102
RTVSPost2010Prop29
280
     1
102
RTVSPost2010PropOp29
 70
     1
102
RTVSPost2010Prop30
280
     1
102
RTVSPost2010PropOp30
 70
     1
102
RTVSPost2010Prop31
280
     0
102
RTVSPost2010PropOp31
 70
     1
102
RTVSPost2010Prop32
280
     0
102
RTVSPost2010PropOp32
 70
     1
102
RTVSPost2010Prop33
280
     0
102
RTVSPost2010PropOp33
 70
     1
102
RTVSPost2010Prop34
280
     0
102
RTVSPost2010PropOp34
 70
     1
102
RTVSPost2010Prop35
280
     0
102
RTVSPost2010PropOp35
 70
     1
102
RTVSPost2010Prop36
280
     0
102
RTVSPost2010PropOp36
 70
     1
102
RTVSPost2010Prop37
 90
       50
102
RTVSPost2010PropOp37
 70
     1
102
RTVSPost2010Prop38
140
0.0
102
RTVSPost2010PropOp38
 70
     1
102
RTVSPost2010Prop39
140
1.0
102
RTVSPost2010PropOp39
 70
     1
102
RTVSPost2010Prop40
 90
        0
102
RTVSPost2010PropOp40
 70
     1
102
RTVSPost2010Prop41ColorIndex
 90
       18
102
RTVSPost2010Prop41ColorRGB
 90
        0
102
RTVSPost2010PropOp41
 70
     1
102
RTVSPost2010Prop42
 90
       50
102
RTVSPost2010PropOp42
 70
     1
102
RTVSPost2010Prop43
 90
        3
102
RTVSPost2010PropOp43
 70
     1
102
RTVSPost2010Prop44ColorIndex
 90
        5
102
RTVSPost2010Prop44ColorRGB
 90
      255
102
RTVSPost2010PropOp44
 70
     1
102
RTVSPost2010Prop45
280
     0
102
RTVSPost2010PropOp45
 70
     1
102
RTVSPost2010Prop46
 90
       50
102
RTVSPost2010PropOp46
 70
     1
102
RTVSPost2010Prop47
 90
       50
102
RTVSPost2010PropOp47
 70
     1
102
RTVSPost2010Prop48
 90
       50
102
RTVSPost2010PropOp48
 70
     1
102
RTVSPost2010Prop49
280
     0
102
RTVSPost2010PropOp49
 70
     1
102
RTVSPost2010Prop50
 90
       50
102
RTVSPost2010PropOp50
 70
     1
102
RTVSPost2010Prop51ColorIndex
 90
      256
102
RTVSPost2010Prop51ColorRGB
 90
-16777216
102
RTVSPost2010PropOp51
 70
     0
102
RTVSPost2010Prop52
140
1.0
102
RTVSPost2010PropOp52
 70
     0
102
RTVSPost2010Prop53
 90
        2
102
RTVSPost2010PropOp53
 70
     1
102
RTVSPost2010Prop54
  1
strokes_ogs.tif
102
RTVSPost2010PropOp54
 70
     1
102
RTVSPost2010Prop55
280
     0
102
RTVSPost2010PropOp55
 70
     1
102
RTVSPost2010Prop56
140
1.0
102
RTVSPost2010PropOp56
 70
     1
102
RTVSPost2010Prop57
140
1.0
102
RTVSPost2010PropOp57
 70
     1
102
RTVSPropertyOp0
 70
     1
102
RTVSPropertyOp1
 70
     1
102
RTVSPropertyOp2
 70
     1
102
RTVSPropertyOp3
 70
     1
102
RTVSPropertyOp4
 70
     1
102
RTVSPropertyOp5
 70
     1
102
RTVSPropertyOp6
 70
     1
102
RTVSPropertyOp7
 70
     1
102
RTVSPropertyOp8
 70
     1
102
RTVSPropertyOp9
 70
     1
102
RTVSPropertyOp10
 70
     1
102
RTVSPropertyOp11
 70
     1
102
RTVSPropertyOp12
 70
     1
102
RTVSPropertyOp13
 70
     1
102
RTVSPropertyOp14
 70
     1
102
RTVSPropertyOp15
 70
     1
102
RTVSPropertyOp16
 70
     1
102
RTVSPropertyOp17
 70
     1
102
RTVSPropertyOp18
 70
     1
102
RTVSPropertyOp19
 70
     1
102
RTVSPropertyOp20
 70
     1
102
RTVSPropertyOp21
 70
     1
102
RTVSPropertyOp22
 70
     1
102
RTVSPropertyOp23
 70
     1
102
RTVSPropertyOp24
 70
     1
102
RTVSPropertyOp25
 70
     1
102
RTVSPropertyOp26
 70
     1
102
RTVSPropertyOp27
 70
     1
102
RTVSPropertyOp28
 70
     1
102
RTVSPropertyOp29
 70
     1
102
RTVSPropertyOp30
 70
     1
102
RTVSPropertyOp31
 70
     1
102
RTVSPropertyOp32
 70
     1
102
RTVSPropertyOp33
 70
     1
102
RTVSPropertyOp34
 70
     1
102
RTVSPropertyOp35
 70
     1
102
RTVSPropertyOp36
 70
     1
102
RTVSPropertyOp37
 70
     1
102
RTVSPropertyOp38
 70
     1
102
RTVSPropertyOp39
 70
     1
102
RTVSPropertyOp40
 70
     1
102
RTVSPropertyOp41
 70
     1
102
RTVSPropertyOp42
 70
     1
102
RTVSPropertyOp43
 70
     1
102
RTVSPropertyOp44
 70
     1
102
RTVSPropertyOp45
 70
     1
102
RTVSPropertyOp46
 70
     1
102
RTVSPropertyOp47
 70
     1
102
RTVSPropertyOp48
 70
     1
102
RTVSPropertyOp49
 70
     1
102
RTVSPropertyOp50
 70
     1
102
RTVSPropertyOp51
 70
     0
102
RTVSPropertyOp52
 70
     0
102
RTVSPropertyOp53
 70
     1
102
RTVSPropertyOp54
 70
     1
102
RTVSPropertyOp55
 70
     1
102
RTVSPropertyOp56
 70
     1
102
RTVSPropertyOp57
 70
     1
102
RTVSPropertyOp58
 70
     1
102
RTVSPropertyOp59
 70
     1
102
RTVSPropertyOp60
 70
     1
102
RTVSPropertyOp61
 70
     1
102
RTVSPropertyOp62
 70
     1
  0
XRECORD
  5
3AC
102
{ACAD_REACTORS
330
3AB
102
}
330
3AB
100
AcDbXrecord
280
     1
102
RTVSPost2010Prop28
280
     0
102
RTVSPost2010PropOp28
 70
     1
102
RTVSPost2010Prop29
280
     1
102
RTVSPost2010PropOp29
 70
     1
102
RTVSPost2010Prop30
280
     1
102
RTVSPost2010PropOp30
 70
     1
102
RTVSPost2010Prop31
280
     0
102
RTVSPost2010PropOp31
 70
     1
102
RTVSPost2010Prop32
280
     0
102
RTVSPost2010PropOp32
 70
     1
102
RTVSPost2010Prop33
280
     0
102
RTVSPost2010PropOp33
 70
     1
102
RTVSPost2010Prop34
280
     0
102
RTVSPost2010PropOp34
 70
     1
102
RTVSPost2010Prop35
280
     0
102
RTVSPost2010PropOp35
 70
     1
102
RTVSPost2010Prop36
280
     0
102
RTVSPost2010PropOp36
 70
     1
102
RTVSPost2010Prop37
 90
       50
102
RTVSPost2010PropOp37
 70
     1
102
RTVSPost2010Prop38
140
0.0
102
RTVSPost2010PropOp38
 70
     1
102
RTVSPost2010Prop39
140
1.0
102
RTVSPost2010PropOp39
 70
     1
102
RTVSPost2010Prop40
 90
        0
102
RTVSPost2010PropOp40
 70
     1
102
RTVSPost2010Prop41ColorIndex
 90
       18
102
RTVSPost2010Prop41ColorRGB
 90
        0
102
RTVSPost2010PropOp41
 70
     1
102
RTVSPost2010Prop42
 90
       50
102
RTVSPost2010PropOp42
 70
     1
102
RTVSPost2010Prop43
 90
        3
102
RTVSPost2010PropOp43
 70
     1
102
RTVSPost2010Prop44ColorIndex
 90
        5
102
RTVSPost2010Prop44ColorRGB
 90
      255
102
RTVSPost2010PropOp44
 70
     1
102
RTVSPost2010Prop45
280
     0
102
RTVSPost2010PropOp45
 70
     1
102
RTVSPost2010Prop46
 90
       50
102
RTVSPost2010PropOp46
 70
     1
102
RTVSPost2010Prop47
 90
       50
102
RTVSPost2010PropOp47
 70
     1
102
RTVSPost2010Prop48
 90
       50
102
RTVSPost2010PropOp48
 70
     1
102
RTVSPost2010Prop49
280
     0
102
RTVSPost2010PropOp49
 70
     1
102
RTVSPost2010Prop50
 90
       50
102
RTVSPost2010PropOp50
 70
     1
102
RTVSPost2010Prop51ColorIndex
 90
      256
102
RTVSPost2010Prop51ColorRGB
 90
-16777216
102
RTVSPost2010PropOp51
 70
     0
102
RTVSPost2010Prop52
140
1.0
102
RTVSPost2010PropOp52
 70
     0
102
RTVSPost2010Prop53
 90
        2
102
RTVSPost2010PropOp53
 70
     1
102
RTVSPost2010Prop54
  1
strokes_ogs.tif
102
RTVSPost2010PropOp54
 70
     1
102
RTVSPost2010Prop55
280
     0
102
RTVSPost2010PropOp55
 70
     1
102
RTVSPost2010Prop56
140
1.0
102
RTVSPost2010PropOp56
 70
     1
102
RTVSPost2010Prop57
140
1.0
102
RTVSPost2010PropOp57
 70
     1
102
RTVSPropertyOp0
 70
     1
102
RTVSPropertyOp1
 70
     1
102
RTVSPropertyOp2
 70
     1
102
RTVSPropertyOp3
 70
     1
102
RTVSPropertyOp4
 70
     1
102
RTVSPropertyOp5
 70
     1
102
RTVSPropertyOp6
 70
     1
102
RTVSPropertyOp7
 70
     1
102
RTVSPropertyOp8
 70
     1
102
RTVSPropertyOp9
 70
     1
102
RTVSPropertyOp10
 70
     1
102
RTVSPropertyOp11
 70
     1
102
RTVSPropertyOp12
 70
     1
102
RTVSPropertyOp13
 70
     1
102
RTVSPropertyOp14
 70
     1
102
RTVSPropertyOp15
 70
     1
102
RTVSPropertyOp16
 70
     1
102
RTVSPropertyOp17
 70
     1
102
RTVSPropertyOp18
 70
     1
102
RTVSPropertyOp19
 70
     1
102
RTVSPropertyOp20
 70
     1
102
RTVSPropertyOp21
 70
     1
102
RTVSPropertyOp22
 70
     1
102
RTVSPropertyOp23
 70
     1
102
RTVSPropertyOp24
 70
     1
102
RTVSPropertyOp25
 70
     1
102
RTVSPropertyOp26
 70
     1
102
RTVSPropertyOp27
 70
     1
102
RTVSPropertyOp28
 70
     1
102
RTVSPropertyOp29
 70
     1
102
RTVSPropertyOp30
 70
     1
102
RTVSPropertyOp31
 70
     1
102
RTVSPropertyOp32
 70
     1
102
RTVSPropertyOp33
 70
     1
102
RTVSPropertyOp34
 70
     1
102
RTVSPropertyOp35
 70
     1
102
RTVSPropertyOp36
 70
     1
102
RTVSPropertyOp37
 70
     1
102
RTVSPropertyOp38
 70
     1
102
RTVSPropertyOp39
 70
     1
102
RTVSPropertyOp40
 70
     1
102
RTVSPropertyOp41
 70
     1
102
RTVSPropertyOp42
 70
     1
102
RTVSPropertyOp43
 70
     1
102
RTVSPropertyOp44
 70
     1
102
RTVSPropertyOp45
 70
     1
102
RTVSPropertyOp46
 70
     1
102
RTVSPropertyOp47
 70
     1
102
RTVSPropertyOp48
 70
     1
102
RTVSPropertyOp49
 70
     1
102
RTVSPropertyOp50
 70
     1
102
RTVSPropertyOp51
 70
     0
102
RTVSPropertyOp52
 70
     0
102
RTVSPropertyOp53
 70
     1
102
RTVSPropertyOp54
 70
     1
102
RTVSPropertyOp55
 70
     1
102
RTVSPropertyOp56
 70
     1
102
RTVSPropertyOp57
 70
     1
102
RTVSPropertyOp58
 70
     1
102
RTVSPropertyOp59
 70
     1
102
RTVSPropertyOp60
 70
     1
102
RTVSPropertyOp61
 70
     1
102
RTVSPropertyOp62
 70
     1
  0
XRECORD
  5
3B2
102
{ACAD_REACTORS
330
3B1
102
}
330
3B1
100
AcDbXrecord
280
     1
102
RTVSPost2010Prop28
280
     0
102
RTVSPost2010PropOp28
 70
     1
102
RTVSPost2010Prop29
280
     1
102
RTVSPost2010PropOp29
 70
     1
102
RTVSPost2010Prop30
280
     1
102
RTVSPost2010PropOp30
 70
     1
102
RTVSPost2010Prop31
280
     0
102
RTVSPost2010PropOp31
 70
     1
102
RTVSPost2010Prop32
280
     0
102
RTVSPost2010PropOp32
 70
     1
102
RTVSPost2010Prop33
280
     0
102
RTVSPost2010PropOp33
 70
     1
102
RTVSPost2010Prop34
280
     0
102
RTVSPost2010PropOp34
 70
     1
102
RTVSPost2010Prop35
280
     0
102
RTVSPost2010PropOp35
 70
     1
102
RTVSPost2010Prop36
280
     0
102
RTVSPost2010PropOp36
 70
     1
102
RTVSPost2010Prop37
 90
       50
102
RTVSPost2010PropOp37
 70
     1
102
RTVSPost2010Prop38
140
0.0
102
RTVSPost2010PropOp38
 70
     1
102
RTVSPost2010Prop39
140
1.0
102
RTVSPost2010PropOp39
 70
     1
102
RTVSPost2010Prop40
 90
        0
102
RTVSPost2010PropOp40
 70
     1
102
RTVSPost2010Prop41ColorIndex
 90
       18
102
RTVSPost2010Prop41ColorRGB
 90
        0
102
RTVSPost2010PropOp41
 70
     1
102
RTVSPost2010Prop42
 90
       50
102
RTVSPost2010PropOp42
 70
     1
102
RTVSPost2010Prop43
 90
        3
102
RTVSPost2010PropOp43
 70
     1
102
RTVSPost2010Prop44ColorIndex
 90
        5
102
RTVSPost2010Prop44ColorRGB
 90
      255
102
RTVSPost2010PropOp44
 70
     1
102
RTVSPost2010Prop45
280
     0
102
RTVSPost2010PropOp45
 70
     1
102
RTVSPost2010Prop46
 90
       50
102
RTVSPost2010PropOp46
 70
     1
102
RTVSPost2010Prop47
 90
       50
102
RTVSPost2010PropOp47
 70
     1
102
RTVSPost2010Prop48
 90
       50
102
RTVSPost2010PropOp48
 70
     1
102
RTVSPost2010Prop49
280
     0
102
RTVSPost2010PropOp49
 70
     1
102
RTVSPost2010Prop50
 90
       50
102
RTVSPost2010PropOp50
 70
     1
102
RTVSPost2010Prop51ColorIndex
 90
      256
102
RTVSPost2010Prop51ColorRGB
 90
-16777216
102
RTVSPost2010PropOp51
 70
     0
102
RTVSPost2010Prop52
140
1.0
102
RTVSPost2010PropOp52
 70
     0
102
RTVSPost2010Prop53
 90
        2
102
RTVSPost2010PropOp53
 70
     1
102
RTVSPost2010Prop54
  1
strokes_ogs.tif
102
RTVSPost2010PropOp54
 70
     1
102
RTVSPost2010Prop55
280
     0
102
RTVSPost2010PropOp55
 70
     1
102
RTVSPost2010Prop56
140
1.0
102
RTVSPost2010PropOp56
 70
     1
102
RTVSPost2010Prop57
140
1.0
102
RTVSPost2010PropOp57
 70
     1
102
RTVSPropertyOp0
 70
     1
102
RTVSPropertyOp1
 70
     1
102
RTVSPropertyOp2
 70
     1
102
RTVSPropertyOp3
 70
     1
102
RTVSPropertyOp4
 70
     1
102
RTVSPropertyOp5
 70
     1
102
RTVSPropertyOp6
 70
     1
102
RTVSPropertyOp7
 70
     1
102
RTVSPropertyOp8
 70
     1
102
RTVSPropertyOp9
 70
     1
102
RTVSPropertyOp10
 70
     1
102
RTVSPropertyOp11
 70
     1
102
RTVSPropertyOp12
 70
     1
102
RTVSPropertyOp13
 70
     1
102
RTVSPropertyOp14
 70
     1
102
RTVSPropertyOp15
 70
     1
102
RTVSPropertyOp16
 70
     1
102
RTVSPropertyOp17
 70
     1
102
RTVSPropertyOp18
 70
     1
102
RTVSPropertyOp19
 70
     1
102
RTVSPropertyOp20
 70
     1
102
RTVSPropertyOp21
 70
     1
102
RTVSPropertyOp22
 70
     1
102
RTVSPropertyOp23
 70
     1
102
RTVSPropertyOp24
 70
     1
102
RTVSPropertyOp25
 70
     1
102
RTVSPropertyOp26
 70
     1
102
RTVSPropertyOp27
 70
     1
102
RTVSPropertyOp28
 70
     1
102
RTVSPropertyOp29
 70
     1
102
RTVSPropertyOp30
 70
     1
102
RTVSPropertyOp31
 70
     1
102
RTVSPropertyOp32
 70
     1
102
RTVSPropertyOp33
 70
     1
102
RTVSPropertyOp34
 70
     1
102
RTVSPropertyOp35
 70
     1
102
RTVSPropertyOp36
 70
     1
102
RTVSPropertyOp37
 70
     1
102
RTVSPropertyOp38
 70
     1
102
RTVSPropertyOp39
 70
     1
102
RTVSPropertyOp40
 70
     1
102
RTVSPropertyOp41
 70
     1
102
RTVSPropertyOp42
 70
     1
102
RTVSPropertyOp43
 70
     1
102
RTVSPropertyOp44
 70
     1
102
RTVSPropertyOp45
 70
     1
102
RTVSPropertyOp46
 70
     1
102
RTVSPropertyOp47
 70
     1
102
RTVSPropertyOp48
 70
     1
102
RTVSPropertyOp49
 70
     1
102
RTVSPropertyOp50
 70
     1
102
RTVSPropertyOp51
 70
     0
102
RTVSPropertyOp52
 70
     0
102
RTVSPropertyOp53
 70
     1
102
RTVSPropertyOp54
 70
     1
102
RTVSPropertyOp55
 70
     1
102
RTVSPropertyOp56
 70
     1
102
RTVSPropertyOp57
 70
     1
102
RTVSPropertyOp58
 70
     1
102
RTVSPropertyOp59
 70
     1
102
RTVSPropertyOp60
 70
     1
102
RTVSPropertyOp61
 70
     1
102
RTVSPropertyOp62
 70
     1
  0
XRECORD
  5
3C6
102
{ACAD_REACTORS
330
3C5
102
}
330
3C5
100
AcDbXrecord
280
     1
102
RTVSPost2010Prop28
280
     0
102
RTVSPost2010PropOp28
 70
     0
102
RTVSPost2010Prop29
280
     1
102
RTVSPost2010PropOp29
 70
     0
102
RTVSPost2010Prop30
280
     1
102
RTVSPost2010PropOp30
 70
     0
102
RTVSPost2010Prop31
280
     0
102
RTVSPost2010PropOp31
 70
     0
102
RTVSPost2010Prop32
280
     0
102
RTVSPost2010PropOp32
 70
     0
102
RTVSPost2010Prop33
280
     0
102
RTVSPost2010PropOp33
 70
     0
102
RTVSPost2010Prop34
280
     0
102
RTVSPost2010PropOp34
 70
     0
102
RTVSPost2010Prop35
280
     0
102
RTVSPost2010PropOp35
 70
     0
102
RTVSPost2010Prop36
280
     0
102
RTVSPost2010PropOp36
 70
     0
102
RTVSPost2010Prop37
 90
       50
102
RTVSPost2010PropOp37
 70
     0
102
RTVSPost2010Prop38
140
0.0
102
RTVSPost2010PropOp38
 70
     0
102
RTVSPost2010Prop39
140
1.0
102
RTVSPost2010PropOp39
 70
     0
102
RTVSPost2010Prop40
 90
        0
102
RTVSPost2010PropOp40
 70
     0
102
RTVSPost2010Prop41ColorIndex
 90
       18
102
RTVSPost2010Prop41ColorRGB
 90
        0
102
RTVSPost2010PropOp41
 70
     0
102
RTVSPost2010Prop42
 90
       50
102
RTVSPost2010PropOp42
 70
     0
102
RTVSPost2010Prop43
 90
        3
102
RTVSPost2010PropOp43
 70
     0
102
RTVSPost2010Prop44ColorIndex
 90
        5
102
RTVSPost2010Prop44ColorRGB
 90
      255
102
RTVSPost2010PropOp44
 70
     0
102
RTVSPost2010Prop45
280
     0
102
RTVSPost2010PropOp45
 70
     0
102
RTVSPost2010Prop46
 90
       50
102
RTVSPost2010PropOp46
 70
     0
102
RTVSPost2010Prop47
 90
       50
102
RTVSPost2010PropOp47
 70
     0
102
RTVSPost2010Prop48
 90
       50
102
RTVSPost2010PropOp48
 70
     0
102
RTVSPost2010Prop49
280
     0
102
RTVSPost2010PropOp49
 70
     0
102
RTVSPost2010Prop50
 90
       50
102
RTVSPost2010PropOp50
 70
     0
102
RTVSPost2010Prop51ColorIndex
 90
      256
102
RTVSPost2010Prop51ColorRGB
 90
-16777216
102
RTVSPost2010PropOp51
 70
     0
102
RTVSPost2010Prop52
140
1.0
102
RTVSPost2010PropOp52
 70
     0
102
RTVSPost2010Prop53
 90
        2
102
RTVSPost2010PropOp53
 70
     0
102
RTVSPost2010Prop54
  1
strokes_ogs.tif
102
RTVSPost2010PropOp54
 70
     0
102
RTVSPost2010Prop55
280
     0
102
RTVSPost2010PropOp55
 70
     0
102
RTVSPost2010Prop56
140
1.0
102
RTVSPost2010PropOp56
 70
     0
102
RTVSPost2010Prop57
140
1.0
102
RTVSPost2010PropOp57
 70
     0
102
RTVSPropertyOp0
 70
     0
102
RTVSPropertyOp1
 70
     0
102
RTVSPropertyOp2
 70
     0
102
RTVSPropertyOp3
 70
     0
102
RTVSPropertyOp4
 70
     0
102
RTVSPropertyOp5
 70
     0
102
RTVSPropertyOp6
 70
     0
102
RTVSPropertyOp7
 70
     0
102
RTVSPropertyOp8
 70
     0
102
RTVSPropertyOp9
 70
     0
102
RTVSPropertyOp10
 70
     0
102
RTVSPropertyOp11
 70
     0
102
RTVSPropertyOp12
 70
     0
102
RTVSPropertyOp13
 70
     0
102
RTVSPropertyOp14
 70
     2
102
RTVSPropertyOp15
 70
     0
102
RTVSPropertyOp16
 70
     0
102
RTVSPropertyOp17
 70
     0
102
RTVSPropertyOp18
 70
     0
102
RTVSPropertyOp19
 70
     0
102
RTVSPropertyOp20
 70
     0
102
RTVSPropertyOp21
 70
     0
102
RTVSPropertyOp22
 70
     0
102
RTVSPropertyOp23
 70
     0
102
RTVSPropertyOp24
 70
     0
102
RTVSPropertyOp25
 70
     0
102
RTVSPropertyOp26
 70
     0
102
RTVSPropertyOp27
 70
     0
102
RTVSPropertyOp28
 70
     0
102
RTVSPropertyOp29
 70
     0
102
RTVSPropertyOp30
 70
     0
102
RTVSPropertyOp31
 70
     0
102
RTVSPropertyOp32
 70
     0
102
RTVSPropertyOp33
 70
     0
102
RTVSPropertyOp34
 70
     0
102
RTVSPropertyOp35
 70
     0
102
RTVSPropertyOp36
 70
     0
102
RTVSPropertyOp37
 70
     0
102
RTVSPropertyOp38
 70
     0
102
RTVSPropertyOp39
 70
     0
102
RTVSPropertyOp40
 70
     0
102
RTVSPropertyOp41
 70
     0
102
RTVSPropertyOp42
 70
     0
102
RTVSPropertyOp43
 70
     0
102
RTVSPropertyOp44
 70
     0
102
RTVSPropertyOp45
 70
     0
102
RTVSPropertyOp46
 70
     0
102
RTVSPropertyOp47
 70
     0
102
RTVSPropertyOp48
 70
     0
102
RTVSPropertyOp49
 70
     0
102
RTVSPropertyOp50
 70
     0
102
RTVSPropertyOp51
 70
     0
102
RTVSPropertyOp52
 70
     0
102
RTVSPropertyOp53
 70
     0
102
RTVSPropertyOp54
 70
     0
102
RTVSPropertyOp55
 70
     0
102
RTVSPropertyOp56
 70
     0
102
RTVSPropertyOp57
 70
     0
102
RTVSPropertyOp58
 70
     1
102
RTVSPropertyOp59
 70
     1
102
RTVSPropertyOp60
 70
     1
102
RTVSPropertyOp61
 70
     1
102
RTVSPropertyOp62
 70
     1
  0
XRECORD
  5
3C0
102
{ACAD_REACTORS
330
3BF
102
}
330
3BF
100
AcDbXrecord
280
     1
102
RTVSPost2010Prop28
280
     0
102
RTVSPost2010PropOp28
 70
     1
102
RTVSPost2010Prop29
280
     1
102
RTVSPost2010PropOp29
 70
     1
102
RTVSPost2010Prop30
280
     1
102
RTVSPost2010PropOp30
 70
     1
102
RTVSPost2010Prop31
280
     0
102
RTVSPost2010PropOp31
 70
     1
102
RTVSPost2010Prop32
280
     0
102
RTVSPost2010PropOp32
 70
     1
102
RTVSPost2010Prop33
280
     0
102
RTVSPost2010PropOp33
 70
     1
102
RTVSPost2010Prop34
280
     0
102
RTVSPost2010PropOp34
 70
     1
102
RTVSPost2010Prop35
280
     0
102
RTVSPost2010PropOp35
 70
     1
102
RTVSPost2010Prop36
280
     0
102
RTVSPost2010PropOp36
 70
     1
102
RTVSPost2010Prop37
 90
       50
102
RTVSPost2010PropOp37
 70
     1
102
RTVSPost2010Prop38
140
0.0
102
RTVSPost2010PropOp38
 70
     1
102
RTVSPost2010Prop39
140
1.0
102
RTVSPost2010PropOp39
 70
     1
102
RTVSPost2010Prop40
 90
        0
102
RTVSPost2010PropOp40
 70
     1
102
RTVSPost2010Prop41ColorIndex
 90
       18
102
RTVSPost2010Prop41ColorRGB
 90
        0
102
RTVSPost2010PropOp41
 70
     1
102
RTVSPost2010Prop42
 90
       50
102
RTVSPost2010PropOp42
 70
     1
102
RTVSPost2010Prop43
 90
        3
102
RTVSPost2010PropOp43
 70
     1
102
RTVSPost2010Prop44ColorIndex
 90
        5
102
RTVSPost2010Prop44ColorRGB
 90
      255
102
RTVSPost2010PropOp44
 70
     1
102
RTVSPost2010Prop45
280
     0
102
RTVSPost2010PropOp45
 70
     1
102
RTVSPost2010Prop46
 90
       50
102
RTVSPost2010PropOp46
 70
     1
102
RTVSPost2010Prop47
 90
       50
102
RTVSPost2010PropOp47
 70
     1
102
RTVSPost2010Prop48
 90
       50
102
RTVSPost2010PropOp48
 70
     1
102
RTVSPost2010Prop49
280
     0
102
RTVSPost2010PropOp49
 70
     1
102
RTVSPost2010Prop50
 90
       50
102
RTVSPost2010PropOp50
 70
     1
102
RTVSPost2010Prop51ColorIndex
 90
      256
102
RTVSPost2010Prop51ColorRGB
 90
-16777216
102
RTVSPost2010PropOp51
 70
     0
102
RTVSPost2010Prop52
140
1.0
102
RTVSPost2010PropOp52
 70
     0
102
RTVSPost2010Prop53
 90
        2
102
RTVSPost2010PropOp53
 70
     1
102
RTVSPost2010Prop54
  1
strokes_ogs.tif
102
RTVSPost2010PropOp54
 70
     1
102
RTVSPost2010Prop55
280
     0
102
RTVSPost2010PropOp55
 70
     1
102
RTVSPost2010Prop56
140
1.0
102
RTVSPost2010PropOp56
 70
     1
102
RTVSPost2010Prop57
140
1.0
102
RTVSPost2010PropOp57
 70
     1
102
RTVSPropertyOp0
 70
     1
102
RTVSPropertyOp1
 70
     1
102
RTVSPropertyOp2
 70
     1
102
RTVSPropertyOp3
 70
     1
102
RTVSPropertyOp4
 70
     1
102
RTVSPropertyOp5
 70
     1
102
RTVSPropertyOp6
 70
     1
102
RTVSPropertyOp7
 70
     1
102
RTVSPropertyOp8
 70
     1
102
RTVSPropertyOp9
 70
     1
102
RTVSPropertyOp10
 70
     1
102
RTVSPropertyOp11
 70
     1
102
RTVSPropertyOp12
 70
     1
102
RTVSPropertyOp13
 70
     1
102
RTVSPropertyOp14
 70
     1
102
RTVSPropertyOp15
 70
     1
102
RTVSPropertyOp16
 70
     1
102
RTVSPropertyOp17
 70
     1
102
RTVSPropertyOp18
 70
     1
102
RTVSPropertyOp19
 70
     1
102
RTVSPropertyOp20
 70
     1
102
RTVSPropertyOp21
 70
     1
102
RTVSPropertyOp22
 70
     1
102
RTVSPropertyOp23
 70
     1
102
RTVSPropertyOp24
 70
     1
102
RTVSPropertyOp25
 70
     1
102
RTVSPropertyOp26
 70
     1
102
RTVSPropertyOp27
 70
     1
102
RTVSPropertyOp28
 70
     1
102
RTVSPropertyOp29
 70
     1
102
RTVSPropertyOp30
 70
     1
102
RTVSPropertyOp31
 70
     1
102
RTVSPropertyOp32
 70
     1
102
RTVSPropertyOp33
 70
     1
102
RTVSPropertyOp34
 70
     1
102
RTVSPropertyOp35
 70
     1
102
RTVSPropertyOp36
 70
     1
102
RTVSPropertyOp37
 70
     1
102
RTVSPropertyOp38
 70
     1
102
RTVSPropertyOp39
 70
     1
102
RTVSPropertyOp40
 70
     1
102
RTVSPropertyOp41
 70
     1
102
RTVSPropertyOp42
 70
     1
102
RTVSPropertyOp43
 70
     1
102
RTVSPropertyOp44
 70
     1
102
RTVSPropertyOp45
 70
     1
102
RTVSPropertyOp46
 70
     1
102
RTVSPropertyOp47
 70
     1
102
RTVSPropertyOp48
 70
     1
102
RTVSPropertyOp49
 70
     1
102
RTVSPropertyOp50
 70
     1
102
RTVSPropertyOp51
 70
     0
102
RTVSPropertyOp52
 70
     0
102
RTVSPropertyOp53
 70
     1
102
RTVSPropertyOp54
 70
     1
102
RTVSPropertyOp55
 70
     1
102
RTVSPropertyOp56
 70
     1
102
RTVSPropertyOp57
 70
     1
102
RTVSPropertyOp58
 70
     1
102
RTVSPropertyOp59
 70
     1
102
RTVSPropertyOp60
 70
     1
102
RTVSPropertyOp61
 70
     1
102
RTVSPropertyOp62
 70
     1
  0
XRECORD
  5
3C8
102
{ACAD_REACTORS
330
3C7
102
}
330
3C7
100
AcDbXrecord
280
     1
102
RTVSPost2010Prop28
280
     0
102
RTVSPost2010PropOp28
 70
     0
102
RTVSPost2010Prop29
280
     1
102
RTVSPost2010PropOp29
 70
     0
102
RTVSPost2010Prop30
280
     1
102
RTVSPost2010PropOp30
 70
     0
102
RTVSPost2010Prop31
280
     0
102
RTVSPost2010PropOp31
 70
     0
102
RTVSPost2010Prop32
280
     0
102
RTVSPost2010PropOp32
 70
     0
102
RTVSPost2010Prop33
280
     0
102
RTVSPost2010PropOp33
 70
     0
102
RTVSPost2010Prop34
280
     0
102
RTVSPost2010PropOp34
 70
     0
102
RTVSPost2010Prop35
280
     0
102
RTVSPost2010PropOp35
 70
     0
102
RTVSPost2010Prop36
280
     0
102
RTVSPost2010PropOp36
 70
     0
102
RTVSPost2010Prop37
 90
       50
102
RTVSPost2010PropOp37
 70
     0
102
RTVSPost2010Prop38
140
0.0
102
RTVSPost2010PropOp38
 70
     0
102
RTVSPost2010Prop39
140
1.0
102
RTVSPost2010PropOp39
 70
     0
102
RTVSPost2010Prop40
 90
        0
102
RTVSPost2010PropOp40
 70
     0
102
RTVSPost2010Prop41ColorIndex
 90
       18
102
RTVSPost2010Prop41ColorRGB
 90
        0
102
RTVSPost2010PropOp41
 70
     0
102
RTVSPost2010Prop42
 90
       50
102
RTVSPost2010PropOp42
 70
     0
102
RTVSPost2010Prop43
 90
        3
102
RTVSPost2010PropOp43
 70
     0
102
RTVSPost2010Prop44ColorIndex
 90
        5
102
RTVSPost2010Prop44ColorRGB
 90
      255
102
RTVSPost2010PropOp44
 70
     0
102
RTVSPost2010Prop45
280
     0
102
RTVSPost2010PropOp45
 70
     0
102
RTVSPost2010Prop46
 90
       50
102
RTVSPost2010PropOp46
 70
     0
102
RTVSPost2010Prop47
 90
       50
102
RTVSPost2010PropOp47
 70
     0
102
RTVSPost2010Prop48
 90
       50
102
RTVSPost2010PropOp48
 70
     0
102
RTVSPost2010Prop49
280
     0
102
RTVSPost2010PropOp49
 70
     0
102
RTVSPost2010Prop50
 90
       50
102
RTVSPost2010PropOp50
 70
     0
102
RTVSPost2010Prop51ColorIndex
 90
      256
102
RTVSPost2010Prop51ColorRGB
 90
-16777216
102
RTVSPost2010PropOp51
 70
     0
102
RTVSPost2010Prop52
140
1.0
102
RTVSPost2010PropOp52
 70
     0
102
RTVSPost2010Prop53
 90
        2
102
RTVSPost2010PropOp53
 70
     0
102
RTVSPost2010Prop54
  1
strokes_ogs.tif
102
RTVSPost2010PropOp54
 70
     0
102
RTVSPost2010Prop55
280
     0
102
RTVSPost2010PropOp55
 70
     0
102
RTVSPost2010Prop56
140
1.0
102
RTVSPost2010PropOp56
 70
     0
102
RTVSPost2010Prop57
140
1.0
102
RTVSPost2010PropOp57
 70
     0
102
RTVSPropertyOp0
 70
     0
102
RTVSPropertyOp1
 70
     0
102
RTVSPropertyOp2
 70
     0
102
RTVSPropertyOp3
 70
     0
102
RTVSPropertyOp4
 70
     0
102
RTVSPropertyOp5
 70
     0
102
RTVSPropertyOp6
 70
     0
102
RTVSPropertyOp7
 70
     0
102
RTVSPropertyOp8
 70
     0
102
RTVSPropertyOp9
 70
     0
102
RTVSPropertyOp10
 70
     0
102
RTVSPropertyOp11
 70
     0
102
RTVSPropertyOp12
 70
     0
102
RTVSPropertyOp13
 70
     0
102
RTVSPropertyOp14
 70
     2
102
RTVSPropertyOp15
 70
     0
102
RTVSPropertyOp16
 70
     0
102
RTVSPropertyOp17
 70
     0
102
RTVSPropertyOp18
 70
     0
102
RTVSPropertyOp19
 70
     0
102
RTVSPropertyOp20
 70
     0
102
RTVSPropertyOp21
 70
     0
102
RTVSPropertyOp22
 70
     0
102
RTVSPropertyOp23
 70
     0
102
RTVSPropertyOp24
 70
     0
102
RTVSPropertyOp25
 70
     0
102
RTVSPropertyOp26
 70
     0
102
RTVSPropertyOp27
 70
     0
102
RTVSPropertyOp28
 70
     0
102
RTVSPropertyOp29
 70
     0
102
RTVSPropertyOp30
 70
     0
102
RTVSPropertyOp31
 70
     0
102
RTVSPropertyOp32
 70
     0
102
RTVSPropertyOp33
 70
     0
102
RTVSPropertyOp34
 70
     0
102
RTVSPropertyOp35
 70
     0
102
RTVSPropertyOp36
 70
     0
102
RTVSPropertyOp37
 70
     0
102
RTVSPropertyOp38
 70
     0
102
RTVSPropertyOp39
 70
     0
102
RTVSPropertyOp40
 70
     0
102
RTVSPropertyOp41
 70
     0
102
RTVSPropertyOp42
 70
     0
102
RTVSPropertyOp43
 70
     0
102
RTVSPropertyOp44
 70
     0
102
RTVSPropertyOp45
 70
     0
102
RTVSPropertyOp46
 70
     0
102
RTVSPropertyOp47
 70
     0
102
RTVSPropertyOp48
 70
     0
102
RTVSPropertyOp49
 70
     0
102
RTVSPropertyOp50
 70
     0
102
RTVSPropertyOp51
 70
     0
102
RTVSPropertyOp52
 70
     0
102
RTVSPropertyOp53
 70
     0
102
RTVSPropertyOp54
 70
     0
102
RTVSPropertyOp55
 70
     0
102
RTVSPropertyOp56
 70
     0
102
RTVSPropertyOp57
 70
     0
102
RTVSPropertyOp58
 70
     1
102
RTVSPropertyOp59
 70
     1
102
RTVSPropertyOp60
 70
     1
102
RTVSPropertyOp61
 70
     1
102
RTVSPropertyOp62
 70
     1
  0
XRECORD
  5
3B6
102
{ACAD_REACTORS
330
3B5
102
}
330
3B5
100
AcDbXrecord
280
     1
102
RTVSPost2010Prop28
280
     0
102
RTVSPost2010PropOp28
 70
     1
102
RTVSPost2010Prop29
280
     1
102
RTVSPost2010PropOp29
 70
     1
102
RTVSPost2010Prop30
280
     1
102
RTVSPost2010PropOp30
 70
     1
102
RTVSPost2010Prop31
280
     0
102
RTVSPost2010PropOp31
 70
     1
102
RTVSPost2010Prop32
280
     0
102
RTVSPost2010PropOp32
 70
     1
102
RTVSPost2010Prop33
280
     0
102
RTVSPost2010PropOp33
 70
     1
102
RTVSPost2010Prop34
280
     0
102
RTVSPost2010PropOp34
 70
     1
102
RTVSPost2010Prop35
280
     0
102
RTVSPost2010PropOp35
 70
     1
102
RTVSPost2010Prop36
280
     0
102
RTVSPost2010PropOp36
 70
     1
102
RTVSPost2010Prop37
 90
       50
102
RTVSPost2010PropOp37
 70
     1
102
RTVSPost2010Prop38
140
0.0
102
RTVSPost2010PropOp38
 70
     1
102
RTVSPost2010Prop39
140
1.0
102
RTVSPost2010PropOp39
 70
     1
102
RTVSPost2010Prop40
 90
        0
102
RTVSPost2010PropOp40
 70
     1
102
RTVSPost2010Prop41ColorIndex
 90
       18
102
RTVSPost2010Prop41ColorRGB
 90
        0
102
RTVSPost2010PropOp41
 70
     1
102
RTVSPost2010Prop42
 90
       50
102
RTVSPost2010PropOp42
 70
     1
102
RTVSPost2010Prop43
 90
        3
102
RTVSPost2010PropOp43
 70
     1
102
RTVSPost2010Prop44ColorIndex
 90
        5
102
RTVSPost2010Prop44ColorRGB
 90
      255
102
RTVSPost2010PropOp44
 70
     1
102
RTVSPost2010Prop45
280
     0
102
RTVSPost2010PropOp45
 70
     1
102
RTVSPost2010Prop46
 90
       50
102
RTVSPost2010PropOp46
 70
     1
102
RTVSPost2010Prop47
 90
       50
102
RTVSPost2010PropOp47
 70
     1
102
RTVSPost2010Prop48
 90
       50
102
RTVSPost2010PropOp48
 70
     1
102
RTVSPost2010Prop49
280
     0
102
RTVSPost2010PropOp49
 70
     1
102
RTVSPost2010Prop50
 90
       50
102
RTVSPost2010PropOp50
 70
     1
102
RTVSPost2010Prop51ColorIndex
 90
      256
102
RTVSPost2010Prop51ColorRGB
 90
-16777216
102
RTVSPost2010PropOp51
 70
     0
102
RTVSPost2010Prop52
140
1.0
102
RTVSPost2010PropOp52
 70
     0
102
RTVSPost2010Prop53
 90
        2
102
RTVSPost2010PropOp53
 70
     1
102
RTVSPost2010Prop54
  1
strokes_ogs.tif
102
RTVSPost2010PropOp54
 70
     1
102
RTVSPost2010Prop55
280
     0
102
RTVSPost2010PropOp55
 70
     1
102
RTVSPost2010Prop56
140
1.0
102
RTVSPost2010PropOp56
 70
     1
102
RTVSPost2010Prop57
140
1.0
102
RTVSPost2010PropOp57
 70
     1
102
RTVSPropertyOp0
 70
     1
102
RTVSPropertyOp1
 70
     1
102
RTVSPropertyOp2
 70
     1
102
RTVSPropertyOp3
 70
     1
102
RTVSPropertyOp4
 70
     1
102
RTVSPropertyOp5
 70
     1
102
RTVSPropertyOp6
 70
     1
102
RTVSPropertyOp7
 70
     1
102
RTVSPropertyOp8
 70
     1
102
RTVSPropertyOp9
 70
     1
102
RTVSPropertyOp10
 70
     1
102
RTVSPropertyOp11
 70
     1
102
RTVSPropertyOp12
 70
     1
102
RTVSPropertyOp13
 70
     1
102
RTVSPropertyOp14
 70
     1
102
RTVSPropertyOp15
 70
     1
102
RTVSPropertyOp16
 70
     1
102
RTVSPropertyOp17
 70
     1
102
RTVSPropertyOp18
 70
     1
102
RTVSPropertyOp19
 70
     1
102
RTVSPropertyOp20
 70
     1
102
RTVSPropertyOp21
 70
     1
102
RTVSPropertyOp22
 70
     1
102
RTVSPropertyOp23
 70
     1
102
RTVSPropertyOp24
 70
     1
102
RTVSPropertyOp25
 70
     1
102
RTVSPropertyOp26
 70
     1
102
RTVSPropertyOp27
 70
     1
102
RTVSPropertyOp28
 70
     1
102
RTVSPropertyOp29
 70
     1
102
RTVSPropertyOp30
 70
     1
102
RTVSPropertyOp31
 70
     1
102
RTVSPropertyOp32
 70
     1
102
RTVSPropertyOp33
 70
     1
102
RTVSPropertyOp34
 70
     1
102
RTVSPropertyOp35
 70
     1
102
RTVSPropertyOp36
 70
     1
102
RTVSPropertyOp37
 70
     1
102
RTVSPropertyOp38
 70
     1
102
RTVSPropertyOp39
 70
     1
102
RTVSPropertyOp40
 70
     1
102
RTVSPropertyOp41
 70
     1
102
RTVSPropertyOp42
 70
     1
102
RTVSPropertyOp43
 70
     1
102
RTVSPropertyOp44
 70
     1
102
RTVSPropertyOp45
 70
     1
102
RTVSPropertyOp46
 70
     1
102
RTVSPropertyOp47
 70
     1
102
RTVSPropertyOp48
 70
     1
102
RTVSPropertyOp49
 70
     1
102
RTVSPropertyOp50
 70
     1
102
RTVSPropertyOp51
 70
     0
102
RTVSPropertyOp52
 70
     0
102
RTVSPropertyOp53
 70
     1
102
RTVSPropertyOp54
 70
     1
102
RTVSPropertyOp55
 70
     1
102
RTVSPropertyOp56
 70
     1
102
RTVSPropertyOp57
 70
     1
102
RTVSPropertyOp58
 70
     1
102
RTVSPropertyOp59
 70
     1
102
RTVSPropertyOp60
 70
     1
102
RTVSPropertyOp61
 70
     1
102
RTVSPropertyOp62
 70
     1
  0
XRECORD
  5
3D4
102
{ACAD_REACTORS
330
3D3
102
}
330
3D3
100
AcDbXrecord
280
     1
102
RTVSPost2010Prop28
280
     0
102
RTVSPost2010PropOp28
 70
     1
102
RTVSPost2010Prop29
280
     1
102
RTVSPost2010PropOp29
 70
     1
102
RTVSPost2010Prop30
280
     1
102
RTVSPost2010PropOp30
 70
     1
102
RTVSPost2010Prop31
280
     0
102
RTVSPost2010PropOp31
 70
     1
102
RTVSPost2010Prop32
280
     0
102
RTVSPost2010PropOp32
 70
     1
102
RTVSPost2010Prop33
280
     0
102
RTVSPost2010PropOp33
 70
     1
102
RTVSPost2010Prop34
280
     0
102
RTVSPost2010PropOp34
 70
     1
102
RTVSPost2010Prop35
280
     0
102
RTVSPost2010PropOp35
 70
     1
102
RTVSPost2010Prop36
280
     0
102
RTVSPost2010PropOp36
 70
     1
102
RTVSPost2010Prop37
 90
       50
102
RTVSPost2010PropOp37
 70
     1
102
RTVSPost2010Prop38
140
0.0
102
RTVSPost2010PropOp38
 70
     1
102
RTVSPost2010Prop39
140
1.0
102
RTVSPost2010PropOp39
 70
     1
102
RTVSPost2010Prop40
 90
        0
102
RTVSPost2010PropOp40
 70
     1
102
RTVSPost2010Prop41ColorIndex
 90
       18
102
RTVSPost2010Prop41ColorRGB
 90
        0
102
RTVSPost2010PropOp41
 70
     1
102
RTVSPost2010Prop42
 90
       50
102
RTVSPost2010PropOp42
 70
     1
102
RTVSPost2010Prop43
 90
        3
102
RTVSPost2010PropOp43
 70
     1
102
RTVSPost2010Prop44ColorIndex
 90
        5
102
RTVSPost2010Prop44ColorRGB
 90
      255
102
RTVSPost2010PropOp44
 70
     1
102
RTVSPost2010Prop45
280
     0
102
RTVSPost2010PropOp45
 70
     1
102
RTVSPost2010Prop46
 90
       50
102
RTVSPost2010PropOp46
 70
     1
102
RTVSPost2010Prop47
 90
       50
102
RTVSPost2010PropOp47
 70
     1
102
RTVSPost2010Prop48
 90
       50
102
RTVSPost2010PropOp48
 70
     1
102
RTVSPost2010Prop49
280
     0
102
RTVSPost2010PropOp49
 70
     1
102
RTVSPost2010Prop50
 90
       50
102
RTVSPost2010PropOp50
 70
     1
102
RTVSPost2010Prop51ColorIndex
 90
      256
102
RTVSPost2010Prop51ColorRGB
 90
-16777216
102
RTVSPost2010PropOp51
 70
     0
102
RTVSPost2010Prop52
140
1.0
102
RTVSPost2010PropOp52
 70
     0
102
RTVSPost2010Prop53
 90
        2
102
RTVSPost2010PropOp53
 70
     1
102
RTVSPost2010Prop54
  1
strokes_ogs.tif
102
RTVSPost2010PropOp54
 70
     1
102
RTVSPost2010Prop55
280
     0
102
RTVSPost2010PropOp55
 70
     1
102
RTVSPost2010Prop56
140
1.0
102
RTVSPost2010PropOp56
 70
     1
102
RTVSPost2010Prop57
140
1.0
102
RTVSPost2010PropOp57
 70
     1
102
RTVSPropertyOp0
 70
     1
102
RTVSPropertyOp1
 70
     1
102
RTVSPropertyOp2
 70
     1
102
RTVSPropertyOp3
 70
     1
102
RTVSPropertyOp4
 70
     1
102
RTVSPropertyOp5
 70
     1
102
RTVSPropertyOp6
 70
     1
102
RTVSPropertyOp7
 70
     1
102
RTVSPropertyOp8
 70
     1
102
RTVSPropertyOp9
 70
     1
102
RTVSPropertyOp10
 70
     1
102
RTVSPropertyOp11
 70
     1
102
RTVSPropertyOp12
 70
     1
102
RTVSPropertyOp13
 70
     1
102
RTVSPropertyOp14
 70
     1
102
RTVSPropertyOp15
 70
     1
102
RTVSPropertyOp16
 70
     1
102
RTVSPropertyOp17
 70
     1
102
RTVSPropertyOp18
 70
     1
102
RTVSPropertyOp19
 70
     1
102
RTVSPropertyOp20
 70
     1
102
RTVSPropertyOp21
 70
     1
102
RTVSPropertyOp22
 70
     1
102
RTVSPropertyOp23
 70
     1
102
RTVSPropertyOp24
 70
     1
102
RTVSPropertyOp25
 70
     1
102
RTVSPropertyOp26
 70
     1
102
RTVSPropertyOp27
 70
     1
102
RTVSPropertyOp28
 70
     1
102
RTVSPropertyOp29
 70
     1
102
RTVSPropertyOp30
 70
     1
102
RTVSPropertyOp31
 70
     1
102
RTVSPropertyOp32
 70
     1
102
RTVSPropertyOp33
 70
     1
102
RTVSPropertyOp34
 70
     1
102
RTVSPropertyOp35
 70
     1
102
RTVSPropertyOp36
 70
     1
102
RTVSPropertyOp37
 70
     1
102
RTVSPropertyOp38
 70
     1
102
RTVSPropertyOp39
 70
     1
102
RTVSPropertyOp40
 70
     1
102
RTVSPropertyOp41
 70
     1
102
RTVSPropertyOp42
 70
     1
102
RTVSPropertyOp43
 70
     1
102
RTVSPropertyOp44
 70
     1
102
RTVSPropertyOp45
 70
     1
102
RTVSPropertyOp46
 70
     1
102
RTVSPropertyOp47
 70
     1
102
RTVSPropertyOp48
 70
     1
102
RTVSPropertyOp49
 70
     1
102
RTVSPropertyOp50
 70
     1
102
RTVSPropertyOp51
 70
     0
102
RTVSPropertyOp52
 70
     0
102
RTVSPropertyOp53
 70
     1
102
RTVSPropertyOp54
 70
     1
102
RTVSPropertyOp55
 70
     1
102
RTVSPropertyOp56
 70
     1
102
RTVSPropertyOp57
 70
     1
102
RTVSPropertyOp58
 70
     1
102
RTVSPropertyOp59
 70
     1
102
RTVSPropertyOp60
 70
     1
102
RTVSPropertyOp61
 70
     1
102
RTVSPropertyOp62
 70
     1
  0
XRECORD
  5
3D2
102
{ACAD_REACTORS
330
3D1
102
}
330
3D1
100
AcDbXrecord
280
     1
102
RTVSPost2010Prop28
280
     0
102
RTVSPost2010PropOp28
 70
     1
102
RTVSPost2010Prop29
280
     1
102
RTVSPost2010PropOp29
 70
     1
102
RTVSPost2010Prop30
280
     1
102
RTVSPost2010PropOp30
 70
     1
102
RTVSPost2010Prop31
280
     0
102
RTVSPost2010PropOp31
 70
     1
102
RTVSPost2010Prop32
280
     0
102
RTVSPost2010PropOp32
 70
     1
102
RTVSPost2010Prop33
280
     0
102
RTVSPost2010PropOp33
 70
     1
102
RTVSPost2010Prop34
280
     0
102
RTVSPost2010PropOp34
 70
     1
102
RTVSPost2010Prop35
280
     0
102
RTVSPost2010PropOp35
 70
     1
102
RTVSPost2010Prop36
280
     0
102
RTVSPost2010PropOp36
 70
     1
102
RTVSPost2010Prop37
 90
       50
102
RTVSPost2010PropOp37
 70
     1
102
RTVSPost2010Prop38
140
0.0
102
RTVSPost2010PropOp38
 70
     1
102
RTVSPost2010Prop39
140
1.0
102
RTVSPost2010PropOp39
 70
     1
102
RTVSPost2010Prop40
 90
        0
102
RTVSPost2010PropOp40
 70
     1
102
RTVSPost2010Prop41ColorIndex
 90
       18
102
RTVSPost2010Prop41ColorRGB
 90
        0
102
RTVSPost2010PropOp41
 70
     1
102
RTVSPost2010Prop42
 90
       50
102
RTVSPost2010PropOp42
 70
     1
102
RTVSPost2010Prop43
 90
        3
102
RTVSPost2010PropOp43
 70
     1
102
RTVSPost2010Prop44ColorIndex
 90
        5
102
RTVSPost2010Prop44ColorRGB
 90
      255
102
RTVSPost2010PropOp44
 70
     1
102
RTVSPost2010Prop45
280
     0
102
RTVSPost2010PropOp45
 70
     1
102
RTVSPost2010Prop46
 90
       50
102
RTVSPost2010PropOp46
 70
     1
102
RTVSPost2010Prop47
 90
       50
102
RTVSPost2010PropOp47
 70
     1
102
RTVSPost2010Prop48
 90
       50
102
RTVSPost2010PropOp48
 70
     1
102
RTVSPost2010Prop49
280
     0
102
RTVSPost2010PropOp49
 70
     1
102
RTVSPost2010Prop50
 90
       50
102
RTVSPost2010PropOp50
 70
     1
102
RTVSPost2010Prop51ColorIndex
 90
      256
102
RTVSPost2010Prop51ColorRGB
 90
-16777216
102
RTVSPost2010PropOp51
 70
     0
102
RTVSPost2010Prop52
140
1.0
102
RTVSPost2010PropOp52
 70
     0
102
RTVSPost2010Prop53
 90
        2
102
RTVSPost2010PropOp53
 70
     1
102
RTVSPost2010Prop54
  1
strokes_ogs.tif
102
RTVSPost2010PropOp54
 70
     1
102
RTVSPost2010Prop55
280
     0
102
RTVSPost2010PropOp55
 70
     1
102
RTVSPost2010Prop56
140
1.0
102
RTVSPost2010PropOp56
 70
     1
102
RTVSPost2010Prop57
140
1.0
102
RTVSPost2010PropOp57
 70
     1
102
RTVSPropertyOp0
 70
     1
102
RTVSPropertyOp1
 70
     1
102
RTVSPropertyOp2
 70
     1
102
RTVSPropertyOp3
 70
     1
102
RTVSPropertyOp4
 70
     1
102
RTVSPropertyOp5
 70
     1
102
RTVSPropertyOp6
 70
     1
102
RTVSPropertyOp7
 70
     1
102
RTVSPropertyOp8
 70
     1
102
RTVSPropertyOp9
 70
     1
102
RTVSPropertyOp10
 70
     1
102
RTVSPropertyOp11
 70
     1
102
RTVSPropertyOp12
 70
     1
102
RTVSPropertyOp13
 70
     1
102
RTVSPropertyOp14
 70
     1
102
RTVSPropertyOp15
 70
     1
102
RTVSPropertyOp16
 70
     1
102
RTVSPropertyOp17
 70
     1
102
RTVSPropertyOp18
 70
     1
102
RTVSPropertyOp19
 70
     1
102
RTVSPropertyOp20
 70
     1
102
RTVSPropertyOp21
 70
     1
102
RTVSPropertyOp22
 70
     1
102
RTVSPropertyOp23
 70
     1
102
RTVSPropertyOp24
 70
     1
102
RTVSPropertyOp25
 70
     1
102
RTVSPropertyOp26
 70
     1
102
RTVSPropertyOp27
 70
     1
102
RTVSPropertyOp28
 70
     1
102
RTVSPropertyOp29
 70
     1
102
RTVSPropertyOp30
 70
     1
102
RTVSPropertyOp31
 70
     1
102
RTVSPropertyOp32
 70
     1
102
RTVSPropertyOp33
 70
     1
102
RTVSPropertyOp34
 70
     1
102
RTVSPropertyOp35
 70
     1
102
RTVSPropertyOp36
 70
     1
102
RTVSPropertyOp37
 70
     1
102
RTVSPropertyOp38
 70
     1
102
RTVSPropertyOp39
 70
     1
102
RTVSPropertyOp40
 70
     1
102
RTVSPropertyOp41
 70
     1
102
RTVSPropertyOp42
 70
     1
102
RTVSPropertyOp43
 70
     1
102
RTVSPropertyOp44
 70
     1
102
RTVSPropertyOp45
 70
     1
102
RTVSPropertyOp46
 70
     1
102
RTVSPropertyOp47
 70
     1
102
RTVSPropertyOp48
 70
     1
102
RTVSPropertyOp49
 70
     1
102
RTVSPropertyOp50
 70
     1
102
RTVSPropertyOp51
 70
     0
102
RTVSPropertyOp52
 70
     0
102
RTVSPropertyOp53
 70
     1
102
RTVSPropertyOp54
 70
     1
102
RTVSPropertyOp55
 70
     1
102
RTVSPropertyOp56
 70
     1
102
RTVSPropertyOp57
 70
     1
102
RTVSPropertyOp58
 70
     1
102
RTVSPropertyOp59
 70
     1
102
RTVSPropertyOp60
 70
     1
102
RTVSPropertyOp61
 70
     1
102
RTVSPropertyOp62
 70
     1
  0
XRECORD
  5
3CC
102
{ACAD_REACTORS
330
3CB
102
}
330
3CB
100
AcDbXrecord
280
     1
102
RTVSPost2010Prop28
280
     0
102
RTVSPost2010PropOp28
 70
     1
102
RTVSPost2010Prop29
280
     1
102
RTVSPost2010PropOp29
 70
     1
102
RTVSPost2010Prop30
280
     1
102
RTVSPost2010PropOp30
 70
     1
102
RTVSPost2010Prop31
280
     0
102
RTVSPost2010PropOp31
 70
     1
102
RTVSPost2010Prop32
280
     0
102
RTVSPost2010PropOp32
 70
     1
102
RTVSPost2010Prop33
280
     0
102
RTVSPost2010PropOp33
 70
     1
102
RTVSPost2010Prop34
280
     0
102
RTVSPost2010PropOp34
 70
     1
102
RTVSPost2010Prop35
280
     0
102
RTVSPost2010PropOp35
 70
     1
102
RTVSPost2010Prop36
280
     0
102
RTVSPost2010PropOp36
 70
     1
102
RTVSPost2010Prop37
 90
       50
102
RTVSPost2010PropOp37
 70
     1
102
RTVSPost2010Prop38
140
0.0
102
RTVSPost2010PropOp38
 70
     1
102
RTVSPost2010Prop39
140
1.0
102
RTVSPost2010PropOp39
 70
     1
102
RTVSPost2010Prop40
 90
        0
102
RTVSPost2010PropOp40
 70
     1
102
RTVSPost2010Prop41ColorIndex
 90
       18
102
RTVSPost2010Prop41ColorRGB
 90
        0
102
RTVSPost2010PropOp41
 70
     1
102
RTVSPost2010Prop42
 90
       50
102
RTVSPost2010PropOp42
 70
     1
102
RTVSPost2010Prop43
 90
        3
102
RTVSPost2010PropOp43
 70
     1
102
RTVSPost2010Prop44ColorIndex
 90
        5
102
RTVSPost2010Prop44ColorRGB
 90
      255
102
RTVSPost2010PropOp44
 70
     1
102
RTVSPost2010Prop45
280
     0
102
RTVSPost2010PropOp45
 70
     1
102
RTVSPost2010Prop46
 90
       50
102
RTVSPost2010PropOp46
 70
     1
102
RTVSPost2010Prop47
 90
       50
102
RTVSPost2010PropOp47
 70
     1
102
RTVSPost2010Prop48
 90
       50
102
RTVSPost2010PropOp48
 70
     1
102
RTVSPost2010Prop49
280
     0
102
RTVSPost2010PropOp49
 70
     1
102
RTVSPost2010Prop50
 90
       50
102
RTVSPost2010PropOp50
 70
     1
102
RTVSPost2010Prop51ColorIndex
 90
      256
102
RTVSPost2010Prop51ColorRGB
 90
-16777216
102
RTVSPost2010PropOp51
 70
     0
102
RTVSPost2010Prop52
140
1.0
102
RTVSPost2010PropOp52
 70
     0
102
RTVSPost2010Prop53
 90
        2
102
RTVSPost2010PropOp53
 70
     1
102
RTVSPost2010Prop54
  1
strokes_ogs.tif
102
RTVSPost2010PropOp54
 70
     1
102
RTVSPost2010Prop55
280
     0
102
RTVSPost2010PropOp55
 70
     1
102
RTVSPost2010Prop56
140
1.0
102
RTVSPost2010PropOp56
 70
     1
102
RTVSPost2010Prop57
140
1.0
102
RTVSPost2010PropOp57
 70
     1
102
RTVSPropertyOp0
 70
     1
102
RTVSPropertyOp1
 70
     1
102
RTVSPropertyOp2
 70
     1
102
RTVSPropertyOp3
 70
     1
102
RTVSPropertyOp4
 70
     1
102
RTVSPropertyOp5
 70
     1
102
RTVSPropertyOp6
 70
     1
102
RTVSPropertyOp7
 70
     1
102
RTVSPropertyOp8
 70
     1
102
RTVSPropertyOp9
 70
     1
102
RTVSPropertyOp10
 70
     1
102
RTVSPropertyOp11
 70
     1
102
RTVSPropertyOp12
 70
     1
102
RTVSPropertyOp13
 70
     1
102
RTVSPropertyOp14
 70
     1
102
RTVSPropertyOp15
 70
     1
102
RTVSPropertyOp16
 70
     1
102
RTVSPropertyOp17
 70
     1
102
RTVSPropertyOp18
 70
     1
102
RTVSPropertyOp19
 70
     1
102
RTVSPropertyOp20
 70
     1
102
RTVSPropertyOp21
 70
     1
102
RTVSPropertyOp22
 70
     1
102
RTVSPropertyOp23
 70
     1
102
RTVSPropertyOp24
 70
     1
102
RTVSPropertyOp25
 70
     1
102
RTVSPropertyOp26
 70
     1
102
RTVSPropertyOp27
 70
     1
102
RTVSPropertyOp28
 70
     1
102
RTVSPropertyOp29
 70
     1
102
RTVSPropertyOp30
 70
     1
102
RTVSPropertyOp31
 70
     1
102
RTVSPropertyOp32
 70
     1
102
RTVSPropertyOp33
 70
     1
102
RTVSPropertyOp34
 70
     1
102
RTVSPropertyOp35
 70
     1
102
RTVSPropertyOp36
 70
     1
102
RTVSPropertyOp37
 70
     1
102
RTVSPropertyOp38
 70
     1
102
RTVSPropertyOp39
 70
     1
102
RTVSPropertyOp40
 70
     1
102
RTVSPropertyOp41
 70
     1
102
RTVSPropertyOp42
 70
     1
102
RTVSPropertyOp43
 70
     1
102
RTVSPropertyOp44
 70
     1
102
RTVSPropertyOp45
 70
     1
102
RTVSPropertyOp46
 70
     1
102
RTVSPropertyOp47
 70
     1
102
RTVSPropertyOp48
 70
     1
102
RTVSPropertyOp49
 70
     1
102
RTVSPropertyOp50
 70
     1
102
RTVSPropertyOp51
 70
     0
102
RTVSPropertyOp52
 70
     0
102
RTVSPropertyOp53
 70
     1
102
RTVSPropertyOp54
 70
     1
102
RTVSPropertyOp55
 70
     1
102
RTVSPropertyOp56
 70
     1
102
RTVSPropertyOp57
 70
     1
102
RTVSPropertyOp58
 70
     1
102
RTVSPropertyOp59
 70
     1
102
RTVSPropertyOp60
 70
     1
102
RTVSPropertyOp61
 70
     1
102
RTVSPropertyOp62
 70
     1
  0
XRECORD
  5
3CE
102
{ACAD_REACTORS
330
3CD
102
}
330
3CD
100
AcDbXrecord
280
     1
102
RTVSPost2010Prop28
280
     0
102
RTVSPost2010PropOp28
 70
     1
102
RTVSPost2010Prop29
280
     1
102
RTVSPost2010PropOp29
 70
     1
102
RTVSPost2010Prop30
280
     1
102
RTVSPost2010PropOp30
 70
     1
102
RTVSPost2010Prop31
280
     0
102
RTVSPost2010PropOp31
 70
     1
102
RTVSPost2010Prop32
280
     0
102
RTVSPost2010PropOp32
 70
     1
102
RTVSPost2010Prop33
280
     0
102
RTVSPost2010PropOp33
 70
     1
102
RTVSPost2010Prop34
280
     0
102
RTVSPost2010PropOp34
 70
     1
102
RTVSPost2010Prop35
280
     0
102
RTVSPost2010PropOp35
 70
     1
102
RTVSPost2010Prop36
280
     0
102
RTVSPost2010PropOp36
 70
     1
102
RTVSPost2010Prop37
 90
       50
102
RTVSPost2010PropOp37
 70
     1
102
RTVSPost2010Prop38
140
0.0
102
RTVSPost2010PropOp38
 70
     1
102
RTVSPost2010Prop39
140
1.0
102
RTVSPost2010PropOp39
 70
     1
102
RTVSPost2010Prop40
 90
        0
102
RTVSPost2010PropOp40
 70
     1
102
RTVSPost2010Prop41ColorIndex
 90
       18
102
RTVSPost2010Prop41ColorRGB
 90
        0
102
RTVSPost2010PropOp41
 70
     1
102
RTVSPost2010Prop42
 90
       50
102
RTVSPost2010PropOp42
 70
     1
102
RTVSPost2010Prop43
 90
        3
102
RTVSPost2010PropOp43
 70
     1
102
RTVSPost2010Prop44ColorIndex
 90
        5
102
RTVSPost2010Prop44ColorRGB
 90
      255
102
RTVSPost2010PropOp44
 70
     1
102
RTVSPost2010Prop45
280
     0
102
RTVSPost2010PropOp45
 70
     1
102
RTVSPost2010Prop46
 90
       50
102
RTVSPost2010PropOp46
 70
     1
102
RTVSPost2010Prop47
 90
       50
102
RTVSPost2010PropOp47
 70
     1
102
RTVSPost2010Prop48
 90
       50
102
RTVSPost2010PropOp48
 70
     1
102
RTVSPost2010Prop49
280
     0
102
RTVSPost2010PropOp49
 70
     1
102
RTVSPost2010Prop50
 90
       50
102
RTVSPost2010PropOp50
 70
     1
102
RTVSPost2010Prop51ColorIndex
 90
      256
102
RTVSPost2010Prop51ColorRGB
 90
-16777216
102
RTVSPost2010PropOp51
 70
     0
102
RTVSPost2010Prop52
140
1.0
102
RTVSPost2010PropOp52
 70
     0
102
RTVSPost2010Prop53
 90
        2
102
RTVSPost2010PropOp53
 70
     1
102
RTVSPost2010Prop54
  1
strokes_ogs.tif
102
RTVSPost2010PropOp54
 70
     1
102
RTVSPost2010Prop55
280
     0
102
RTVSPost2010PropOp55
 70
     1
102
RTVSPost2010Prop56
140
1.0
102
RTVSPost2010PropOp56
 70
     1
102
RTVSPost2010Prop57
140
1.0
102
RTVSPost2010PropOp57
 70
     1
102
RTVSPropertyOp0
 70
     1
102
RTVSPropertyOp1
 70
     1
102
RTVSPropertyOp2
 70
     1
102
RTVSPropertyOp3
 70
     1
102
RTVSPropertyOp4
 70
     1
102
RTVSPropertyOp5
 70
     1
102
RTVSPropertyOp6
 70
     1
102
RTVSPropertyOp7
 70
     1
102
RTVSPropertyOp8
 70
     1
102
RTVSPropertyOp9
 70
     1
102
RTVSPropertyOp10
 70
     1
102
RTVSPropertyOp11
 70
     1
102
RTVSPropertyOp12
 70
     1
102
RTVSPropertyOp13
 70
     1
102
RTVSPropertyOp14
 70
     1
102
RTVSPropertyOp15
 70
     1
102
RTVSPropertyOp16
 70
     1
102
RTVSPropertyOp17
 70
     1
102
RTVSPropertyOp18
 70
     1
102
RTVSPropertyOp19
 70
     1
102
RTVSPropertyOp20
 70
     1
102
RTVSPropertyOp21
 70
     1
102
RTVSPropertyOp22
 70
     1
102
RTVSPropertyOp23
 70
     1
102
RTVSPropertyOp24
 70
     1
102
RTVSPropertyOp25
 70
     1
102
RTVSPropertyOp26
 70
     1
102
RTVSPropertyOp27
 70
     1
102
RTVSPropertyOp28
 70
     1
102
RTVSPropertyOp29
 70
     1
102
RTVSPropertyOp30
 70
     1
102
RTVSPropertyOp31
 70
     1
102
RTVSPropertyOp32
 70
     1
102
RTVSPropertyOp33
 70
     1
102
RTVSPropertyOp34
 70
     1
102
RTVSPropertyOp35
 70
     1
102
RTVSPropertyOp36
 70
     1
102
RTVSPropertyOp37
 70
     1
102
RTVSPropertyOp38
 70
     1
102
RTVSPropertyOp39
 70
     1
102
RTVSPropertyOp40
 70
     1
102
RTVSPropertyOp41
 70
     1
102
RTVSPropertyOp42
 70
     1
102
RTVSPropertyOp43
 70
     1
102
RTVSPropertyOp44
 70
     1
102
RTVSPropertyOp45
 70
     1
102
RTVSPropertyOp46
 70
     1
102
RTVSPropertyOp47
 70
     1
102
RTVSPropertyOp48
 70
     1
102
RTVSPropertyOp49
 70
     1
102
RTVSPropertyOp50
 70
     1
102
RTVSPropertyOp51
 70
     0
102
RTVSPropertyOp52
 70
     0
102
RTVSPropertyOp53
 70
     1
102
RTVSPropertyOp54
 70
     1
102
RTVSPropertyOp55
 70
     1
102
RTVSPropertyOp56
 70
     1
102
RTVSPropertyOp57
 70
     1
102
RTVSPropertyOp58
 70
     1
102
RTVSPropertyOp59
 70
     1
102
RTVSPropertyOp60
 70
     1
102
RTVSPropertyOp61
 70
     1
102
RTVSPropertyOp62
 70
     1
  0
XRECORD
  5
3BE
102
{ACAD_REACTORS
330
3BD
102
}
330
3BD
100
AcDbXrecord
280
     1
102
RTVSPost2010Prop28
280
     0
102
RTVSPost2010PropOp28
 70
     1
102
RTVSPost2010Prop29
280
     1
102
RTVSPost2010PropOp29
 70
     1
102
RTVSPost2010Prop30
280
     1
102
RTVSPost2010PropOp30
 70
     1
102
RTVSPost2010Prop31
280
     0
102
RTVSPost2010PropOp31
 70
     1
102
RTVSPost2010Prop32
280
     0
102
RTVSPost2010PropOp32
 70
     1
102
RTVSPost2010Prop33
280
     0
102
RTVSPost2010PropOp33
 70
     1
102
RTVSPost2010Prop34
280
     0
102
RTVSPost2010PropOp34
 70
     1
102
RTVSPost2010Prop35
280
     0
102
RTVSPost2010PropOp35
 70
     1
102
RTVSPost2010Prop36
280
     0
102
RTVSPost2010PropOp36
 70
     1
102
RTVSPost2010Prop37
 90
       50
102
RTVSPost2010PropOp37
 70
     1
102
RTVSPost2010Prop38
140
0.0
102
RTVSPost2010PropOp38
 70
     1
102
RTVSPost2010Prop39
140
1.0
102
RTVSPost2010PropOp39
 70
     1
102
RTVSPost2010Prop40
 90
        0
102
RTVSPost2010PropOp40
 70
     1
102
RTVSPost2010Prop41ColorIndex
 90
       18
102
RTVSPost2010Prop41ColorRGB
 90
        0
102
RTVSPost2010PropOp41
 70
     1
102
RTVSPost2010Prop42
 90
       50
102
RTVSPost2010PropOp42
 70
     1
102
RTVSPost2010Prop43
 90
        3
102
RTVSPost2010PropOp43
 70
     1
102
RTVSPost2010Prop44ColorIndex
 90
        5
102
RTVSPost2010Prop44ColorRGB
 90
      255
102
RTVSPost2010PropOp44
 70
     1
102
RTVSPost2010Prop45
280
     0
102
RTVSPost2010PropOp45
 70
     1
102
RTVSPost2010Prop46
 90
       50
102
RTVSPost2010PropOp46
 70
     1
102
RTVSPost2010Prop47
 90
       50
102
RTVSPost2010PropOp47
 70
     1
102
RTVSPost2010Prop48
 90
       50
102
RTVSPost2010PropOp48
 70
     1
102
RTVSPost2010Prop49
280
     0
102
RTVSPost2010PropOp49
 70
     1
102
RTVSPost2010Prop50
 90
       50
102
RTVSPost2010PropOp50
 70
     1
102
RTVSPost2010Prop51ColorIndex
 90
      256
102
RTVSPost2010Prop51ColorRGB
 90
-16777216
102
RTVSPost2010PropOp51
 70
     0
102
RTVSPost2010Prop52
140
1.0
102
RTVSPost2010PropOp52
 70
     0
102
RTVSPost2010Prop53
 90
        2
102
RTVSPost2010PropOp53
 70
     1
102
RTVSPost2010Prop54
  1
strokes_ogs.tif
102
RTVSPost2010PropOp54
 70
     1
102
RTVSPost2010Prop55
280
     0
102
RTVSPost2010PropOp55
 70
     1
102
RTVSPost2010Prop56
140
1.0
102
RTVSPost2010PropOp56
 70
     1
102
RTVSPost2010Prop57
140
1.0
102
RTVSPost2010PropOp57
 70
     1
102
RTVSPropertyOp0
 70
     1
102
RTVSPropertyOp1
 70
     1
102
RTVSPropertyOp2
 70
     1
102
RTVSPropertyOp3
 70
     1
102
RTVSPropertyOp4
 70
     1
102
RTVSPropertyOp5
 70
     1
102
RTVSPropertyOp6
 70
     1
102
RTVSPropertyOp7
 70
     1
102
RTVSPropertyOp8
 70
     1
102
RTVSPropertyOp9
 70
     1
102
RTVSPropertyOp10
 70
     1
102
RTVSPropertyOp11
 70
     1
102
RTVSPropertyOp12
 70
     1
102
RTVSPropertyOp13
 70
     1
102
RTVSPropertyOp14
 70
     1
102
RTVSPropertyOp15
 70
     1
102
RTVSPropertyOp16
 70
     1
102
RTVSPropertyOp17
 70
     1
102
RTVSPropertyOp18
 70
     1
102
RTVSPropertyOp19
 70
     1
102
RTVSPropertyOp20
 70
     1
102
RTVSPropertyOp21
 70
     1
102
RTVSPropertyOp22
 70
     1
102
RTVSPropertyOp23
 70
     1
102
RTVSPropertyOp24
 70
     1
102
RTVSPropertyOp25
 70
     1
102
RTVSPropertyOp26
 70
     1
102
RTVSPropertyOp27
 70
     1
102
RTVSPropertyOp28
 70
     1
102
RTVSPropertyOp29
 70
     1
102
RTVSPropertyOp30
 70
     1
102
RTVSPropertyOp31
 70
     1
102
RTVSPropertyOp32
 70
     1
102
RTVSPropertyOp33
 70
     1
102
RTVSPropertyOp34
 70
     1
102
RTVSPropertyOp35
 70
     1
102
RTVSPropertyOp36
 70
     1
102
RTVSPropertyOp37
 70
     1
102
RTVSPropertyOp38
 70
     1
102
RTVSPropertyOp39
 70
     1
102
RTVSPropertyOp40
 70
     1
102
RTVSPropertyOp41
 70
     1
102
RTVSPropertyOp42
 70
     1
102
RTVSPropertyOp43
 70
     1
102
RTVSPropertyOp44
 70
     1
102
RTVSPropertyOp45
 70
     1
102
RTVSPropertyOp46
 70
     1
102
RTVSPropertyOp47
 70
     1
102
RTVSPropertyOp48
 70
     1
102
RTVSPropertyOp49
 70
     1
102
RTVSPropertyOp50
 70
     1
102
RTVSPropertyOp51
 70
     0
102
RTVSPropertyOp52
 70
     0
102
RTVSPropertyOp53
 70
     1
102
RTVSPropertyOp54
 70
     1
102
RTVSPropertyOp55
 70
     1
102
RTVSPropertyOp56
 70
     1
102
RTVSPropertyOp57
 70
     1
102
RTVSPropertyOp58
 70
     1
102
RTVSPropertyOp59
 70
     1
102
RTVSPropertyOp60
 70
     1
102
RTVSPropertyOp61
 70
     1
102
RTVSPropertyOp62
 70
     1
  0
XRECORD
  5
3B0
102
{ACAD_REACTORS
330
3AF
102
}
330
3AF
100
AcDbXrecord
280
     1
102
RTVSPost2010Prop28
280
     0
102
RTVSPost2010PropOp28
 70
     1
102
RTVSPost2010Prop29
280
     1
102
RTVSPost2010PropOp29
 70
     1
102
RTVSPost2010Prop30
280
     1
102
RTVSPost2010PropOp30
 70
     1
102
RTVSPost2010Prop31
280
     0
102
RTVSPost2010PropOp31
 70
     1
102
RTVSPost2010Prop32
280
     0
102
RTVSPost2010PropOp32
 70
     1
102
RTVSPost2010Prop33
280
     0
102
RTVSPost2010PropOp33
 70
     1
102
RTVSPost2010Prop34
280
     0
102
RTVSPost2010PropOp34
 70
     1
102
RTVSPost2010Prop35
280
     0
102
RTVSPost2010PropOp35
 70
     1
102
RTVSPost2010Prop36
280
     0
102
RTVSPost2010PropOp36
 70
     1
102
RTVSPost2010Prop37
 90
       50
102
RTVSPost2010PropOp37
 70
     1
102
RTVSPost2010Prop38
140
0.0
102
RTVSPost2010PropOp38
 70
     1
102
RTVSPost2010Prop39
140
1.0
102
RTVSPost2010PropOp39
 70
     1
102
RTVSPost2010Prop40
 90
        0
102
RTVSPost2010PropOp40
 70
     1
102
RTVSPost2010Prop41ColorIndex
 90
       18
102
RTVSPost2010Prop41ColorRGB
 90
        0
102
RTVSPost2010PropOp41
 70
     1
102
RTVSPost2010Prop42
 90
       50
102
RTVSPost2010PropOp42
 70
     1
102
RTVSPost2010Prop43
 90
        3
102
RTVSPost2010PropOp43
 70
     1
102
RTVSPost2010Prop44ColorIndex
 90
        5
102
RTVSPost2010Prop44ColorRGB
 90
      255
102
RTVSPost2010PropOp44
 70
     1
102
RTVSPost2010Prop45
280
     0
102
RTVSPost2010PropOp45
 70
     1
102
RTVSPost2010Prop46
 90
       50
102
RTVSPost2010PropOp46
 70
     1
102
RTVSPost2010Prop47
 90
       50
102
RTVSPost2010PropOp47
 70
     1
102
RTVSPost2010Prop48
 90
       50
102
RTVSPost2010PropOp48
 70
     1
102
RTVSPost2010Prop49
280
     0
102
RTVSPost2010PropOp49
 70
     1
102
RTVSPost2010Prop50
 90
       50
102
RTVSPost2010PropOp50
 70
     1
102
RTVSPost2010Prop51ColorIndex
 90
      256
102
RTVSPost2010Prop51ColorRGB
 90
-16777216
102
RTVSPost2010PropOp51
 70
     0
102
RTVSPost2010Prop52
140
1.0
102
RTVSPost2010PropOp52
 70
     0
102
RTVSPost2010Prop53
 90
        2
102
RTVSPost2010PropOp53
 70
     1
102
RTVSPost2010Prop54
  1
strokes_ogs.tif
102
RTVSPost2010PropOp54
 70
     1
102
RTVSPost2010Prop55
280
     0
102
RTVSPost2010PropOp55
 70
     1
102
RTVSPost2010Prop56
140
1.0
102
RTVSPost2010PropOp56
 70
     1
102
RTVSPost2010Prop57
140
1.0
102
RTVSPost2010PropOp57
 70
     1
102
RTVSPropertyOp0
 70
     1
102
RTVSPropertyOp1
 70
     1
102
RTVSPropertyOp2
 70
     1
102
RTVSPropertyOp3
 70
     1
102
RTVSPropertyOp4
 70
     1
102
RTVSPropertyOp5
 70
     1
102
RTVSPropertyOp6
 70
     1
102
RTVSPropertyOp7
 70
     1
102
RTVSPropertyOp8
 70
     1
102
RTVSPropertyOp9
 70
     1
102
RTVSPropertyOp10
 70
     1
102
RTVSPropertyOp11
 70
     1
102
RTVSPropertyOp12
 70
     1
102
RTVSPropertyOp13
 70
     1
102
RTVSPropertyOp14
 70
     1
102
RTVSPropertyOp15
 70
     1
102
RTVSPropertyOp16
 70
     1
102
RTVSPropertyOp17
 70
     1
102
RTVSPropertyOp18
 70
     1
102
RTVSPropertyOp19
 70
     1
102
RTVSPropertyOp20
 70
     1
102
RTVSPropertyOp21
 70
     1
102
RTVSPropertyOp22
 70
     1
102
RTVSPropertyOp23
 70
     1
102
RTVSPropertyOp24
 70
     1
102
RTVSPropertyOp25
 70
     1
102
RTVSPropertyOp26
 70
     1
102
RTVSPropertyOp27
 70
     1
102
RTVSPropertyOp28
 70
     1
102
RTVSPropertyOp29
 70
     1
102
RTVSPropertyOp30
 70
     1
102
RTVSPropertyOp31
 70
     1
102
RTVSPropertyOp32
 70
     1
102
RTVSPropertyOp33
 70
     1
102
RTVSPropertyOp34
 70
     1
102
RTVSPropertyOp35
 70
     1
102
RTVSPropertyOp36
 70
     1
102
RTVSPropertyOp37
 70
     1
102
RTVSPropertyOp38
 70
     1
102
RTVSPropertyOp39
 70
     1
102
RTVSPropertyOp40
 70
     1
102
RTVSPropertyOp41
 70
     1
102
RTVSPropertyOp42
 70
     1
102
RTVSPropertyOp43
 70
     1
102
RTVSPropertyOp44
 70
     1
102
RTVSPropertyOp45
 70
     1
102
RTVSPropertyOp46
 70
     1
102
RTVSPropertyOp47
 70
     1
102
RTVSPropertyOp48
 70
     1
102
RTVSPropertyOp49
 70
     1
102
RTVSPropertyOp50
 70
     1
102
RTVSPropertyOp51
 70
     0
102
RTVSPropertyOp52
 70
     0
102
RTVSPropertyOp53
 70
     1
102
RTVSPropertyOp54
 70
     1
102
RTVSPropertyOp55
 70
     1
102
RTVSPropertyOp56
 70
     1
102
RTVSPropertyOp57
 70
     1
102
RTVSPropertyOp58
 70
     1
102
RTVSPropertyOp59
 70
     1
102
RTVSPropertyOp60
 70
     1
102
RTVSPropertyOp61
 70
     1
102
RTVSPropertyOp62
 70
     1
  0
XRECORD
  5
3D0
102
{ACAD_REACTORS
330
3CF
102
}
330
3CF
100
AcDbXrecord
280
     1
102
RTVSPost2010Prop28
280
     0
102
RTVSPost2010PropOp28
 70
     1
102
RTVSPost2010Prop29
280
     1
102
RTVSPost2010PropOp29
 70
     1
102
RTVSPost2010Prop30
280
     1
102
RTVSPost2010PropOp30
 70
     1
102
RTVSPost2010Prop31
280
     0
102
RTVSPost2010PropOp31
 70
     1
102
RTVSPost2010Prop32
280
     0
102
RTVSPost2010PropOp32
 70
     1
102
RTVSPost2010Prop33
280
     0
102
RTVSPost2010PropOp33
 70
     1
102
RTVSPost2010Prop34
280
     0
102
RTVSPost2010PropOp34
 70
     1
102
RTVSPost2010Prop35
280
     0
102
RTVSPost2010PropOp35
 70
     1
102
RTVSPost2010Prop36
280
     0
102
RTVSPost2010PropOp36
 70
     1
102
RTVSPost2010Prop37
 90
       50
102
RTVSPost2010PropOp37
 70
     1
102
RTVSPost2010Prop38
140
0.0
102
RTVSPost2010PropOp38
 70
     1
102
RTVSPost2010Prop39
140
1.0
102
RTVSPost2010PropOp39
 70
     1
102
RTVSPost2010Prop40
 90
        0
102
RTVSPost2010PropOp40
 70
     1
102
RTVSPost2010Prop41ColorIndex
 90
       18
102
RTVSPost2010Prop41ColorRGB
 90
        0
102
RTVSPost2010PropOp41
 70
     1
102
RTVSPost2010Prop42
 90
       50
102
RTVSPost2010PropOp42
 70
     1
102
RTVSPost2010Prop43
 90
        3
102
RTVSPost2010PropOp43
 70
     1
102
RTVSPost2010Prop44ColorIndex
 90
        5
102
RTVSPost2010Prop44ColorRGB
 90
      255
102
RTVSPost2010PropOp44
 70
     1
102
RTVSPost2010Prop45
280
     0
102
RTVSPost2010PropOp45
 70
     1
102
RTVSPost2010Prop46
 90
       50
102
RTVSPost2010PropOp46
 70
     1
102
RTVSPost2010Prop47
 90
       50
102
RTVSPost2010PropOp47
 70
     1
102
RTVSPost2010Prop48
 90
       50
102
RTVSPost2010PropOp48
 70
     1
102
RTVSPost2010Prop49
280
     0
102
RTVSPost2010PropOp49
 70
     1
102
RTVSPost2010Prop50
 90
       50
102
RTVSPost2010PropOp50
 70
     1
102
RTVSPost2010Prop51ColorIndex
 90
      256
102
RTVSPost2010Prop51ColorRGB
 90
-16777216
102
RTVSPost2010PropOp51
 70
     0
102
RTVSPost2010Prop52
140
1.0
102
RTVSPost2010PropOp52
 70
     0
102
RTVSPost2010Prop53
 90
        2
102
RTVSPost2010PropOp53
 70
     1
102
RTVSPost2010Prop54
  1
strokes_ogs.tif
102
RTVSPost2010PropOp54
 70
     1
102
RTVSPost2010Prop55
280
     0
102
RTVSPost2010PropOp55
 70
     1
102
RTVSPost2010Prop56
140
1.0
102
RTVSPost2010PropOp56
 70
     1
102
RTVSPost2010Prop57
140
1.0
102
RTVSPost2010PropOp57
 70
     1
102
RTVSPropertyOp0
 70
     1
102
RTVSPropertyOp1
 70
     1
102
RTVSPropertyOp2
 70
     1
102
RTVSPropertyOp3
 70
     1
102
RTVSPropertyOp4
 70
     1
102
RTVSPropertyOp5
 70
     1
102
RTVSPropertyOp6
 70
     1
102
RTVSPropertyOp7
 70
     1
102
RTVSPropertyOp8
 70
     1
102
RTVSPropertyOp9
 70
     1
102
RTVSPropertyOp10
 70
     1
102
RTVSPropertyOp11
 70
     1
102
RTVSPropertyOp12
 70
     1
102
RTVSPropertyOp13
 70
     1
102
RTVSPropertyOp14
 70
     1
102
RTVSPropertyOp15
 70
     1
102
RTVSPropertyOp16
 70
     1
102
RTVSPropertyOp17
 70
     1
102
RTVSPropertyOp18
 70
     1
102
RTVSPropertyOp19
 70
     1
102
RTVSPropertyOp20
 70
     1
102
RTVSPropertyOp21
 70
     1
102
RTVSPropertyOp22
 70
     1
102
RTVSPropertyOp23
 70
     1
102
RTVSPropertyOp24
 70
     1
102
RTVSPropertyOp25
 70
     1
102
RTVSPropertyOp26
 70
     1
102
RTVSPropertyOp27
 70
     1
102
RTVSPropertyOp28
 70
     1
102
RTVSPropertyOp29
 70
     1
102
RTVSPropertyOp30
 70
     1
102
RTVSPropertyOp31
 70
     1
102
RTVSPropertyOp32
 70
     1
102
RTVSPropertyOp33
 70
     1
102
RTVSPropertyOp34
 70
     1
102
RTVSPropertyOp35
 70
     1
102
RTVSPropertyOp36
 70
     1
102
RTVSPropertyOp37
 70
     1
102
RTVSPropertyOp38
 70
     1
102
RTVSPropertyOp39
 70
     1
102
RTVSPropertyOp40
 70
     1
102
RTVSPropertyOp41
 70
     1
102
RTVSPropertyOp42
 70
     1
102
RTVSPropertyOp43
 70
     1
102
RTVSPropertyOp44
 70
     1
102
RTVSPropertyOp45
 70
     1
102
RTVSPropertyOp46
 70
     1
102
RTVSPropertyOp47
 70
     1
102
RTVSPropertyOp48
 70
     1
102
RTVSPropertyOp49
 70
     1
102
RTVSPropertyOp50
 70
     1
102
RTVSPropertyOp51
 70
     0
102
RTVSPropertyOp52
 70
     0
102
RTVSPropertyOp53
 70
     1
102
RTVSPropertyOp54
 70
     1
102
RTVSPropertyOp55
 70
     1
102
RTVSPropertyOp56
 70
     1
102
RTVSPropertyOp57
 70
     1
102
RTVSPropertyOp58
 70
     1
102
RTVSPropertyOp59
 70
     1
102
RTVSPropertyOp60
 70
     1
102
RTVSPropertyOp61
 70
     1
102
RTVSPropertyOp62
 70
     1
  0
ENDSEC
  0
EOF
