  0
SECTION
  2
HEADER
  9
$ACADVER
  1
AC1018
  9
$ACADMAINTVER
 70
   104
  9
$DWGCODEPAGE
  3
ANSI_1250
  9
$LASTSAVEDBY
  1
wq7085
  9
$INSBASE
 10
0.0
 20
0.0
 30
0.0
  9
$EXTMIN
 10
174.5807043333333
 20
114.534924
 30
0.0
  9
$EXTMAX
 10
388.031206
 20
345.2288016666667
 30
0.0
  9
$LIMMIN
 10
-0.5
 20
-0.5
  9
$LIMMAX
 10
5.0
 20
5.0
  9
$ORTHOMODE
 70
     0
  9
$REGENMODE
 70
     1
  9
$FILLMODE
 70
     1
  9
$QTEXTMODE
 70
     0
  9
$MIRRTEXT
 70
     1
  9
$LTSCALE
 40
1.0
  9
$ATTMODE
 70
     1
  9
$TEXTSIZE
 40
0.2
  9
$TRACEWID
 40
0.05
  9
$TEXTSTYLE
  7
Standard
  9
$CLAYER
  8
0
  9
$CELTYPE
  6
ByLayer
  9
$CECOLOR
 62
   256
  9
$CELTSCALE
 40
1.0
  9
$DISPSILH
 70
     0
  9
$DIMSCALE
 40
1.0
  9
$DIMASZ
 40
0.18
  9
$DIMEXO
 40
0.0625
  9
$DIMDLI
 40
0.38
  9
$DIMRND
 40
0.0
  9
$DIMDLE
 40
0.0
  9
$DIMEXE
 40
0.18
  9
$DIMTP
 40
0.0
  9
$DIMTM
 40
0.0
  9
$DIMTXT
 40
0.18
  9
$DIMCEN
 40
0.09
  9
$DIMTSZ
 40
0.0
  9
$DIMTOL
 70
     0
  9
$DIMLIM
 70
     0
  9
$DIMTIH
 70
     1
  9
$DIMTOH
 70
     1
  9
$DIMSE1
 70
     0
  9
$DIMSE2
 70
     0
  9
$DIMTAD
 70
     0
  9
$DIMZIN
 70
     0
  9
$DIMBLK
  1

  9
$DIMASO
 70
     1
  9
$DIMSHO
 70
     1
  9
$DIMPOST
  1

  9
$DIMAPOST
  1

  9
$DIMALT
 70
     0
  9
$DIMALTD
 70
     2
  9
$DIMALTF
 40
25.4
  9
$DIMLFAC
 40
1.0
  9
$DIMTOFL
 70
     0
  9
$DIMTVP
 40
0.0
  9
$DIMTIX
 70
     0
  9
$DIMSOXD
 70
     0
  9
$DIMSAH
 70
     0
  9
$DIMBLK1
  1

  9
$DIMBLK2
  1

  9
$DIMSTYLE
  2
Standard
  9
$DIMCLRD
 70
     0
  9
$DIMCLRE
 70
     0
  9
$DIMCLRT
 70
     0
  9
$DIMTFAC
 40
1.0
  9
$DIMGAP
 40
0.09
  9
$DIMJUST
 70
     0
  9
$DIMSD1
 70
     0
  9
$DIMSD2
 70
     0
  9
$DIMTOLJ
 70
     1
  9
$DIMTZIN
 70
     0
  9
$DIMALTZ
 70
     0
  9
$DIMALTTZ
 70
     0
  9
$DIMUPT
 70
     0
  9
$DIMDEC
 70
     4
  9
$DIMTDEC
 70
     4
  9
$DIMALTU
 70
     2
  9
$DIMALTTD
 70
     2
  9
$DIMTXSTY
  7
Standard
  9
$DIMAUNIT
 70
     0
  9
$DIMADEC
 70
     0
  9
$DIMALTRND
 40
0.0
  9
$DIMAZIN
 70
     0
  9
$DIMDSEP
 70
    46
  9
$DIMATFIT
 70
     3
  9
$DIMFRAC
 70
     0
  9
$DIMLDRBLK
  1

  9
$DIMLUNIT
 70
     2
  9
$DIMLWD
 70
    -2
  9
$DIMLWE
 70
    -2
  9
$DIMTMOVE
 70
     0
  9
$LUNITS
 70
     2
  9
$LUPREC
 70
     4
  9
$SKETCHINC
 40
0.1
  9
$FILLETRAD
 40
0.5
  9
$AUNITS
 70
     0
  9
$AUPREC
 70
     0
  9
$MENU
  1
.
  9
$ELEVATION
 40
0.0
  9
$PELEVATION
 40
0.0
  9
$THICKNESS
 40
0.0
  9
$LIMCHECK
 70
     0
  9
$CHAMFERA
 40
0.0
  9
$CHAMFERB
 40
0.0
  9
$CHAMFERC
 40
0.0
  9
$CHAMFERD
 40
0.0
  9
$SKPOLY
 70
     0
  9
$TDCREATE
 40
2458955.442870371
  9
$TDUCREATE
 40
2458955.359541759
  9
$TDUPDATE
 40
2458955.446041667
  9
$TDUUPDATE
 40
2458955.362708334
  9
$TDINDWG
 40
0.0004398264
  9
$TDUSRTIMER
 40
0.0004398264
  9
$USRTIMER
 70
     1
  9
$ANGBASE
 50
0.0
  9
$ANGDIR
 70
     0
  9
$PDMODE
 70
     0
  9
$PDSIZE
 40
0.0
  9
$PLINEWID
 40
0.0
  9
$SPLFRAME
 70
     0
  9
$SPLINETYPE
 70
     6
  9
$SPLINESEGS
 70
     8
  9
$HANDSEED
  5
3AD
  9
$SURFTAB1
 70
     6
  9
$SURFTAB2
 70
     6
  9
$SURFTYPE
 70
     6
  9
$SURFU
 70
     6
  9
$SURFV
 70
     6
  9
$UCSBASE
  2

  9
$UCSNAME
  2

  9
$UCSORG
 10
274.404842
 20
288.907994
 30
0.0
  9
$UCSXDIR
 10
1.0
 20
0.0
 30
0.0
  9
$UCSYDIR
 10
0.0
 20
1.0
 30
0.0
  9
$UCSORTHOREF
  2

  9
$UCSORTHOVIEW
 70
     0
  9
$UCSORGTOP
 10
0.0
 20
0.0
 30
0.0
  9
$UCSORGBOTTOM
 10
0.0
 20
0.0
 30
0.0
  9
$UCSORGLEFT
 10
0.0
 20
0.0
 30
0.0
  9
$UCSORGRIGHT
 10
0.0
 20
0.0
 30
0.0
  9
$UCSORGFRONT
 10
0.0
 20
0.0
 30
0.0
  9
$UCSORGBACK
 10
0.0
 20
0.0
 30
0.0
  9
$PUCSBASE
  2

  9
$PUCSNAME
  2

  9
$PUCSORG
 10
0.0
 20
0.0
 30
0.0
  9
$PUCSXDIR
 10
1.0
 20
0.0
 30
0.0
  9
$PUCSYDIR
 10
0.0
 20
1.0
 30
0.0
  9
$PUCSORTHOREF
  2

  9
$PUCSORTHOVIEW
 70
     0
  9
$PUCSORGTOP
 10
0.0
 20
0.0
 30
0.0
  9
$PUCSORGBOTTOM
 10
0.0
 20
0.0
 30
0.0
  9
$PUCSORGLEFT
 10
0.0
 20
0.0
 30
0.0
  9
$PUCSORGRIGHT
 10
0.0
 20
0.0
 30
0.0
  9
$PUCSORGFRONT
 10
0.0
 20
0.0
 30
0.0
  9
$PUCSORGBACK
 10
0.0
 20
0.0
 30
0.0
  9
$USERI1
 70
     0
  9
$USERI2
 70
     0
  9
$USERI3
 70
     0
  9
$USERI4
 70
     0
  9
$USERI5
 70
     0
  9
$USERR1
 40
0.0
  9
$USERR2
 40
0.0
  9
$USERR3
 40
0.0
  9
$USERR4
 40
0.0
  9
$USERR5
 40
0.0
  9
$WORLDVIEW
 70
     1
  9
$SHADEDGE
 70
     3
  9
$SHADEDIF
 70
    70
  9
$TILEMODE
 70
     1
  9
$MAXACTVP
 70
    64
  9
$PINSBASE
 10
0.0
 20
0.0
 30
0.0
  9
$PLIMCHECK
 70
     0
  9
$PEXTMIN
 10
-0.5
 20
-0.5
 30
-0.5
  9
$PEXTMAX
 10
5.0
 20
5.0
 30
5.0
  9
$PLIMMIN
 10
-0.5
 20
-0.5
  9
$PLIMMAX
 10
5.0
 20
5.0
  9
$UNITMODE
 70
     0
  9
$VISRETAIN
 70
     1
  9
$PLINEGEN
 70
     0
  9
$PSLTSCALE
 70
     1
  9
$TREEDEPTH
 70
  3020
  9
$CMLSTYLE
  2
Standard
  9
$CMLJUST
 70
     0
  9
$CMLSCALE
 40
1.0
  9
$PROXYGRAPHICS
 70
     1
  9
$MEASUREMENT
 70
     1
  9
$CELWEIGHT
370
    13
  9
$ENDCAPS
280
     0
  9
$JOINSTYLE
280
     0
  9
$LWDISPLAY
290
     0
  9
$INSUNITS
 70
     4
  9
$HYPERLINKBASE
  1

  9
$STYLESHEET
  1

  9
$XEDIT
290
     1
  9
$CEPSNTYPE
380
     0
  9
$PSTYLEMODE
290
     1
  9
$FINGERPRINTGUID
  2
{25546DEB-3270-4A4A-93DE-05B5DB3A2983}
  9
$VERSIONGUID
  2
{5B61D7BA-3F7A-DF43-A4B9-770B71668248}
  9
$EXTNAMES
290
     1
  9
$PSVPSCALE
 40
0.0
  9
$OLESTARTUP
290
     0
  9
$SORTENTS
280
   127
  9
$INDEXCTL
280
     0
  9
$HIDETEXT
280
     1
  9
$XCLIPFRAME
290
     0
  9
$HALOGAP
280
     0
  9
$OBSCOLOR
 70
   257
  9
$OBSLTYPE
280
     0
  9
$INTERSECTIONDISPLAY
280
     0
  9
$INTERSECTIONCOLOR
 70
   257
  9
$DIMASSOC
280
     2
  9
$PROJECTNAME
  1

  0
ENDSEC
  0
SECTION
  2
CLASSES
  0
CLASS
  1
ACDBDICTIONARYWDFLT
  2
AcDbDictionaryWithDefault
  3
ObjectDBX Classes
 90
        0
 91
        1
280
     0
281
     0
  0
CLASS
  1
VISUALSTYLE
  2
AcDbVisualStyle
  3
ObjectDBX Classes
 90
     4095
 91
       24
280
     0
281
     0
  0
CLASS
  1
MATERIAL
  2
AcDbMaterial
  3
ObjectDBX Classes
 90
     1153
 91
        3
280
     0
281
     0
  0
CLASS
  1
SCALE
  2
AcDbScale
  3
ObjectDBX Classes
 90
     1153
 91
       33
280
     0
281
     0
  0
CLASS
  1
TABLESTYLE
  2
AcDbTableStyle
  3
ObjectDBX Classes
 90
     4095
 91
        1
280
     0
281
     0
  0
CLASS
  1
MLEADERSTYLE
  2
AcDbMLeaderStyle
  3
ACDB_MLEADERSTYLE_CLASS
 90
     4095
 91
        1
280
     0
281
     0
  0
CLASS
  1
SUN
  2
AcDbSun
  3
SCENEOE
 90
     1153
 91
        0
280
     0
281
     0
  0
CLASS
  1
DIMASSOC
  2
AcDbDimAssoc
  3
"AcDbDimAssoc|Product Desc:     AcDim ARX App For Dimension|Company:          Autodesk, Inc.|WEB Address:      www.autodesk.com"
 90
        0
 91
        7
280
     0
281
     0
  0
CLASS
  1
DICTIONARYVAR
  2
AcDbDictionaryVar
  3
ObjectDBX Classes
 90
        0
 91
        8
280
     0
281
     0
  0
CLASS
  1
CELLSTYLEMAP
  2
AcDbCellStyleMap
  3
ObjectDBX Classes
 90
     1152
 91
        2
280
     0
281
     0
  0
CLASS
  1
ACDBSECTIONVIEWSTYLE
  2
AcDbSectionViewStyle
  3
ObjectDBX Classes
 90
     1025
 91
        1
280
     0
281
     0
  0
CLASS
  1
ACDBDETAILVIEWSTYLE
  2
AcDbDetailViewStyle
  3
ObjectDBX Classes
 90
     1025
 91
        1
280
     0
281
     0
  0
CLASS
  1
SORTENTSTABLE
  2
AcDbSortentsTable
  3
ObjectDBX Classes
 90
        0
 91
        1
280
     0
281
     0
  0
ENDSEC
  0
SECTION
  2
TABLES
  0
TABLE
  2
VPORT
  5
8
330
0
100
AcDbSymbolTable
 70
    16
  0
VPORT
  5
29
330
8
100
AcDbSymbolTableRecord
100
AcDbViewportTableRecord
  2
*Active
 70
     0
 10
0.0
 20
0.0
 11
1.0
 21
1.0
 12
294.6930003911703
 22
296.9624506148285
 13
0.0
 23
0.0
 14
0.5
 24
0.5
 15
0.5
 25
0.5
 16
0.0
 26
0.0
 36
1.0
 17
0.0
 27
0.0
 37
0.0
 40
204.6620152861741
 41
2.283154121863799
 42
50.0
 43
413.801846
 44
-413.801846
 50
0.0
 51
0.0
 71
     0
 72
   100
 73
     1
 74
     3
 75
     0
 76
     0
 77
     0
 78
     0
281
     0
 65
     1
110
274.404842
120
288.907994
130
0.0
111
1.0
121
0.0
131
0.0
112
0.0
122
1.0
132
0.0
 79
     0
146
0.0
1001
ACAD_NAV_VCDISPLAY
1070
     3
  0
VPORT
  5
2AE
330
8
100
AcDbSymbolTableRecord
100
AcDbViewportTableRecord
  2
L1
 70
     0
 10
0.0
 20
0.0
 11
1.0
 21
1.0
 12
280.80175
 22
229.722187
 13
0.0
 23
0.0
 14
0.5
 24
0.5
 15
0.5
 25
0.5
 16
0.0
 26
0.0
 36
1.0
 17
0.0
 27
0.0
 37
0.0
 40
207.433333
 41
0.085602
 42
50.0
 43
413.801846
 44
-413.801846
 50
0.0
 51
0.0
 71
     0
 72
   100
 73
     1
 74
     3
 75
     0
 76
     0
 77
     0
 78
     0
281
     0
 65
     1
110
0.0
120
0.0
130
0.0
111
1.0
121
0.0
131
0.0
112
0.0
122
1.0
132
0.0
 79
     0
146
0.0
  0
VPORT
  5
2AF
330
8
100
AcDbSymbolTableRecord
100
AcDbViewportTableRecord
  2
L2
 70
     0
 10
0.0
 20
0.0
 11
0.5
 21
1.0
 12
0.0
 22
0.0
 13
0.0
 23
0.0
 14
0.5
 24
0.5
 15
0.5
 25
0.5
 16
0.0
 26
-1.0
 36
0.0
 17
0.0
 27
0.0
 37
0.0
 40
1319.143726
 41
0.013461
 42
50.0
 43
679.601336
 44
-679.601336
 50
0.0
 51
0.0
 71
     0
 72
   100
 73
     1
 74
     3
 75
     0
 76
     0
 77
     0
 78
     0
281
     0
 65
     1
110
0.0
120
0.0
130
0.0
111
1.0
121
0.0
131
0.0
112
0.0
122
1.0
132
0.0
 79
     0
146
0.0
  0
VPORT
  5
2B0
330
8
100
AcDbSymbolTableRecord
100
AcDbViewportTableRecord
  2
L2
 70
     0
 10
0.5
 20
0.0
 11
1.0
 21
1.0
 12
0.0
 22
0.0
 13
0.0
 23
0.0
 14
0.5
 24
0.5
 15
0.5
 25
0.5
 16
1.0
 26
0.0
 36
0.0
 17
0.0
 27
0.0
 37
0.0
 40
1319.143726
 41
0.013461
 42
50.0
 43
667.6767099999999
 44
-667.6767099999999
 50
0.0
 51
0.0
 71
     0
 72
   100
 73
     1
 74
     3
 75
     0
 76
     0
 77
     0
 78
     0
281
     0
 65
     1
110
0.0
120
0.0
130
0.0
111
1.0
121
0.0
131
0.0
112
0.0
122
1.0
132
0.0
 79
     0
146
0.0
  0
VPORT
  5
2B1
330
8
100
AcDbSymbolTableRecord
100
AcDbViewportTableRecord
  2
L3
 70
     0
 10
0.0
 20
0.5
 11
1.0
 21
1.0
 12
280.80175
 22
229.722187
 13
0.0
 23
0.0
 14
0.5
 24
0.5
 15
0.5
 25
0.5
 16
0.0
 26
0.0
 36
1.0
 17
0.0
 27
0.0
 37
0.0
 40
207.433333
 41
0.085602
 42
50.0
 43
413.801846
 44
-413.801846
 50
0.0
 51
0.0
 71
     0
 72
   100
 73
     1
 74
     3
 75
     0
 76
     0
 77
     0
 78
     0
281
     0
 65
     1
110
0.0
120
0.0
130
0.0
111
1.0
121
0.0
131
0.0
112
0.0
122
1.0
132
0.0
 79
     0
146
0.0
  0
VPORT
  5
2B2
330
8
100
AcDbSymbolTableRecord
100
AcDbViewportTableRecord
  2
L3
 70
     0
 10
0.0
 20
0.0
 11
1.0
 21
0.5
 12
0.0
 22
0.0
 13
0.0
 23
0.0
 14
0.5
 24
0.5
 15
0.5
 25
0.5
 16
0.0
 26
-1.0
 36
0.0
 17
0.0
 27
0.0
 37
0.0
 40
1319.143726
 41
0.013461
 42
50.0
 43
679.601336
 44
-679.601336
 50
0.0
 51
0.0
 71
     0
 72
   100
 73
     1
 74
     3
 75
     0
 76
     0
 77
     0
 78
     0
281
     0
 65
     1
110
0.0
120
0.0
130
0.0
111
1.0
121
0.0
131
0.0
112
0.0
122
1.0
132
0.0
 79
     0
146
0.0
  0
VPORT
  5
2B3
330
8
100
AcDbSymbolTableRecord
100
AcDbViewportTableRecord
  2
L4
 70
     0
 10
0.0
 20
0.5
 11
0.5
 21
1.0
 12
280.80175
 22
229.722187
 13
0.0
 23
0.0
 14
0.5
 24
0.5
 15
0.5
 25
0.5
 16
0.0
 26
0.0
 36
1.0
 17
0.0
 27
0.0
 37
0.0
 40
207.433333
 41
0.085602
 42
50.0
 43
413.801846
 44
-413.801846
 50
0.0
 51
0.0
 71
     0
 72
   100
 73
     1
 74
     3
 75
     0
 76
     0
 77
     0
 78
     0
281
     0
 65
     1
110
0.0
120
0.0
130
0.0
111
1.0
121
0.0
131
0.0
112
0.0
122
1.0
132
0.0
 79
     0
146
0.0
  0
VPORT
  5
2B4
330
8
100
AcDbSymbolTableRecord
100
AcDbViewportTableRecord
  2
L4
 70
     0
 10
0.0
 20
0.0
 11
0.5
 21
0.5
 12
0.0
 22
0.0
 13
0.0
 23
0.0
 14
0.5
 24
0.5
 15
0.5
 25
0.5
 16
0.0
 26
-1.0
 36
0.0
 17
0.0
 27
0.0
 37
0.0
 40
1319.143726
 41
0.013461
 42
50.0
 43
679.601336
 44
-679.601336
 50
0.0
 51
0.0
 71
     0
 72
   100
 73
     1
 74
     3
 75
     0
 76
     0
 77
     0
 78
     0
281
     0
 65
     1
110
0.0
120
0.0
130
0.0
111
1.0
121
0.0
131
0.0
112
0.0
122
1.0
132
0.0
 79
     0
146
0.0
  0
VPORT
  5
2B5
330
8
100
AcDbSymbolTableRecord
100
AcDbViewportTableRecord
  2
L4
 70
     0
 10
0.5
 20
0.0
 11
1.0
 21
0.5
 12
0.0
 22
0.0
 13
0.0
 23
0.0
 14
0.5
 24
0.5
 15
0.5
 25
0.5
 16
1.0
 26
0.0
 36
0.0
 17
0.0
 27
0.0
 37
0.0
 40
1319.143726
 41
0.013461
 42
50.0
 43
667.6767099999999
 44
-667.6767099999999
 50
0.0
 51
0.0
 71
     0
 72
   100
 73
     1
 74
     3
 75
     0
 76
     0
 77
     0
 78
     0
281
     0
 65
     1
110
0.0
120
0.0
130
0.0
111
1.0
121
0.0
131
0.0
112
0.0
122
1.0
132
0.0
 79
     0
146
0.0
  0
VPORT
  5
2B6
330
8
100
AcDbSymbolTableRecord
100
AcDbViewportTableRecord
  2
L4
 70
     0
 10
0.5
 20
0.5
 11
1.0
 21
1.0
 12
0.0
 22
0.0
 13
0.0
 23
0.0
 14
0.5
 24
0.5
 15
0.5
 25
0.5
 16
0.5773502691896259
 26
-0.5773502691896259
 36
0.5773502691896259
 17
0.0
 27
0.0
 37
0.0
 40
1295.484074
 41
0.013707
 42
50.0
 43
674.79345
 44
-674.79345
 50
0.0
 51
0.0
 71
     0
 72
   100
 73
     1
 74
     3
 75
     0
 76
     0
 77
     0
 78
     0
281
     0
 65
     1
110
0.0
120
0.0
130
0.0
111
1.0
121
0.0
131
0.0
112
0.0
122
1.0
132
0.0
 79
     0
146
0.0
  0
VPORT
  5
2B7
330
8
100
AcDbSymbolTableRecord
100
AcDbViewportTableRecord
  2
L6
 70
     0
 10
0.0
 20
0.5
 11
0.333333
 21
1.0
 12
0.0
 22
0.0
 13
0.0
 23
0.0
 14
0.5
 24
0.5
 15
0.5
 25
0.5
 16
0.7188730927569434
 26
-0.5850486126764433
 36
0.3754192287502549
 17
0.0
 27
0.0
 37
0.0
 40
1367.187154
 41
0.012988
 42
50.0
 43
707.8776949999999
 44
-707.8776949999999
 50
0.0
 51
0.0
 71
     0
 72
   100
 73
     1
 74
     3
 75
     0
 76
     0
 77
     0
 78
     0
281
     0
 65
     1
110
0.0
120
0.0
130
0.0
111
1.0
121
0.0
131
0.0
112
0.0
122
1.0
132
0.0
 79
     0
146
0.0
  0
VPORT
  5
2B8
330
8
100
AcDbSymbolTableRecord
100
AcDbViewportTableRecord
  2
L6
 70
     0
 10
0.0
 20
0.0
 11
0.333333
 21
0.5
 12
0.0
 22
0.0
 13
0.0
 23
0.0
 14
0.5
 24
0.5
 15
0.5
 25
0.5
 16
-1.0
 26
0.0
 36
0.0
 17
0.0
 27
0.0
 37
0.0
 40
1319.143726
 41
0.013461
 42
50.0
 43
667.6767099999999
 44
-667.6767099999999
 50
0.0
 51
0.0
 71
     0
 72
   100
 73
     1
 74
     3
 75
     0
 76
     0
 77
     0
 78
     0
281
     0
 65
     1
110
0.0
120
0.0
130
0.0
111
1.0
121
0.0
131
0.0
112
0.0
122
1.0
132
0.0
 79
     0
146
0.0
  0
VPORT
  5
2B9
330
8
100
AcDbSymbolTableRecord
100
AcDbViewportTableRecord
  2
L6
 70
     0
 10
0.333333
 20
0.5
 11
0.666667
 21
1.0
 12
280.80175
 22
229.722187
 13
0.0
 23
0.0
 14
0.5
 24
0.5
 15
0.5
 25
0.5
 16
0.0
 26
0.0
 36
1.0
 17
0.0
 27
0.0
 37
0.0
 40
207.433333
 41
0.085602
 42
50.0
 43
413.801846
 44
-413.801846
 50
0.0
 51
0.0
 71
     0
 72
   100
 73
     1
 74
     3
 75
     0
 76
     0
 77
     0
 78
     0
281
     0
 65
     1
110
0.0
120
0.0
130
0.0
111
1.0
121
0.0
131
0.0
112
0.0
122
1.0
132
0.0
 79
     0
146
0.0
  0
VPORT
  5
2BA
330
8
100
AcDbSymbolTableRecord
100
AcDbViewportTableRecord
  2
L6
 70
     0
 10
0.333333
 20
0.0
 11
0.666667
 21
0.5
 12
0.0
 22
0.0
 13
0.0
 23
0.0
 14
0.5
 24
0.5
 15
0.5
 25
0.5
 16
0.0
 26
-1.0
 36
0.0
 17
0.0
 27
0.0
 37
0.0
 40
1319.143726
 41
0.013461
 42
50.0
 43
679.601336
 44
-679.601336
 50
0.0
 51
0.0
 71
     0
 72
   100
 73
     1
 74
     3
 75
     0
 76
     0
 77
     0
 78
     0
281
     0
 65
     1
110
0.0
120
0.0
130
0.0
111
1.0
121
0.0
131
0.0
112
0.0
122
1.0
132
0.0
 79
     0
146
0.0
  0
VPORT
  5
2BB
330
8
100
AcDbSymbolTableRecord
100
AcDbViewportTableRecord
  2
L6
 70
     0
 10
0.666667
 20
0.5
 11
1.0
 21
1.0
 12
0.0
 22
0.0
 13
0.0
 23
0.0
 14
0.5
 24
0.5
 15
0.5
 25
0.5
 16
0.5773502691896259
 26
-0.5773502691896259
 36
0.5773502691896259
 17
0.0
 27
0.0
 37
0.0
 40
1295.484074
 41
0.013707
 42
50.0
 43
674.79345
 44
-674.79345
 50
0.0
 51
0.0
 71
     0
 72
   100
 73
     1
 74
     3
 75
     0
 76
     0
 77
     0
 78
     0
281
     0
 65
     1
110
0.0
120
0.0
130
0.0
111
1.0
121
0.0
131
0.0
112
0.0
122
1.0
132
0.0
 79
     0
146
0.0
  0
VPORT
  5
2BC
330
8
100
AcDbSymbolTableRecord
100
AcDbViewportTableRecord
  2
L6
 70
     0
 10
0.666667
 20
0.0
 11
1.0
 21
0.5
 12
0.0
 22
0.0
 13
0.0
 23
0.0
 14
0.5
 24
0.5
 15
0.5
 25
0.5
 16
1.0
 26
0.0
 36
0.0
 17
0.0
 27
0.0
 37
0.0
 40
1319.143726
 41
0.013461
 42
50.0
 43
667.6767099999999
 44
-667.6767099999999
 50
0.0
 51
0.0
 71
     0
 72
   100
 73
     1
 74
     3
 75
     0
 76
     0
 77
     0
 78
     0
281
     0
 65
     1
110
0.0
120
0.0
130
0.0
111
1.0
121
0.0
131
0.0
112
0.0
122
1.0
132
0.0
 79
     0
146
0.0
  0
ENDTAB
  0
TABLE
  2
LTYPE
  5
5
330
0
100
AcDbSymbolTable
 70
     7
  0
LTYPE
  5
14
330
5
100
AcDbSymbolTableRecord
100
AcDbLinetypeTableRecord
  2
ByBlock
 70
     0
  3

 72
    65
 73
     0
 40
0.0
  0
LTYPE
  5
15
330
5
100
AcDbSymbolTableRecord
100
AcDbLinetypeTableRecord
  2
ByLayer
 70
     0
  3

 72
    65
 73
     0
 40
0.0
  0
LTYPE
  5
16
330
5
100
AcDbSymbolTableRecord
100
AcDbLinetypeTableRecord
  2
Continuous
 70
     0
  3
Solid line
 72
    65
 73
     0
 40
0.0
  0
LTYPE
  5
6E
330
5
100
AcDbSymbolTableRecord
100
AcDbLinetypeTableRecord
  2
CENTER
 70
     0
  3
____ _ ____ _ ____ _ ____
 72
    65
 73
     4
 40
47.4
 49
22.0
 74
     4
 75
     0
340
0
 46
0.0
 50
0.0
 44
0.0
 45
0.0
 49
-8.5
 74
     4
 75
     0
340
0
 46
0.0
 50
0.0
 44
0.0
 45
0.0
 49
8.5
 74
     4
 75
     0
340
0
 46
0.0
 50
0.0
 44
0.0
 45
0.0
 49
-8.5
 74
     4
 75
     0
340
0
 46
0.0
 50
0.0
 44
0.0
 45
0.0
  0
LTYPE
  5
6F
330
5
100
AcDbSymbolTableRecord
100
AcDbLinetypeTableRecord
  2
DASHDOT
 70
     0
  3
_._._._._._._._._._._._._._._._.
 72
    65
 73
     4
 40
70.0
 49
31.0
 74
     4
 75
     0
340
0
 46
0.0
 50
0.0
 44
0.0
 45
0.0
 49
-13.0
 74
     4
 75
     0
340
0
 46
0.0
 50
0.0
 44
0.0
 45
0.0
 49
13.0
 74
     4
 75
     0
340
0
 46
0.0
 50
0.0
 44
0.0
 45
0.0
 49
-13.0
 74
     4
 75
     0
340
0
 46
0.0
 50
0.0
 44
0.0
 45
0.0
  0
LTYPE
  5
70
330
5
100
AcDbSymbolTableRecord
100
AcDbLinetypeTableRecord
  2
DASHED
 70
     0
  3
__ __ __ __ __ __ __ __ __
 72
    65
 73
     2
 40
25.72
 49
12.86
 74
     4
 75
     0
340
0
 46
0.0
 50
0.0
 44
0.0
 45
0.0
 49
-12.86
 74
     4
 75
     0
340
0
 46
0.0
 50
0.0
 44
0.0
 45
0.0
  0
LTYPE
  5
71
330
5
100
AcDbSymbolTableRecord
100
AcDbLinetypeTableRecord
  2
DOT
 70
     0
  3
.........................
 72
    65
 73
     2
 40
10.0
 49
0.0
 74
     4
 75
     0
340
0
 46
0.0
 50
0.0
 44
0.0
 45
0.0
 49
-10.0
 74
     4
 75
     0
340
0
 46
0.0
 50
0.0
 44
0.0
 45
0.0
  0
LTYPE
  5
72
330
5
100
AcDbSymbolTableRecord
100
AcDbLinetypeTableRecord
  2
PHANTOM
 70
     0
  3
____ _ _ ____ _ _ _____ _ _ ____
 72
    65
 73
     6
 40
50.5
 49
18.0
 74
     4
 75
     0
340
0
 46
0.0
 50
0.0
 44
0.0
 45
0.0
 49
-6.5
 74
     4
 75
     0
340
0
 46
0.0
 50
0.0
 44
0.0
 45
0.0
 49
6.5
 74
     4
 75
     0
340
0
 46
0.0
 50
0.0
 44
0.0
 45
0.0
 49
-6.5
 74
     4
 75
     0
340
0
 46
0.0
 50
0.0
 44
0.0
 45
0.0
 49
6.5
 74
     4
 75
     0
340
0
 46
0.0
 50
0.0
 44
0.0
 45
0.0
 49
-6.5
 74
     4
 75
     0
340
0
 46
0.0
 50
0.0
 44
0.0
 45
0.0
  0
LTYPE
  5
34F
330
5
100
AcDbSymbolTableRecord
100
AcDbLinetypeTableRecord
  2
CENTER2
 70
     0
  3
Center (.5x) ___ _ ___ _ ___ _ ___ _ ___ _ ___
 72
    65
 73
     4
 40
1.125
 49
0.75
 74
     0
 49
-0.125
 74
     0
 49
0.125
 74
     0
 49
-0.125
 74
     0
  0
ENDTAB
  0
TABLE
  2
LAYER
  5
2
330
0
100
AcDbSymbolTable
 70
    22
  0
LAYER
  5
10
102
{ACAD_XDICTIONARY
360
35A
102
}
330
2
100
AcDbSymbolTableRecord
100
AcDbLayerTableRecord
  2
0
 70
     0
 62
     7
  6
Continuous
370
    -3
390
F
  0
LAYER
  5
208
330
2
100
AcDbSymbolTableRecord
100
AcDbLayerTableRecord
  2
Defpoints
 70
     0
 62
     7
  6
Continuous
290
     0
370
    -3
390
F
  0
LAYER
  5
34C
102
{ACAD_XDICTIONARY
360
35C
102
}
330
2
100
AcDbSymbolTableRecord
100
AcDbLayerTableRecord
  2
1
 70
     0
 62
     4
  6
Continuous
370
    -3
390
F
  0
LAYER
  5
34D
102
{ACAD_XDICTIONARY
360
35E
102
}
330
2
100
AcDbSymbolTableRecord
100
AcDbLayerTableRecord
  2
2
 70
     0
 62
     7
  6
Continuous
370
    -3
390
F
  0
LAYER
  5
34E
102
{ACAD_XDICTIONARY
360
360
102
}
330
2
100
AcDbSymbolTableRecord
100
AcDbLayerTableRecord
  2
4
 70
     0
 62
     2
  6
CENTER2
370
    -3
390
F
  0
LAYER
  5
350
102
{ACAD_XDICTIONARY
360
362
102
}
330
2
100
AcDbSymbolTableRecord
100
AcDbLayerTableRecord
  2
SK1
 70
     0
 62
     4
  6
Continuous
370
    -3
390
F
  0
LAYER
  5
351
102
{ACAD_XDICTIONARY
360
364
102
}
330
2
100
AcDbSymbolTableRecord
100
AcDbLayerTableRecord
  2
SK2
 70
     0
 62
     7
  6
Continuous
370
    -3
390
F
  0
LAYER
  5
353
102
{ACAD_XDICTIONARY
360
366
102
}
330
2
100
AcDbSymbolTableRecord
100
AcDbLayerTableRecord
  2
SK4
 70
     0
 62
     2
  6
CENTER2
370
    -3
390
F
  0
LAYER
  5
354
102
{ACAD_XDICTIONARY
360
368
102
}
330
2
100
AcDbSymbolTableRecord
100
AcDbLayerTableRecord
  2
SK6
 70
     0
 62
     5
  6
Continuous
370
    -3
390
F
  0
LAYER
  5
355
102
{ACAD_XDICTIONARY
360
36A
102
}
330
2
100
AcDbSymbolTableRecord
100
AcDbLayerTableRecord
  2
CUT
 70
     0
 62
     1
  6
Continuous
370
    -3
390
F
  0
LAYER
  5
356
102
{ACAD_XDICTIONARY
360
36C
102
}
330
2
100
AcDbSymbolTableRecord
100
AcDbLayerTableRecord
  2
NOCUT
 70
     0
 62
     7
  6
Continuous
370
    -3
390
F
  0
LAYER
  5
357
102
{ACAD_XDICTIONARY
360
36E
102
}
330
2
100
AcDbSymbolTableRecord
100
AcDbLayerTableRecord
  2
80
 70
     0
 62
     6
  6
Continuous
370
    -3
390
F
  0
LAYER
  5
358
102
{ACAD_XDICTIONARY
360
370
102
}
330
2
100
AcDbSymbolTableRecord
100
AcDbLayerTableRecord
  2
81
 70
     0
 62
     3
  6
Continuous
370
    -3
390
F
  0
ENDTAB
  0
TABLE
  2
STYLE
  5
3
330
0
100
AcDbSymbolTable
 70
     3
  0
STYLE
  5
11
330
3
100
AcDbSymbolTableRecord
100
AcDbTextStyleTableRecord
  2
Standard
 70
     0
 40
0.0
 41
1.0
 50
0.0
 71
     0
 42
0.2
  3
txt
  4

  0
STYLE
  5
201
330
3
100
AcDbSymbolTableRecord
100
AcDbTextStyleTableRecord
  2
cesky
 70
     0
 40
0.0
 41
1.0
 50
0.0
 71
     0
 42
0.2
  3
simplex.shx
  4

  0
STYLE
  5
202
330
3
100
AcDbSymbolTableRecord
100
AcDbTextStyleTableRecord
  2
DWGDirectTextStyle
 70
     0
 40
0.0
 41
1.0
 50
0.0
 71
     0
 42
0.2
  3
simplex
  4

  0
ENDTAB
  0
TABLE
  2
VIEW
  5
6
330
0
100
AcDbSymbolTable
 70
     0
  0
ENDTAB
  0
TABLE
  2
UCS
  5
7
330
0
100
AcDbSymbolTable
 70
     0
  0
ENDTAB
  0
TABLE
  2
APPID
  5
9
330
0
100
AcDbSymbolTable
 70
     7
  0
APPID
  5
12
330
9
100
AcDbSymbolTableRecord
100
AcDbRegAppTableRecord
  2
ACAD
 70
     0
  0
APPID
  5
204
330
9
100
AcDbSymbolTableRecord
100
AcDbRegAppTableRecord
  2
ACAD_DSTYLE_DIMBREAK
 70
     0
  0
APPID
  5
2BD
330
9
100
AcDbSymbolTableRecord
100
AcDbRegAppTableRecord
  2
ACAD_DSTYLE_DIM_LINETYPE
 70
     0
  0
APPID
  5
2BE
330
9
100
AcDbSymbolTableRecord
100
AcDbRegAppTableRecord
  2
ACAD_DSTYLE_DIM_EXT1_LINETYPE
 70
     0
  0
APPID
  5
2BF
330
9
100
AcDbSymbolTableRecord
100
AcDbRegAppTableRecord
  2
ACAD_DSTYLE_DIM_EXT2_LINETYPE
 70
     0
  0
APPID
  5
2FF
330
9
100
AcDbSymbolTableRecord
100
AcDbRegAppTableRecord
  2
ACAD_MLEADERVER
 70
     0
  0
APPID
  5
375
330
9
100
AcDbSymbolTableRecord
100
AcDbRegAppTableRecord
  2
ACAD_NAV_VCDISPLAY
 70
     0
  0
ENDTAB
  0
TABLE
  2
DIMSTYLE
  5
A
330
0
100
AcDbSymbolTable
 70
     1
100
AcDbDimStyleTable
 71
     0
  0
DIMSTYLE
105
27
330
A
100
AcDbSymbolTableRecord
100
AcDbDimStyleTableRecord
  2
Standard
 70
     0
340
11
1001
ACAD_DSTYLE_DIMBREAK
1070
   391
1040
6.349999999999999
  0
ENDTAB
  0
TABLE
  2
BLOCK_RECORD
  5
1
330
0
100
AcDbSymbolTable
 70
    16
  0
BLOCK_RECORD
  5
1F
102
{ACAD_XDICTIONARY
360
30F
102
}
330
1
100
AcDbSymbolTableRecord
100
AcDbBlockTableRecord
  2
*Model_Space
340
22
  0
BLOCK_RECORD
  5
1B
330
1
100
AcDbSymbolTableRecord
100
AcDbBlockTableRecord
  2
*Paper_Space
340
1E
  0
BLOCK_RECORD
  5
23
330
1
100
AcDbSymbolTableRecord
100
AcDbBlockTableRecord
  2
*Paper_Space0
340
26
  0
BLOCK_RECORD
  5
1FB
330
1
100
AcDbSymbolTableRecord
100
AcDbBlockTableRecord
  2
ASSORTED_DRAFT1
340
0
  0
BLOCK_RECORD
  5
209
330
1
100
AcDbSymbolTableRecord
100
AcDbBlockTableRecord
  2
*D2
340
0
  0
BLOCK_RECORD
  5
214
330
1
100
AcDbSymbolTableRecord
100
AcDbBlockTableRecord
  2
_U0
340
0
  0
BLOCK_RECORD
  5
21F
330
1
100
AcDbSymbolTableRecord
100
AcDbBlockTableRecord
  2
*D4
340
0
  0
BLOCK_RECORD
  5
22B
330
1
100
AcDbSymbolTableRecord
100
AcDbBlockTableRecord
  2
_U1
340
0
  0
BLOCK_RECORD
  5
238
330
1
100
AcDbSymbolTableRecord
100
AcDbBlockTableRecord
  2
*D6
340
0
  0
BLOCK_RECORD
  5
244
330
1
100
AcDbSymbolTableRecord
100
AcDbBlockTableRecord
  2
_U2
340
0
  0
BLOCK_RECORD
  5
251
330
1
100
AcDbSymbolTableRecord
100
AcDbBlockTableRecord
  2
*D8
340
0
  0
BLOCK_RECORD
  5
25D
330
1
100
AcDbSymbolTableRecord
100
AcDbBlockTableRecord
  2
_U3
340
0
  0
BLOCK_RECORD
  5
269
330
1
100
AcDbSymbolTableRecord
100
AcDbBlockTableRecord
  2
*D10
340
0
  0
BLOCK_RECORD
  5
275
330
1
100
AcDbSymbolTableRecord
100
AcDbBlockTableRecord
  2
_U4
340
0
  0
BLOCK_RECORD
  5
281
330
1
100
AcDbSymbolTableRecord
100
AcDbBlockTableRecord
  2
*D12
340
0
  0
BLOCK_RECORD
  5
28D
330
1
100
AcDbSymbolTableRecord
100
AcDbBlockTableRecord
  2
_U5
340
0
  0
BLOCK_RECORD
  5
299
330
1
100
AcDbSymbolTableRecord
100
AcDbBlockTableRecord
  2
*D14
340
0
  0
BLOCK_RECORD
  5
2A5
330
1
100
AcDbSymbolTableRecord
100
AcDbBlockTableRecord
  2
_U6
340
0
  0
ENDTAB
  0
ENDSEC
  0
SECTION
  2
BLOCKS
  0
BLOCK
  5
20
330
1F
100
AcDbEntity
  8
0
100
AcDbBlockBegin
  2
*Model_Space
 70
     0
 10
0.0
 20
0.0
 30
0.0
  3
*Model_Space
  1

  0
ENDBLK
  5
21
330
1F
100
AcDbEntity
  8
0
100
AcDbBlockEnd
  0
BLOCK
  5
1C
330
1B
100
AcDbEntity
 67
     1
  8
0
100
AcDbBlockBegin
  2
*Paper_Space
 70
     0
 10
0.0
 20
0.0
 30
0.0
  3
*Paper_Space
  1

  0
ENDBLK
  5
1D
330
1B
100
AcDbEntity
 67
     1
  8
0
100
AcDbBlockEnd
  0
BLOCK
  5
24
330
23
100
AcDbEntity
 67
     1
  8
0
100
AcDbBlockBegin
  2
*Paper_Space0
 70
     0
 10
0.0
 20
0.0
 30
0.0
  3
*Paper_Space0
  1

  0
ENDBLK
  5
25
330
23
100
AcDbEntity
 67
     1
  8
0
100
AcDbBlockEnd
  0
BLOCK
  5
1FE
330
1FB
100
AcDbEntity
  8
0
100
AcDbBlockBegin
  2
ASSORTED_DRAFT1
 70
     0
 10
0.0
 20
0.0
 30
0.0
  3
ASSORTED_DRAFT1
  1

  0
SOLID
  5
1FC
330
1FB
100
AcDbEntity
  8
0
 62
   254
370
    13
100
AcDbTrace
 10
270.185042
 20
168.534924
 30
0.0
 11
265.185046
 21
167.42645
 31
0.0
 12
265.1850379999999
 22
169.643397
 32
0.0
 13
270.185042
 23
168.534924
 33
0.0
  0
ENDBLK
  5
1FF
330
1FB
100
AcDbEntity
  8
0
100
AcDbBlockEnd
  0
BLOCK
  5
20A
330
209
100
AcDbEntity
  8
0
100
AcDbBlockBegin
  2
*D2
 70
     1
 10
0.0
 20
0.0
 30
0.0
  3
*D2
  1

  0
LINE
  5
20C
330
209
100
AcDbEntity
  8
0
 62
   254
370
    -2
100
AcDbLine
 10
293.703832
 20
288.907994
 30
0.0
 11
388.031206
 21
288.907994
 31
0.0
  0
LINE
  5
20D
330
209
100
AcDbEntity
  8
0
 62
   254
370
    -2
100
AcDbLine
 10
330.83929
 20
305.907994
 30
0.0
 11
388.031206
 21
305.907994
 31
0.0
  0
LINE
  5
20E
330
209
100
AcDbEntity
  8
0
 62
   254
370
    -2
100
AcDbLine
 10
387.031206
 20
288.907994
 30
0.0
 11
387.031206
 21
305.907994
 31
0.0
  0
SOLID
  5
20F
330
209
100
AcDbEntity
  8
0
 62
   254
100
AcDbTrace
 10
387.6145390000001
 20
302.407994
 30
0.0
 11
386.447872
 21
302.407994
 31
0.0
 12
387.031206
 22
305.907994
 32
0.0
 13
387.031206
 23
305.907994
 33
0.0
  0
MTEXT
  5
210
330
209
100
AcDbEntity
  8
0
 62
   254
370
    13
100
AcDbMText
 10
381.781206
 20
278.991327
 30
0.0
 40
3.5
 41
0.0
 71
     5
 72
     1
  1
\A1;34
  7
cesky
 11
0.0
 21
1.0
 31
0.0
 73
     1
 44
1.0
  0
POINT
  5
211
330
209
100
AcDbEntity
  8
Defpoints
 62
     0
100
AcDbPoint
 10
293.703832
 20
288.907994
 30
0.0
  0
POINT
  5
212
330
209
100
AcDbEntity
  8
Defpoints
 62
     0
100
AcDbPoint
 10
330.83929
 20
305.907994
 30
0.0
  0
POINT
  5
213
330
209
100
AcDbEntity
  8
Defpoints
 62
     0
100
AcDbPoint
 10
387.031206
 20
305.907994
 30
0.0
  0
ENDBLK
  5
20B
330
209
100
AcDbEntity
  8
0
100
AcDbBlockEnd
  0
BLOCK
  5
21A
330
214
100
AcDbEntity
  8
0
100
AcDbBlockBegin
  2
_U0
 70
     0
 10
0.0
 20
0.0
 30
0.0
  3
_U0
  1

  0
ENDBLK
  5
21B
330
214
100
AcDbEntity
  8
0
100
AcDbBlockEnd
  0
BLOCK
  5
220
330
21F
100
AcDbEntity
  8
0
100
AcDbBlockBegin
  2
*D4
 70
     1
 10
0.0
 20
0.0
 30
0.0
  3
*D4
  1

  0
LINE
  5
222
330
21F
100
AcDbEntity
  8
0
 62
    95
370
    -2
100
AcDbLine
 10
206.404842
 20
308.907994
 30
0.0
 11
192.006449
 21
308.907994
 31
0.0
  0
LINE
  5
223
330
21F
100
AcDbEntity
  8
0
 62
    95
370
    -2
100
AcDbLine
 10
206.404842
 20
268.907994
 30
0.0
 11
192.006449
 21
268.907994
 31
0.0
  0
LINE
  5
224
330
21F
100
AcDbEntity
  8
0
 62
    95
370
    -2
100
AcDbLine
 10
193.006449
 20
305.407994
 30
0.0
 11
193.006449
 21
272.407994
 31
0.0
  0
SOLID
  5
225
330
21F
100
AcDbEntity
  8
0
 62
    95
100
AcDbTrace
 10
193.589782
 20
305.407994
 30
0.0
 11
192.423116
 21
305.407994
 31
0.0
 12
193.006449
 22
308.907994
 32
0.0
 13
193.006449
 23
308.907994
 33
0.0
  0
SOLID
  5
226
330
21F
100
AcDbEntity
  8
0
 62
    95
100
AcDbTrace
 10
192.423116
 20
272.407994
 30
0.0
 11
193.589782
 21
272.407994
 31
0.0
 12
193.006449
 22
268.907994
 32
0.0
 13
193.006449
 23
268.907994
 33
0.0
  0
MTEXT
  5
227
330
21F
100
AcDbEntity
  8
0
 62
    95
370
    13
100
AcDbMText
 10
187.756449
 20
288.907994
 30
0.0
 40
3.5
 41
0.0
 71
     5
 72
     1
  1
\A1;40
  7
cesky
 11
0.0
 21
1.0
 31
0.0
 73
     1
 44
1.0
  0
POINT
  5
228
330
21F
100
AcDbEntity
  8
Defpoints
 62
     0
100
AcDbPoint
 10
206.404842
 20
308.907994
 30
0.0
  0
POINT
  5
229
330
21F
100
AcDbEntity
  8
Defpoints
 62
     0
100
AcDbPoint
 10
206.404842
 20
268.907994
 30
0.0
  0
POINT
  5
22A
330
21F
100
AcDbEntity
  8
Defpoints
 62
     0
100
AcDbPoint
 10
193.006449
 20
268.907994
 30
0.0
  0
ENDBLK
  5
221
330
21F
100
AcDbEntity
  8
0
100
AcDbBlockEnd
  0
BLOCK
  5
233
330
22B
100
AcDbEntity
  8
0
100
AcDbBlockBegin
  2
_U1
 70
     0
 10
0.0
 20
0.0
 30
0.0
  3
_U1
  1

  0
ENDBLK
  5
234
330
22B
100
AcDbEntity
  8
0
100
AcDbBlockEnd
  0
BLOCK
  5
239
330
238
100
AcDbEntity
  8
0
100
AcDbBlockBegin
  2
*D6
 70
     1
 10
0.0
 20
0.0
 30
0.0
  3
*D6
  1

  0
LINE
  5
23B
330
238
100
AcDbEntity
  8
0
 62
    95
370
    -2
100
AcDbLine
 10
277.154842
 20
313.907994
 30
0.0
 11
178.434788
 21
313.907994
 31
0.0
  0
LINE
  5
23C
330
238
100
AcDbEntity
  8
0
 62
    95
370
    -2
100
AcDbLine
 10
277.154842
 20
263.907994
 30
0.0
 11
178.434788
 21
263.907994
 31
0.0
  0
LINE
  5
23D
330
238
100
AcDbEntity
  8
0
 62
    95
370
    -2
100
AcDbLine
 10
179.434788
 20
310.407994
 30
0.0
 11
179.434788
 21
267.407994
 31
0.0
  0
SOLID
  5
23E
330
238
100
AcDbEntity
  8
0
 62
    95
100
AcDbTrace
 10
180.018121
 20
310.407994
 30
0.0
 11
178.851455
 21
310.407994
 31
0.0
 12
179.434788
 22
313.907994
 32
0.0
 13
179.434788
 23
313.907994
 33
0.0
  0
SOLID
  5
23F
330
238
100
AcDbEntity
  8
0
 62
    95
100
AcDbTrace
 10
178.851455
 20
267.407994
 30
0.0
 11
180.018121
 21
267.407994
 31
0.0
 12
179.434788
 22
263.907994
 32
0.0
 13
179.434788
 23
263.907994
 33
0.0
  0
MTEXT
  5
240
330
238
100
AcDbEntity
  8
0
 62
    95
370
    13
100
AcDbMText
 10
174.184788
 20
288.907994
 30
0.0
 40
3.5
 41
0.0
 71
     5
 72
     1
  1
\A1;50
  7
cesky
 11
0.0
 21
1.0
 31
0.0
 73
     1
 44
1.0
  0
POINT
  5
241
330
238
100
AcDbEntity
  8
Defpoints
 62
     0
100
AcDbPoint
 10
277.154842
 20
313.907994
 30
0.0
  0
POINT
  5
242
330
238
100
AcDbEntity
  8
Defpoints
 62
     0
100
AcDbPoint
 10
277.154842
 20
263.907994
 30
0.0
  0
POINT
  5
243
330
238
100
AcDbEntity
  8
Defpoints
 62
     0
100
AcDbPoint
 10
179.434788
 20
263.907994
 30
0.0
  0
ENDBLK
  5
23A
330
238
100
AcDbEntity
  8
0
100
AcDbBlockEnd
  0
BLOCK
  5
24C
330
244
100
AcDbEntity
  8
0
100
AcDbBlockBegin
  2
_U2
 70
     0
 10
0.0
 20
0.0
 30
0.0
  3
_U2
  1

  0
ENDBLK
  5
24D
330
244
100
AcDbEntity
  8
0
100
AcDbBlockEnd
  0
BLOCK
  5
252
330
251
100
AcDbEntity
  8
0
100
AcDbBlockBegin
  2
*D8
 70
     1
 10
0.0
 20
0.0
 30
0.0
  3
*D8
  1

  0
LINE
  5
254
330
251
100
AcDbEntity
  8
0
 62
   254
370
    -2
100
AcDbLine
 10
367.404842
 20
307.907994
 30
0.0
 11
367.404842
 21
341.687968
 31
0.0
  0
LINE
  5
255
330
251
100
AcDbEntity
  8
0
 62
   254
370
    -2
100
AcDbLine
 10
204.404842
 20
306.907994
 30
0.0
 11
204.404842
 21
341.687968
 31
0.0
  0
LINE
  5
256
330
251
100
AcDbEntity
  8
0
 62
   254
370
    -2
100
AcDbLine
 10
363.904842
 20
340.687968
 30
0.0
 11
207.904842
 21
340.687968
 31
0.0
  0
SOLID
  5
257
330
251
100
AcDbEntity
  8
0
 62
   254
100
AcDbTrace
 10
363.904842
 20
340.104634
 30
0.0
 11
363.904842
 21
341.271301
 31
0.0
 12
367.404842
 22
340.687968
 32
0.0
 13
367.404842
 23
340.687968
 33
0.0
  0
SOLID
  5
258
330
251
100
AcDbEntity
  8
0
 62
   254
100
AcDbTrace
 10
207.904842
 20
341.271301
 30
0.0
 11
207.904842
 21
340.104634
 31
0.0
 12
204.404842
 22
340.687968
 32
0.0
 13
204.404842
 23
340.687968
 33
0.0
  0
MTEXT
  5
259
330
251
100
AcDbEntity
  8
0
 62
   254
370
    13
100
AcDbMText
 10
285.904842
 20
345.937968
 30
0.0
 40
3.5
 41
0.0
 71
     5
 72
     1
  1
\A1;163
  7
cesky
 73
     1
 44
1.0
  0
POINT
  5
25A
330
251
100
AcDbEntity
  8
Defpoints
 62
     0
100
AcDbPoint
 10
367.404842
 20
307.907994
 30
0.0
  0
POINT
  5
25B
330
251
100
AcDbEntity
  8
Defpoints
 62
     0
100
AcDbPoint
 10
204.404842
 20
306.907994
 30
0.0
  0
POINT
  5
25C
330
251
100
AcDbEntity
  8
Defpoints
 62
     0
100
AcDbPoint
 10
204.404842
 20
340.687968
 30
0.0
  0
ENDBLK
  5
253
330
251
100
AcDbEntity
  8
0
100
AcDbBlockEnd
  0
BLOCK
  5
264
330
25D
100
AcDbEntity
  8
0
100
AcDbBlockBegin
  2
_U3
 70
     0
 10
0.0
 20
0.0
 30
0.0
  3
_U3
  1

  0
ENDBLK
  5
265
330
25D
100
AcDbEntity
  8
0
100
AcDbBlockEnd
  0
BLOCK
  5
26A
330
269
100
AcDbEntity
  8
0
100
AcDbBlockBegin
  2
*D10
 70
     1
 10
0.0
 20
0.0
 30
0.0
  3
*D10
  1

  0
LINE
  5
26C
330
269
100
AcDbEntity
  8
0
 62
   254
370
    -2
100
AcDbLine
 10
274.404842
 20
288.907994
 30
0.0
 11
274.404842
 21
328.5109970000001
 31
0.0
  0
LINE
  5
26D
330
269
100
AcDbEntity
  8
0
 62
   254
370
    -2
100
AcDbLine
 10
204.404842
 20
297.907994
 30
0.0
 11
204.404842
 21
328.5109970000001
 31
0.0
  0
LINE
  5
26E
330
269
100
AcDbEntity
  8
0
 62
   254
370
    -2
100
AcDbLine
 10
270.904842
 20
327.510997
 30
0.0
 11
207.904842
 21
327.510997
 31
0.0
  0
SOLID
  5
26F
330
269
100
AcDbEntity
  8
0
 62
   254
100
AcDbTrace
 10
270.904842
 20
326.927663
 30
0.0
 11
270.904842
 21
328.09433
 31
0.0
 12
274.404842
 22
327.510997
 32
0.0
 13
274.404842
 23
327.510997
 33
0.0
  0
SOLID
  5
270
330
269
100
AcDbEntity
  8
0
 62
   254
100
AcDbTrace
 10
207.904842
 20
328.09433
 30
0.0
 11
207.904842
 21
326.927663
 31
0.0
 12
204.404842
 22
327.510997
 32
0.0
 13
204.404842
 23
327.510997
 33
0.0
  0
MTEXT
  5
271
330
269
100
AcDbEntity
  8
0
 62
   254
370
    13
100
AcDbMText
 10
239.404842
 20
332.7609970000001
 30
0.0
 40
3.5
 41
0.0
 71
     5
 72
     1
  1
\A1;70
  7
cesky
 73
     1
 44
1.0
  0
POINT
  5
272
330
269
100
AcDbEntity
  8
Defpoints
 62
     0
100
AcDbPoint
 10
274.404842
 20
288.907994
 30
0.0
  0
POINT
  5
273
330
269
100
AcDbEntity
  8
Defpoints
 62
     0
100
AcDbPoint
 10
204.404842
 20
297.907994
 30
0.0
  0
POINT
  5
274
330
269
100
AcDbEntity
  8
Defpoints
 62
     0
100
AcDbPoint
 10
204.404842
 20
327.510997
 30
0.0
  0
ENDBLK
  5
26B
330
269
100
AcDbEntity
  8
0
100
AcDbBlockEnd
  0
BLOCK
  5
27C
330
275
100
AcDbEntity
  8
0
100
AcDbBlockBegin
  2
_U4
 70
     0
 10
0.0
 20
0.0
 30
0.0
  3
_U4
  1

  0
ENDBLK
  5
27D
330
275
100
AcDbEntity
  8
0
100
AcDbBlockEnd
  0
BLOCK
  5
282
330
281
100
AcDbEntity
  8
0
100
AcDbBlockBegin
  2
*D12
 70
     1
 10
0.0
 20
0.0
 30
0.0
  3
*D12
  1

  0
LINE
  5
284
330
281
100
AcDbEntity
  8
0
 62
   254
370
    -2
100
AcDbLine
 10
367.404842
 20
305.907994
 30
0.0
 11
367.404842
 21
317.637587
 31
0.0
  0
LINE
  5
285
330
281
100
AcDbEntity
  8
0
 62
   254
370
    -2
100
AcDbLine
 10
292.406366
 20
305.613487
 30
0.0
 11
292.406366
 21
317.637587
 31
0.0
  0
LINE
  5
286
330
281
100
AcDbEntity
  8
0
 62
   254
370
    -2
100
AcDbLine
 10
363.904842
 20
316.637587
 30
0.0
 11
295.906366
 21
316.637587
 31
0.0
  0
SOLID
  5
287
330
281
100
AcDbEntity
  8
0
 62
   254
100
AcDbTrace
 10
363.904842
 20
316.054254
 30
0.0
 11
363.904842
 21
317.220921
 31
0.0
 12
367.404842
 22
316.637587
 32
0.0
 13
367.404842
 23
316.637587
 33
0.0
  0
SOLID
  5
288
330
281
100
AcDbEntity
  8
0
 62
   254
100
AcDbTrace
 10
295.906366
 20
317.220921
 30
0.0
 11
295.906366
 21
316.054254
 31
0.0
 12
292.406366
 22
316.637587
 32
0.0
 13
292.406366
 23
316.637587
 33
0.0
  0
MTEXT
  5
289
330
281
100
AcDbEntity
  8
0
 62
   254
370
    13
100
AcDbMText
 10
329.905604
 20
321.887587
 30
0.0
 40
3.5
 41
0.0
 71
     5
 72
     1
  1
\A1;75
  7
cesky
 73
     1
 44
1.0
  0
POINT
  5
28A
330
281
100
AcDbEntity
  8
Defpoints
 62
     0
100
AcDbPoint
 10
367.404842
 20
305.907994
 30
0.0
  0
POINT
  5
28B
330
281
100
AcDbEntity
  8
Defpoints
 62
     0
100
AcDbPoint
 10
292.406366
 20
305.613487
 30
0.0
  0
POINT
  5
28C
330
281
100
AcDbEntity
  8
Defpoints
 62
     0
100
AcDbPoint
 10
292.406366
 20
316.637587
 30
0.0
  0
ENDBLK
  5
283
330
281
100
AcDbEntity
  8
0
100
AcDbBlockEnd
  0
BLOCK
  5
294
330
28D
100
AcDbEntity
  8
0
100
AcDbBlockBegin
  2
_U5
 70
     0
 10
0.0
 20
0.0
 30
0.0
  3
_U5
  1

  0
ENDBLK
  5
295
330
28D
100
AcDbEntity
  8
0
100
AcDbBlockEnd
  0
BLOCK
  5
29A
330
299
100
AcDbEntity
  8
0
100
AcDbBlockBegin
  2
*D14
 70
     1
 10
0.0
 20
0.0
 30
0.0
  3
*D14
  1

  0
LINE
  5
29C
330
299
100
AcDbEntity
  8
0
 62
   254
370
    -2
100
AcDbLine
 10
367.404842
 20
305.907994
 30
0.0
 11
367.404842
 21
328.5109970000001
 31
0.0
  0
LINE
  5
29D
330
299
100
AcDbEntity
  8
0
 62
   254
370
    -2
100
AcDbLine
 10
274.404842
 20
288.907994
 30
0.0
 11
274.404842
 21
328.5109970000001
 31
0.0
  0
LINE
  5
29E
330
299
100
AcDbEntity
  8
0
 62
   254
370
    -2
100
AcDbLine
 10
363.904842
 20
327.510997
 30
0.0
 11
277.904842
 21
327.510997
 31
0.0
  0
SOLID
  5
29F
330
299
100
AcDbEntity
  8
0
 62
   254
100
AcDbTrace
 10
363.904842
 20
326.927663
 30
0.0
 11
363.904842
 21
328.09433
 31
0.0
 12
367.404842
 22
327.510997
 32
0.0
 13
367.404842
 23
327.510997
 33
0.0
  0
SOLID
  5
2A0
330
299
100
AcDbEntity
  8
0
 62
   254
100
AcDbTrace
 10
277.904842
 20
328.09433
 30
0.0
 11
277.904842
 21
326.927663
 31
0.0
 12
274.404842
 22
327.510997
 32
0.0
 13
274.404842
 23
327.510997
 33
0.0
  0
MTEXT
  5
2A1
330
299
100
AcDbEntity
  8
0
 62
   254
370
    13
100
AcDbMText
 10
320.904842
 20
332.7609970000001
 30
0.0
 40
3.5
 41
0.0
 71
     5
 72
     1
  1
\A1;93
  7
cesky
 73
     1
 44
1.0
  0
POINT
  5
2A2
330
299
100
AcDbEntity
  8
Defpoints
 62
     0
100
AcDbPoint
 10
367.404842
 20
305.907994
 30
0.0
  0
POINT
  5
2A3
330
299
100
AcDbEntity
  8
Defpoints
 62
     0
100
AcDbPoint
 10
274.404842
 20
288.907994
 30
0.0
  0
POINT
  5
2A4
330
299
100
AcDbEntity
  8
Defpoints
 62
     0
100
AcDbPoint
 10
274.404842
 20
327.510997
 30
0.0
  0
ENDBLK
  5
29B
330
299
100
AcDbEntity
  8
0
100
AcDbBlockEnd
  0
BLOCK
  5
2AC
330
2A5
100
AcDbEntity
  8
0
100
AcDbBlockBegin
  2
_U6
 70
     0
 10
0.0
 20
0.0
 30
0.0
  3
_U6
  1

  0
ENDBLK
  5
2AD
330
2A5
100
AcDbEntity
  8
0
100
AcDbBlockEnd
  0
ENDSEC
  0
SECTION
  2
ENTITIES
  0
POINT
  5
73
102
{ACAD_REACTORS
330
359
102
}
330
1F
100
AcDbEntity
  8
80
100
AcDbPoint
 10
274.404842
 20
288.907994
 30
0.0
  0
POINT
  5
76
330
1F
100
AcDbEntity
  8
4
 60
     1
100
AcDbPoint
 10
293.703832
 20
288.907994
 30
0.0
  0
POINT
  5
78
330
1F
100
AcDbEntity
  8
4
 60
     1
100
AcDbPoint
 10
366.589231
 20
288.907994
 30
0.0
  0
POINT
  5
79
330
1F
100
AcDbEntity
  8
SK4
 60
     1
100
AcDbPoint
 10
206.404842
 20
288.907994
 30
0.0
  0
POINT
  5
7A
330
1F
100
AcDbEntity
  8
SK4
 60
     1
100
AcDbPoint
 10
274.404842
 20
288.907994
 30
0.0
  0
POINT
  5
7B
330
1F
100
AcDbEntity
  8
SK6
 60
     1
100
AcDbPoint
 10
274.404842
 20
288.907994
 30
0.0
  0
POINT
  5
7C
330
1F
100
AcDbEntity
  8
SK6
 60
     1
100
AcDbPoint
 10
292.406366
 20
305.613487
 30
0.0
  0
LINE
  5
81
330
1F
100
AcDbEntity
  8
80
100
AcDbLine
 10
275.404416
 20
288.907994
 30
0.0
 11
273.405268
 21
288.907994
 31
0.0
  0
LINE
  5
82
330
1F
100
AcDbEntity
  8
81
100
AcDbLine
 10
367.404842
 20
307.907994
 30
0.0
 11
367.404842
 21
303.907994
 31
0.0
  0
LINE
  5
83
330
1F
100
AcDbEntity
  8
81
100
AcDbLine
 10
365.404842
 20
305.907994
 30
0.0
 11
369.404842
 21
305.907994
 31
0.0
  0
LINE
  5
84
330
1F
100
AcDbEntity
  8
1
100
AcDbLine
 10
274.904842
 20
263.907994
 30
0.0
 11
279.404842
 21
263.907994
 31
0.0
  0
LINE
  5
86
330
1F
100
AcDbEntity
  8
SK1
100
AcDbLine
 10
206.404842
 20
268.907994
 30
0.0
 11
274.404842
 21
268.907994
 31
0.0
  0
LINE
  5
87
330
1F
100
AcDbEntity
  8
80
100
AcDbLine
 10
274.404842
 20
287.90842
 30
0.0
 11
274.404842
 21
289.907567
 31
0.0
  0
LINE
  5
88
330
1F
100
AcDbEntity
  8
1
100
AcDbLine
 10
360.841759
 20
299.997282
 30
0.0
 11
360.87306
 21
300.123536
 31
0.0
  0
LINE
  5
8A
330
1F
100
AcDbEntity
  8
1
100
AcDbLine
 10
362.898771
 20
299.678004
 30
0.0
 11
362.867394
 21
299.551443
 31
0.0
  0
LINE
  5
8B
330
1F
100
AcDbEntity
  8
1
100
AcDbLine
 10
361.264854
 20
301.835439
 30
0.0
 11
361.296231
 21
301.962
 31
0.0
  0
LINE
  5
8C
330
1F
100
AcDbEntity
  8
1
100
AcDbLine
 10
363.321789
 20
301.515854
 30
0.0
 11
363.290488
 21
301.389601
 31
0.0
  0
LINE
  5
8D
330
1F
100
AcDbEntity
  8
1
100
AcDbLine
 10
367.359382
 20
288.276592
 30
0.0
 11
366.728011
 21
289.415615
 31
0.0
  0
LINE
  5
8F
330
1F
100
AcDbEntity
  8
1
100
AcDbLine
 10
366.556683
 20
279.518314
 30
0.0
 11
366.67449
 21
279.703751
 31
0.0
  0
LINE
  5
90
330
1F
100
AcDbEntity
  8
1
100
AcDbLine
 10
367.233406
 20
280.633944
 30
0.0
 11
366.67449
 21
279.703751
 31
0.0
  0
LINE
  5
91
330
1F
100
AcDbEntity
  8
1
100
AcDbLine
 10
366.623573
 20
289.526675
 30
0.0
 11
366.438136
 21
289.644481
 31
0.0
  0
LINE
  5
92
330
1F
100
AcDbEntity
  8
1
100
AcDbLine
 10
366.196794
 20
289.789494
 30
0.0
 11
366.438136
 21
289.644481
 31
0.0
  0
LINE
  5
93
330
1F
100
AcDbEntity
  8
1
100
AcDbLine
 10
367.399861
 20
287.909483
 30
0.0
 11
367.2754240000001
 21
280.780477
 31
0.0
  0
LINE
  5
94
330
1F
100
AcDbEntity
  8
1
100
AcDbLine
 10
367.399861
 20
287.909483
 30
0.0
 11
367.398222
 21
288.129171
 31
0.0
  0
LINE
  5
95
330
1F
100
AcDbEntity
  8
1
100
AcDbLine
 10
365.755981
 20
279.031601
 30
0.0
 11
366.445624
 21
279.413876
 31
0.0
  0
LINE
  5
96
330
1F
100
AcDbEntity
  8
1
100
AcDbLine
 10
366.237296
 20
288.941736
 30
0.0
 11
366.69747
 21
288.111559
 31
0.0
  0
LINE
  5
97
330
1F
100
AcDbEntity
  8
SK1
100
AcDbLine
 10
204.404842
 20
306.907994
 30
0.0
 11
204.404842
 21
270.907994
 31
0.0
  0
LINE
  5
98
330
1F
100
AcDbEntity
  8
SK1
100
AcDbLine
 10
204.404842
 20
270.907994
 30
0.0
 11
206.404842
 21
268.907994
 31
0.0
  0
LINE
  5
99
330
1F
100
AcDbEntity
  8
SK1
100
AcDbLine
 10
206.404842
 20
308.907994
 30
0.0
 11
204.404842
 21
306.907994
 31
0.0
  0
LINE
  5
9A
330
1F
100
AcDbEntity
  8
1
100
AcDbLine
 10
274.404842
 20
313.407994
 30
0.0
 11
274.404842
 21
288.907994
 31
0.0
  0
LINE
  5
9B
330
1F
100
AcDbEntity
  8
1
100
AcDbLine
 10
274.404842
 20
288.907994
 30
0.0
 11
274.404842
 21
264.407994
 31
0.0
  0
LINE
  5
9C
330
1F
100
AcDbEntity
  8
1
100
AcDbLine
 10
365.971745
 20
279.904592
 30
0.0
 11
365.787147
 21
279.802267
 31
0.0
  0
LINE
  5
9D
330
1F
100
AcDbEntity
  8
1
100
AcDbLine
 10
366.570267
 20
280.824096
 30
0.0
 11
366.0814
 21
280.0104839999999
 31
0.0
  0
LINE
  5
9E
330
1F
100
AcDbEntity
  8
1
100
AcDbLine
 10
366.734349
 20
287.963649
 30
0.0
 11
366.612285
 21
280.970629
 31
0.0
  0
LINE
  5
9F
330
1F
100
AcDbEntity
  8
1
100
AcDbLine
 10
357.617911
 20
296.736377
 30
0.0
 11
357.32968
 21
304.690804
 31
0.0
  0
LINE
  5
A0
330
1F
100
AcDbEntity
  8
1
100
AcDbLine
 10
358.606231
 20
304.2361899999999
 30
0.0
 11
365.600596
 21
304.479882
 31
0.0
  0
LINE
  5
A1
330
1F
100
AcDbEntity
  8
1
100
AcDbLine
 10
358.859095
 20
297.257788
 30
0.0
 11
358.606231
 21
304.2361899999999
 31
0.0
  0
LINE
  5
A2
330
1F
100
AcDbEntity
  8
1
100
AcDbLine
 10
365.853461
 20
297.50148
 30
0.0
 11
358.859095
 21
297.257788
 31
0.0
  0
LINE
  5
A3
330
1F
100
AcDbEntity
  8
1
100
AcDbLine
 10
365.600596
 20
304.479882
 30
0.0
 11
365.853461
 21
297.50148
 31
0.0
  0
LINE
  5
A4
330
1F
100
AcDbEntity
  8
1
100
AcDbLine
 10
358.074112
 20
305.488306
 30
0.0
 11
366.046736
 21
305.766081
 31
0.0
  0
LINE
  5
A5
330
1F
100
AcDbEntity
  8
1
100
AcDbLine
 10
366.53306
 20
296.08974
 30
0.0
 11
360.279381
 21
295.871855
 31
0.0
  0
LINE
  5
A6
330
1F
100
AcDbEntity
  8
1
100
AcDbLine
 10
360.274148
 20
295.850749
 30
0.0
 11
360.279381
 21
295.871855
 31
0.0
  0
LINE
  5
A7
330
1F
100
AcDbEntity
  8
1
100
AcDbLine
 10
357.351236
 20
304.883259
 30
0.0
 11
357.336348
 21
305.311365
 31
0.0
  0
LINE
  5
A8
330
1F
100
AcDbEntity
  8
1
100
AcDbLine
 10
357.346104
 20
298.579539
 30
0.0
 11
357.340871
 21
298.558434
 31
0.0
  0
LINE
  5
A9
330
1F
100
AcDbEntity
  8
1
100
AcDbLine
 10
357.346104
 20
298.579539
 30
0.0
 11
357.111981
 21
305.311788
 31
0.0
  0
LINE
  5
AA
330
1F
100
AcDbEntity
  8
1
100
AcDbLine
 10
357.107235
 20
305.276692
 30
0.0
 11
357.340871
 21
298.558434
 31
0.0
  0
LINE
  5
AB
330
1F
100
AcDbEntity
  8
1
100
AcDbLine
 10
366.53306
 20
296.08974
 30
0.0
 11
366.5309870000001
 21
296.299386
 31
0.0
  0
LINE
  5
AC
330
1F
100
AcDbEntity
  8
1
100
AcDbLine
 10
366.53306
 20
296.08974
 30
0.0
 11
366.491111
 21
296.067355
 31
0.0
  0
LINE
  5
AD
330
1F
100
AcDbEntity
  8
1
100
AcDbLine
 10
366.207847
 20
278.376704
 30
0.0
 11
366.165756
 21
278.377377
 31
0.0
  0
LINE
  5
AE
330
1F
100
AcDbEntity
  8
1
100
AcDbLine
 10
365.949248
 20
279.008559
 30
0.0
 11
365.773478
 21
279.011371
 31
0.0
  0
LINE
  5
AF
330
1F
100
AcDbEntity
  8
1
100
AcDbLine
 10
365.317084
 20
283.153494
 30
0.0
 11
366.142841
 21
283.153494
 31
0.0
  0
LINE
  5
B0
330
1F
100
AcDbEntity
  8
1
100
AcDbLine
 10
366.213111
 20
289.802847
 30
0.0
 11
366.38918
 21
289.799773
 31
0.0
  0
LINE
  5
B1
330
1F
100
AcDbEntity
  8
1
100
AcDbLine
 10
366.67268
 20
290.422557
 30
0.0
 11
366.714842
 21
290.421821
 31
0.0
  0
LINE
  5
B2
330
1F
100
AcDbEntity
  8
1
100
AcDbLine
 10
366.407212
 20
295.373207
 30
0.0
 11
366.427585
 21
295.384079
 31
0.0
  0
LINE
  5
B3
330
1F
100
AcDbEntity
  8
1
100
AcDbLine
 10
365.756312
 20
279.51171
 30
0.0
 11
366.142841
 21
283.153494
 31
0.0
  0
LINE
  5
B4
330
1F
100
AcDbEntity
  8
1
100
AcDbLine
 10
366.142841
 20
283.153494
 30
0.0
 11
366.142841
 21
289.303997
 31
0.0
  0
LINE
  5
B5
330
1F
100
AcDbEntity
  8
1
100
AcDbLine
 10
365.914783
 20
281.004831
 30
0.0
 11
365.941569
 21
281.04941
 31
0.0
  0
LINE
  5
B6
330
1F
100
AcDbEntity
  8
1
100
AcDbLine
 10
365.95972
 20
281.112711
 30
0.0
 11
365.966312
 21
281.490318
 31
0.0
  0
LINE
  5
B7
330
1F
100
AcDbEntity
  8
1
100
AcDbLine
 10
357.57769
 20
305.407994
 30
0.0
 11
350.033018
 21
305.407994
 31
0.0
  0
LINE
  5
B8
330
1F
100
AcDbEntity
  8
1
100
AcDbLine
 10
295.499196
 20
273.014832
 30
0.0
 11
295.499196
 21
272.42843
 31
0.0
  0
LINE
  5
B9
330
1F
100
AcDbEntity
  8
1
100
AcDbLine
 10
364.541517
 20
283.153494
 30
0.0
 11
364.990388
 21
283.153494
 31
0.0
  0
LINE
  5
BA
330
1F
100
AcDbEntity
  8
1
100
AcDbLine
 10
295.2027240000001
 20
305.407994
 30
0.0
 11
293.703832
 21
305.407994
 31
0.0
  0
LINE
  5
BB
330
1F
100
AcDbEntity
  8
SK1
100
AcDbLine
 10
206.404842
 20
308.907994
 30
0.0
 11
206.404842
 21
268.907994
 31
0.0
  0
LINE
  5
BC
330
1F
100
AcDbEntity
  8
1
100
AcDbLine
 10
366.847013
 20
305.022398
 30
0.0
 11
367.135245
 21
297.067971
 31
0.0
  0
LINE
  5
BD
330
1F
100
AcDbEntity
  8
1
100
AcDbLine
 10
366.390812
 20
296.2704700000001
 30
0.0
 11
358.418189
 21
295.992695
 31
0.0
  0
LINE
  5
BE
330
1F
100
AcDbEntity
  8
1
100
AcDbLine
 10
363.316886
 20
301.46387
 30
0.0
 11
363.347851
 21
301.588769
 31
0.0
  0
LINE
  5
BF
330
1F
100
AcDbEntity
  8
1
100
AcDbLine
 10
361.394571
 20
299.495673
 30
0.0
 11
361.363801
 21
299.371562
 31
0.0
  0
LINE
  5
C0
330
1F
100
AcDbEntity
  8
1
100
AcDbLine
 10
361.27786
 20
301.934875
 30
0.0
 11
361.308815
 21
302.059734
 31
0.0
  0
LINE
  5
C1
330
1F
100
AcDbEntity
  8
1
100
AcDbLine
 10
360.542351
 20
300.773218
 30
0.0
 11
360.511929
 21
300.650511
 31
0.0
  0
LINE
  5
C2
330
1F
100
AcDbEntity
  8
1
100
AcDbLine
 10
360.61273
 20
300.763013
 30
0.0
 11
360.581864
 21
300.638514
 31
0.0
  0
LINE
  5
C3
330
1F
100
AcDbEntity
  8
1
100
AcDbLine
 10
363.446069
 20
299.975109
 30
0.0
 11
363.476485
 21
300.097794
 31
0.0
  0
LINE
  5
C4
330
1F
100
AcDbEntity
  8
1
100
AcDbLine
 10
363.376718
 20
299.994955
 30
0.0
 11
363.407585
 21
300.119459
 31
0.0
  0
LINE
  5
C5
330
1F
100
AcDbEntity
  8
1
100
AcDbLine
 10
362.119628
 20
299.199005
 30
0.0
 11
362.150408
 21
299.323157
 31
0.0
  0
LINE
  5
C6
330
1F
100
AcDbEntity
  8
1
100
AcDbLine
 10
366.682658
 20
289.477775
 30
0.0
 11
366.190758
 21
289.002752
 31
0.0
  0
LINE
  5
C7
330
1F
100
AcDbEntity
  8
1
100
AcDbLine
 10
366.1428390000001
 20
288.956477
 30
0.0
 11
366.190758
 21
289.002752
 31
0.0
  0
LINE
  5
C8
330
1F
100
AcDbEntity
  8
1
100
AcDbLine
 10
367.388062
 20
288.20519
 30
0.0
 11
366.724553
 21
288.039759
 31
0.0
  0
LINE
  5
C9
330
1F
100
AcDbEntity
  8
1
100
AcDbLine
 10
366.13964
 20
287.893924
 30
0.0
 11
366.724553
 21
288.039759
 31
0.0
  0
LINE
  5
CA
330
1F
100
AcDbEntity
  8
1
100
AcDbLine
 10
366.59984
 20
280.894907
 30
0.0
 11
365.954856
 21
281.0798529999999
 31
0.0
  0
LINE
  5
CB
330
1F
100
AcDbEntity
  8
1
100
AcDbLine
 10
366.59984
 20
280.894907
 30
0.0
 11
367.264067
 21
280.704443
 31
0.0
  0
LINE
  5
CC
330
1F
100
AcDbEntity
  8
1
100
AcDbLine
 10
365.773719
 20
280.219375
 30
0.0
 11
365.566662
 21
280.433789
 31
0.0
  0
LINE
  5
CD
330
1F
100
AcDbEntity
  8
1
100
AcDbLine
 10
366.507783
 20
279.45923
 30
0.0
 11
366.032761
 21
279.95113
 31
0.0
  0
LINE
  5
CE
330
1F
100
AcDbEntity
  8
1
100
AcDbLine
 10
354.966986
 20
292.625149
 30
0.0
 11
354.978256
 21
292.295767
 31
0.0
  0
LINE
  5
CF
330
1F
100
AcDbEntity
  8
1
100
AcDbLine
 10
364.949656
 20
295.367459
 30
0.0
 11
358.459877
 21
295.141348
 31
0.0
  0
LINE
  5
D0
330
1F
100
AcDbEntity
  8
1
100
AcDbLine
 10
287.904842
 20
305.165449
 30
0.0
 11
287.904842
 21
282.035445
 31
0.0
  0
LINE
  5
D1
330
1F
100
AcDbEntity
  8
1
100
AcDbLine
 10
357.58095
 20
305.276354
 30
0.0
 11
357.576376
 21
305.40786
 31
0.0
  0
LINE
  5
D2
330
1F
100
AcDbEntity
  8
1
100
AcDbLine
 10
360.274148
 20
295.850749
 30
0.0
 11
366.491111
 21
296.067355
 31
0.0
  0
LINE
  5
D3
330
1F
100
AcDbEntity
  8
1
100
AcDbLine
 10
366.492566
 20
295.920302
 30
0.0
 11
366.491111
 21
296.067355
 31
0.0
  0
LINE
  5
D4
330
1F
100
AcDbEntity
  8
1
100
AcDbLine
 10
366.407212
 20
295.373207
 30
0.0
 11
358.46813
 21
295.096601
 31
0.0
  0
LINE
  5
D5
330
1F
100
AcDbEntity
  8
1
100
AcDbLine
 10
366.407212
 20
295.373207
 30
0.0
 11
364.440111
 21
292.113906
 31
0.0
  0
LINE
  5
D6
330
1F
100
AcDbEntity
  8
1
100
AcDbLine
 10
366.191038
 20
278.615578
 30
0.0
 11
365.949248
 21
279.008559
 31
0.0
  0
LINE
  5
D7
330
1F
100
AcDbEntity
  8
1
100
AcDbLine
 10
366.191038
 20
278.615578
 30
0.0
 11
366.165756
 21
278.377377
 31
0.0
  0
LINE
  5
D8
330
1F
100
AcDbEntity
  8
1
100
AcDbLine
 10
366.38918
 20
289.799773
 30
0.0
 11
366.67268
 21
290.183946
 31
0.0
  0
LINE
  5
D9
330
1F
100
AcDbEntity
  8
1
100
AcDbLine
 10
366.67268
 20
290.422557
 30
0.0
 11
366.67268
 21
290.183946
 31
0.0
  0
LINE
  5
DA
330
1F
100
AcDbEntity
  8
1
100
AcDbLine
 10
365.574345
 20
272.407994
 30
0.0
 11
366.207847
 21
278.376704
 31
0.0
  0
LINE
  5
DB
330
1F
100
AcDbEntity
  8
1
100
AcDbLine
 10
365.574345
 20
272.407994
 30
0.0
 11
348.41003
 21
272.407994
 31
0.0
  0
LINE
  5
DC
330
1F
100
AcDbEntity
  8
1
100
AcDbLine
 10
366.714842
 20
296.366651
 30
0.0
 11
366.714842
 21
290.421821
 31
0.0
  0
LINE
  5
DD
330
1F
100
AcDbEntity
  8
1
100
AcDbLine
 10
274.904842
 20
263.907994
 30
0.0
 11
274.904842
 21
288.907994
 31
0.0
  0
LINE
  5
DE
330
1F
100
AcDbEntity
  8
1
100
AcDbLine
 10
274.904842
 20
288.907994
 30
0.0
 11
274.904842
 21
313.907994
 31
0.0
  0
LINE
  5
DF
330
1F
100
AcDbEntity
  8
1
100
AcDbLine
 10
279.404842
 20
263.907994
 30
0.0
 11
279.404842
 21
266.56557
 31
0.0
  0
LINE
  5
E0
330
1F
100
AcDbEntity
  8
1
100
AcDbLine
 10
279.404842
 20
313.907994
 30
0.0
 11
279.404842
 21
273.828172
 31
0.0
  0
LINE
  5
E1
330
1F
100
AcDbEntity
  8
1
100
AcDbLine
 10
359.423095
 20
301.460722
 30
0.0
 11
359.402643
 21
301.378228
 31
0.0
  0
LINE
  5
E2
330
1F
100
AcDbEntity
  8
1
100
AcDbLine
 10
364.741026
 20
300.054723
 30
0.0
 11
364.761478
 21
300.137217
 31
0.0
  0
LINE
  5
E3
330
1F
100
AcDbEntity
  8
1
100
AcDbLine
 10
279.404842
 20
263.907994
 30
0.0
 11
283.804337
 21
268.307488
 31
0.0
  0
LINE
  5
E4
330
1F
100
AcDbEntity
  8
1
100
AcDbLine
 10
283.804337
 20
309.508499
 30
0.0
 11
279.404842
 21
313.907994
 31
0.0
  0
LINE
  5
E5
330
1F
100
AcDbEntity
  8
SK1
100
AcDbLine
 10
274.404842
 20
308.907994
 30
0.0
 11
206.404842
 21
308.907994
 31
0.0
  0
LINE
  5
E6
330
1F
100
AcDbEntity
  8
1
100
AcDbLine
 10
274.904842
 20
263.907994
 30
0.0
 11
274.404842
 21
264.407994
 31
0.0
  0
LINE
  5
E7
330
1F
100
AcDbEntity
  8
1
100
AcDbLine
 10
274.404842
 20
313.407994
 30
0.0
 11
274.904842
 21
313.907994
 31
0.0
  0
LINE
  5
E8
330
1F
100
AcDbEntity
  8
1
100
AcDbLine
 10
279.404842
 20
313.907994
 30
0.0
 11
274.904842
 21
313.907994
 31
0.0
  0
LINE
  5
113
330
1F
100
AcDbEntity
  8
NOCUT
100
AcDbLine
 10
204.404842
 20
306.907994
 30
0.0
 11
204.404842
 21
288.907994
 31
0.0
  0
LINE
  5
114
330
1F
100
AcDbEntity
  8
NOCUT
100
AcDbLine
 10
366.714842
 20
288.907994
 30
0.0
 11
204.404842
 21
288.907994
 31
0.0
  0
LINE
  5
115
330
1F
100
AcDbEntity
  8
NOCUT
100
AcDbLine
 10
274.404842
 20
308.907994
 30
0.0
 11
206.404842
 21
308.907994
 31
0.0
  0
LINE
  5
116
330
1F
100
AcDbEntity
  8
NOCUT
100
AcDbLine
 10
279.404842
 20
313.907994
 30
0.0
 11
274.904842
 21
313.907994
 31
0.0
  0
LINE
  5
117
330
1F
100
AcDbEntity
  8
NOCUT
100
AcDbLine
 10
279.404842
 20
313.907994
 30
0.0
 11
283.804337
 21
309.508499
 31
0.0
  0
LINE
  5
118
330
1F
100
AcDbEntity
  8
NOCUT
100
AcDbLine
 10
293.703832
 20
305.407994
 30
0.0
 11
366.405724
 21
305.407994
 31
0.0
  0
LINE
  5
119
330
1F
100
AcDbEntity
  8
NOCUT
100
AcDbLine
 10
366.405724
 20
305.407994
 30
0.0
 11
366.714842
 21
296.621375
 31
0.0
  0
LINE
  5
11A
330
1F
100
AcDbEntity
  8
NOCUT
100
AcDbLine
 10
366.714842
 20
296.621375
 30
0.0
 11
366.714842
 21
288.907994
 31
0.0
  0
LINE
  5
11B
330
1F
100
AcDbEntity
  8
NOCUT
100
AcDbLine
 10
204.404842
 20
306.907994
 30
0.0
 11
206.404842
 21
308.907994
 31
0.0
  0
LINE
  5
11C
330
1F
100
AcDbEntity
  8
NOCUT
100
AcDbLine
 10
274.404842
 20
308.907994
 30
0.0
 11
274.404842
 21
313.407994
 31
0.0
  0
LINE
  5
11D
330
1F
100
AcDbEntity
  8
NOCUT
100
AcDbLine
 10
274.404842
 20
313.407994
 30
0.0
 11
274.904842
 21
313.907994
 31
0.0
  0
CIRCLE
  5
126
330
1F
100
AcDbEntity
  8
1
100
AcDbCircle
 10
361.418941
 20
284.72888
 30
0.0
 40
1.35
  0
ARC
  5
127
330
1F
100
AcDbEntity
  8
1
100
AcDbCircle
 10
293.703832
 20
319.407994
 30
0.0
 40
14.0
100
AcDbArc
 50
225.0
 51
270.0
  0
ARC
  5
128
330
1F
100
AcDbEntity
  8
1
100
AcDbCircle
 10
293.703832
 20
258.407994
 30
0.0
 40
14.0
100
AcDbArc
 50
95.729456
 51
135.0
  0
ARC
  5
129
330
1F
100
AcDbEntity
  8
1
100
AcDbCircle
 10
361.418941
 20
284.72888
 30
0.0
 40
1.75
100
AcDbArc
 50
75.0
 51
345.0
  0
ARC
  5
138
330
1F
100
AcDbEntity
  8
NOCUT
100
AcDbCircle
 10
293.703832
 20
319.407994
 30
0.0
 40
14.0
100
AcDbArc
 50
225.0
 51
270.0
  0
ELLIPSE
  5
139
330
1F
100
AcDbEntity
  8
1
100
AcDbEllipse
 10
363.571602
 20
300.841037
 30
0.0
 11
-0.0925165327032325
 21
0.0229369180716153
 31
0.0
210
0.0
220
0.0
230
0.9999999999999998
 40
0.99737
 41
1.172609155293258
 42
1.849341072173979
  0
ELLIPSE
  5
13A
330
1F
100
AcDbEntity
  8
1
100
AcDbEllipse
 10
363.578488
 20
300.65099
 30
0.0
 11
-0.0925165327032323
 21
0.0229369180716152
 31
0.0
210
0.0
220
0.0
230
0.9999999999999998
 40
0.99737
 41
3.790603033284764
 42
4.990933725763465
  0
ELLIPSE
  5
13B
330
1F
100
AcDbEntity
  8
1
100
AcDbEllipse
 10
363.114202
 20
300.452105
 30
0.0
 11
-0.5832372129945678
 21
0.1445975522416678
 31
0.0
210
0.0
220
0.0
230
0.9999999999999998
 40
0.9973699999999999
 41
2.526072989054586
 42
3.790603033284786
  0
ELLIPSE
  5
13C
330
1F
100
AcDbEntity
  8
1
100
AcDbEllipse
 10
363.444802
 20
300.070183
 30
0.0
 11
-0.0925165327032345
 21
0.0229369180716158
 31
0.0
210
0.0
220
0.0
230
1.0
 40
0.9973700000000002
 41
1.325742296575554
 42
2.526072989054496
  0
ELLIPSE
  5
13D
330
1F
100
AcDbEntity
  8
1
100
AcDbEllipse
 10
363.355525
 20
299.90228
 30
0.0
 11
-0.0925165327032345
 21
0.0229369180716158
 31
0.0
210
0.0
220
0.0
230
1.0
 40
0.9973700000000002
 41
4.467334950165492
 42
5.144066867046121
  0
ELLIPSE
  5
13E
330
1F
100
AcDbEntity
  8
1
100
AcDbEllipse
 10
363.450631
 20
299.406846
 30
0.0
 11
-0.5832372129945674
 21
0.1445975522416677
 31
0.0
210
0.0
220
0.0
230
0.9999999999999998
 40
0.9973699999999999
 41
5.144066867046078
 42
6.408596911276271
  0
ELLIPSE
  5
13F
330
1F
100
AcDbEntity
  8
1
100
AcDbEllipse
 10
362.948587
 20
299.466331
 30
0.0
 11
-0.0925165327032325
 21
0.0229369180716153
 31
0.0
210
0.0
220
0.0
230
0.9999999999999998
 40
0.99737
 41
0.1254116040967447
 42
0.802143520977555
  0
ELLIPSE
  5
140
330
1F
100
AcDbEntity
  8
1
100
AcDbEllipse
 10
362.787068
 20
299.365561
 30
0.0
 11
-0.0925165327032323
 21
0.0229369180716152
 31
0.0
210
0.0
220
0.0
230
0.9999999999999998
 40
0.99737
 41
2.743405482088248
 42
3.943736174567082
  0
ELLIPSE
  5
141
330
1F
100
AcDbEntity
  8
1
100
AcDbEllipse
 10
362.381788
 20
299.667479
 30
0.0
 11
-0.5832372129945678
 21
0.1445975522416678
 31
0.0
210
0.0
220
0.0
230
0.9999999999999998
 40
0.9973699999999999
 41
1.478875437857956
 42
2.743405482088168
  0
ELLIPSE
  5
142
330
1F
100
AcDbEntity
  8
1
100
AcDbEllipse
 10
362.215916
 20
299.191282
 30
0.0
 11
-0.0925165327032345
 21
0.0229369180716158
 31
0.0
210
0.0
220
0.0
230
1.0
 40
0.9973700000000002
 41
0.2785447453790466
 42
1.478875437857948
  0
ELLIPSE
  5
143
330
1F
100
AcDbEntity
  8
1
100
AcDbEllipse
 10
362.025434
 20
299.184646
 30
0.0
 11
-0.0925165327032345
 21
0.0229369180716158
 31
0.0
210
0.0
220
0.0
230
1.0
 40
0.9973700000000002
 41
3.420137398968758
 42
4.096869315849537
  0
ELLIPSE
  5
144
330
1F
100
AcDbEntity
  8
1
100
AcDbEllipse
 10
361.643029
 20
298.855284
 30
0.0
 11
-0.5832372129945674
 21
0.1445975522416677
 31
0.0
210
0.0
220
0.0
230
0.9999999999999998
 40
0.9973699999999999
 41
4.096869315849485
 42
5.361399360079643
  0
ELLIPSE
  5
145
330
1F
100
AcDbEntity
  8
1
100
AcDbEllipse
 10
362.066124
 20
300.693441
 30
0.0
 11
1.747107238945835
 21
-0.4331469676946393
 31
0.0
210
0.0
220
0.0
230
1.0
 40
0.99737
 41
0.0
 42
6.283185307179585
  0
ELLIPSE
  5
146
330
1F
100
AcDbEntity
  8
1
100
AcDbEllipse
 10
362.071834
 20
300.716476
 30
0.0
 11
2.669191615056137
 21
-0.6617523117556987
 31
0.0
210
0.0
220
0.0
230
1.0
 40
0.99737
 41
0.0
 42
6.283185307179585
  0
ELLIPSE
  5
147
330
1F
100
AcDbEntity
  8
1
100
AcDbEllipse
 10
366.305732
 20
279.66846
 30
0.0
 11
0.2546671897605879
 21
0.1593661329194267
 31
0.0
210
0.0
220
0.0
230
0.9999999999999998
 40
0.9668319999999999
 41
4.657557862819752
 42
5.171317121364326
  0
ELLIPSE
  5
148
330
1F
100
AcDbEntity
  8
1
100
AcDbEllipse
 10
366.473427
 20
289.275723
 30
0.0
 11
0.1593661331554641
 21
-0.2546671895554442
 31
0.0
210
0.0
220
0.0
230
1.0
 40
0.9668319999999999
 41
1.515965208157033
 42
2.029724466782583
  0
ELLIPSE
  5
149
330
1F
100
AcDbEntity
  8
1
100
AcDbEllipse
 10
366.969907
 20
280.788792
 30
0.0
 11
-0.2941597133632818
 21
0.0843489404830548
 31
0.0
210
0.0
220
0.0
230
0.9999999999999996
 40
0.9803469999999999
 41
2.884713024277073
 42
3.3984722829025
  0
ELLIPSE
  5
14A
330
1F
100
AcDbEntity
  8
1
100
AcDbEllipse
 10
367.105838
 20
288.134824
 30
0.0
 11
0.1315188411818569
 21
-0.2701031955350862
 31
0.0
210
0.0
220
0.0
230
1.0
 40
0.9668319999999999
 41
1.111868186945208
 42
1.625627445596695
  0
ELLIPSE
  5
14B
330
1F
100
AcDbEntity
  8
1
100
AcDbEllipse
 10
366.37015
 20
287.951396
 30
0.0
 11
0.3432777567681682
 21
0.1251912087543292
 31
0.0
210
0.0
220
0.0
230
1.0
 40
0.81881
 41
6.264719808495183
 42
6.411625122514462
  0
ELLIPSE
  5
14C
330
1F
100
AcDbEntity
  8
1
100
AcDbEllipse
 10
365.928017
 20
288.7490259999999
 30
0.0
 11
0.2880776515839719
 21
0.2247748086034594
 31
0.0
210
0.0
220
0.0
230
1.0
 40
0.81881
 41
6.154745485587947
 42
6.301650802119539
  0
ELLIPSE
  5
14D
330
1F
100
AcDbEntity
  8
1
100
AcDbEllipse
 10
365.928017
 20
288.7490259999999
 30
0.0
 11
0.2346916545736903
 21
0.2800576467754892
 31
0.0
210
0.0
220
0.0
230
1.0
 40
0.81881
 41
6.264719808473409
 42
6.36638086737607
  0
ELLIPSE
  5
14E
330
1F
100
AcDbEntity
  8
1
100
AcDbEllipse
 10
361.443109
 20
299.318736
 30
0.0
 11
-0.0925165327032325
 21
0.0229369180716153
 31
0.0
210
0.0
220
0.0
230
0.9999999999999998
 40
0.99737
 41
5.361399360079521
 42
6.038131276960187
  0
ELLIPSE
  5
14F
330
1F
100
AcDbEntity
  8
1
100
AcDbEllipse
 10
361.274704
 20
299.408011
 30
0.0
 11
-0.0925165327032323
 21
0.0229369180716152
 31
0.0
210
0.0
220
0.0
230
0.9999999999999998
 40
0.99737
 41
1.69620793089158
 42
2.896538623370683
  0
ELLIPSE
  5
150
330
1F
100
AcDbEntity
  8
1
100
AcDbEllipse
 10
361.33371
 20
299.908815
 30
0.0
 11
-0.5832372129945678
 21
0.1445975522416678
 31
0.0
210
0.0
220
0.0
230
0.9999999999999998
 40
0.9973699999999999
 41
0.4316778866614058
 42
1.696207930891611
  0
ELLIPSE
  5
151
330
1F
100
AcDbEntity
  8
1
100
AcDbEllipse
 10
360.837238
 20
299.81454
 30
0.0
 11
-0.0925165327032345
 21
0.0229369180716158
 31
0.0
210
0.0
220
0.0
230
1.0
 40
0.9973700000000002
 41
5.514532501362301
 42
6.714863193841061
  0
ELLIPSE
  5
152
330
1F
100
AcDbEntity
  8
1
100
AcDbEllipse
 10
360.736033
 20
299.975807
 30
0.0
 11
-0.0925165327032345
 21
0.0229369180716158
 31
0.0
210
0.0
220
0.0
230
1.0
 40
0.9973700000000002
 41
2.372939847772298
 42
3.049671764652926
  0
ELLIPSE
  5
153
330
1F
100
AcDbEntity
  8
1
100
AcDbEllipse
 10
360.258522
 20
300.14188
 30
0.0
 11
-0.5832372129945674
 21
0.1445975522416677
 31
0.0
210
0.0
220
0.0
230
0.9999999999999998
 40
0.9973699999999999
 41
3.049671764652903
 42
4.314201808883068
  0
ELLIPSE
  5
154
330
1F
100
AcDbEntity
  8
1
100
AcDbEllipse
 10
360.560646
 20
300.545846
 30
0.0
 11
-0.0925165327032325
 21
0.0229369180716153
 31
0.0
210
0.0
220
0.0
230
0.9999999999999998
 40
0.99737
 41
4.314201808882943
 42
4.990933725763753
  0
ELLIPSE
  5
155
330
1F
100
AcDbEntity
  8
1
100
AcDbEllipse
 10
360.5537589999999
 20
300.735892
 30
0.0
 11
-0.0925165327032323
 21
0.0229369180716152
 31
0.0
210
0.0
220
0.0
230
0.9999999999999998
 40
0.99737
 41
0.649010379694972
 42
1.849341072173836
  0
ELLIPSE
  5
156
330
1F
100
AcDbEntity
  8
1
100
AcDbEllipse
 10
361.018046
 20
300.934778
 30
0.0
 11
-0.5832372129945678
 21
0.1445975522416678
 31
0.0
210
0.0
220
0.0
230
0.9999999999999998
 40
0.9973699999999999
 41
5.667665642644388
 42
6.93219568687455
  0
ELLIPSE
  5
157
330
1F
100
AcDbEntity
  8
1
100
AcDbEllipse
 10
360.687445
 20
301.316699
 30
0.0
 11
-0.0925165327032345
 21
0.0229369180716158
 31
0.0
210
0.0
220
0.0
230
1.0
 40
0.9973700000000002
 41
4.467334950165492
 42
5.667665642644313
  0
ELLIPSE
  5
158
330
1F
100
AcDbEntity
  8
1
100
AcDbEllipse
 10
360.776722
 20
301.484603
 30
0.0
 11
-0.0925165327032345
 21
0.0229369180716158
 31
0.0
210
0.0
220
0.0
230
1.0
 40
0.9973700000000002
 41
1.325742296575699
 42
2.002474213456192
  0
ELLIPSE
  5
159
330
1F
100
AcDbEntity
  8
1
100
AcDbEllipse
 10
360.681617
 20
301.980037
 30
0.0
 11
-0.5832372129945674
 21
0.1445975522416677
 31
0.0
210
0.0
220
0.0
230
0.9999999999999998
 40
0.9973699999999999
 41
2.002474213456291
 42
3.267004257686473
  0
ELLIPSE
  5
15A
330
1F
100
AcDbEntity
  8
1
100
AcDbEllipse
 10
361.183661
 20
301.920551
 30
0.0
 11
-0.0925165327032325
 21
0.0229369180716153
 31
0.0
210
0.0
220
0.0
230
0.9999999999999998
 40
0.99737
 41
3.267004257686445
 42
3.943736174567103
  0
ELLIPSE
  5
15B
330
1F
100
AcDbEntity
  8
1
100
AcDbEllipse
 10
361.345179
 20
302.021322
 30
0.0
 11
-0.0925165327032323
 21
0.0229369180716152
 31
0.0
210
0.0
220
0.0
230
0.9999999999999998
 40
0.99737
 41
5.88499813567811
 42
7.085328828156951
  0
ELLIPSE
  5
15C
330
1F
100
AcDbEntity
  8
1
100
AcDbEllipse
 10
361.750459
 20
301.719404
 30
0.0
 11
-0.5832372129945678
 21
0.1445975522416678
 31
0.0
210
0.0
220
0.0
230
0.9999999999999998
 40
0.9973699999999999
 41
4.620468091447795
 42
5.884998135677971
  0
ELLIPSE
  5
15D
330
1F
100
AcDbEntity
  8
1
100
AcDbEllipse
 10
361.916332
 20
302.1956
 30
0.0
 11
-0.0925165327032345
 21
0.0229369180716158
 31
0.0
210
0.0
220
0.0
230
1.0
 40
0.9973700000000002
 41
3.420137398968829
 42
4.620468091447743
  0
ELLIPSE
  5
15E
330
1F
100
AcDbEntity
  8
1
100
AcDbEllipse
 10
362.106813
 20
302.202237
 30
0.0
 11
-0.0925165327032345
 21
0.0229369180716158
 31
0.0
210
0.0
220
0.0
230
1.0
 40
0.9973700000000002
 41
0.2785447453790365
 42
0.9552766622597028
  0
ELLIPSE
  5
15F
330
1F
100
AcDbEntity
  8
1
100
AcDbEllipse
 10
362.489218
 20
302.531599
 30
0.0
 11
-0.5832372129945674
 21
0.1445975522416677
 31
0.0
210
0.0
220
0.0
230
0.9999999999999998
 40
0.9973699999999999
 41
0.9552766622596996
 42
2.219806706489855
  0
ELLIPSE
  5
160
330
1F
100
AcDbEntity
  8
1
100
AcDbEllipse
 10
362.689139
 20
302.068147
 30
0.0
 11
-0.0925165327032325
 21
0.0229369180716153
 31
0.0
210
0.0
220
0.0
230
0.9999999999999998
 40
0.99737
 41
2.21980670648978
 42
2.896538623370503
  0
ELLIPSE
  5
161
330
1F
100
AcDbEntity
  8
1
100
AcDbEllipse
 10
362.857544
 20
301.978871
 30
0.0
 11
-0.0925165327032323
 21
0.0229369180716152
 31
0.0
210
0.0
220
0.0
230
0.9999999999999998
 40
0.99737
 41
4.837800584481228
 42
6.038131276960187
  0
ELLIPSE
  5
162
330
1F
100
AcDbEntity
  8
1
100
AcDbEllipse
 10
362.798537
 20
301.478067
 30
0.0
 11
-0.5832372129945678
 21
0.1445975522416678
 31
0.0
210
0.0
220
0.0
230
0.9999999999999998
 40
0.9973699999999999
 41
3.573270540251198
 42
4.837800584481403
  0
ELLIPSE
  5
163
330
1F
100
AcDbEntity
  8
1
100
AcDbEllipse
 10
363.29501
 20
301.572342
 30
0.0
 11
-0.0925165327032345
 21
0.0229369180716158
 31
0.0
210
0.0
220
0.0
230
1.0
 40
0.9973700000000002
 41
2.372939847772248
 42
3.573270540251166
  0
ELLIPSE
  5
164
330
1F
100
AcDbEntity
  8
1
100
AcDbEllipse
 10
363.396214
 20
301.411076
 30
0.0
 11
-0.0925165327032345
 21
0.0229369180716158
 31
0.0
210
0.0
220
0.0
230
1.0
 40
0.9973700000000002
 41
5.514532501362091
 42
6.191264418242659
  0
ELLIPSE
  5
165
330
1F
100
AcDbEntity
  8
1
100
AcDbEllipse
 10
363.873725
 20
301.245003
 30
0.0
 11
-0.5832372129945674
 21
0.1445975522416677
 31
0.0
210
0.0
220
0.0
230
0.9999999999999998
 40
0.9973699999999999
 41
6.191264418242684
 42
7.45579446247286
  0
ELLIPSE
  5
166
330
1F
100
AcDbEntity
  8
1
100
AcDbEllipse
 10
365.779035
 20
280.21387
 30
0.0
 11
0.2247748162208868
 21
-0.2880776648021912
 31
0.0
210
0.0
220
0.0
230
1.0
 40
0.81881
 41
6.154745493010313
 42
6.301650806499762
  0
ELLIPSE
  5
167
330
1F
100
AcDbEntity
  8
1
100
AcDbEllipse
 10
365.779035
 20
280.21387
 30
0.0
 11
0.2800576486970748
 21
-0.2346916557879457
 31
0.0
210
0.0
220
0.0
230
1.0
 40
0.8188099999999998
 41
6.264719807849647
 42
6.411625121084519
  0
ELLIPSE
  5
168
330
1F
100
AcDbEntity
  8
1
100
AcDbEllipse
 10
366.248736
 20
280.995584
 30
0.0
 11
0.3386995434215535
 21
-0.1370951736144968
 31
0.0
210
0.0
220
0.0
230
1.0
 40
0.81881
 41
6.154745498514748
 42
6.301650809695156
  0
ELLIPSE
  5
169
330
1F
100
AcDbEntity
  8
1
100
AcDbEllipse
 10
366.248736
 20
280.995584
 30
0.0
 11
0.3598828495107278
 21
-0.0632201110568332
 31
0.0
210
0.0
220
0.0
230
0.9999999999999996
 40
0.81881
 41
6.264719812653838
 42
6.411625129216736
  0
ELLIPSE
  5
16A
330
1F
100
AcDbEntity
  8
1
100
AcDbEllipse
 10
366.37015
 20
287.951396
 30
0.0
 11
0.3618699781430505
 21
0.0506218687959593
 31
0.0
210
0.0
220
0.0
230
0.9999999999999998
 40
0.81881
 41
6.154745489646297
 42
6.301650804316344
  0
ELLIPSE
  5
16B
330
1F
100
AcDbEntity
  8
1
100
AcDbEllipse
 10
362.232724
 20
300.880443
 30
0.0
 11
3.062035671581703
 21
-0.7591471413733593
 31
0.0
210
0.0
220
0.0
230
1.0
 40
0.9973700000000002
 41
0.0
 42
6.283185307179585
  0
ELLIPSE
  5
16C
330
1F
100
AcDbEntity
  8
1
100
AcDbEllipse
 10
362.25252
 20
300.960293
 30
0.0
 11
3.004300737143696
 21
-0.7448333595834327
 31
0.0
210
0.0
220
0.0
230
1.0
 40
0.99737
 41
2.345418178817646
 42
6.283185307179585
  0
ELLIPSE
  5
16D
330
1F
100
AcDbEntity
  8
1
100
AcDbEllipse
 10
362.25252
 20
300.960293
 30
0.0
 11
3.004300737143696
 21
-0.7448333595834327
 31
0.0
210
0.0
220
0.0
230
1.0
 40
0.99737
 41
0.0
 42
0.7962201585796384
  0
ELLIPSE
  5
16E
330
1F
100
AcDbEntity
  8
1
100
AcDbEllipse
 10
358.33694
 20
296.654493
 30
0.0
 11
0.9628846446940888
 21
1.033844775109522
 31
0.0
210
0.0
220
0.0
230
1.0
 40
0.024929
 41
0.9711163849499858
 42
1.525927418013691
  0
ELLIPSE
  5
16F
330
1F
100
AcDbEntity
  8
1
100
AcDbEllipse
 10
358.046017
 20
304.68321
 30
0.0
 11
1.034563892959805
 21
-0.9635544043767579
 31
0.0
210
0.0
220
0.0
230
0.9999999999999998
 40
0.044837
 41
1.040874931432244
 42
1.595685964620654
  0
ELLIPSE
  5
170
330
1F
100
AcDbEntity
  8
1
100
AcDbEllipse
 10
366.0931
 20
304.963579
 30
0.0
 11
0.9628846444024061
 21
1.033844774809774
 31
0.0
210
0.0
220
0.0
230
1.0
 40
0.024929
 41
1.525927417740628
 42
2.080738450963688
  0
ELLIPSE
  5
171
330
1F
100
AcDbEntity
  8
1
100
AcDbEllipse
 10
366.384023
 20
296.934862
 30
0.0
 11
1.034563892922269
 21
-0.9635544043047451
 31
0.0
210
0.0
220
0.0
230
1.0
 40
0.044837
 41
1.595685964185316
 42
2.150496997394264
  0
ELLIPSE
  5
172
330
1F
100
AcDbEntity
  8
1
100
AcDbEllipse
 10
362.229846
 20
300.868835
 30
0.0
 11
-3.154499181429988
 21
0.7820709138930909
 31
0.0
210
0.0
220
0.0
230
1.0
 40
0.99737
 41
0.0
 42
6.283185307179585
  0
ELLIPSE
  5
173
330
1F
100
AcDbEntity
  8
1
100
AcDbEllipse
 10
358.952066
 20
297.57542
 30
0.0
 11
-1.941230265495373
 21
0.4812744085495935
 31
0.0
210
0.0
220
0.0
230
1.0
 40
0.99737
 41
0.0758138270677585
 42
1.849341058423441
  0
ELLIPSE
  5
174
330
1F
100
AcDbEntity
  8
1
100
AcDbEllipse
 10
358.952066
 20
297.57542
 30
0.0
 11
-1.941230265495373
 21
0.4812744085495935
 31
0.0
210
0.0
220
0.0
230
1.0
 40
0.99737
 41
1.849341058423439
 42
2.51987496811462
  0
ELLIPSE
  5
175
330
1F
100
AcDbEntity
  8
1
100
AcDbEllipse
 10
358.884566
 20
297.303158
 30
0.0
 11
-1.941230265495373
 21
0.4812744085495935
 31
0.0
210
0.0
220
0.0
230
1.0
 40
0.99737
 41
5.689739020390958
 42
5.832616980126105
  0
ELLIPSE
  5
176
330
1F
100
AcDbEntity
  8
1
100
AcDbEllipse
 10
358.8793330000001
 20
297.2820529999999
 30
0.0
 11
1.941230265495372
 21
-0.481274408549599
 31
0.0
210
0.0
220
0.0
230
1.0
 40
0.99737
 41
2.691024326536312
 42
4.355729963920554
  0
ELLIPSE
  5
177
330
1F
100
AcDbEntity
  8
1
100
AcDbEllipse
 10
357.694982
 20
288.908143
 30
0.0
 11
0.5511259928058058
 21
-16.49984646253878
 31
0.0
210
0.0
220
0.0
230
1.0
 40
0.019821
 41
3.248971006309488
 42
3.267170765390799
  0
ELLIPSE
  5
178
330
1F
100
AcDbEntity
  8
1
100
AcDbEllipse
 10
304.321885
 20
288.902824
 30
0.0
 11
946.0076828389416
 21
-1.161238661465346
 31
0.0
210
0.0
220
0.0
230
1.0
 40
0.017404
 41
1.514990682986256
 42
1.518251737531544
  0
ELLIPSE
  5
179
330
1F
100
AcDbEntity
  8
1
100
AcDbEllipse
 10
366.422652
 20
295.882994
 30
0.0
 11
0.0002992980617751
 21
0.500307645030329
 31
0.0
210
0.0
220
0.0
230
1.0
 40
0.140088
 41
3.21631589618506
 42
4.787112222980405
  0
ELLIPSE
  5
17A
330
1F
100
AcDbEntity
  8
1
100
AcDbEllipse
 10
317.509556
 20
288.907993
 30
0.0
 11
107.1947631020505
 21
-12.1992148631104
 31
0.0
210
0.0
220
0.0
230
1.0
 40
0.103642
 41
4.500252778861661
 42
4.540272310376704
  0
ELLIPSE
  5
17B
330
1F
100
AcDbEntity
  8
1
100
AcDbEllipse
 10
367.325608
 20
288.907994
 30
0.0
 11
1.78593969543594
 21
16.49813393598712
 31
0.0
210
0.0
220
0.0
230
1.0
 40
0.138944
 41
1.942081186579386
 42
3.156632395651066
  0
ELLIPSE
  5
17C
330
1F
100
AcDbEntity
  8
1
100
AcDbEllipse
 10
366.714842
 20
288.907994
 30
0.0
 11
0.0
 21
16.50000000008414
 31
0.0
210
0.0
220
0.0
230
1.0
 40
0.140541
 41
1.375254872652857
 42
1.927041444516083
  0
ELLIPSE
  5
17D
330
1F
100
AcDbEntity
  8
1
100
AcDbEllipse
 10
297.904842
 20
278.594867
 30
0.0
 11
-1.797586027890363
 21
-7.795427151371072
 31
0.0
210
0.0
220
0.0
230
1.0
 40
0.205081
 41
4.549573795365859
 42
5.556282399264194
  0
ELLIPSE
  5
17E
330
1F
100
AcDbEntity
  8
1
100
AcDbEllipse
 10
365.826463
 20
279.510587
 30
0.0
 11
0.0538770024359031
 21
0.499161142511491
 31
0.0
210
0.0
220
0.0
230
1.0
 40
0.139171
 41
1.583568179252984
 42
3.154364506042254
  0
ELLIPSE
  5
17F
330
1F
100
AcDbEntity
  8
1
100
AcDbEllipse
 10
366.213111
 20
289.30277
 30
0.0
 11
0.0001758288819751
 21
-0.5000776676640056
 31
0.0
210
0.0
220
0.0
230
1.0
 40
0.140519
 41
3.13909047596933
 42
4.709886802767993
  0
ELLIPSE
  5
180
330
1F
100
AcDbEntity
  8
1
100
AcDbEllipse
 10
365.646217
 20
281.168354
 30
0.0
 11
-0.3086390084417319
 21
0.0885008115358406
 31
0.0
210
0.0
220
0.0
230
0.9999999999999998
 40
0.6229040000000001
 41
2.976210626445484
 42
3.306974680734076
  0
ELLIPSE
  5
181
330
1F
100
AcDbEntity
  8
1
100
AcDbEllipse
 10
213.555879
 20
288.907995
 30
0.0
 11
107.1947742709235
 21
-12.19921665722776
 31
0.0
210
0.0
220
0.0
230
0.9999999999999996
 40
0.103642
 41
5.568674437209407
 42
5.594263600457721
  0
ELLIPSE
  5
182
330
1F
100
AcDbEntity
  8
1
100
AcDbEllipse
 10
358.011636
 20
307.702712
 30
0.0
 11
-12.22975067262087
 21
3.032028773862441
 31
0.0
210
0.0
220
0.0
230
0.9999999999999998
 40
0.99737
 41
1.51770541248797
 42
1.848791845076105
  0
ELLIPSE
  5
183
330
1F
100
AcDbEntity
  8
1
100
AcDbEllipse
 10
362.092286
 20
300.798969
 30
0.0
 11
-2.669191615056139
 21
0.6617523117556911
 31
0.0
210
0.0
220
0.0
230
1.0
 40
0.99737
 41
3.141615476525941
 42
6.283109835942767
  0
ELLIPSE
  5
184
330
1F
100
AcDbEntity
  8
1
100
AcDbEllipse
 10
356.129452
 20
293.361591
 30
0.0
 11
-5.185106853423269
 21
-0.2041648411385568
 31
0.0
210
0.0
220
0.0
230
1.0
 40
0.22151
 41
2.049749785564058
 42
4.231152092969852
  0
ELLIPSE
  5
185
330
1F
100
AcDbEntity
  8
1
100
AcDbEllipse
 10
358.128605
 20
288.907993
 30
0.0
 11
0.5511313479090097
 21
-16.49999642667075
 31
0.0
210
0.0
220
0.0
230
0.9999999999999998
 40
0.019821
 41
3.050584008128299
 42
3.144957044966056
  0
ELLIPSE
  5
186
330
1F
100
AcDbEntity
  8
1
100
AcDbEllipse
 10
358.8793330000001
 20
297.2820529999999
 30
0.0
 11
1.941230265495372
 21
-0.481274408549599
 31
0.0
210
0.0
220
0.0
230
1.0
 40
0.99737
 41
5.609016561478201
 42
5.72671844833863
  0
ELLIPSE
  5
187
330
1F
100
AcDbEntity
  8
1
100
AcDbEllipse
 10
357.996617
 20
288.907994
 30
0.0
 11
0.4192149565195696
 21
-16.49989393584914
 31
0.0
210
0.0
220
0.0
230
0.9999999999999998
 40
0.141134
 41
3.142033307410164
 42
3.24628416175054
  0
ELLIPSE
  5
188
330
1F
100
AcDbEntity
  8
1
100
AcDbEllipse
 10
365.792842
 20
288.907994
 30
0.0
 11
28.32090204947933
 21
-16.27816988492288
 31
0.0
210
0.0
220
0.0
230
0.9999999999999998
 40
0.095213
 41
4.093112452835728
 42
4.254342879303195
  0
ELLIPSE
  5
189
330
1F
100
AcDbEntity
  8
1
100
AcDbEllipse
 10
189.57476
 20
288.907991
 30
0.0
 11
429.7366701800225
 21
16.09066669308439
 31
0.0
210
0.0
220
0.0
230
1.0
 40
0.008499
 41
5.116259061472342
 42
5.131142568701896
  0
ELLIPSE
  5
18A
330
1F
100
AcDbEntity
  8
1
100
AcDbEllipse
 10
358.884566
 20
297.303158
 30
0.0
 11
-1.941230265495373
 21
0.4812744085495935
 31
0.0
210
0.0
220
0.0
230
1.0
 40
0.99737
 41
2.585125794748829
 42
2.714799021099373
  0
SPLINE
  5
197
330
1F
100
AcDbEntity
  8
1
100
AcDbSpline
210
0.0
220
0.0
230
1.0
 70
     8
 71
     3
 72
     8
 73
     4
 74
     0
 42
0.000000001
 43
0.0000000001
 40
0.0
 40
0.0
 40
0.0
 40
0.0
 40
1.0
 40
1.0
 40
1.0
 40
1.0
 10
366.0081269389876
 20
279.9292402055162
 30
0.0
 10
366.0251824081699
 20
279.943177814217
 30
0.0
 10
366.0409723155493
 20
279.9584259505285
 30
0.0
 10
366.0554966611258
 20
279.9749846144509
 30
0.0
  0
SPLINE
  5
199
330
1F
100
AcDbEntity
  8
1
100
AcDbSpline
210
0.0
220
0.0
230
1.0
 70
     8
 71
     3
 72
    20
 73
    16
 74
     0
 42
0.000000001
 43
0.0000000001
 40
0.0
 40
0.0
 40
0.0
 40
0.0
 40
0.1249999999999682
 40
0.1249999999999682
 40
0.2499999999999365
 40
0.2499999999999365
 40
0.3749999999999049
 40
0.3749999999999049
 40
0.4999999999998731
 40
0.4999999999998731
 40
0.6249999999998414
 40
0.6249999999998414
 40
0.7499999999998096
 40
0.7499999999998096
 40
1.0
 40
1.0
 40
1.0
 40
1.0
 10
360.5879090916455
 20
300.7647245685547
 30
0.0
 10
360.5831801971949
 20
300.7644404283715
 30
0.0
 10
360.5784695731653
 20
300.7645032282725
 30
0.0
 10
360.5690847865174
 20
300.7653182195431
 30
0.0
 10
360.5644052321928
 20
300.7660767034851
 30
0.0
 10
360.5553040195273
 20
300.768251886505
 30
0.0
 10
360.5508539065653
 20
300.7696694127114
 30
0.0
 10
360.5421586183737
 20
300.773174924176
 30
0.0
 10
360.5378818861237
 20
300.7752837072287
 30
0.0
 10
360.5297510396999
 20
300.7801009651767
 30
0.0
 10
360.5258895891782
 20
300.7828049498625
 30
0.0
 10
360.5185793575853
 20
300.7888088211088
 30
0.0
 10
360.515109469681
 20
300.7921327359436
 30
0.0
 10
360.5055178046097
 20
300.8028985643948
 30
0.0
 10
360.5003086128336
 20
300.8109559438142
 30
0.0
 10
360.4963616437133
 20
300.8199468588078
 30
0.0
  0
SPLINE
  5
19A
330
1F
100
AcDbEntity
  8
1
100
AcDbSpline
210
0.0
220
0.0
230
1.0
 70
     8
 71
     3
 72
    24
 73
    20
 74
     0
 42
0.000000001
 43
0.0000000001
 40
0.0
 40
0.0
 40
0.0
 40
0.0
 40
0.0281492071785716
 40
0.0281492071785716
 40
0.1669850347245362
 40
0.1669850347245362
 40
0.2364029484975028
 40
0.2364029484975028
 40
0.3058208622704694
 40
0.3058208622704694
 40
0.4446566898163756
 40
0.4446566898163756
 40
0.5834925173622817
 40
0.5834925173622817
 40
0.7223283449081878
 40
0.7223283449081878
 40
0.8611641724540939
 40
0.8611641724540939
 40
1.0
 40
1.0
 40
1.0
 40
1.0
 10
362.8985953523974
 20
299.6772980497258
 30
0.0
 10
362.9001270919064
 20
299.6835139605662
 30
0.0
 10
362.9017556257658
 20
299.689707521396
 30
0.0
 10
362.9119901666101
 20
299.7263169115829
 30
0.0
 10
362.9228503476079
 20
299.7562154449413
 30
0.0
 10
362.942952451043
 20
299.8002153151465
 30
0.0
 10
362.9502549307207
 20
299.8146456622948
 30
0.0
 10
362.965879551912
 20
299.8426858211613
 30
0.0
 10
362.974226074918
 20
299.8563501314936
 30
0.0
 10
363.0008674767936
 20
299.8962767488215
 30
0.0
 10
363.0207875024627
 20
299.9215171585229
 30
0.0
 10
363.0649864436514
 20
299.9688534477773
 30
0.0
 10
363.0886112071132
 20
299.9902610423912
 30
0.0
 10
363.1387451085343
 20
300.0288179508132
 30
0.0
 10
363.1652649965926
 20
300.0459719094036
 30
0.0
 10
363.2212242235772
 20
300.0759329324275
 30
0.0
 10
363.2498453277299
 20
300.0883073013651
 30
0.0
 10
363.3083222770858
 20
300.1082724084321
 30
0.0
 10
363.338178714422
 20
300.115860573391
 30
0.0
 10
363.3686791715
 20
300.1210654538704
 30
0.0
  0
SPLINE
  5
19B
330
1F
100
AcDbEntity
  8
1
100
AcDbSpline
210
0.0
220
0.0
230
1.0
 70
     8
 71
     3
 72
    10
 73
     6
 74
     0
 42
0.000000001
 43
0.0000000001
 40
0.0
 40
0.0
 40
0.0
 40
0.0
 40
0.5
 40
0.5
 40
1.0
 40
1.0
 40
1.0
 40
1.0
 10
363.3686791715
 20
300.1210654538704
 30
0.0
 10
363.3794482724443
 20
300.1229031929948
 30
0.0
 10
363.3902127694532
 20
300.1228135149653
 30
0.0
 10
363.4114289585814
 20
300.1190131351833
 30
0.0
 10
363.4214419932101
 20
300.1153969553329
 30
0.0
 10
363.4308701263562
 20
300.110087413485
 30
0.0
  0
SPLINE
  5
19C
330
1F
100
AcDbEntity
  8
1
100
AcDbSpline
210
0.0
220
0.0
230
1.0
 70
     8
 71
     3
 72
    18
 73
    14
 74
     0
 42
0.000000001
 43
0.0000000001
 40
0.0
 40
0.0
 40
0.0
 40
0.0
 40
0.2499999999997653
 40
0.2499999999997653
 40
0.3749999999998044
 40
0.3749999999998044
 40
0.4999999999998435
 40
0.4999999999998435
 40
0.6249999999998826
 40
0.6249999999998826
 40
0.7499999999999217
 40
0.7499999999999217
 40
1.0
 40
1.0
 40
1.0
 40
1.0
 10
363.537265935057
 20
300.1197301095033
 30
0.0
 10
363.5297786227804
 20
300.1133608085266
 30
0.0
 10
363.5213678900137
 20
300.1082952625426
 30
0.0
 10
363.508177389547
 20
300.1028848666517
 30
0.0
 10
363.5036596296925
 20
300.1014277584042
 30
0.0
 10
363.49438134055
 20
300.0992116140773
 30
0.0
 10
363.4896658521203
 20
300.0984691127715
 30
0.0
 10
363.4803059678979
 20
300.0977112610453
 30
0.0
 10
363.4756285312417
 20
300.0976877317234
 30
0.0
 10
363.4662794497481
 20
300.0983409918854
 30
0.0
 10
363.4615720584744
 20
300.0990284683633
 30
0.0
 10
363.4478368676727
 20
300.1020949117508
 30
0.0
 10
363.4391274563522
 20
300.1054372204418
 30
0.0
 10
363.4308701263562
 20
300.110087413485
 30
0.0
  0
SPLINE
  5
19D
330
1F
100
AcDbEntity
  8
1
100
AcDbSpline
210
0.0
220
0.0
230
1.0
 70
     8
 71
     3
 72
    16
 73
    12
 74
     0
 42
0.000000001
 43
0.0000000001
 40
0.0
 40
0.0
 40
0.0
 40
0.0
 40
0.2922265880969721
 40
0.2922265880969721
 40
0.4383398821454815
 40
0.4383398821454815
 40
0.5844531761939907
 40
0.5844531761939907
 40
0.8766797642909935
 40
0.8766797642909935
 40
1.0
 40
1.0
 40
1.0
 40
1.0
 10
360.4963616437133
 20
300.8199468588078
 30
0.0
 10
360.4837377390771
 20
300.8487032159043
 30
0.0
 10
360.4735261261845
 20
300.8782291941833
 30
0.0
 10
360.4617730581556
 20
300.9236461070746
 30
0.0
 10
360.4584521459433
 20
300.9389739630265
 30
0.0
 10
360.4530282631495
 20
300.9700139116357
 30
0.0
 10
360.4509254217119
 20
300.9857717535696
 30
0.0
 10
360.4465614823769
 20
301.0328734641728
 30
0.0
 10
360.4461812526838
 20
301.0642591363529
 30
0.0
 10
360.4491802600717
 20
301.1088655373646
 30
0.0
 10
360.4505156237026
 20
301.1221001907509
 30
0.0
 10
360.4523040277903
 20
301.1353317087438
 30
0.0
  0
SPLINE
  5
19E
330
1F
100
AcDbEntity
  8
1
100
AcDbSpline
210
0.0
220
0.0
230
1.0
 70
     8
 71
     3
 72
    15
 73
    11
 74
     0
 42
0.000000001
 43
0.0000000001
 40
0.0
 40
0.0
 40
0.0
 40
0.0
 40
0.0169968353573319
 40
0.0169968353573319
 40
0.1808306961311097
 40
0.1808306961311097
 40
0.3446645569048877
 40
0.3446645569048877
 40
0.672332278452444
 40
1.0
 40
1.0
 40
1.0
 40
1.0
 10
363.7026497196893
 20
300.3508685514857
 30
0.0
 10
363.7020488106383
 20
300.3493536674822
 30
0.0
 10
363.7014417125532
 20
300.347841305441
 30
0.0
 10
363.6949170082991
 20
300.3317779530054
 30
0.0
 10
363.6884287148955
 20
300.3174595349012
 30
0.0
 10
363.6742836383817
 20
300.2892992466475
 30
0.0
 10
363.6665959637507
 20
300.2754075004717
 30
0.0
 10
363.641944006763
 20
300.2348265585531
 30
0.0
 10
363.6052310964244
 20
300.1841561440438
 30
0.0
 10
363.5611784217692
 20
300.1400719650774
 30
0.0
 10
363.537265935057
 20
300.1197301095033
 30
0.0
  0
SPLINE
  5
19F
330
1F
100
AcDbEntity
  8
1
100
AcDbSpline
210
0.0
220
0.0
230
1.0
 70
     8
 71
     3
 72
    10
 73
     6
 74
     0
 42
0.000000001
 43
0.0000000001
 40
0.0
 40
0.0
 40
0.0
 40
0.0
 40
0.5
 40
0.5
 40
1.0
 40
1.0
 40
1.0
 40
1.0
 10
361.2951267416307
 20
302.0947923418337
 30
0.0
 10
361.3009021169424
 20
302.0859734407859
 30
0.0
 10
361.3050486569637
 20
302.0764037673856
 30
0.0
 10
361.3099634230528
 20
302.0558864581726
 30
0.0
 10
361.3106293216963
 20
302.0454168486508
 30
0.0
 10
361.3093968617077
 20
302.0347165873991
 30
0.0
  0
SPLINE
  5
1A0
330
1F
100
AcDbEntity
  8
1
100
AcDbSpline
210
0.0
220
0.0
230
1.0
 70
     8
 71
     3
 72
    10
 73
     6
 74
     0
 42
0.000000001
 43
0.0000000001
 40
0.0
 40
0.0
 40
0.0
 40
0.0
 40
0.5
 40
0.5
 40
1.0
 40
1.0
 40
1.0
 40
1.0
 10
363.337272819588
 20
301.5677657809361
 30
0.0
 10
363.340835023525
 20
301.577929690392
 30
0.0
 10
363.346043460561
 20
301.5871164701589
 30
0.0
 10
363.3594103584743
 20
301.6033945628089
 30
0.0
 10
363.3672789559307
 20
301.6101575297757
 30
0.0
 10
363.3763186629775
 20
301.6155646838004
 30
0.0
  0
SPLINE
  5
1A1
330
1F
100
AcDbEntity
  8
1
100
AcDbSpline
210
0.0
220
0.0
230
1.0
 70
     8
 71
     3
 72
    14
 73
    10
 74
     0
 42
0.000000001
 43
0.0000000001
 40
0.0
 40
0.0
 40
0.0
 40
0.0
 40
0.25
 40
0.25
 40
0.5
 40
0.5
 40
0.75
 40
0.75
 40
1.0
 40
1.0
 40
1.0
 40
1.0
 10
283.8043368819074
 20
278.794470257827
 30
0.0
 10
284.0208844844498
 20
278.9657940070182
 30
0.0
 10
284.2441933232782
 20
279.1255808795318
 30
0.0
 10
284.704548832913
 20
279.4218381541467
 30
0.0
 10
284.9415952711428
 20
279.5583104972555
 30
0.0
 10
285.4298695051468
 20
279.8070688352215
 30
0.0
 10
285.6810967735419
 20
279.9193588906887
 30
0.0
 10
286.1984158949916
 20
280.1181665236999
 30
0.0
 10
286.4645071242606
 20
280.2046906949499
 30
0.0
 10
286.7385012158209
 20
280.2770984359138
 30
0.0
  0
SPLINE
  5
1A2
330
1F
100
AcDbEntity
  8
1
100
AcDbSpline
210
0.0
220
0.0
230
1.0
 70
     8
 71
     3
 72
    23
 73
    19
 74
     0
 42
0.000000001
 43
0.0000000001
 40
0.0
 40
0.0
 40
0.0
 40
0.0
 40
0.1250000000000007
 40
0.1250000000000007
 40
0.2500000000000015
 40
0.3750000000000022
 40
0.3750000000000022
 40
0.5000000000000031
 40
0.5000000000000031
 40
0.5312500000000019
 40
0.5312500000000019
 40
0.5625000000000007
 40
0.5625000000000007
 40
0.6250000000000013
 40
0.6250000000000013
 40
0.7500000000000008
 40
0.8750000000000003
 40
1.0
 40
1.0
 40
1.0
 40
1.0
 10
279.4048419452957
 20
273.8281720311489
 30
0.0
 10
279.2567856212199
 20
273.7097182625891
 30
0.0
 10
279.1154800508023
 20
273.5882672476838
 30
0.0
 10
278.8458979267687
 20
273.3399669347928
 30
0.0
 10
278.5893465676957
 20
273.0862666800847
 30
0.0
 10
278.3584151939563
 20
272.8226947643265
 30
0.0
 10
278.1403102558788
 20
272.5545374022003
 30
0.0
 10
278.0376703212342
 20
272.4181660896323
 30
0.0
 10
277.9175489717954
 20
272.2449908264467
 30
0.0
 10
277.8939342593915
 20
272.2102199668245
 30
0.0
 10
277.8475306152312
 20
272.1404094903982
 30
0.0
 10
277.8247662100949
 20
272.1054052567462
 30
0.0
 10
277.7579829960928
 20
272.0004203616944
 30
0.0
 10
277.7153913099487
 20
271.9303446280574
 30
0.0
 10
277.5933220428882
 20
271.7199241443237
 30
0.0
 10
277.4457604809188
 20
271.4388518884439
 30
0.0
 10
277.2693148164351
 20
271.0165820105254
 30
0.0
 10
277.1817265694478
 20
270.7350943698685
 30
0.0
 10
277.1456188975375
 20
270.5944486146931
 30
0.0
  0
SPLINE
  5
1A3
330
1F
100
AcDbEntity
  8
1
100
AcDbSpline
210
0.0
220
0.0
230
1.0
 70
     8
 71
     3
 72
    22
 73
    18
 74
     0
 42
0.000000001
 43
0.0000000001
 40
0.0
 40
0.0
 40
0.0
 40
0.0
 40
0.2500000000000009
 40
0.2500000000000009
 40
0.3750000000000012
 40
0.3750000000000012
 40
0.5000000000000011
 40
0.5000000000000011
 40
0.562500000000001
 40
0.562500000000001
 40
0.6250000000000009
 40
0.6250000000000009
 40
0.7500000000000006
 40
0.7500000000000006
 40
0.8750000000000003
 40
0.8750000000000003
 40
1.0
 40
1.0
 40
1.0
 40
1.0
 10
283.8043368819074
 20
278.794470257827
 30
0.0
 10
283.3996845983804
 20
278.4743256544294
 30
0.0
 10
283.002119917855
 20
278.1338832444736
 30
0.0
 10
282.4173459008329
 20
277.5871927239149
 30
0.0
 10
282.2243437492262
 20
277.3989597610375
 30
0.0
 10
281.8422930976971
 20
277.0094606452328
 30
0.0
 10
281.6532438614773
 20
276.8081986162034
 30
0.0
 10
281.3727118528876
 20
276.4956177978727
 30
0.0
 10
281.2797064238513
 20
276.3896389390792
 30
0.0
 10
281.0947309886789
 20
276.1739398696431
 30
0.0
 10
281.0033123475848
 20
276.0648621064591
 30
0.0
 10
280.7322735161994
 20
275.7338928086455
 30
0.0
 10
280.5558665684491
 20
275.5082709433922
 30
0.0
 10
280.2117508810336
 20
275.046690127119
 30
0.0
 10
280.044039857784
 20
274.8107343961291
 30
0.0
 10
279.7175891335373
 20
274.3278858890932
 30
0.0
 10
279.5588458181953
 20
274.0809983527473
 30
0.0
 10
279.4048419452957
 20
273.8281720311489
 30
0.0
  0
SPLINE
  5
1A4
330
1F
100
AcDbEntity
  8
1
100
AcDbSpline
210
0.0
220
0.0
230
1.0
 70
     8
 71
     3
 72
     8
 73
     4
 74
     0
 42
0.000000001
 43
0.0000000001
 40
0.0
 40
0.0
 40
0.0
 40
0.0
 40
1.0
 40
1.0
 40
1.0
 40
1.0
 10
366.5894505876547
 20
280.8636331788934
 30
0.0
 10
366.5972522528897
 20
280.8842312366872
 30
0.0
 10
366.6033026456479
 20
280.9053314637831
 30
0.0
 10
366.6076017659293
 20
280.9269338601808
 30
0.0
  0
SPLINE
  5
1A5
330
1F
100
AcDbEntity
  8
1
100
AcDbSpline
210
0.0
220
0.0
230
1.0
 70
     8
 71
     3
 72
     8
 73
     4
 74
     0
 42
0.000000001
 43
0.0000000001
 40
0.0
 40
0.0
 40
0.0
 40
0.0
 40
1.0
 40
1.0
 40
1.0
 40
1.0
 10
366.7311931720172
 20
288.0074807728481
 30
0.0
 10
366.7276505834055
 20
288.0292200467837
 30
0.0
 10
366.722340263689
 20
288.0505185758535
 30
0.0
 10
366.7152622128679
 20
288.0713763600573
 30
0.0
  0
SPLINE
  5
1A6
330
1F
100
AcDbEntity
  8
1
100
AcDbSpline
210
0.0
220
0.0
230
1.0
 70
     8
 71
     3
 72
     8
 73
     4
 74
     0
 42
0.000000001
 43
0.0000000001
 40
0.0
 40
0.0
 40
0.0
 40
0.0
 40
1.0
 40
1.0
 40
1.0
 40
1.0
 10
366.2126469442886
 20
288.9781183071029
 30
0.0
 10
366.1987093355879
 20
288.9951737762852
 30
0.0
 10
366.1834611992763
 20
289.0109636836646
 30
0.0
 10
366.166902535354
 20
289.0254880292411
 30
0.0
  0
SPLINE
  5
1A7
330
1F
100
AcDbEntity
  8
1
100
AcDbSpline
210
0.0
220
0.0
230
1.0
 70
     8
 71
     3
 72
    36
 73
    32
 74
     0
 42
0.000000001
 43
0.0000000001
 40
0.0
 40
0.0
 40
0.0
 40
0.0
 40
0.1250000000000138
 40
0.1250000000000138
 40
0.1875000000000167
 40
0.1875000000000167
 40
0.2187500000000181
 40
0.2187500000000181
 40
0.2500000000000195
 40
0.2500000000000195
 40
0.375000000000031
 40
0.375000000000031
 40
0.406250000000029
 40
0.406250000000029
 40
0.4375000000000268
 40
0.4375000000000268
 40
0.5000000000000452
 40
0.5000000000000452
 40
0.6250000000000818
 40
0.6250000000000818
 40
0.6562500000000902
 40
0.6562500000000902
 40
0.6875000000000985
 40
0.7500000000000853
 40
0.8125000000000719
 40
0.8125000000000719
 40
0.8437500000000655
 40
0.8437500000000655
 40
0.8750000000000589
 40
0.8750000000000589
 40
1.0
 40
1.0
 40
1.0
 40
1.0
 10
357.6179110573796
 20
296.736377300686
 30
0.0
 10
357.619751994729
 20
296.6855722596495
 30
0.0
 10
357.6267407453659
 20
296.6358291956441
 30
0.0
 10
357.6444659529362
 20
296.5627086173684
 30
0.0
 10
357.6515914237613
 20
296.5385861684834
 30
0.0
 10
357.6641313658647
 20
296.5027845022039
 30
0.0
 10
357.6686338081025
 20
296.4908828989146
 30
0.0
 10
357.6781971487808
 20
296.4673814221678
 30
0.0
 10
357.6832515182093
 20
296.4557920109376
 30
0.0
 10
357.7098560175782
 20
296.3986333438401
 30
0.0
 10
357.7353645719207
 20
296.3554058680738
 30
0.0
 10
357.7724524933685
 20
296.3044491305126
 30
0.0
 10
357.780132635972
 20
296.2944131109218
 30
0.0
 10
357.7960260059053
 20
296.2746564414627
 30
0.0
 10
357.8042544742518
 20
296.2649207772173
 30
0.0
 10
357.8294881976365
 20
296.2364886193716
 30
0.0
 10
357.8471103800217
 20
296.2184712525694
 30
0.0
 10
357.902309849466
 20
296.1671537937633
 30
0.0
 10
357.9421967968888
 20
296.1365610758301
 30
0.0
 10
357.9960477120666
 20
296.1029998545213
 30
0.0
 10
358.0070332441143
 20
296.0965181035222
 30
0.0
 10
358.0291715674417
 20
296.0841699079994
 30
0.0
 10
358.0627137593956
 20
296.0665165936116
 30
0.0
 10
358.1202624951671
 20
296.0413654285115
 30
0.0
 10
358.1680452307881
 20
296.0257716784596
 30
0.0
 10
358.2045521153907
 20
296.0158154114368
 30
0.0
 10
358.2168329248633
 20
296.0127870396176
 30
0.0
 10
358.2416236092773
 20
296.0073250044263
 30
0.0
 10
358.2541497262645
 20
296.0048900818138
 30
0.0
 10
358.3167725507415
 20
295.9943363035813
 30
0.0
 10
358.3672730338695
 20
295.9909208559539
 30
0.0
 10
358.4181886873778
 20
295.9926948116454
 30
0.0
  0
SPLINE
  5
1A8
330
1F
100
AcDbEntity
  8
1
100
AcDbSpline
210
0.0
220
0.0
230
1.0
 70
     8
 71
     3
 72
    36
 73
    32
 74
     0
 42
0.000000001
 43
0.0000000001
 40
0.0
 40
0.0
 40
0.0
 40
0.0
 40
0.125000000000013
 40
0.125000000000013
 40
0.1875000000000235
 40
0.1875000000000235
 40
0.2187500000000288
 40
0.2187500000000288
 40
0.250000000000034
 40
0.250000000000034
 40
0.3750000000000117
 40
0.3750000000000117
 40
0.4062499999999976
 40
0.4062499999999976
 40
0.4374999999999835
 40
0.4374999999999835
 40
0.4999999999999846
 40
0.4999999999999846
 40
0.6250000000000057
 40
0.6250000000000057
 40
0.6562500000000111
 40
0.6562500000000111
 40
0.6875000000000164
 40
0.7499999999999922
 40
0.8124999999999682
 40
0.8124999999999682
 40
0.8437499999999563
 40
0.8437499999999563
 40
0.8749999999999442
 40
0.8749999999999442
 40
1.0
 40
1.0
 40
1.0
 40
1.0
 10
366.8470132345146
 20
305.0223982831108
 30
0.0
 10
366.8451722971653
 20
305.0732033241474
 30
0.0
 10
366.8381835465285
 20
305.1229463881527
 30
0.0
 10
366.8204583389579
 20
305.1960669664284
 30
0.0
 10
366.813332868133
 20
305.2201894153134
 30
0.0
 10
366.8007929260296
 20
305.255991081593
 30
0.0
 10
366.7962904837919
 20
305.2678926848822
 30
0.0
 10
366.7867271431135
 20
305.2913941616292
 30
0.0
 10
366.781672773685
 20
305.3029835728591
 30
0.0
 10
366.7550682743162
 20
305.3601422399568
 30
0.0
 10
366.7295597199735
 20
305.4033697157229
 30
0.0
 10
366.6924717985257
 20
305.4543264532842
 30
0.0
 10
366.6847916559223
 20
305.464362472875
 30
0.0
 10
366.668898285989
 20
305.4841191423341
 30
0.0
 10
366.6606698176425
 20
305.4938548065794
 30
0.0
 10
366.6354360942578
 20
305.5222869644252
 30
0.0
 10
366.6178139118727
 20
305.5403043312274
 30
0.0
 10
366.5626144424283
 20
305.5916217900335
 30
0.0
 10
366.5227274950055
 20
305.6222145079668
 30
0.0
 10
366.4688765798277
 20
305.6557757292755
 30
0.0
 10
366.4578910477799
 20
305.6622574802746
 30
0.0
 10
366.4357527244526
 20
305.6746056757975
 30
0.0
 10
366.4022105324988
 20
305.6922589901852
 30
0.0
 10
366.3446618364639
 20
305.7174102584517
 30
0.0
 10
366.2968790611063
 20
305.7330039053372
 30
0.0
 10
366.2603721765037
 20
305.74296017236
 30
0.0
 10
366.248091367031
 20
305.7459885441791
 30
0.0
 10
366.223300682617
 20
305.7514505793706
 30
0.0
 10
366.2107745656296
 20
305.753885501983
 30
0.0
 10
366.1481517411528
 20
305.7644392802154
 30
0.0
 10
366.0976512580246
 20
305.7678547278428
 30
0.0
 10
366.0467356045165
 20
305.7660807721514
 30
0.0
  0
SPLINE
  5
1A9
330
1F
100
AcDbEntity
  8
1
100
AcDbSpline
210
0.0
220
0.0
230
1.0
 70
     8
 71
     3
 72
    36
 73
    32
 74
     0
 42
0.000000001
 43
0.0000000001
 40
0.0
 40
0.0
 40
0.0
 40
0.0
 40
0.1249999999999073
 40
0.1249999999999073
 40
0.1874999999998767
 40
0.1874999999998767
 40
0.2187499999998614
 40
0.2187499999998614
 40
0.2499999999998461
 40
0.2499999999998461
 40
0.3749999999997849
 40
0.3749999999997849
 40
0.4062499999997837
 40
0.4062499999997837
 40
0.4374999999997823
 40
0.4374999999997823
 40
0.4999999999998105
 40
0.4999999999998105
 40
0.6249999999998907
 40
0.6249999999998907
 40
0.6562499999999007
 40
0.6562499999999007
 40
0.6874999999999108
 40
0.7499999999999384
 40
0.812499999999966
 40
0.812499999999966
 40
0.8437499999999754
 40
0.8437499999999754
 40
0.8749999999999849
 40
0.8749999999999849
 40
1.0
 40
1.0
 40
1.0
 40
1.0
 10
358.0741120947631
 20
305.4883060628641
 30
0.0
 10
358.0231908319104
 20
305.4865319117372
 30
0.0
 10
357.9733403561846
 20
305.4796206107111
 30
0.0
 10
357.9000710546068
 20
305.4620265790981
 30
0.0
 10
357.8759011142088
 20
305.4549473546766
 30
0.0
 10
357.8400313797664
 20
305.4424806179391
 30
0.0
 10
357.8281075591107
 20
305.4380032875721
 30
0.0
 10
357.8045630383905
 20
305.4284910979652
 30
0.0
 10
357.7929528169208
 20
305.4234627396842
 30
0.0
 10
357.7356935768602
 20
305.3969904248424
 30
0.0
 10
357.6923966698944
 20
305.3715943670986
 30
0.0
 10
357.6413667211976
 20
305.3346553764813
 30
0.0
 10
357.6313167446593
 20
305.3270054394567
 30
0.0
 10
357.6115335526612
 20
305.3111733322351
 30
0.0
 10
357.6017853065593
 20
305.3029759749329
 30
0.0
 10
357.5733178847989
 20
305.277835906375
 30
0.0
 10
357.5552801787953
 20
305.26027686675
 30
0.0
 10
357.5039109502743
 20
305.2052688857714
 30
0.0
 10
357.4732959575051
 20
305.1655123236971
 30
0.0
 10
357.4397227181722
 20
305.1118279157125
 30
0.0
 10
357.4332393660655
 20
305.1008759022668
 30
0.0
 10
357.4208896091154
 20
305.0788042480493
 30
0.0
 10
357.4032363909967
 20
305.0453617689296
 30
0.0
 10
357.3780973711139
 20
304.9879777917847
 30
0.0
 10
357.3625260407963
 20
304.9403253479043
 30
0.0
 10
357.3525914684465
 20
304.9039156000818
 30
0.0
 10
357.3495711430206
 20
304.8916670723501
 30
0.0
 10
357.3441268694052
 20
304.8669407523803
 30
0.0
 10
357.3417016790215
 20
304.8544467574124
 30
0.0
 10
357.3312003324709
 20
304.7919825308696
 30
0.0
 10
357.3278390502778
 20
304.7416036759186
 30
0.0
 10
357.3296797848346
 20
304.6908042314237
 30
0.0
  0
SPLINE
  5
1AA
330
1F
100
AcDbEntity
  8
1
100
AcDbSpline
210
0.0
220
0.0
230
1.0
 70
     8
 71
     3
 72
    36
 73
    32
 74
     0
 42
0.000000001
 43
0.0000000001
 40
0.0
 40
0.0
 40
0.0
 40
0.0
 40
0.1250000000000588
 40
0.1250000000000588
 40
0.1875000000001049
 40
0.1875000000001049
 40
0.218750000000128
 40
0.218750000000128
 40
0.2500000000001511
 40
0.2500000000001511
 40
0.3750000000002417
 40
0.3750000000002417
 40
0.4062500000002504
 40
0.4062500000002504
 40
0.4375000000002592
 40
0.4375000000002592
 40
0.500000000000251
 40
0.500000000000251
 40
0.6250000000002364
 40
0.6250000000002364
 40
0.6562500000002189
 40
0.6562500000002189
 40
0.6875000000002012
 40
0.7500000000001658
 40
0.8125000000001303
 40
0.8125000000001303
 40
0.8437500000001103
 40
0.8437500000001103
 40
0.8750000000000904
 40
0.8750000000000904
 40
1.0
 40
1.0
 40
1.0
 40
1.0
 10
366.3908121971314
 20
296.2704695209326
 30
0.0
 10
366.4417334599839
 20
296.2722436720597
 30
0.0
 10
366.4915839357096
 20
296.2791549730856
 30
0.0
 10
366.5648532372874
 20
296.2967490046988
 30
0.0
 10
366.5890231776855
 20
296.3038282291203
 30
0.0
 10
366.6248929121278
 20
296.3162949658577
 30
0.0
 10
366.6368167327836
 20
296.3207722962247
 30
0.0
 10
366.6603612535038
 20
296.3302844858317
 30
0.0
 10
366.6719714749735
 20
296.3353128441125
 30
0.0
 10
366.7292307150341
 20
296.3617851589544
 30
0.0
 10
366.772527622
 20
296.3871812166982
 30
0.0
 10
366.8235575706967
 20
296.4241202073155
 30
0.0
 10
366.8336075472349
 20
296.4317701443401
 30
0.0
 10
366.853390739233
 20
296.4476022515618
 30
0.0
 10
366.8631389853349
 20
296.455799608864
 30
0.0
 10
366.8916064070953
 20
296.4809396774218
 30
0.0
 10
366.909644113099
 20
296.4984987170469
 30
0.0
 10
366.96101334162
 20
296.5535066980254
 30
0.0
 10
366.9916283343892
 20
296.5932632600996
 30
0.0
 10
367.0252015737221
 20
296.6469476680843
 30
0.0
 10
367.0316849258287
 20
296.65789968153
 30
0.0
 10
367.0440346827788
 20
296.6799713357475
 30
0.0
 10
367.0616879008977
 20
296.7134138148672
 30
0.0
 10
367.0868269207803
 20
296.7707977920122
 30
0.0
 10
367.102398251098
 20
296.8184502358925
 30
0.0
 10
367.1123328234477
 20
296.8548599837149
 30
0.0
 10
367.1153531488737
 20
296.8671085114468
 30
0.0
 10
367.120797422489
 20
296.8918348314165
 30
0.0
 10
367.1232226128728
 20
296.9043288263844
 30
0.0
 10
367.1337239594234
 20
296.9667930529271
 30
0.0
 10
367.1370852416165
 20
297.0171719078782
 30
0.0
 10
367.1352445070597
 20
297.0679713523732
 30
0.0
  0
SPLINE
  5
1AB
330
1F
100
AcDbEntity
  8
1
100
AcDbSpline
210
0.0
220
0.0
230
1.0
 70
     8
 71
     3
 72
    18
 73
    14
 74
     0
 42
0.000000001
 43
0.0000000001
 40
0.0
 40
0.0
 40
0.0
 40
0.0
 40
0.2500000000000235
 40
0.2500000000000235
 40
0.5000000000000471
 40
0.5000000000000471
 40
0.7500000000000706
 40
0.7500000000000706
 40
0.8125000000000534
 40
0.8125000000000534
 40
0.8750000000000362
 40
0.8750000000000362
 40
1.0
 40
1.0
 40
1.0
 40
1.0
 10
358.4580297705634
 20
295.32437779193
 30
0.0
 10
358.3950693037346
 20
295.3388526661932
 30
0.0
 10
358.3333262227076
 20
295.3562737093101
 30
0.0
 10
358.2118848959832
 20
295.3967698798523
 30
0.0
 10
358.1521891837014
 20
295.4198461302328
 30
0.0
 10
358.0345836089565
 20
295.4716814176915
 30
0.0
 10
357.9766761425839
 20
295.5004390896985
 30
0.0
 10
357.9052794266992
 20
295.5401198662038
 30
0.0
 10
357.8910494918738
 20
295.5482434381867
 30
0.0
 10
357.8626850646793
 20
295.5648731816198
 30
0.0
 10
357.8485268841105
 20
295.5733943596676
 30
0.0
 10
357.8064396378485
 20
295.5993893464686
 30
0.0
 10
357.7788620129748
 20
295.6173121788597
 30
0.0
 10
357.7517608143834
 20
295.6358062161405
 30
0.0
  0
SPLINE
  5
1AC
330
1F
100
AcDbEntity
  8
1
100
AcDbSpline
210
0.0
220
0.0
230
1.0
 70
    12
 71
     2
 72
     6
 73
     3
 74
     0
 42
0.000000001
 43
0.0000000001
 40
0.0
 40
0.0
 40
0.0
 40
1.0
 40
1.0
 40
1.0
 10
357.1119805339067
 20
305.3117879968945
 30
0.0
 41
0.5000009815299025
 10
357.2241649119563
 20
305.3115768246515
 30
0.0
 41
0.4999990184700976
 10
357.3363482855834
 20
305.3113651902422
 30
0.0
 41
0.5000009815299025
  0
SPLINE
  5
1AD
330
1F
100
AcDbEntity
  8
1
100
AcDbSpline
210
0.0
220
0.0
230
1.0
 70
     8
 71
     3
 72
    16
 73
    12
 74
     0
 42
0.000000001
 43
0.0000000001
 40
0.0
 40
0.0
 40
0.0
 40
0.0
 40
0.250000000000001
 40
0.250000000000001
 40
0.500000000000002
 40
0.7500000000000031
 40
0.7500000000000031
 40
0.8125000000000031
 40
0.8125000000000031
 40
0.8750000000000035
 40
1.0
 40
1.0
 40
1.0
 40
1.0
 10
297.9048419452957
 20
305.3989842669623
 30
0.0
 10
297.7009999688062
 20
305.3989842669623
 30
0.0
 10
297.4984964392191
 20
305.3993310285197
 30
0.0
 10
297.0960903509269
 20
305.4005882584643
 30
0.0
 10
296.6962855875092
 20
305.4024083531597
 30
0.0
 10
296.3016417484132
 20
305.4046996606849
 30
0.0
 10
296.0566222219798
 20
305.4059458312289
 30
0.0
 10
296.0077598217381
 20
305.4061849122543
 30
0.0
 10
295.9105180191364
 20
305.4066316767275
 30
0.0
 10
295.7652872068944
 20
305.4072550501537
 30
0.0
 10
295.6219356567175
 20
305.4076912966907
 30
0.0
 10
295.5271928377193
 20
305.4078528285455
 30
0.0
  0
SPLINE
  5
1AE
330
1F
100
AcDbEntity
  8
1
100
AcDbSpline
210
0.0
220
0.0
230
1.0
 70
     8
 71
     3
 72
    10
 73
     6
 74
     0
 42
0.000000001
 43
0.0000000001
 40
0.0
 40
0.0
 40
0.0
 40
0.0
 40
0.5
 40
0.5
 40
1.0
 40
1.0
 40
1.0
 40
1.0
 10
353.9185293950983
 20
299.6129857603541
 30
0.0
 10
353.9417123191559
 20
300.5579400702999
 30
0.0
 10
353.9616407833373
 20
301.5029741368534
 30
0.0
 10
353.9971624824227
 20
303.3931232596594
 30
0.0
 10
354.0127375810646
 20
304.3382380585205
 30
0.0
 10
354.0267828037067
 20
305.2833810208473
 30
0.0
  0
SPLINE
  5
1AF
330
1F
100
AcDbEntity
  8
1
100
AcDbSpline
210
0.0
220
0.0
230
1.0
 70
    28
 71
     4
 72
    10
 73
     5
 74
     0
 42
0.000000001
 43
0.0000000001
 40
0.0
 40
0.0
 40
0.0
 40
0.0
 40
0.0
 40
1.0
 40
1.0
 40
1.0
 40
1.0
 40
1.0
 10
297.9048419452956
 20
280.0526563876277
 30
0.0
 41
1.001439304496982
 10
297.9048419452957
 20
278.1478442160891
 30
0.0
 41
1.000135367211903
 10
297.9048419452956
 20
275.9463562754617
 30
0.0
 41
0.9905960779996412
 10
297.9048419452956
 20
274.0488388208389
 30
0.0
 41
1.00156323924462
 10
297.9048419452957
 20
272.7440373876218
 30
0.0
 41
1.00156323924462
  0
SPLINE
  5
1B0
330
1F
100
AcDbEntity
  8
1
100
AcDbSpline
210
0.0
220
0.0
230
1.0
 70
     9
 71
     3
 72
   130
 73
   126
 74
     0
 42
0.000000001
 43
0.0000000001
 40
0.0
 40
0.0
 40
0.0
 40
0.0
 40
0.0312500000000064
 40
0.0312500000000064
 40
0.0468750000000094
 40
0.0468750000000094
 40
0.0546875000000117
 40
0.0546875000000117
 40
0.0625000000000139
 40
0.0625000000000139
 40
0.0937500000000202
 40
0.0937500000000202
 40
0.1093750000000233
 40
0.1093750000000233
 40
0.1250000000000265
 40
0.1250000000000265
 40
0.1562500000000359
 40
0.1562500000000359
 40
0.1640625000000364
 40
0.1640625000000364
 40
0.1718750000000369
 40
0.1718750000000369
 40
0.1875000000000416
 40
0.2031250000000464
 40
0.2031250000000464
 40
0.2109375000000467
 40
0.2109375000000467
 40
0.2187500000000469
 40
0.2187500000000469
 40
0.2500000000000391
 40
0.2500000000000391
 40
0.2656250000000375
 40
0.2656250000000375
 40
0.2734375000000389
 40
0.2734375000000389
 40
0.2812500000000402
 40
0.2812500000000402
 40
0.3125000000000328
 40
0.3125000000000328
 40
0.320312500000033
 40
0.320312500000033
 40
0.3281250000000331
 40
0.3281250000000331
 40
0.3437500000000335
 40
0.3593750000000338
 40
0.3593750000000338
 40
0.367187500000034
 40
0.367187500000034
 40
0.3750000000000341
 40
0.3750000000000341
 40
0.4062500000000284
 40
0.4062500000000284
 40
0.4218750000000254
 40
0.4218750000000254
 40
0.429687500000024
 40
0.429687500000024
 40
0.4375000000000226
 40
0.4375000000000226
 40
0.4687500000000204
 40
0.4687500000000204
 40
0.4765625000000198
 40
0.4765625000000198
 40
0.484375000000019
 40
0.484375000000019
 40
0.5000000000000177
 40
0.5000000000000177
 40
0.5312500000000156
 40
0.5312500000000156
 40
0.5390625000000151
 40
0.5390625000000151
 40
0.5468750000000146
 40
0.5468750000000146
 40
0.5625000000000148
 40
0.5781250000000151
 40
0.5781250000000151
 40
0.585937500000016
 40
0.585937500000016
 40
0.5937500000000171
 40
0.5937500000000171
 40
0.6250000000000253
 40
0.6250000000000253
 40
0.6406250000000293
 40
0.6406250000000293
 40
0.6484375000000295
 40
0.6484375000000295
 40
0.6562500000000298
 40
0.6562500000000298
 40
0.6875000000000382
 40
0.6875000000000382
 40
0.6953125000000372
 40
0.6953125000000372
 40
0.7031250000000361
 40
0.7031250000000361
 40
0.7187500000000341
 40
0.7187500000000341
 40
0.7500000000000345
 40
0.7500000000000345
 40
0.7578125000000333
 40
0.7578125000000333
 40
0.7656250000000324
 40
0.7656250000000324
 40
0.7812500000000302
 40
0.7968750000000283
 40
0.7968750000000283
 40
0.8046875000000271
 40
0.8046875000000271
 40
0.8125000000000261
 40
0.8125000000000261
 40
0.8437500000000216
 40
0.8437500000000216
 40
0.8515625000000206
 40
0.8515625000000206
 40
0.8593750000000193
 40
0.8593750000000193
 40
0.8750000000000168
 40
0.8750000000000168
 40
0.9062500000000115
 40
0.9062500000000115
 40
0.9375000000000063
 40
0.9375000000000063
 40
0.9531250000000046
 40
0.9531250000000046
 40
0.9687500000000028
 40
0.9687500000000028
 40
1.0
 40
1.0
 40
1.0
 40
1.0
 10
359.9691615337858
 20
284.754186265565
 30
0.0
 10
359.9708071473458
 20
284.8484634032781
 30
0.0
 10
359.9815410482539
 20
284.9413177562039
 30
0.0
 10
360.0109430442296
 20
285.0784936041462
 30
0.0
 10
360.0229759341021
 20
285.1238652131207
 30
0.0
 10
360.0444733145362
 20
285.1913703898445
 30
0.0
 10
360.0522147832583
 20
285.2137798953078
 30
0.0
 10
360.0688787545589
 20
285.2584084768699
 30
0.0
 10
360.0777403937251
 20
285.280462804036
 30
0.0
 10
360.1245898469028
 20
285.3892894534694
 30
0.0
 10
360.1701961236337
 20
285.4719408301463
 30
0.0
 10
360.2508026051792
 20
285.5892313130047
 30
0.0
 10
360.2797178176947
 20
285.627206188668
 30
0.0
 10
360.3418199335863
 20
285.7008005785505
 30
0.0
 10
360.3745461617193
 20
285.7358648574226
 30
0.0
 10
360.4772649466168
 20
285.8356134489394
 30
0.0
 10
360.5518996907722
 20
285.8950779537873
 30
0.0
 10
360.6530679032606
 20
285.9603504106094
 30
0.0
 10
360.6737120967741
 20
285.9729555374794
 30
0.0
 10
360.7157601029216
 20
285.9971964725779
 30
0.0
 10
360.7370059308618
 20
286.0087420849065
 30
0.0
 10
360.8013954220252
 20
286.0416875014424
 30
0.0
 10
360.8889834788929
 20
286.0811126123683
 30
0.0
 10
360.9799798954029
 20
286.1116791469602
 30
0.0
 10
361.0495202072601
 20
286.1312384081066
 30
0.0
 10
361.0729162062502
 20
286.1371962067033
 30
0.0
 10
361.1201474652743
 20
286.1479677690942
 30
0.0
 10
361.1440516977938
 20
286.1527927818857
 30
0.0
 10
361.2637478925975
 20
286.1738258528277
 30
0.0
 10
361.3597221061258
 20
286.1808619087936
 30
0.0
 10
361.5039990695038
 20
286.1771825402359
 30
0.0
 10
361.5521443987143
 20
286.1735660367543
 30
0.0
 10
361.6244443043316
 20
286.1644492605616
 30
0.0
 10
361.6485807086001
 20
286.160785808172
 30
0.0
 10
361.696330719514
 20
286.1523066923975
 30
0.0
 10
361.7200124458883
 20
286.1474840872443
 30
0.0
 10
361.8374715067757
 20
286.1205079336688
 30
0.0
 10
361.9284282700856
 20
286.0898486599591
 30
0.0
 10
362.0383408341132
 20
286.0401489355947
 30
0.0
 10
362.060132415283
 20
286.0296349742128
 30
0.0
 10
362.1033259134969
 20
286.0074366805028
 30
0.0
 10
362.1245813261682
 20
285.9958264005426
 30
0.0
 10
362.1871717347697
 20
285.9595894262923
 30
0.0
 10
362.2676502438617
 20
285.9074532985515
 30
0.0
 10
362.3423196285453
 20
285.8478798559911
 30
0.0
 10
362.3961328701049
 20
285.8004061166502
 30
0.0
 10
362.413705168956
 20
285.7841151024517
 30
0.0
 10
362.448109122484
 20
285.7505892586529
 30
0.0
 10
362.4649847778796
 20
285.7333060015956
 30
0.0
 10
362.5468815702071
 20
285.6451322397906
 30
0.0
 10
362.6042724661497
 20
285.5693907392459
 30
0.0
 10
362.6787163452707
 20
285.4483992935479
 30
0.0
 10
362.7015763245025
 20
285.4068297161759
 30
0.0
 10
362.7328771762545
 20
285.3425889343863
 30
0.0
 10
362.7428245750972
 20
285.3208231441382
 30
0.0
 10
362.7615137004593
 20
285.2771161850679
 30
0.0
 10
362.7702819260804
 20
285.2551251717576
 30
0.0
 10
362.8113017575696
 20
285.1445000647259
 30
0.0
 10
362.8351664893882
 20
285.0538755237039
 30
0.0
 10
362.8539715715199
 20
284.9380153114095
 30
0.0
 10
362.8571765196215
 20
284.9147130751857
 30
0.0
 10
362.8624589215025
 20
284.8678451858761
 30
0.0
 10
362.8645311083174
 20
284.8442923810743
 30
0.0
 10
362.8690002971362
 20
284.7739753577851
 30
0.0
 10
362.8696849153496
 20
284.7273072435913
 30
0.0
 10
362.8650644603908
 20
284.5879152003476
 30
0.0
 10
362.8531470380989
 20
284.4957994218373
 30
0.0
 10
362.82695272725
 20
284.3816764226274
 30
0.0
 10
362.8211408498529
 20
284.3589070639268
 30
0.0
 10
362.8084982746681
 20
284.3139402986913
 30
0.0
 10
362.8016547759823
 20
284.2916830105864
 30
0.0
 10
362.7795821016696
 20
284.2255771436802
 30
0.0
 10
362.7460459754666
 20
284.1392091667414
 30
0.0
 10
362.7043773317454
 20
284.0563312465373
 30
0.0
 10
362.6700166268857
 20
283.9954967525929
 30
0.0
 10
362.6580439259945
 20
283.9754396223452
 30
0.0
 10
362.6330384206327
 20
283.9357747670052
 30
0.0
 10
362.6199724358545
 20
283.9161230773622
 30
0.0
 10
362.5525973791758
 20
283.8199541245783
 30
0.0
 10
362.4919171123786
 20
283.7490953094221
 30
0.0
 10
362.3907861900262
 20
283.651751884348
 30
0.0
 10
362.3553787832628
 20
283.6208055228201
 30
0.0
 10
362.2996136748549
 20
283.5767185747145
 30
0.0
 10
362.2805345706689
 20
283.5623789815521
 30
0.0
 10
362.2416891217704
 20
283.534663250906
 30
0.0
 10
362.221983846998
 20
283.521326761722
 30
0.0
 10
362.122062517062
 20
283.4572118870836
 30
0.0
 10
362.0377024306092
 20
283.4140599928054
 30
0.0
 10
361.9265944677833
 20
283.3704408966891
 30
0.0
 10
361.9040874023888
 20
283.3622379228274
 30
0.0
 10
361.8584882671893
 20
283.3468974319509
 30
0.0
 10
361.8353470890761
 20
283.3397462768587
 30
0.0
 10
361.7653513673972
 20
283.3200332768911
 30
0.0
 10
361.7183696626498
 20
283.309321014519
 30
0.0
 10
361.57649556531
 20
283.28426915683
 30
0.0
 10
361.4806831542737
 20
283.2769439600924
 30
0.0
 10
361.3593262776225
 20
283.2799028535327
 30
0.0
 10
361.3349143566648
 20
283.2811133041417
 30
0.0
 10
361.2864852426006
 20
283.2847385988149
 30
0.0
 10
361.2624148106008
 20
283.2871517066252
 30
0.0
 10
361.1906269148034
 20
283.2961559052579
 30
0.0
 10
361.0960366658155
 20
283.3128588124001
 30
0.0
 10
361.0036561866005
 20
283.3387884868069
 30
0.0
 10
360.9352071095082
 20
283.361736932535
 30
0.0
 10
360.9124961705014
 20
283.3699845449149
 30
0.0
 10
360.8675075151869
 20
283.3876103132943
 30
0.0
 10
360.8453485198
 20
283.3969398182379
 30
0.0
 10
360.7361834191549
 20
283.4461034754162
 30
0.0
 10
360.6540189839994
 20
283.4934108027894
 30
0.0
 10
360.5575354067473
 20
283.5622428808188
 30
0.0
 10
360.5385527277101
 20
283.5764988101766
 30
0.0
 10
360.5012212343858
 20
283.6060013833371
 30
0.0
 10
360.4828835737223
 20
283.6212442240711
 30
0.0
 10
360.4293892016211
 20
283.6679702623884
 30
0.0
 10
360.3955471215555
 20
283.700602140656
 30
0.0
 10
360.2992782461592
 20
283.8028039821426
 30
0.0
 10
360.2420585390846
 20
283.8766390217029
 30
0.0
 10
360.1417184631017
 20
284.03600933888
 30
0.0
 10
360.1001165802297
 20
284.1191350004887
 30
0.0
 10
360.0499514950549
 20
284.2487603288111
 30
0.0
 10
360.0352834008557
 20
284.2928001188924
 30
0.0
 10
360.0101287248507
 20
284.3825823637479
 30
0.0
 10
359.9996235093966
 20
284.4285004656878
 30
0.0
 10
359.9750040970067
 20
284.5666943049238
 30
0.0
 10
359.9675159202258
 20
284.659909127852
 30
0.0
 10
359.9691615337858
 20
284.754186265565
 30
0.0
  0
SPLINE
  5
1B1
330
1F
100
AcDbEntity
  8
1
100
AcDbSpline
210
0.0
220
0.0
230
1.0
 70
     8
 71
     3
 72
     8
 73
     4
 74
     0
 42
0.000000001
 43
0.0000000001
 40
0.0
 40
0.0
 40
0.0
 40
0.0
 40
1.0
 40
1.0
 40
1.0
 40
1.0
 10
353.7675893763238
 20
295.805512143858
 30
0.0
 10
353.5655768796693
 20
295.8878114749711
 30
0.0
 10
353.3639165346597
 20
295.9756802364818
 30
0.0
 10
353.1627773712047
 20
296.0693418166036
 30
0.0
  0
SPLINE
  5
1B2
330
1F
100
AcDbEntity
  8
1
100
AcDbSpline
210
0.0
220
0.0
230
1.0
 70
     8
 71
     3
 72
    25
 73
    21
 74
     0
 42
0.000000001
 43
0.0000000001
 40
0.0
 40
0.0
 40
0.0
 40
0.0
 40
0.2500000000000009
 40
0.2500000000000009
 40
0.3750000000000045
 40
0.3750000000000045
 40
0.4062500000000055
 40
0.4062500000000055
 40
0.4375000000000063
 40
0.500000000000008
 40
0.500000000000008
 40
0.6250000000000061
 40
0.6250000000000061
 40
0.7500000000000041
 40
0.7500000000000041
 40
0.8750000000000021
 40
0.8750000000000021
 40
0.9375000000000012
 40
0.9375000000000012
 40
1.0
 40
1.0
 40
1.0
 40
1.0
 10
352.7280002594745
 20
296.8511084987211
 30
0.0
 10
352.9013866544121
 20
297.0398224351484
 30
0.0
 10
353.0602668280398
 20
297.2397826726964
 30
0.0
 10
353.2742204571999
 20
297.5586138529503
 30
0.0
 10
353.3414615256867
 20
297.6680515575801
 30
0.0
 10
353.4199678402591
 20
297.8091476008792
 30
0.0
 10
353.435400541989
 20
297.8376017756799
 30
0.0
 10
353.4655461422641
 20
297.894660303002
 30
0.0
 10
353.5097410696774
 20
297.9805717695588
 30
0.0
 10
353.5508584493303
 20
298.0674565173229
 30
0.0
 10
353.6289506139922
 20
298.2425361174635
 30
0.0
 10
353.6754969991089
 20
298.361000000037
 30
0.0
 10
353.7571623921617
 20
298.6015416981994
 30
0.0
 10
353.7922834696083
 20
298.723618859301
 30
0.0
 10
353.850410835095
 20
298.9716045101388
 30
0.0
 10
353.8734203957698
 20
299.0975119648972
 30
0.0
 10
353.8980549051029
 20
299.2894976654019
 30
0.0
 10
353.9046190498767
 20
299.3541267534998
 30
0.0
 10
353.9142125656507
 20
299.4833943286597
 30
0.0
 10
353.9172609093299
 20
299.5481354251321
 30
0.0
 10
353.9185293950983
 20
299.6129857603541
 30
0.0
  0
SPLINE
  5
1B3
330
1F
100
AcDbEntity
  8
1
100
AcDbSpline
210
0.0
220
0.0
230
1.0
 70
    12
 71
     3
 72
     9
 73
     5
 74
     0
 42
0.000000001
 43
0.0000000001
 40
0.0
 40
0.0
 40
0.0
 40
0.0
 40
0.2783574947226685
 40
1.0
 40
1.0
 40
1.0
 40
1.0
 10
337.1240009359479
 20
299.6153842770357
 30
0.0
 41
1.001595286519525
 10
338.7011297810655
 20
299.5256580662701
 30
0.0
 41
1.001026463994435
 10
344.373215422646
 20
299.1115613871163
 30
0.0
 41
0.9996412856843967
 10
349.976240376164
 20
298.7750583582386
 30
0.0
 41
1.003295146036375
 10
353.9185293950983
 20
299.6129857603541
 30
0.0
 41
1.002320562591406
  0
SPLINE
  5
1B4
330
1F
100
AcDbEntity
  8
1
100
AcDbSpline
210
0.0
220
0.0
230
1.0
 70
     8
 71
     3
 72
    20
 73
    16
 74
     0
 42
0.000000001
 43
0.0000000001
 40
0.0
 40
0.0
 40
0.0
 40
0.0
 40
0.1250000000000007
 40
0.2500000000000015
 40
0.3750000000000022
 40
0.5000000000000031
 40
0.5000000000000031
 40
0.5312500000000029
 40
0.5312500000000029
 40
0.5625000000000027
 40
0.6250000000000025
 40
0.6250000000000025
 40
0.7500000000000016
 40
0.8750000000000007
 40
1.0
 40
1.0
 40
1.0
 40
1.0
 10
286.7385012158209
 20
280.2770984359138
 30
0.0
 10
287.0031704830787
 20
280.3470419286205
 30
0.0
 10
287.5403766554525
 20
280.472792038976
 30
0.0
 10
288.3693833137053
 20
280.6197352223134
 30
0.0
 10
289.2214565746058
 20
280.7252314446281
 30
0.0
 10
289.8049717150525
 20
280.7677718156019
 30
0.0
 10
290.1745864717731
 20
280.78552306569
 30
0.0
 10
290.2488175273023
 20
280.7886329704197
 30
0.0
 10
290.3973675295569
 20
280.7939495123756
 30
0.0
 10
290.6203680082754
 20
280.8005740432511
 30
0.0
 10
290.8438904279639
 20
280.8031822403127
 30
0.0
 10
291.2916213844624
 20
280.8031189657488
 30
0.0
 10
291.890424217535
 20
280.7889664196757
 30
0.0
 10
292.7940090659194
 20
280.7263339130941
 30
0.0
 10
293.399960756584
 20
280.6571709345624
 30
0.0
 10
293.7038318185191
 20
280.6157007568834
 30
0.0
  0
SPLINE
  5
1B5
330
1F
100
AcDbEntity
  8
1
100
AcDbSpline
210
0.0
220
0.0
230
1.0
 70
     8
 71
     3
 72
    24
 73
    20
 74
     0
 42
0.000000001
 43
0.0000000001
 40
0.0
 40
0.0
 40
0.0
 40
0.0
 40
0.1250000000000004
 40
0.1250000000000004
 40
0.2500000000000008
 40
0.2500000000000008
 40
0.3750000000000012
 40
0.3750000000000012
 40
0.5000000000000017
 40
0.5000000000000017
 40
0.5312500000000017
 40
0.5312500000000017
 40
0.5625000000000017
 40
0.6250000000000015
 40
0.6250000000000015
 40
0.7500000000000009
 40
0.8750000000000003
 40
0.8750000000000003
 40
1.0
 40
1.0
 40
1.0
 40
1.0
 10
279.4048419452957
 20
266.5655702584887
 30
0.0
 10
279.5621400425268
 20
266.6006144909921
 30
0.0
 10
279.7241650060147
 20
266.648159838595
 30
0.0
 10
280.056614389735
 20
266.7645982822573
 30
0.0
 10
280.2270438995875
 20
266.8335060806738
 30
0.0
 10
280.5754209659809
 20
266.9898317225137
 30
0.0
 10
280.7533719980418
 20
267.0772584720293
 30
0.0
 10
281.1159438499934
 20
267.2682132943532
 30
0.0
 10
281.3005672482022
 20
267.3717470385473
 30
0.0
 10
281.5349502625632
 20
267.5098586153461
 30
0.0
 10
281.5820276352751
 20
267.5379286090258
 30
0.0
 10
281.6764094786265
 20
267.5948342101456
 30
0.0
 10
281.8183105439015
 20
267.6813327189732
 30
0.0
 10
281.9611419974946
 20
267.7710901899693
 30
0.0
 10
282.2478937836267
 20
267.9545416791891
 30
0.0
 10
282.6331390904604
 20
268.2096301498955
 30
0.0
 10
283.0224586093257
 20
268.4816351270793
 30
0.0
 10
283.4128523581582
 20
268.7602355391084
 30
0.0
 10
283.6085851154913
 20
268.9028318271515
 30
0.0
 10
283.8043368819074
 20
269.0478849529393
 30
0.0
  0
SPLINE
  5
1B6
330
1F
100
AcDbEntity
  8
1
100
AcDbSpline
210
0.0
220
0.0
230
1.0
 70
     8
 71
     3
 72
    33
 73
    29
 74
     0
 42
0.000000001
 43
0.0000000001
 40
0.0
 40
0.0
 40
0.0
 40
0.0
 40
0.1250000000000011
 40
0.1250000000000011
 40
0.2500000000000022
 40
0.2500000000000022
 40
0.312500000000003
 40
0.312500000000003
 40
0.3437500000000037
 40
0.3437500000000037
 40
0.3593750000000033
 40
0.3593750000000033
 40
0.375000000000003
 40
0.375000000000003
 40
0.5000000000000006
 40
0.5000000000000006
 40
0.6249999999999983
 40
0.6249999999999983
 40
0.687499999999997
 40
0.687499999999997
 40
0.7031249999999968
 40
0.7031249999999968
 40
0.7187499999999966
 40
0.7499999999999972
 40
0.7499999999999972
 40
0.8749999999999985
 40
0.8749999999999985
 40
1.0
 40
1.0
 40
1.0
 40
1.0
 10
277.1456188975376
 20
270.5944486146929
 30
0.0
 10
277.0958632870443
 20
270.3764889009723
 30
0.0
 10
277.0655032741574
 20
270.1633550237574
 30
0.0
 10
277.0417841460691
 20
269.7466680712783
 30
0.0
 10
277.0484314724195
 20
269.5431151160582
 30
0.0
 10
277.0861406396194
 20
269.2449566014301
 30
0.0
 10
277.103346428739
 20
269.1467659698404
 30
0.0
 10
277.1362275436924
 20
269.0012749160552
 30
0.0
 10
277.148367517381
 20
268.9530770707585
 30
0.0
 10
277.1683697923936
 20
268.8812294731463
 30
0.0
 10
277.1753302730968
 20
268.8573774945067
 30
0.0
 10
277.1898017148951
 20
268.8099779173704
 30
0.0
 10
277.1973172699447
 20
268.7864136120012
 30
0.0
 10
277.267457827483
 20
268.5755400319329
 30
0.0
 10
277.3475171457095
 20
268.3966474550148
 30
0.0
 10
277.5420014527789
 20
268.0546322544259
 30
0.0
 10
277.6564290628135
 20
267.8915134011306
 30
0.0
 10
277.8542578357607
 20
267.6579669230837
 30
0.0
 10
277.9245774801392
 20
267.5819761206241
 30
0.0
 10
278.0180876259491
 20
267.4892562019516
 30
0.0
 10
278.0370723359642
 20
267.470824659088
 30
0.0
 10
278.0754865366399
 20
267.4342998109619
 30
0.0
 10
278.1338181494143
 20
267.3799765890302
 30
0.0
 10
278.1942699136081
 20
267.3270239464913
 30
0.0
 10
278.4004528452774
 20
267.1534724805257
 30
0.0
 10
278.5803116515315
 20
267.0240685336813
 30
0.0
 10
278.9698562924089
 20
266.7823215766777
 30
0.0
 10
279.1795376918955
 20
266.6699817851979
 30
0.0
 10
279.4048419452957
 20
266.5655702584887
 30
0.0
  0
SPLINE
  5
1B7
330
1F
100
AcDbEntity
  8
1
100
AcDbSpline
210
0.0
220
0.0
230
1.0
 70
     8
 71
     3
 72
    10
 73
     6
 74
     0
 42
0.000000001
 43
0.0000000001
 40
0.0
 40
0.0
 40
0.0
 40
0.0
 40
0.5
 40
0.5
 40
1.0
 40
1.0
 40
1.0
 40
1.0
 10
304.0743628836885
 20
272.6901640089338
 30
0.0
 10
304.6004727583395
 20
272.7764437527281
 30
0.0
 10
305.1265516074124
 20
272.8641811447229
 30
0.0
 10
306.1791407682817
 20
273.0417619829072
 30
0.0
 10
306.7056521445523
 20
273.1316012205622
 30
0.0
 10
307.232566473519
 20
273.2221925250596
 30
0.0
  0
SPLINE
  5
1B8
330
1F
100
AcDbEntity
  8
1
100
AcDbSpline
210
0.0
220
0.0
230
1.0
 70
    24
 71
     4
 72
    10
 73
     5
 74
     0
 42
0.000000001
 43
0.0000000001
 40
0.0
 40
0.0
 40
0.0
 40
0.0
 40
0.0
 40
1.0
 40
1.0
 40
1.0
 40
1.0
 40
1.0
 10
297.9048419452957
 20
272.4680358931913
 30
0.0
 10
297.9048419452957
 20
272.5370362667989
 30
0.0
 10
297.9048419452957
 20
272.6060366404066
 30
0.0
 10
297.9048419452957
 20
272.6750370140142
 30
0.0
 10
297.9048419452957
 20
272.7440373876218
 30
0.0
  0
SPLINE
  5
1B9
330
1F
100
AcDbEntity
  8
1
100
AcDbSpline
210
0.0
220
0.0
230
1.0
 70
     8
 71
     3
 72
    10
 73
     6
 74
     0
 42
0.000000001
 43
0.0000000001
 40
0.0
 40
0.0
 40
0.0
 40
0.0
 40
0.5
 40
0.5
 40
1.0
 40
1.0
 40
1.0
 40
1.0
 10
304.074362883688
 20
272.6901640089358
 30
0.0
 10
303.0557752465438
 20
272.6344089596916
 30
0.0
 10
302.0323674521538
 20
272.5894289629568
 30
0.0
 10
299.9757958544913
 20
272.5167725763392
 30
0.0
 10
298.9426406610178
 20
272.4890809875806
 30
0.0
 10
297.9048419452957
 20
272.4680358931913
 30
0.0
  0
SPLINE
  5
1BA
330
1F
100
AcDbEntity
  8
1
100
AcDbSpline
210
0.0
220
0.0
230
1.0
 70
     8
 71
     3
 72
    18
 73
    14
 74
     0
 42
0.000000001
 43
0.0000000001
 40
0.0
 40
0.0
 40
0.0
 40
0.0
 40
0.2500000000000009
 40
0.2500000000000009
 40
0.5000000000000019
 40
0.5000000000000019
 40
0.6250000000000045
 40
0.6250000000000045
 40
0.6875000000000037
 40
0.6875000000000037
 40
0.7500000000000031
 40
0.7500000000000031
 40
1.0
 40
1.0
 40
1.0
 40
1.0
 10
295.4991955492616
 20
272.4284295053087
 30
0.0
 10
295.6872067235883
 20
272.4330039748802
 30
0.0
 10
295.8781467417892
 20
272.43786938795
 30
0.0
 10
296.2664048470939
 20
272.44720017964
 30
0.0
 10
296.4637225172117
 20
272.451664246386
 30
0.0
 10
296.7649706235215
 20
272.4574033241732
 30
0.0
 10
296.8662663195784
 20
272.4591578058435
 30
0.0
 10
297.0196005802698
 20
272.4614805004984
 30
0.0
 10
297.0709438602914
 20
272.4622033126555
 30
0.0
 10
297.174106928568
 20
272.4635353641505
 30
0.0
 10
297.2259611479028
 20
272.4641449569774
 30
0.0
 10
297.4860798524927
 20
272.4668804037086
 30
0.0
 10
297.6950251252566
 20
272.4680358931913
 30
0.0
 10
297.9048419452957
 20
272.4680358931913
 30
0.0
  0
SPLINE
  5
1BB
330
1F
100
AcDbEntity
  8
1
100
AcDbSpline
210
0.0
220
0.0
230
1.0
 70
     8
 71
     3
 72
    12
 73
     8
 74
     0
 42
0.000000001
 43
0.0000000001
 40
0.0
 40
0.0
 40
0.0
 40
0.0
 40
0.01420823673283
 40
0.01420823673283
 40
0.3428054911552395
 40
0.3428054911552395
 40
1.0
 40
1.0
 40
1.0
 40
1.0
 10
357.6350361106608
 20
305.3266129201835
 30
0.0
 10
357.6348133014685
 20
305.3266802145407
 30
0.0
 10
357.6345918534182
 20
305.3267475272472
 30
0.0
 10
357.6292817873321
 20
305.3283720353892
 30
0.0
 10
357.6249064019723
 20
305.3299461040742
 30
0.0
 10
357.6142054754683
 20
305.3346259734195
 30
0.0
 10
357.6102359793933
 20
305.3376925776016
 30
0.0
 10
357.6094771838759
 20
305.3406986290366
 30
0.0
  0
SPLINE
  5
1BC
330
1F
100
AcDbEntity
  8
1
100
AcDbSpline
210
0.0
220
0.0
230
1.0
 70
     8
 71
     3
 72
    34
 73
    30
 74
     0
 42
0.000000001
 43
0.0000000001
 40
0.0
 40
0.0
 40
0.0
 40
0.0
 40
0.125000000000003
 40
0.125000000000003
 40
0.2500000000000059
 40
0.2500000000000059
 40
0.3125000000000066
 40
0.3125000000000066
 40
0.3750000000000071
 40
0.3750000000000071
 40
0.4375000000000078
 40
0.4375000000000078
 40
0.5000000000000084
 40
0.5625000000000089
 40
0.5625000000000089
 40
0.5937500000000081
 40
0.5937500000000081
 40
0.6250000000000073
 40
0.6875000000000077
 40
0.6875000000000077
 40
0.718750000000007
 40
0.718750000000007
 40
0.7500000000000061
 40
0.7500000000000061
 40
0.8750000000000026
 40
0.8750000000000026
 40
0.9375000000000014
 40
0.9375000000000014
 40
1.0
 40
1.0
 40
1.0
 40
1.0
 10
364.9903884992513
 20
283.1534935137176
 30
0.0
 10
364.9972565911838
 20
283.1013517465012
 30
0.0
 10
365.0051945972465
 20
283.055233316941
 30
0.0
 10
365.0232158815734
 20
282.97509367117
 30
0.0
 10
365.0332026555593
 20
282.9415008263422
 30
0.0
 10
365.0496387489173
 20
282.900772182666
 30
0.0
 10
365.0553667664182
 20
282.8888089718867
 30
0.0
 10
365.0672308511806
 20
282.8682949386942
 30
0.0
 10
365.0733756871949
 20
282.8597181448716
 30
0.0
 10
365.0860907612519
 20
282.8459235401329
 30
0.0
 10
365.0926697029801
 20
282.8407016194179
 30
0.0
 10
365.106218827336
 20
282.8336812371806
 30
0.0
 10
365.1201239464472
 20
282.8300925105064
 30
0.0
 10
365.1347373802187
 20
282.83333167079
 30
0.0
 10
365.1459654185782
 20
282.8383441038497
 30
0.0
 10
365.1497559296358
 20
282.8404483266594
 30
0.0
 10
365.1574017860771
 20
282.8455082815585
 30
0.0
 10
365.1689737002188
 20
282.8543767659425
 30
0.0
 10
365.1808535465907
 20
282.8670628530133
 30
0.0
 10
365.1929394407073
 20
282.8823034256116
 30
0.0
 10
365.1970024432196
 20
282.8878097341213
 30
0.0
 10
365.2051976855727
 20
282.8996807238179
 30
0.0
 10
365.2093314205068
 20
282.9060485966518
 30
0.0
 10
365.2300972451368
 20
282.9399225689549
 30
0.0
 10
365.2470776367286
 20
282.9735826051345
 30
0.0
 10
365.2731058465322
 20
283.0340214340383
 30
0.0
 10
365.2818486469917
 20
283.05577377174
 30
0.0
 10
365.2994009549864
 20
283.1023154944118
 30
0.0
 10
365.3082206745689
 20
283.1271283258711
 30
0.0
 10
365.3170842531813
 20
283.1534935137011
 30
0.0
  0
SPLINE
  5
1BD
330
1F
100
AcDbEntity
  8
1
100
AcDbSpline
210
0.0
220
0.0
230
1.0
 70
     8
 71
     3
 72
   144
 73
   140
 74
     0
 42
0.000000001
 43
0.0000000001
 40
0.0
 40
0.0
 40
0.0
 40
0.0
 40
0.0156249999999991
 40
0.0156249999999991
 40
0.0312499999999981
 40
0.0312499999999981
 40
0.0468749999999972
 40
0.0468749999999972
 40
0.0624999999999962
 40
0.0624999999999962
 40
0.0781249999999953
 40
0.0781249999999953
 40
0.0937499999999944
 40
0.0937499999999944
 40
0.1093749999999934
 40
0.1093749999999934
 40
0.1249999999999925
 40
0.1249999999999925
 40
0.1406249999999915
 40
0.1406249999999915
 40
0.1562499999999906
 40
0.1562499999999906
 40
0.1718749999999896
 40
0.1718749999999896
 40
0.1874999999999887
 40
0.1874999999999887
 40
0.2187499999999871
 40
0.2187499999999871
 40
0.2343749999999863
 40
0.2343749999999863
 40
0.2499999999999855
 40
0.2656249999999847
 40
0.2656249999999847
 40
0.281249999999984
 40
0.281249999999984
 40
0.2968749999999832
 40
0.2968749999999832
 40
0.3124999999999824
 40
0.3124999999999824
 40
0.3281249999999816
 40
0.3281249999999816
 40
0.3359374999999812
 40
0.3359374999999812
 40
0.3437499999999808
 40
0.3593749999999797
 40
0.3593749999999797
 40
0.3671874999999792
 40
0.3671874999999792
 40
0.3749999999999786
 40
0.3906249999999781
 40
0.3906249999999781
 40
0.398437499999978
 40
0.398437499999978
 40
0.4062499999999779
 40
0.4218749999999777
 40
0.4218749999999777
 40
0.4296874999999776
 40
0.4296874999999776
 40
0.4374999999999775
 40
0.4531249999999762
 40
0.4531249999999762
 40
0.460937499999976
 40
0.460937499999976
 40
0.4687499999999756
 40
0.484374999999975
 40
0.484374999999975
 40
0.4921874999999748
 40
0.4921874999999748
 40
0.4999999999999747
 40
0.5156249999999751
 40
0.5156249999999751
 40
0.5234374999999751
 40
0.5234374999999751
 40
0.5312499999999752
 40
0.5468749999999755
 40
0.5468749999999755
 40
0.5546874999999759
 40
0.5546874999999759
 40
0.5624999999999762
 40
0.578124999999977
 40
0.578124999999977
 40
0.5859374999999777
 40
0.5859374999999777
 40
0.5937499999999783
 40
0.5937499999999783
 40
0.6249999999999801
 40
0.6249999999999801
 40
0.6406249999999812
 40
0.6406249999999812
 40
0.6562499999999821
 40
0.6562499999999821
 40
0.671874999999983
 40
0.671874999999983
 40
0.687499999999984
 40
0.687499999999984
 40
0.7031249999999849
 40
0.7031249999999849
 40
0.7187499999999858
 40
0.7187499999999858
 40
0.7343749999999868
 40
0.7343749999999868
 40
0.7499999999999877
 40
0.7499999999999877
 40
0.7656249999999887
 40
0.7656249999999887
 40
0.7812499999999897
 40
0.7812499999999897
 40
0.7968749999999906
 40
0.7968749999999906
 40
0.8046874999999911
 40
0.8046874999999911
 40
0.8124999999999916
 40
0.8281249999999923
 40
0.8281249999999923
 40
0.8359374999999927
 40
0.8359374999999927
 40
0.8437499999999932
 40
0.8593749999999939
 40
0.8593749999999939
 40
0.8671874999999944
 40
0.8671874999999944
 40
0.8749999999999948
 40
0.8906249999999952
 40
0.8906249999999952
 40
0.8984374999999953
 40
0.8984374999999953
 40
0.9062499999999955
 40
0.9218749999999964
 40
0.9218749999999964
 40
0.9296874999999968
 40
0.9296874999999968
 40
0.9374999999999971
 40
0.9531249999999975
 40
0.9531249999999975
 40
0.960937499999998
 40
0.960937499999998
 40
0.968749999999998
 40
0.968749999999998
 40
1.0
 40
1.0
 40
1.0
 40
1.0
 10
365.3170842531813
 20
283.1534935137011
 30
0.0
 10
365.3243074406978
 20
283.1853484914612
 30
0.0
 10
365.33134407584
 20
283.2193540600858
 30
0.0
 10
365.3450396804925
 20
283.2917189573063
 30
0.0
 10
365.3516644202036
 20
283.3299038152624
 30
0.0
 10
365.3644308454778
 20
283.4100248719269
 30
0.0
 10
365.3705791415219
 20
283.4519957152975
 30
0.0
 10
365.3824008118512
 20
283.5397994118138
 30
0.0
 10
365.3880415632362
 20
283.585395647294
 30
0.0
 10
365.3987615934087
 20
283.6797389620244
 30
0.0
 10
365.4038452966564
 20
283.7285187477593
 30
0.0
 10
365.4134549149239
 20
283.8293246335323
 30
0.0
 10
365.4179513876909
 20
283.8810460823228
 30
0.0
 10
365.4263219081844
 20
283.9869537740627
 30
0.0
 10
365.4301981564035
 20
284.0411630945112
 30
0.0
 10
365.4373277649741
 20
284.1521124455844
 30
0.0
 10
365.4405572621038
 20
284.2084828085234
 30
0.0
 10
365.4463516347281
 20
284.3229428160478
 30
0.0
 10
365.448917420851
 20
284.3810511735696
 30
0.0
 10
365.453379385909
 20
284.4989714694001
 30
0.0
 10
365.4552612013177
 20
284.5584000996978
 30
0.0
 10
365.4583364852963
 20
284.6781809248229
 30
0.0
 10
365.459530547459
 20
284.7385771938176
 30
0.0
 10
365.4612239029813
 20
284.8601170643314
 30
0.0
 10
365.4617163973205
 20
284.9207315960644
 30
0.0
 10
365.4621679766315
 20
285.1021250599447
 30
0.0
 10
365.4611075381946
 20
285.2224566602283
 30
0.0
 10
365.4574961915221
 20
285.4020674516989
 30
0.0
 10
365.4559538261332
 20
285.4617951124033
 30
0.0
 10
365.4521765640226
 20
285.5809226626334
 30
0.0
 10
365.447743604019
 20
285.6985646401374
 30
0.0
 10
365.4420193775
 20
285.8132810777888
 30
0.0
 10
365.4356468468515
 20
285.9265286942905
 30
0.0
 10
365.4321540632496
 20
285.9820992242164
 30
0.0
 10
365.4245729310939
 20
286.0910190427423
 30
0.0
 10
365.4204832143665
 20
286.1443925189038
 30
0.0
 10
365.411702911829
 20
286.2489572795387
 30
0.0
 10
365.4070319990299
 20
286.2999061956788
 30
0.0
 10
365.3971594891265
 20
286.3989025042636
 30
0.0
 10
365.3919542072479
 20
286.4469939638411
 30
0.0
 10
365.3837407581328
 20
286.5170107271781
 30
0.0
 10
365.3809372701947
 20
286.5399767304272
 30
0.0
 10
365.3752181023553
 20
286.5850148898476
 30
0.0
 10
365.3664632183554
 20
286.6512968823498
 30
0.0
 10
365.3571831986097
 20
286.7137767453506
 30
0.0
 10
365.3475510833925
 20
286.7737073387758
 30
0.0
 10
365.3442820759829
 20
286.7932539014218
 30
0.0
 10
365.3376537794564
 20
286.8313335117248
 30
0.0
 10
365.3275658686024
 20
286.8869946141302
 30
0.0
 10
365.317044020449
 20
286.9383054481172
 30
0.0
 10
365.306230911859
 20
286.9866963646865
 30
0.0
 10
365.3025767600035
 20
287.0023426138821
 30
0.0
 10
365.2952014765471
 20
287.0325287276583
 30
0.0
 10
365.2840270064165
 20
287.0761981262475
 30
0.0
 10
365.2725196248988
 20
287.1150630807811
 30
0.0
 10
365.2607885620142
 20
287.1506999552421
 30
0.0
 10
365.2568382008179
 20
287.1620463325482
 30
0.0
 10
365.2488947069954
 20
287.1835656330116
 30
0.0
 10
365.2369047754608
 20
287.2141174572543
 30
0.0
 10
365.2246918449918
 20
287.2395127246812
 30
0.0
 10
365.2123289617654
 20
287.2614405319886
 30
0.0
 10
365.2081791099173
 20
287.2681760476315
 30
0.0
 10
365.199861308681
 20
287.2804316546509
 30
0.0
 10
365.1873493484468
 20
287.2970083093187
 30
0.0
 10
365.1747321036439
 20
287.3081898348996
 30
0.0
 10
365.1620440317694
 20
287.3157419473567
 30
0.0
 10
365.1577982730716
 20
287.3176544957001
 30
0.0
 10
365.1493133448337
 20
287.3202467317366
 30
0.0
 10
365.1365921982366
 20
287.322291096621
 30
0.0
 10
365.1238896998332
 20
287.318829795685
 30
0.0
 10
365.1111997451537
 20
287.3116651038018
 30
0.0
 10
365.1069671557569
 20
287.3086544692409
 30
0.0
 10
365.0985327516163
 20
287.3014066445172
 30
0.0
 10
365.0859301583194
 20
287.2887012705919
 30
0.0
 10
365.0734738443736
 20
287.2705233959965
 30
0.0
 10
365.0611158575849
 20
287.2486669746245
 30
0.0
 10
365.0570087427237
 20
287.2407586793396
 30
0.0
 10
365.0488488558019
 20
287.2237449527456
 30
0.0
 10
365.036700706682
 20
287.1964529357978
 30
0.0
 10
365.0248260165112
 20
287.1638772592829
 30
0.0
 10
365.0131349451385
 20
287.1277537770558
 30
0.0
 10
365.0092629140997
 20
287.1151008008465
 30
0.0
 10
365.0016082803248
 20
287.0886933320274
 30
0.0
 10
364.997831988654
 20
287.074963000535
 30
0.0
 10
364.9792017859391
 20
287.0037183019232
 30
0.0
 10
364.9650967092514
 20
286.9384757170068
 30
0.0
 10
364.945124545137
 20
286.8283775947741
 30
0.0
 10
364.938665695305
 20
286.7896292408582
 30
0.0
 10
364.9261548454938
 20
286.7079337082186
 30
0.0
 10
364.9200899211692
 20
286.664865215652
 30
0.0
 10
364.9085393555444
 20
286.5756132525929
 30
0.0
 10
364.9030343548621
 20
286.5293202027644
 30
0.0
 10
364.8925654565974
 20
286.4333966430095
 30
0.0
 10
364.8875956456969
 20
286.3836828931258
 30
0.0
 10
364.8782884936119
 20
286.281794219524
 30
0.0
 10
364.8739399019232
 20
286.22952879194
 30
0.0
 10
364.8658523070202
 20
286.1223574022481
 30
0.0
 10
364.8621101937849
 20
286.0673733010588
 30
0.0
 10
364.855304044387
 20
285.9557473306385
 30
0.0
 10
364.8522307428961
 20
285.8989972729472
 30
0.0
 10
364.8467423919689
 20
285.7836266906161
 30
0.0
 10
364.8443266346057
 20
285.7249385017279
 30
0.0
 10
364.8401966886489
 20
285.6067425813892
 30
0.0
 10
364.838475806195
 20
285.5471131395246
 30
0.0
 10
364.8357202055779
 20
285.4267944074877
 30
0.0
 10
364.8346865844682
 20
285.3660523190411
 30
0.0
 10
364.8333228349053
 20
285.244585813208
 30
0.0
 10
364.8329889746354
 20
285.1837314216854
 30
0.0
 10
364.8330084395702
 20
285.0922687413592
 30
0.0
 10
364.8331019607409
 20
285.0617199756933
 30
0.0
 10
364.8334625732531
 20
285.0007202079236
 30
0.0
 10
364.834263041714
 20
284.9094324838888
 30
0.0
 10
364.8358336679383
 20
284.818773609381
 30
0.0
 10
364.8379159958042
 20
284.728532549704
 30
0.0
 10
364.8386964490104
 20
284.6984904404492
 30
0.0
 10
364.840423956367
 20
284.6387189581967
 30
0.0
 10
364.8432637515413
 20
284.5495614712885
 30
0.0
 10
364.8468413425684
 20
284.4618874968535
 30
0.0
 10
364.8509094939592
 20
284.3751999096635
 30
0.0
 10
364.8523490611314
 20
284.34643867775
 30
0.0
 10
364.8553831867147
 20
284.2894256052153
 30
0.0
 10
364.8601662297302
 20
284.2046717235092
 30
0.0
 10
364.8656380389136
 20
284.122192572712
 30
0.0
 10
364.8715683937688
 20
284.0412278226809
 30
0.0
 10
364.8736239327416
 20
284.0144655149394
 30
0.0
 10
364.8778745969385
 20
283.9616254597615
 30
0.0
 10
364.884460994283
 20
283.8833718524521
 30
0.0
 10
364.8916729957843
 20
283.8081108881574
 30
0.0
 10
364.8993022094161
 20
283.7348457017897
 30
0.0
 10
364.9019175310562
 20
283.7107347301726
 30
0.0
 10
364.9072692915253
 20
283.6633495234967
 30
0.0
 10
364.9154818461448
 20
283.5934918849968
 30
0.0
 10
364.92424479772
 20
283.5272660915343
 30
0.0
 10
364.9333755524123
 20
283.4634672808382
 30
0.0
 10
364.9364847335853
 20
283.4425803270523
 30
0.0
 10
364.9427910887038
 20
283.4018481557266
 30
0.0
 10
364.9459911056445
 20
283.3819808675444
 30
0.0
 10
364.9622220739274
 20
283.2851031300856
 30
0.0
 10
364.9759413223616
 20
283.2154224286942
 30
0.0
 10
364.9903884992497
 20
283.1534935137177
 30
0.0
  0
SPLINE
  5
1BE
330
1F
100
AcDbEntity
  8
1
100
AcDbSpline
210
0.0
220
0.0
230
1.0
 70
     8
 71
     3
 72
     8
 73
     4
 74
     0
 42
0.000000001
 43
0.0000000001
 40
0.0
 40
0.0
 40
0.0
 40
0.0
 40
1.0
 40
1.0
 40
1.0
 40
1.0
 10
363.3220442875189
 20
301.5168921212114
 30
0.0
 10
363.3263320665593
 20
301.5340746637896
 30
0.0
 10
363.331407534834
 20
301.5510305731193
 30
0.0
 10
363.337272819588
 20
301.5677657809361
 30
0.0
  0
SPLINE
  5
1BF
330
1F
100
AcDbEntity
  8
1
100
AcDbSpline
210
0.0
220
0.0
230
1.0
 70
     8
 71
     3
 72
     8
 73
     4
 74
     0
 42
0.000000001
 43
0.0000000001
 40
0.0
 40
0.0
 40
0.0
 40
0.0
 40
1.0
 40
1.0
 40
1.0
 40
1.0
 10
361.3093968617077
 20
302.0347165873991
 30
0.0
 10
361.3066140464268
 20
302.0105560866141
 30
0.0
 10
361.3023139681853
 20
301.9866815845028
 30
0.0
 10
361.2964983572164
 20
301.9630764278359
 30
0.0
  0
SPLINE
  5
1C0
330
1F
100
AcDbEntity
  8
1
100
AcDbSpline
210
0.0
220
0.0
230
1.0
 70
     8
 71
     3
 72
    20
 73
    16
 74
     0
 42
0.000000001
 43
0.0000000001
 40
0.0
 40
0.0
 40
0.0
 40
0.0
 40
0.1249999999999573
 40
0.1249999999999573
 40
0.2499999999999144
 40
0.2499999999999144
 40
0.3749999999998717
 40
0.3749999999998717
 40
0.4999999999998288
 40
0.4999999999998288
 40
0.6249999999997861
 40
0.6249999999997861
 40
0.7499999999997433
 40
0.7499999999997433
 40
1.0
 40
1.0
 40
1.0
 40
1.0
 10
361.3896126478298
 20
299.4872292200073
 30
0.0
 10
361.3873802464929
 20
299.4829664550991
 30
0.0
 10
361.3848566257409
 20
299.4788937228848
 30
0.0
 10
361.37923088793
 20
299.4711259084937
 30
0.0
 10
361.3761202823102
 20
299.4674290166097
 30
0.0
 10
361.3694633788719
 20
299.4605899542634
 30
0.0
 10
361.3659015038718
 20
299.4574234499116
 30
0.0
 10
361.3583037014146
 20
299.4516051360155
 30
0.0
 10
361.3542331831554
 20
299.448936223133
 30
0.0
 10
361.345792565685
 20
299.4442667744104
 30
0.0
 10
361.3414229066967
 20
299.4422578359616
 30
0.0
 10
361.3323826727152
 20
299.4388980930814
 30
0.0
 10
361.32768043556
 20
299.4375409802265
 30
0.0
 10
361.3133106108151
 20
299.4345795618873
 30
0.0
 10
361.3035874492335
 20
299.4340788992719
 30
0.0
 10
361.2937141233506
 20
299.4351449245801
 30
0.0
  0
SPLINE
  5
1C1
330
1F
100
AcDbEntity
  8
1
100
AcDbSpline
210
0.0
220
0.0
230
1.0
 70
     8
 71
     3
 72
    18
 73
    14
 74
     0
 42
0.000000001
 43
0.0000000001
 40
0.0
 40
0.0
 40
0.0
 40
0.0
 40
0.2499999999999936
 40
0.2499999999999936
 40
0.3749999999999771
 40
0.3749999999999771
 40
0.4999999999999609
 40
0.4999999999999609
 40
0.6249999999999445
 40
0.6249999999999445
 40
0.7499999999999281
 40
0.7499999999999281
 40
1.0
 40
1.0
 40
1.0
 40
1.0
 10
362.2147788337144
 20
299.2230550737992
 30
0.0
 10
362.2054232662638
 20
299.226418555104
 30
0.0
 10
362.1967108064562
 20
299.2312549156262
 30
0.0
 10
362.185227870029
 20
299.2401226425822
 30
0.0
 10
362.1816357509322
 20
299.2433602459146
 30
0.0
 10
362.1749263586984
 20
299.25040233762
 30
0.0
 10
362.1718454043818
 20
299.2541770265666
 30
0.0
 10
362.1663466365173
 20
299.2620312862009
 30
0.0
 10
362.1639042468552
 20
299.2661361967427
 30
0.0
 10
362.1596245112594
 20
299.2746956178538
 30
0.0
 10
362.1577777023285
 20
299.2791872019451
 30
0.0
 10
362.1532997877699
 20
299.2928328438519
 30
0.0
 10
362.151662060622
 20
299.30219386878
 30
0.0
 10
362.1513817611939
 20
299.3118197229711
 30
0.0
  0
SPLINE
  5
1C2
330
1F
100
AcDbEntity
  8
1
100
AcDbSpline
210
0.0
220
0.0
230
1.0
 70
     8
 71
     3
 72
    10
 73
     6
 74
     0
 42
0.000000001
 43
0.0000000001
 40
0.0
 40
0.0
 40
0.0
 40
0.0
 40
0.5
 40
0.5
 40
1.0
 40
1.0
 40
1.0
 40
1.0
 10
361.3896126478298
 20
299.4872292200073
 30
0.0
 10
361.394715346626
 20
299.4969728109136
 30
0.0
 10
361.4012795283774
 20
299.5056771382431
 30
0.0
 10
361.4172732455226
 20
299.5208299193647
 30
0.0
 10
361.4263257023779
 20
299.5269379104207
 30
0.0
 10
361.436501635477
 20
299.5314913201682
 30
0.0
  0
SPLINE
  5
1C3
330
1F
100
AcDbEntity
  8
1
100
AcDbSpline
210
0.0
220
0.0
230
1.0
 70
     8
 71
     3
 72
    10
 73
     6
 74
     0
 42
0.000000001
 43
0.0000000001
 40
0.0
 40
0.0
 40
0.0
 40
0.0
 40
0.5
 40
0.5
 40
1.0
 40
1.0
 40
1.0
 40
1.0
 10
362.1286146297251
 20
299.3721212563476
 30
0.0
 10
362.1357683647137
 20
299.3635772708147
 30
0.0
 10
362.1412633559841
 20
299.3540607773214
 30
0.0
 10
362.1489842619535
 20
299.3334581133224
 30
0.0
 10
362.1510617160512
 20
299.3228104977131
 30
0.0
 10
362.1513817611939
 20
299.3118197229711
 30
0.0
  0
SPLINE
  5
1C4
330
1F
100
AcDbEntity
  8
1
100
AcDbSpline
210
0.0
220
0.0
230
1.0
 70
     8
 71
     3
 72
    27
 73
    23
 74
     0
 42
0.000000001
 43
0.0000000001
 40
0.0
 40
0.0
 40
0.0
 40
0.0
 40
0.1297017237494402
 40
0.1297017237494402
 40
0.1945525856241884
 40
0.1945525856241884
 40
0.2594034474989367
 40
0.2594034474989367
 40
0.3891051712484332
 40
0.3891051712484332
 40
0.4539560331231815
 40
0.4539560331231815
 40
0.5188068949979298
 40
0.5188068949979298
 40
0.6485086187474311
 40
0.6485086187474311
 40
0.7133594806221964
 40
0.7133594806221964
 40
0.7782103424969616
 40
0.7782103424969616
 40
0.9079120662464983
 40
1.0
 40
1.0
 40
1.0
 40
1.0
 10
361.2937141233506
 20
299.4351449245801
 30
0.0
 10
361.2621338144032
 20
299.4385546579343
 30
0.0
 10
361.2311299324015
 20
299.4444459739912
 30
0.0
 10
361.185480329595
 20
299.4569440278815
 30
0.0
 10
361.1704071352406
 20
299.4617230387694
 30
0.0
 10
361.1405538945739
 20
299.4725313280709
 30
0.0
 10
361.125733816868
 20
299.4785836764773
 30
0.0
 10
361.0824252684681
 20
299.4983443048294
 30
0.0
 10
361.0548699483157
 20
299.5137073417132
 30
0.0
 10
361.0154820345402
 20
299.5399822465719
 30
0.0
 10
361.0026784109662
 20
299.5492814584739
 30
0.0
 10
360.9777358815602
 20
299.5689836384394
 30
0.0
 10
360.9655441937383
 20
299.5794389930591
 30
0.0
 10
360.9305270715293
 20
299.6120224434667
 30
0.0
 10
360.9091807752435
 20
299.6353786087366
 30
0.0
 10
360.880068447419
 20
299.6727897253027
 30
0.0
 10
360.8708511985714
 20
299.6856581584022
 30
0.0
 10
360.8534030532367
 20
299.7122015205734
 30
0.0
 10
360.8451442090035
 20
299.7259284927149
 30
0.0
 10
360.8220943431597
 20
299.7679878528297
 30
0.0
 10
360.799976063777
 20
299.8174147325439
 30
0.0
 10
360.7846586188166
 20
299.8692572760762
 30
0.0
 10
360.7794963508325
 20
299.8912072851596
 30
0.0
  0
SPLINE
  5
1C5
330
1F
100
AcDbEntity
  8
1
100
AcDbSpline
210
0.0
220
0.0
230
1.0
 70
     8
 71
     3
 72
    24
 73
    20
 74
     0
 42
0.000000001
 43
0.0000000001
 40
0.0
 40
0.0
 40
0.0
 40
0.0
 40
0.1250000000000391
 40
0.1250000000000391
 40
0.2500000000000782
 40
0.2500000000000782
 40
0.3125000000000716
 40
0.3125000000000716
 40
0.3750000000000651
 40
0.3750000000000651
 40
0.5000000000000521
 40
0.5000000000000521
 40
0.6250000000000391
 40
0.6250000000000391
 40
0.750000000000026
 40
0.750000000000026
 40
0.8750000000000129
 40
0.8750000000000129
 40
1.0
 40
1.0
 40
1.0
 40
1.0
 10
361.436501635477
 20
299.5314913201682
 30
0.0
 10
361.4653202970785
 20
299.5443867640915
 30
0.0
 10
361.4948773170885
 20
299.5549256498808
 30
0.0
 10
361.5555036384733
 20
299.571310261588
 30
0.0
 10
361.5865721575633
 20
299.5771582594139
 30
0.0
 10
361.6344319255664
 20
299.5821339002871
 30
0.0
 10
361.6504959721452
 20
299.5831402540661
 30
0.0
 10
361.6824571155235
 20
299.5838300796743
 30
0.0
 10
361.6984130218459
 20
299.5835201434335
 30
0.0
 10
361.7462087162244
 20
299.5806254872876
 30
0.0
 10
361.7780273548394
 20
299.5760778977583
 30
0.0
 10
361.8412631352883
 20
299.5615070954745
 30
0.0
 10
361.8717565047029
 20
299.551705644162
 30
0.0
 10
361.9306271293623
 20
299.5273565160071
 30
0.0
 10
361.9590146299192
 20
299.5128013266308
 30
0.0
 10
362.0136038175171
 20
299.4788788725216
 30
0.0
 10
362.0390132673512
 20
299.4600097734847
 30
0.0
 10
362.0863899123682
 20
299.4187301859302
 30
0.0
 10
362.1083552350804
 20
299.3963178438677
 30
0.0
 10
362.1286146297251
 20
299.3721212563476
 30
0.0
  0
SPLINE
  5
1C6
330
1F
100
AcDbEntity
  8
1
100
AcDbSpline
210
0.0
220
0.0
230
1.0
 70
     8
 71
     3
 72
    27
 73
    23
 74
     0
 42
0.000000001
 43
0.0000000001
 40
0.0
 40
0.0
 40
0.0
 40
0.0
 40
0.0867734994731334
 40
0.0867734994731334
 40
0.1520039637965158
 40
0.1520039637965158
 40
0.2172344281198981
 40
0.2172344281198981
 40
0.3476953567666164
 40
0.3476953567666164
 40
0.4129258210899499
 40
0.4129258210899499
 40
0.4781562854132834
 40
0.4781562854132834
 40
0.6086172140599483
 40
0.6086172140599483
 40
0.6738476783833091
 40
0.6738476783833091
 40
0.7390781427066698
 40
0.7390781427066698
 40
0.8695390713533349
 40
1.0
 40
1.0
 40
1.0
 40
1.0
 10
362.87387394734
 20
299.4049915035046
 30
0.0
 10
362.8604010649904
 20
299.3886971058568
 30
0.0
 10
362.8461249249828
 20
299.3731744734447
 30
0.0
 10
362.8197251810489
 20
299.3473214025194
 30
0.0
 10
362.8079450389956
 20
299.3366606512201
 30
0.0
 10
362.7834647309282
 20
299.3162243724329
 30
0.0
 10
362.7707245190111
 20
299.3064258654808
 30
0.0
 10
362.7317192746128
 20
299.2788383389659
 30
0.0
 10
362.7045139836216
 20
299.2626933888042
 30
0.0
 10
362.6619320695393
 20
299.2417922223179
 30
0.0
 10
362.6474410571684
 20
299.23538045402
 30
0.0
 10
362.6178528410268
 20
299.2236901152166
 30
0.0
 10
362.602683895228
 20
299.2183922179176
 30
0.0
 10
362.5569296427597
 20
299.2044637755799
 30
0.0
 10
362.5260466191939
 20
299.1977352161686
 30
0.0
 10
362.4791694386375
 20
299.1913624015489
 30
0.0
 10
362.4634511673809
 20
299.1898611334183
 30
0.0
 10
362.4318273102418
 20
299.1881208689154
 30
0.0
 10
362.4158627899037
 20
299.1878838986853
 30
0.0
 10
362.3680996010914
 20
299.1891136802968
 30
0.0
 10
362.3054162588176
 20
299.1958444838339
 30
0.0
 10
362.2446582039612
 20
299.2123129457826
 30
0.0
 10
362.2147788337144
 20
299.2230550737992
 30
0.0
  0
SPLINE
  5
1C7
330
1F
100
AcDbEntity
  8
1
100
AcDbSpline
210
0.0
220
0.0
230
1.0
 70
     8
 71
     3
 72
    24
 73
    20
 74
     0
 42
0.000000001
 43
0.0000000001
 40
0.0
 40
0.0
 40
0.0
 40
0.0
 40
0.1347958400533864
 40
0.1347958400533864
 40
0.2695916801067728
 40
0.2695916801067728
 40
0.3369896001334797
 40
0.3369896001334797
 40
0.4043875201601866
 40
0.4043875201601866
 40
0.5391833602136006
 40
0.5391833602136006
 40
0.6739792002670143
 40
0.6739792002670143
 40
0.8087750403204282
 40
0.8087750403204282
 40
0.9435708803738419
 40
0.9435708803738419
 40
1.0
 40
1.0
 40
1.0
 40
1.0
 10
360.6486902193719
 20
300.747386324154
 30
0.0
 10
360.6738658086853
 20
300.7293610505075
 30
0.0
 10
360.6974060071059
 20
300.7094833412864
 30
0.0
 10
360.7412616535951
 20
300.6659919043525
 30
0.0
 10
360.7615786235559
 20
300.6423800407971
 30
0.0
 10
360.7894714624875
 20
300.6039024079593
 30
0.0
 10
360.7982734624254
 20
300.5906409363786
 30
0.0
 10
360.8146792691271
 20
300.5635697804694
 30
0.0
 10
360.8223177950943
 20
300.5497130108491
 30
0.0
 10
360.8435424930594
 20
300.50717582615
 30
0.0
 10
360.8554647589097
 20
300.4774859874502
 30
0.0
 10
360.8745022537094
 20
300.4155791072288
 30
0.0
 10
360.8813466457609
 20
300.3842716616752
 30
0.0
 10
360.8899897624775
 20
300.320987880295
 30
0.0
 10
360.8917872023719
 20
300.2889991711876
 30
0.0
 10
360.8902370549909
 20
300.2243859828299
 30
0.0
 10
360.8869166905738
 20
300.1927030951175
 30
0.0
 10
360.8788671062249
 20
300.1485511769581
 30
0.0
 10
360.876078788627
 20
300.1356204911934
 30
0.0
 10
360.8728770056497
 20
300.1227869161381
 30
0.0
  0
SPLINE
  5
1C8
330
1F
100
AcDbEntity
  8
1
100
AcDbSpline
210
0.0
220
0.0
230
1.0
 70
     8
 71
     3
 72
    10
 73
     6
 74
     0
 42
0.000000001
 43
0.0000000001
 40
0.0
 40
0.0
 40
0.0
 40
0.0
 40
0.5
 40
0.5
 40
1.0
 40
1.0
 40
1.0
 40
1.0
 10
360.5879090916455
 20
300.7647245685547
 30
0.0
 10
360.5987178422733
 20
300.7653740227594
 30
0.0
 10
360.6093624479551
 20
300.7642383085771
 30
0.0
 10
360.6301410776606
 20
300.7583532922448
 30
0.0
 10
360.6398002421621
 20
300.7537513895323
 30
0.0
 10
360.6486902193719
 20
300.747386324154
 30
0.0
  0
SPLINE
  5
1C9
330
1F
100
AcDbEntity
  8
1
100
AcDbSpline
210
0.0
220
0.0
230
1.0
 70
     8
 71
     3
 72
    27
 73
    23
 74
     0
 42
0.000000001
 43
0.0000000001
 40
0.0
 40
0.0
 40
0.0
 40
0.0
 40
0.0624999999999999
 40
0.1249999999999998
 40
0.1249999999999998
 40
0.2499999999999997
 40
0.2499999999999997
 40
0.3749999999999995
 40
0.3749999999999995
 40
0.4374999999999994
 40
0.4374999999999994
 40
0.4687499999999994
 40
0.4687499999999994
 40
0.4999999999999993
 40
0.4999999999999993
 40
0.6249999999999995
 40
0.6249999999999995
 40
0.7499999999999997
 40
0.7499999999999997
 40
0.8749999999999998
 40
0.8749999999999998
 40
1.0
 40
1.0
 40
1.0
 40
1.0
 10
293.7038318185191
 20
272.412819357674
 30
0.0
 10
293.4912253167116
 20
272.4116277223124
 30
0.0
 10
293.0710354639976
 20
272.3997926305872
 30
0.0
 10
292.6599586214403
 20
272.3708100267743
 30
0.0
 10
292.0495888957356
 20
272.3155841929044
 30
0.0
 10
291.6509760901382
 20
272.2631486113426
 30
0.0
 10
290.8679485776194
 20
272.1315615700977
 30
0.0
 10
290.4835404276675
 20
272.0523977724811
 30
0.0
 10
289.9163787881498
 20
271.9158693648805
 30
0.0
 10
289.7289055649057
 20
271.8673856503316
 30
0.0
 10
289.449961300352
 20
271.7903970640214
 30
0.0
 10
289.3573577666314
 20
271.7640231486589
 30
0.0
 10
289.1728922742048
 20
271.7098799319627
 30
0.0
 10
289.0809590080566
 20
271.6820870851508
 30
0.0
 10
288.6250004934471
 20
271.5402907642149
 30
0.0
 10
288.2707530012145
 20
271.41747415866
 30
0.0
 10
287.5810146895156
 20
271.1551165645324
 30
0.0
 10
287.2455364440524
 20
271.0155643643527
 30
0.0
 10
286.5920785366387
 20
270.7208573559729
 30
0.0
 10
286.2741060023467
 20
270.5656961923978
 30
0.0
 10
285.6550995630379
 20
270.2402705402963
 30
0.0
 10
285.3540695034212
 20
270.0700026230198
 30
0.0
 10
285.0614991175764
 20
269.8921916395433
 30
0.0
  0
SPLINE
  5
1CA
330
1F
100
AcDbEntity
  8
1
100
AcDbSpline
210
0.0
220
0.0
230
1.0
 70
     8
 71
     3
 72
    24
 73
    20
 74
     0
 42
0.000000001
 43
0.0000000001
 40
0.0
 40
0.0
 40
0.0
 40
0.0
 40
0.0835147215693933
 40
0.0835147215693933
 40
0.175163249412454
 40
0.175163249412454
 40
0.2668117772555146
 40
0.2668117772555146
 40
0.3584603050985752
 40
0.3584603050985752
 40
0.4501088329416361
 40
0.4501088329416361
 40
0.5417573607846967
 40
0.5417573607846967
 40
0.6334058886277571
 40
0.6334058886277571
 40
0.8167029443138783
 40
0.8167029443138783
 40
1.0
 40
1.0
 40
1.0
 40
1.0
 10
319.7942499269569
 20
274.9667806122737
 30
0.0
 10
319.3605324763582
 20
274.869184965318
 30
0.0
 10
318.9261095919986
 20
274.7750240114443
 30
0.0
 10
318.0137687294953
 20
274.584115791073
 30
0.0
 10
317.5357362988837
 20
274.4880095710849
 30
0.0
 10
316.5786221376663
 20
274.3027752486479
 30
0.0
 10
316.0995410611008
 20
274.2136475126458
 30
0.0
 10
315.1405546010406
 20
274.041984328699
 30
0.0
 10
314.6606495181789
 20
273.9594497731478
 30
0.0
 10
313.7001390454383
 20
273.8007651080372
 30
0.0
 10
313.2194783284944
 20
273.7246079154423
 30
0.0
 10
312.2577108732306
 20
273.5786505379596
 30
0.0
 10
311.7769026247102
 20
273.5088964335727
 30
0.0
 10
310.8153592407929
 20
273.3758408187064
 30
0.0
 10
310.3346237383425
 20
273.312540876998
 30
0.0
 10
308.8922891506818
 20
273.1324147836156
 30
0.0
 10
307.9305865238087
 20
273.0253800871166
 30
0.0
 10
306.0048763630809
 20
272.8378927397482
 30
0.0
 10
305.0408524670901
 20
272.7574672994231
 30
0.0
 10
304.0743628836883
 20
272.6901640089355
 30
0.0
  0
SPLINE
  5
1CB
330
1F
100
AcDbEntity
  8
1
100
AcDbSpline
210
0.0
220
0.0
230
1.0
 70
     8
 71
     3
 72
    20
 73
    16
 74
     0
 42
0.000000001
 43
0.0000000001
 40
0.0
 40
0.0
 40
0.0
 40
0.0
 40
0.1484560625430844
 40
0.1484560625430844
 40
0.2969121250861688
 40
0.2969121250861688
 40
0.4453681876292534
 40
0.4453681876292534
 40
0.5938242501723377
 40
0.5938242501723377
 40
0.7422803127154221
 40
0.7422803127154221
 40
0.8907363752585066
 40
0.8907363752585066
 40
1.0
 40
1.0
 40
1.0
 40
1.0
 10
307.232566473519
 20
273.2221925250596
 30
0.0
 10
307.7683938607236
 20
273.3143162334574
 30
0.0
 10
308.3042984954163
 20
273.4084106732087
 30
0.0
 10
309.3767558409358
 20
273.5993244934888
 30
0.0
 10
309.9133109557343
 20
273.6961310951297
 30
0.0
 10
310.9873070088662
 20
273.8918678483252
 30
0.0
 10
311.5247491427397
 20
273.9907867179707
 30
0.0
 10
312.6004382158902
 20
274.1911582637146
 30
0.0
 10
313.1386844173129
 20
274.2926046637238
 30
0.0
 10
314.2155725779336
 20
274.4997294377191
 30
0.0
 10
314.7542117589599
 20
274.6054082332292
 30
0.0
 10
315.8312019097534
 20
274.8240752623965
 30
0.0
 10
316.3695487243022
 20
274.9370688156761
 30
0.0
 10
317.3031292255765
 20
275.1433546838169
 30
0.0
 10
317.6986217024559
 20
275.2339757319072
 30
0.0
 10
318.0936282115208
 20
275.328847155519
 30
0.0
  0
SPLINE
  5
1CC
330
1F
100
AcDbEntity
  8
1
100
AcDbSpline
210
0.0
220
0.0
230
1.0
 70
     8
 71
     3
 72
    14
 73
    10
 74
     0
 42
0.000000001
 43
0.0000000001
 40
0.0
 40
0.0
 40
0.0
 40
0.0
 40
0.25
 40
0.25
 40
0.5
 40
0.5
 40
0.75
 40
0.75
 40
1.0
 40
1.0
 40
1.0
 40
1.0
 10
358.4894245770341
 20
294.4741986345988
 30
0.0
 10
358.2829312789864
 20
294.4898813692663
 30
0.0
 10
358.0736582113102
 20
294.5084357313106
 30
0.0
 10
357.6502421027557
 20
294.5524901575795
 30
0.0
 10
357.4360964055141
 20
294.577986048461
 30
0.0
 10
357.0033701967207
 20
294.6369439473982
 30
0.0
 10
356.7847884056112
 20
294.6704029706629
 30
0.0
 10
356.3434365134544
 20
294.7462417383889
 30
0.0
 10
356.1206660577414
 20
294.7886189269756
 30
0.0
 10
355.8958419452958
 20
294.8359410912424
 30
0.0
  0
SPLINE
  5
1CD
330
1F
100
AcDbEntity
  8
1
100
AcDbSpline
210
0.0
220
0.0
230
1.0
 70
     8
 71
     3
 72
    14
 73
    10
 74
     0
 42
0.000000001
 43
0.0000000001
 40
0.0
 40
0.0
 40
0.0
 40
0.0
 40
0.25
 40
0.25
 40
0.5
 40
0.5
 40
0.75
 40
0.75
 40
1.0
 40
1.0
 40
1.0
 40
1.0
 10
355.8958419452957
 20
292.4158439536354
 30
0.0
 10
356.1272571901378
 20
292.3846746747006
 30
0.0
 10
356.3564327503331
 20
292.3623249144047
 30
0.0
 10
356.810224498483
 20
292.3342132120071
 30
0.0
 10
357.0348410641884
 20
292.328453975127
 30
0.0
 10
357.4792416164526
 20
292.3327593578351
 30
0.0
 10
357.6990271131353
 20
292.342825702976
 30
0.0
 10
358.1332728693902
 20
292.3782324909374
 30
0.0
 10
358.3477363372288
 20
292.4035739341857
 30
0.0
 10
358.5591471679619
 20
292.4363645652558
 30
0.0
  0
SPLINE
  5
1CE
330
1F
100
AcDbEntity
  8
1
100
AcDbSpline
210
0.0
220
0.0
230
1.0
 70
    24
 71
     3
 72
    23
 73
    19
 74
     0
 42
0.000000001
 43
0.0000000001
 40
0.0
 40
0.0
 40
0.0
 40
0.0
 40
0.0625789867935504
 40
0.1251579735871007
 40
0.1877369603806511
 40
0.2503159471742014
 40
0.3128949339677518
 40
0.3754739207613021
 40
0.4380529075548525
 40
0.5006318943484028
 40
0.5632108811419533
 40
0.6257898679355037
 40
0.688368854729054
 40
0.7509478415226044
 40
0.8135268283161545
 40
0.8761058151097047
 40
0.9386848019032553
 40
1.0
 40
1.0
 40
1.0
 40
1.0
 10
355.8958419452958
 20
294.8359410912424
 30
0.0
 10
355.8958419452958
 20
294.6262216803445
 30
0.0
 10
355.8958419452958
 20
294.2201268882608
 30
0.0
 10
355.8958419452958
 20
293.6564754941387
 30
0.0
 10
355.8958419452958
 20
293.1433685511205
 30
0.0
 10
355.8958419452958
 20
292.6854060264588
 30
0.0
 10
355.8958419452958
 20
292.2866935216172
 30
0.0
 10
355.8958419452958
 20
291.9508054658456
 30
0.0
 10
355.8958419452958
 20
291.6807530716761
 30
0.0
 10
355.8958419452958
 20
291.4789573396163
 30
0.0
 10
355.8958419452958
 20
291.3472273540528
 30
0.0
 10
355.8958419452958
 20
291.2867440649376
 30
0.0
 10
355.8958419452958
 20
291.2980497006561
 30
0.0
 10
355.8958419452958
 20
291.3810429069881
 30
0.0
 10
355.8958419452958
 20
291.5349796557412
 30
0.0
 10
355.8958419452958
 20
291.7584799149108
 30
0.0
 10
355.8958419452958
 20
292.0475806915643
 30
0.0
 10
355.8958419452957
 20
292.2820918300179
 30
0.0
 10
355.8958419452958
 20
292.4080432654762
 30
0.0
  0
SPLINE
  5
1CF
330
1F
100
AcDbEntity
  8
1
100
AcDbSpline
210
0.0
220
0.0
230
1.0
 70
     8
 71
     3
 72
    10
 73
     6
 74
     0
 42
0.000000001
 43
0.0000000001
 40
0.0
 40
0.0
 40
0.0
 40
0.0
 40
0.5
 40
0.5
 40
1.0
 40
1.0
 40
1.0
 40
1.0
 10
353.7675893763242
 20
295.8055121438579
 30
0.0
 10
354.1307314795922
 20
295.6121017897789
 30
0.0
 10
354.4910371102508
 20
295.4361568338941
 30
0.0
 10
355.2020170468364
 20
295.1145372363176
 30
0.0
 10
355.5526768909077
 20
294.9688882747583
 30
0.0
 10
355.8958419452958
 20
294.8359410912424
 30
0.0
  0
SPLINE
  5
1D0
330
1F
100
AcDbEntity
  8
1
100
AcDbSpline
210
0.0
220
0.0
230
1.0
 70
     8
 71
     3
 72
     8
 73
     4
 74
     0
 42
0.000000001
 43
0.0000000001
 40
0.0
 40
0.0
 40
0.0
 40
0.0
 40
1.0
 40
1.0
 40
1.0
 40
1.0
 10
295.5271928377188
 20
305.4078528285477
 30
0.0
 10
295.4188731895558
 20
305.4079435696067
 30
0.0
 10
295.3106152802245
 20
305.4079913803973
 30
0.0
 10
295.2024138771704
 20
305.4079931867268
 30
0.0
  0
SPLINE
  5
1D1
330
1F
100
AcDbEntity
  8
1
100
AcDbSpline
210
0.0
220
0.0
230
1.0
 70
     8
 71
     3
 72
    14
 73
    10
 74
     0
 42
0.000000001
 43
0.0000000001
 40
0.0
 40
0.0
 40
0.0
 40
0.0
 40
0.25
 40
0.25
 40
0.5
 40
0.5
 40
0.75
 40
0.75
 40
1.0
 40
1.0
 40
1.0
 40
1.0
 10
351.8719012815852
 20
293.9042352397543
 30
0.0
 10
351.5522603812752
 20
294.088634708376
 30
0.0
 10
351.2342584555618
 20
294.2743207150705
 30
0.0
 10
350.6006407820956
 20
294.6475657951938
 30
0.0
 10
350.2850316639626
 20
294.8351300726435
 30
0.0
 10
349.6556605925249
 20
295.211708587709
 30
0.0
 10
349.3419017968357
 20
295.4007253039433
 30
0.0
 10
348.7158839187413
 20
295.7799359591962
 30
0.0
 10
348.4036264780856
 20
295.9701311869312
 30
0.0
 10
348.092008021343
 20
296.1608279948212
 30
0.0
  0
SPLINE
  5
1D2
330
1F
100
AcDbEntity
  8
1
100
AcDbSpline
210
0.0
220
0.0
230
1.0
 70
     8
 71
     3
 72
    29
 73
    25
 74
     0
 42
0.000000001
 43
0.0000000001
 40
0.0
 40
0.0
 40
0.0
 40
0.0
 40
0.1249999999999927
 40
0.1249999999999927
 40
0.2499999999999855
 40
0.2499999999999855
 40
0.2812499999999939
 40
0.2812499999999939
 40
0.3125000000000023
 40
0.3749999999999982
 40
0.3749999999999982
 40
0.5000000000000125
 40
0.5000000000000125
 40
0.6250000000000267
 40
0.6250000000000267
 40
0.6562500000000245
 40
0.6562500000000245
 40
0.6875000000000222
 40
0.6875000000000222
 40
0.7500000000000178
 40
0.7500000000000178
 40
0.8750000000000087
 40
0.8750000000000087
 40
1.0
 40
1.0
 40
1.0
 40
1.0
 10
360.0962288129557
 20
295.6974464914518
 30
0.0
 10
360.0377225938372
 20
295.6527552043521
 30
0.0
 10
359.9775198243552
 20
295.6115603722347
 30
0.0
 10
359.8536184008638
 20
295.5357809301478
 30
0.0
 10
359.789922678885
 20
295.5011990232565
 30
0.0
 10
359.7079720366457
 20
295.4621111340069
 30
0.0
 10
359.6914440775525
 20
295.4544924816861
 30
0.0
 10
359.6582954986407
 20
295.4397387434381
 30
0.0
 10
359.6084090942176
 20
295.4183200970595
 30
0.0
 10
359.5580099092054
 20
295.3990059633371
 30
0.0
 10
359.4564564236239
 20
295.363144283591
 30
0.0
 10
359.3877534854615
 20
295.3429096387799
 30
0.0
 10
359.2478329392429
 20
295.3099492670125
 30
0.0
 10
359.1766115914798
 20
295.2972224743237
 30
0.0
 10
359.0855914535135
 20
295.2864335443286
 30
0.0
 10
359.0672444784806
 20
295.2845294025963
 30
0.0
 10
359.0305539056802
 20
295.2812695287647
 30
0.0
 10
359.0122526162583
 20
295.2799161292183
 30
0.0
 10
358.9574813460873
 20
295.2766722308737
 30
0.0
 10
358.9211446101552
 20
295.2755978350756
 30
0.0
 10
358.8126475273813
 20
295.2755381162246
 30
0.0
 10
358.7410052980409
 20
295.2797078339768
 30
0.0
 10
358.5988051347294
 20
295.2960593025227
 30
0.0
 10
358.528240933139
 20
295.3082359524338
 30
0.0
 10
358.4580297705632
 20
295.32437779193
 30
0.0
  0
SPLINE
  5
1D3
330
1F
100
AcDbEntity
  8
1
100
AcDbSpline
210
0.0
220
0.0
230
1.0
 70
     8
 71
     3
 72
    18
 73
    14
 74
     0
 42
0.000000001
 43
0.0000000001
 40
0.0
 40
0.0
 40
0.0
 40
0.0
 40
0.249999999999987
 40
0.249999999999987
 40
0.4999999999999741
 40
0.4999999999999741
 40
0.5624999999999771
 40
0.5624999999999771
 40
0.6249999999999805
 40
0.6249999999999805
 40
0.7499999999999869
 40
0.7499999999999869
 40
1.0
 40
1.0
 40
1.0
 40
1.0
 10
358.4555289861689
 20
295.0961591817243
 30
0.0
 10
358.0562909939908
 20
295.0820628106848
 30
0.0
 10
357.6586197062165
 20
295.0866398445409
 30
0.0
 10
356.8663476609856
 20
295.1323365461513
 30
0.0
 10
356.4717469927358
 20
295.1734577077952
 30
0.0
 10
355.9804293926021
 20
295.2478097162643
 30
0.0
 10
355.8822627420346
 20
295.2638300083538
 30
0.0
 10
355.6861243742356
 20
295.2981826662036
 30
0.0
 10
355.5880729769043
 20
295.3165314650033
 30
0.0
 10
355.2949018604506
 20
295.374929843661
 30
0.0
 10
355.1008055696904
 20
295.418311454831
 30
0.0
 10
354.5225369553021
 20
295.5616635954852
 30
0.0
 10
354.1423756243634
 20
295.6748138889553
 30
0.0
 10
353.7675893763238
 20
295.805512143858
 30
0.0
  0
SPLINE
  5
1D4
330
1F
100
AcDbEntity
  8
1
100
AcDbSpline
210
0.0
220
0.0
230
1.0
 70
     8
 71
     3
 72
     8
 73
     4
 74
     0
 42
0.000000001
 43
0.0000000001
 40
0.0
 40
0.0
 40
0.0
 40
0.0
 40
1.0
 40
1.0
 40
1.0
 40
1.0
 10
358.4555289861689
 20
295.0961591817243
 30
0.0
 10
358.4597275797971
 20
295.0963074264675
 30
0.0
 10
358.4639278018142
 20
295.0964547484407
 30
0.0
 10
358.4681296559636
 20
295.0966011455222
 30
0.0
  0
SPLINE
  5
1D5
330
1F
100
AcDbEntity
  8
1
100
AcDbSpline
210
0.0
220
0.0
230
1.0
 70
     8
 71
     3
 72
    27
 73
    23
 74
     0
 42
0.000000001
 43
0.0000000001
 40
0.0
 40
0.0
 40
0.0
 40
0.0
 40
0.1250000000000086
 40
0.1250000000000086
 40
0.2500000000000172
 40
0.2500000000000172
 40
0.2812500000000181
 40
0.2812500000000181
 40
0.3125000000000189
 40
0.3750000000000209
 40
0.3750000000000209
 40
0.5000000000000247
 40
0.5000000000000247
 40
0.5312500000000242
 40
0.5312500000000242
 40
0.5625000000000239
 40
0.625000000000023
 40
0.625000000000023
 40
0.7500000000000153
 40
0.8750000000000076
 40
0.8750000000000076
 40
1.0
 40
1.0
 40
1.0
 40
1.0
 10
351.8793135762233
 20
293.6875905856242
 30
0.0
 10
352.1255401690754
 20
293.5302623634377
 30
0.0
 10
352.3774898261843
 20
293.3822121447881
 30
0.0
 10
352.8927621117788
 20
293.1049990049397
 30
0.0
 10
353.1560840510981
 20
292.9758344578713
 30
0.0
 10
353.492396401811
 20
292.8265207590623
 30
0.0
 10
353.5600327073
 20
292.79726011461
 30
0.0
 10
353.6957218286766
 20
292.7400893618827
 30
0.0
 10
353.8999880743028
 20
292.6563102361699
 30
0.0
 10
354.1064417799133
 20
292.5784556397653
 30
0.0
 10
354.5222500201039
 20
292.4306547766689
 30
0.0
 10
354.8033189558223
 20
292.3426550130819
 30
0.0
 10
355.1594951232611
 20
292.2460007011422
 30
0.0
 10
355.2310209819989
 20
292.2273259595239
 30
0.0
 10
355.3743191577283
 20
292.191379920511
 30
0.0
 10
355.5895012482321
 20
292.1395968088244
 30
0.0
 10
355.8053812466783
 20
292.0941736532977
 30
0.0
 10
356.2380587186012
 20
292.0117150530141
 30
0.0
 10
356.8174056543947
 20
291.9241137771572
 30
0.0
 10
357.401574002326
 20
291.8808038546893
 30
0.0
 10
357.988168232989
 20
291.8598308867323
 30
0.0
 10
358.2826781342674
 20
291.8605115195177
 30
0.0
 10
358.5784337439212
 20
291.8726614519942
 30
0.0
  0
SPLINE
  5
1D6
330
1F
100
AcDbEntity
  8
1
100
AcDbSpline
210
0.0
220
0.0
230
1.0
 70
     8
 71
     3
 72
    20
 73
    16
 74
     0
 42
0.000000001
 43
0.0000000001
 40
0.0
 40
0.0
 40
0.0
 40
0.0
 40
0.1249999999999943
 40
0.1249999999999943
 40
0.2499999999999886
 40
0.2499999999999886
 40
0.3749999999999828
 40
0.3749999999999828
 40
0.4374999999999846
 40
0.4374999999999846
 40
0.4999999999999862
 40
0.4999999999999862
 40
0.7499999999999929
 40
0.7499999999999929
 40
1.0
 40
1.0
 40
1.0
 40
1.0
 10
355.8958419452957
 20
292.4158439536356
 30
0.0
 10
355.7185930150378
 20
292.4485257121718
 30
0.0
 10
355.5424316189385
 20
292.4851759640757
 30
0.0
 10
355.1922071966828
 20
292.5660710331452
 30
0.0
 10
355.0181444620398
 20
292.6103171840503
 30
0.0
 10
354.6720748960978
 20
292.7062094915863
 30
0.0
 10
354.5000682522152
 20
292.7578565141368
 30
0.0
 10
354.243588099675
 20
292.8408147725889
 30
0.0
 10
354.1583498734918
 20
292.869382941237
 30
0.0
 10
353.9883837854429
 20
292.9283483268645
 30
0.0
 10
353.9036240237598
 20
292.9587574394968
 30
0.0
 10
353.4814592781165
 20
293.1152523237624
 30
0.0
 10
353.1503612958197
 20
293.2541045787009
 30
0.0
 10
352.5012621026852
 20
293.558781401144
 30
0.0
 10
352.1832624250629
 20
293.7246123274452
 30
0.0
 10
351.8719012815595
 20
293.9042352397692
 30
0.0
  0
SPLINE
  5
1D7
330
1F
100
AcDbEntity
  8
1
100
AcDbSpline
210
0.0
220
0.0
230
1.0
 70
     8
 71
     3
 72
    39
 73
    35
 74
     0
 42
0.000000001
 43
0.0000000001
 40
0.0
 40
0.0
 40
0.0
 40
0.0
 40
0.1250000000000092
 40
0.1250000000000092
 40
0.2500000000000185
 40
0.2500000000000185
 40
0.3750000000000278
 40
0.3750000000000278
 40
0.4375000000000315
 40
0.4375000000000315
 40
0.5000000000000354
 40
0.5000000000000354
 40
0.5625000000000392
 40
0.5625000000000392
 40
0.625000000000043
 40
0.625000000000043
 40
0.6875000000000469
 40
0.6875000000000469
 40
0.7187500000000441
 40
0.7187500000000441
 40
0.7500000000000409
 40
0.7500000000000409
 40
0.8125000000000285
 40
0.8125000000000285
 40
0.8437500000000223
 40
0.8437500000000223
 40
0.8750000000000161
 40
0.8750000000000161
 40
0.9062500000000122
 40
0.9062500000000122
 40
0.9375000000000079
 40
0.9687500000000039
 40
0.9687500000000039
 40
1.0
 40
1.0
 40
1.0
 40
1.0
 10
353.162777371211
 20
296.0693418166019
 30
0.0
 10
353.12530261619
 20
296.0867921465608
 30
0.0
 10
353.0889433814274
 20
296.1058263620958
 30
0.0
 10
353.0185471554764
 20
296.1472070551536
 30
0.0
 10
352.984507996161
 20
296.1695504637127
 30
0.0
 10
352.9190004256936
 20
296.2179155173146
 30
0.0
 10
352.8875259195674
 20
296.2439285972538
 30
0.0
 10
352.8426312069887
 20
296.28626676025
 30
0.0
 10
352.8280549962664
 20
296.3009361197356
 30
0.0
 10
352.7997956967939
 20
296.3315529890646
 30
0.0
 10
352.7861495384848
 20
296.3474676151009
 30
0.0
 10
352.7602389509786
 20
296.380356113889
 30
0.0
 10
352.747934871536
 20
296.3973691873727
 30
0.0
 10
352.7248609274679
 20
296.4327321213739
 30
0.0
 10
352.7140668395299
 20
296.4511362555391
 30
0.0
 10
352.6946432850727
 20
296.4890372024398
 30
0.0
 10
352.6859750209211
 20
296.5085752116637
 30
0.0
 10
352.6749215853034
 20
296.5389740963845
 30
0.0
 10
352.671563853393
 20
296.549290085867
 30
0.0
 10
352.6656007906648
 20
296.5703423182319
 30
0.0
 10
352.6629896134239
 20
296.5811172524997
 30
0.0
 10
352.6565701139266
 20
296.6137072812056
 30
0.0
 10
352.6541153886054
 20
296.6358693400176
 30
0.0
 10
352.6540184935545
 20
296.6699584179102
 30
0.0
 10
352.6546014990789
 20
296.6815133677796
 30
0.0
 10
352.6571168077597
 20
296.7043871817669
 30
0.0
 10
352.6590437477901
 20
296.7157625779165
 30
0.0
 10
352.6643582560501
 20
296.7383778831453
 30
0.0
 10
352.6677546195332
 20
296.7496423340037
 30
0.0
 10
352.6761371482983
 20
296.7719174128683
 30
0.0
 10
352.6859202736002
 20
296.7934492605059
 30
0.0
 10
352.6984216356656
 20
296.8135379635548
 30
0.0
 10
352.7122618656886
 20
296.8329155404853
 30
0.0
 10
352.7198821568742
 20
296.8422727472275
 30
0.0
 10
352.7280002594745
 20
296.8511084987211
 30
0.0
  0
SPLINE
  5
1D8
330
1F
100
AcDbEntity
  8
1
100
AcDbSpline
210
0.0
220
0.0
230
1.0
 70
     8
 71
     3
 72
    54
 73
    50
 74
     0
 42
0.000000001
 43
0.0000000001
 40
0.0
 40
0.0
 40
0.0
 40
0.0
 40
0.0624999999999999
 40
0.0624999999999999
 40
0.1249999999999998
 40
0.1249999999999998
 40
0.1874999999999998
 40
0.1874999999999998
 40
0.2499999999999997
 40
0.2499999999999997
 40
0.3124999999999996
 40
0.3124999999999996
 40
0.3437499999999994
 40
0.3437499999999994
 40
0.3749999999999992
 40
0.3749999999999992
 40
0.4374999999999988
 40
0.4374999999999988
 40
0.4687499999999986
 40
0.4687499999999986
 40
0.4999999999999984
 40
0.4999999999999984
 40
0.5312499999999982
 40
0.5312499999999982
 40
0.5624999999999978
 40
0.5624999999999978
 40
0.5937499999999976
 40
0.5937499999999976
 40
0.6249999999999974
 40
0.6249999999999974
 40
0.6562499999999972
 40
0.6562499999999972
 40
0.6874999999999968
 40
0.6874999999999968
 40
0.7499999999999967
 40
0.7499999999999967
 40
0.8124999999999968
 40
0.8124999999999968
 40
0.8437499999999975
 40
0.8437499999999975
 40
0.8749999999999978
 40
0.8749999999999978
 40
0.9062499999999984
 40
0.9062499999999984
 40
0.9374999999999989
 40
0.9374999999999989
 40
0.9687499999999994
 40
0.9687499999999994
 40
1.0
 40
1.0
 40
1.0
 40
1.0
 10
297.9048419452957
 20
280.0516172365122
 30
0.0
 10
298.9833049177894
 20
279.8312143406599
 30
0.0
 10
300.0572687719473
 20
279.6026863615248
 30
0.0
 10
302.1958916075794
 20
279.1313350448914
 30
0.0
 10
303.2605433086215
 20
278.8884998263397
 30
0.0
 10
305.3807165722433
 20
278.392097339511
 30
0.0
 10
306.4362315179195
 20
278.1385266983725
 30
0.0
 10
308.5390167466248
 20
277.6261093851094
 30
0.0
 10
309.5862842989308
 20
277.3672753484037
 30
0.0
 10
311.6743247449185
 20
276.8515690609183
 30
0.0
 10
312.7151021952701
 20
276.5947290328939
 30
0.0
 10
314.2733468028622
 20
276.217205066986
 30
0.0
 10
314.7923972676026
 20
276.092631670682
 30
0.0
 10
315.8288512594157
 20
275.847369483864
 30
0.0
 10
316.3463568029721
 20
275.72665695822
 30
0.0
 10
317.8973725072156
 20
275.3717163493905
 30
0.0
 10
318.9293826033437
 20
275.1447570204712
 30
0.0
 10
320.4771833856824
 20
274.8235649317499
 30
0.0
 10
320.9930487929549
 20
274.7196491760863
 30
0.0
 10
322.0254476969246
 20
274.5191505396923
 30
0.0
 10
322.5419971635797
 20
274.4225890169365
 30
0.0
 10
323.5765831168766
 20
274.2375965461175
 30
0.0
 10
324.0946190749285
 20
274.1491630079933
 30
0.0
 10
325.1328462829695
 20
273.9808066720062
 30
0.0
 10
325.653036492822
 20
273.9008810658386
 30
0.0
 10
326.6961448592252
 20
273.7496316782861
 30
0.0
 10
327.2190744646662
 20
273.6783184975578
 30
0.0
 10
328.2681219664841
 20
273.5441232410341
 30
0.0
 10
328.7941695684992
 20
273.4811557705941
 30
0.0
 10
329.8487394181933
 20
273.3623344123247
 30
0.0
 10
330.3772622264048
 20
273.3064825077137
 30
0.0
 10
331.4362874035945
 20
273.2010086497352
 30
0.0
 10
331.9663657069663
 20
273.1514302374601
 30
0.0
 10
333.5576523541183
 20
273.0111062279096
 30
0.0
 10
334.6199803106202
 20
272.9286946479531
 30
0.0
 10
336.745226062966
 20
272.7824106398714
 30
0.0
 10
337.8081453625757
 20
272.7185494557377
 30
0.0
 10
339.4013010137602
 20
272.6354944208976
 30
0.0
 10
339.9321496715202
 20
272.6099480515974
 30
0.0
 10
340.9931853807745
 20
272.5631252176644
 30
0.0
 10
341.523356154994
 20
272.5418427473906
 30
0.0
 10
342.5828872727231
 20
272.5036944663827
 30
0.0
 10
343.1123020025326
 20
272.4868616088737
 30
0.0
 10
344.1709685308306
 20
272.4579978699149
 30
0.0
 10
344.7002208613225
 20
272.445966615659
 30
0.0
 10
345.7590670200188
 20
272.426815930351
 30
0.0
 10
346.2886611532956
 20
272.4196957181429
 30
0.0
 10
347.3486469111621
 20
272.4102850034566
 30
0.0
 10
347.8790385801792
 20
272.4079935137005
 30
0.0
 10
348.4100300863795
 20
272.4079935137005
 30
0.0
  0
SPLINE
  5
1D9
330
1F
100
AcDbEntity
  8
1
100
AcDbSpline
210
0.0
220
0.0
230
1.0
 70
     8
 71
     3
 72
    66
 73
    62
 74
     0
 42
0.000000001
 43
0.0000000001
 40
0.0
 40
0.0
 40
0.0
 40
0.0
 40
0.0625000000000003
 40
0.0625000000000003
 40
0.1250000000000007
 40
0.1250000000000007
 40
0.1562500000000009
 40
0.1562500000000009
 40
0.1875000000000014
 40
0.1875000000000014
 40
0.2031250000000016
 40
0.2031250000000016
 40
0.2187500000000018
 40
0.2187500000000018
 40
0.2500000000000022
 40
0.2500000000000022
 40
0.2812500000000027
 40
0.2812500000000027
 40
0.3125000000000031
 40
0.3125000000000031
 40
0.3750000000000039
 40
0.3750000000000039
 40
0.4062500000000043
 40
0.4062500000000043
 40
0.4375000000000047
 40
0.4375000000000047
 40
0.4531250000000047
 40
0.4531250000000047
 40
0.4687500000000048
 40
0.4687500000000048
 40
0.5000000000000047
 40
0.5000000000000047
 40
0.5312500000000046
 40
0.5312500000000046
 40
0.5625000000000044
 40
0.5625000000000044
 40
0.5937500000000043
 40
0.5937500000000043
 40
0.625000000000004
 40
0.625000000000004
 40
0.6562500000000039
 40
0.6562500000000039
 40
0.6875000000000037
 40
0.6875000000000037
 40
0.7187500000000035
 40
0.7187500000000035
 40
0.7500000000000034
 40
0.7500000000000034
 40
0.7812500000000031
 40
0.7812500000000031
 40
0.812500000000003
 40
0.812500000000003
 40
0.8750000000000021
 40
0.8750000000000021
 40
0.9062500000000015
 40
0.9062500000000015
 40
0.9375000000000012
 40
0.9375000000000012
 40
0.9687500000000005
 40
0.9687500000000005
 40
1.0
 40
1.0
 40
1.0
 40
1.0
 10
297.9048419452957
 20
305.3989842669623
 30
0.0
 10
298.9883819696863
 20
305.390790995144
 30
0.0
 10
300.0662491446149
 20
305.3763979800242
 30
0.0
 10
302.2111352711195
 20
305.3298951918857
 30
0.0
 10
303.2781459422312
 20
305.2977639189649
 30
0.0
 10
304.8713325135878
 20
305.232217639155
 30
0.0
 10
305.4011786051541
 20
305.2074787724711
 30
0.0
 10
306.4586499854335
 20
305.1516076388363
 30
0.0
 10
306.9862751566375
 20
305.1204741449999
 30
0.0
 10
307.7762484423073
 20
305.0685790279192
 30
0.0
 10
308.0393292505982
 20
305.0504156032262
 30
0.0
 10
308.5650426793371
 20
305.012303059166
 30
0.0
 10
308.8277056750649
 20
304.9923514520578
 30
0.0
 10
309.6148609353974
 20
304.9297657721419
 30
0.0
 10
310.1384011868201
 20
304.88440564894
 30
0.0
 10
311.183466787281
 20
304.7861893915089
 30
0.0
 10
311.7049926113251
 20
304.7333325786128
 30
0.0
 10
312.746536730876
 20
304.6200795910798
 30
0.0
 10
313.2665557443778
 20
304.5596832318035
 30
0.0
 10
314.8251785506822
 20
304.3674134190064
 30
0.0
 10
315.8623552232324
 20
304.2243748419979
 30
0.0
 10
317.4186585449092
 20
303.9901113023867
 30
0.0
 10
317.9375155721187
 20
303.9087616491291
 30
0.0
 10
318.9759310512079
 20
303.7401854348669
 30
0.0
 10
319.4955507516902
 20
303.6529500440444
 30
0.0
 10
320.275625591709
 20
303.5182799355963
 30
0.0
 10
320.5357515867394
 20
303.4727652235766
 30
0.0
 10
321.0562097455281
 20
303.3805202401211
 30
0.0
 10
321.3165300872899
 20
303.3337754663384
 30
0.0
 10
322.0976344350581
 20
303.1915334243456
 30
0.0
 10
322.6185527925845
 20
303.0940213807467
 30
0.0
 10
323.6602757157732
 20
302.8930093560156
 30
0.0
 10
324.1810813215754
 20
302.7895071578666
 30
0.0
 10
325.2223759708545
 20
302.5761405839724
 30
0.0
 10
325.7428081333642
 20
302.4662868995969
 30
0.0
 10
326.7828530601575
 20
302.2402586127411
 30
0.0
 10
327.3025230910666
 20
302.1240671452123
 30
0.0
 10
328.3413726691081
 20
301.8855842841337
 30
0.0
 10
328.860584277416
 20
301.7633420450375
 30
0.0
 10
329.8990519212286
 20
301.5136214967705
 30
0.0
 10
330.4183066566902
 20
301.3861429073851
 30
0.0
 10
331.4571695526419
 20
301.1265360129314
 30
0.0
 10
331.9767766193252
 20
300.994407239187
 30
0.0
 10
333.0165304626378
 20
300.7259190298157
 30
0.0
 10
333.5366764042137
 20
300.5895591571256
 30
0.0
 10
334.5776006556081
 20
300.3128748955713
 30
0.0
 10
335.0983783942205
 20
300.172550258793
 30
0.0
 10
336.1405863521154
 20
299.8880605403207
 30
0.0
 10
336.6618453812467
 20
299.7439418317551
 30
0.0
 10
337.7043788891403
 20
299.4520228969141
 30
0.0
 10
338.2256948152041
 20
299.3042116761306
 30
0.0
 10
339.7896579544715
 20
298.8549989201985
 30
0.0
 10
340.8323516960176
 20
298.5479136295043
 30
0.0
 10
342.3954197035423
 20
298.0734697166882
 30
0.0
 10
342.9162473846162
 20
297.9129463310433
 30
0.0
 10
343.9565797435085
 20
297.5848845635452
 30
0.0
 10
344.476081620813
 20
297.4173368891945
 30
0.0
 10
345.5131818262236
 20
297.0735702990492
 30
0.0
 10
346.0308781796084
 20
296.8973003003682
 30
0.0
 10
347.06339098276
 20
296.5357054393972
 30
0.0
 10
347.5782704577146
 20
296.3503442904151
 30
0.0
 10
348.092008021343
 20
296.1608279948212
 30
0.0
  0
SPLINE
  5
1DA
330
1F
100
AcDbEntity
  8
1
100
AcDbSpline
210
0.0
220
0.0
230
1.0
 70
     8
 71
     3
 72
    42
 73
    38
 74
     0
 42
0.000000001
 43
0.0000000001
 40
0.0
 40
0.0
 40
0.0
 40
0.0
 40
0.0558347300512533
 40
0.0558347300512533
 40
0.1116694601025066
 40
0.1116694601025066
 40
0.1675041901537599
 40
0.1675041901537599
 40
0.2233389202050133
 40
0.2233389202050133
 40
0.2791736502562666
 40
0.2791736502562666
 40
0.3070910152818938
 40
0.3070910152818938
 40
0.3350083803075211
 40
0.3350083803075211
 40
0.3908431103587744
 40
0.3908431103587744
 40
0.4466778404100278
 40
0.4466778404100278
 40
0.5025125704612811
 40
0.5025125704612811
 40
0.5583473005125344
 40
0.5583473005125344
 40
0.6700167606150411
 40
0.6700167606150411
 40
0.7258514906662941
 40
0.7258514906662941
 40
0.781686220717547
 40
0.781686220717547
 40
0.8375209507687999
 40
0.8375209507687999
 40
0.8933556808200528
 40
0.8933556808200528
 40
0.9491904108713061
 40
0.9491904108713061
 40
1.0
 40
1.0
 40
1.0
 40
1.0
 10
354.0267828037063
 20
305.2833810208473
 30
0.0
 10
353.4940071924232
 20
305.3216428320729
 30
0.0
 10
352.9553308133488
 20
305.3494812799411
 30
0.0
 10
351.865385674607
 20
305.3885834461572
 30
0.0
 10
351.3141159895657
 20
305.3998592264035
 30
0.0
 10
350.198989910625
 20
305.4098791801787
 30
0.0
 10
349.6351334064347
 20
305.408633135886
 30
0.0
 10
348.4956563994405
 20
305.3970663848618
 30
0.0
 10
347.9200372962
 20
305.3867526342409
 30
0.0
 10
346.7586580327588
 20
305.359668078696
 30
0.0
 10
346.1729012233899
 20
305.3429011285804
 30
0.0
 10
345.2884252137671
 20
305.3141196054393
 30
0.0
 10
344.9925540947329
 20
305.30390928386
 30
0.0
 10
344.4000579631031
 20
305.2823944821278
 30
0.0
 10
344.1033367539317
 20
305.2710871597948
 30
0.0
 10
343.2121405151162
 20
305.2355675567966
 30
0.0
 10
342.6166249418366
 20
305.2097909409068
 30
0.0
 10
341.425117384553
 20
305.1535054423366
 30
0.0
 10
340.8292114176866
 20
305.1229206814733
 30
0.0
 10
339.6375970889794
 20
305.0566643160524
 30
0.0
 10
339.0418826274817
 20
305.0209952852906
 30
0.0
 10
337.8510717254135
 20
304.944228862995
 30
0.0
 10
337.2559759838391
 20
304.9031301165267
 30
0.0
 10
335.4721805980461
 20
304.7709806488589
 30
0.0
 10
334.2849932310263
 20
304.6711216112174
 30
0.0
 10
332.5089640605954
 20
304.5000190777133
 30
0.0
 10
331.9177395605854
 20
304.4394228696264
 30
0.0
 10
330.7371383341621
 20
304.3103025447138
 30
0.0
 10
330.1477591187648
 20
304.2417829938203
 30
0.0
 10
328.9711942405368
 20
304.0957741616603
 30
0.0
 10
328.3840059397838
 20
304.0182916746685
 30
0.0
 10
327.2123197253915
 20
303.8529018989456
 30
0.0
 10
326.6278875262021
 20
303.7648903910147
 30
0.0
 10
325.4613362259502
 20
303.5779739658016
 30
0.0
 10
324.8792135726246
 20
303.4790713599061
 30
0.0
 10
323.7689655193237
 20
303.2798478808999
 30
0.0
 10
323.2406978947911
 20
303.1804485565742
 30
0.0
 10
322.7128258379508
 20
303.0768030778058
 30
0.0
  0
SPLINE
  5
1DB
330
1F
100
AcDbEntity
  8
1
100
AcDbSpline
210
0.0
220
0.0
230
1.0
 70
     8
 71
     3
 72
     8
 73
     4
 74
     0
 42
0.000000001
 43
0.0000000001
 40
0.0
 40
0.0
 40
0.0
 40
0.0
 40
1.0
 40
1.0
 40
1.0
 40
1.0
 10
285.0614991175764
 20
269.8921916395433
 30
0.0
 10
284.6179220967707
 20
269.6226056864424
 30
0.0
 10
284.1988225622831
 20
269.3402009920979
 30
0.0
 10
283.8043368819074
 20
269.0478849529393
 30
0.0
  0
LINE
  5
1F9
330
1F
100
AcDbEntity
  8
4
100
AcDbLine
 10
270.703832
 20
288.907994
 30
0.0
 11
371.389231
 21
288.907994
 31
0.0
  0
LINE
  5
1FA
330
1F
100
AcDbEntity
  8
SK4
100
AcDbLine
 10
200.904842
 20
288.907994
 30
0.0
 11
277.404842
 21
288.907994
 31
0.0
  0
MTEXT
  5
200
330
1F
100
AcDbEntity
  8
SK6
100
AcDbMText
 10
258.520787
 20
241.27662
 30
0.0
 40
3.5
 41
0.0
 71
     7
 72
     5
  1
\W0.7022;802D-34-68-S40
  7
cesky
 73
     2
 44
0.8433729999999998
  0
MTEXT
  5
311
330
1F
100
AcDbEntity
  8
2
100
AcDbMText
 10
386.843789
 20
287.395989
 30
0.0
 40
3.5
 41
0.0
 71
     7
 72
     5
  1
\W0.6844;34
  7
cesky
 11
0.0000000000000001
 21
1.0
 31
0.0
 73
     2
 44
0.8433729999999998
  0
MTEXT
  5
312
330
1F
100
AcDbEntity
  8
2
100
AcDbMText
 10
386.843789
 20
280.658489
 30
0.0
 40
3.5
 41
0.0
 71
     7
 72
     5
  1
\W3.0115;\H2.63;%%c\H3.50;
  7
cesky
 11
0.0000000000000001
 21
1.0
 31
0.0
 73
     2
 44
0.8433729999999998
  0
LINE
  5
313
330
1F
100
AcDbEntity
  8
2
100
AcDbLine
 10
369.404842
 20
305.907994
 30
0.0
 11
388.031206
 21
305.907994
 31
0.0
  0
LINE
  5
314
330
1F
100
AcDbEntity
  8
2
100
AcDbLine
 10
387.031206
 20
305.907994
 30
0.0
 11
387.031206
 21
280.500989
 31
0.0
  0
SOLID
  5
315
330
1F
100
AcDbEntity
  8
2
100
AcDbTrace
 10
387.031206
 20
305.907994
 30
0.0
 11
387.64835
 21
302.407996
 31
0.0
 12
386.414061
 22
302.4079910000001
 32
0.0
 13
386.414061
 23
302.4079910000001
 33
0.0
  0
MTEXT
  5
316
330
1F
100
AcDbEntity
  8
2
100
AcDbMText
 10
282.827842
 20
340.562135
 30
0.0
 40
3.5
 41
0.0
 71
     7
 72
     5
  1
\W0.7809;163
  7
cesky
 73
     2
 44
0.8433729999999998
  0
LINE
  5
317
330
1F
100
AcDbEntity
  8
2
100
AcDbLine
 10
367.404842
 20
307.907994
 30
0.0
 11
367.404842
 21
341.687968
 31
0.0
  0
LINE
  5
318
330
1F
100
AcDbEntity
  8
2
100
AcDbLine
 10
204.404842
 20
306.907994
 30
0.0
 11
204.404842
 21
341.687968
 31
0.0
  0
LINE
  5
319
330
1F
100
AcDbEntity
  8
2
100
AcDbLine
 10
367.404842
 20
340.687968
 30
0.0
 11
204.404842
 21
340.687968
 31
0.0
  0
SOLID
  5
31A
330
1F
100
AcDbEntity
  8
2
100
AcDbTrace
 10
367.404842
 20
340.687968
 30
0.0
 11
363.904844
 21
340.070823
 31
0.0
 12
363.90484
 22
341.305112
 32
0.0
 13
363.90484
 23
341.305112
 33
0.0
  0
SOLID
  5
31B
330
1F
100
AcDbEntity
  8
2
100
AcDbTrace
 10
204.404842
 20
340.687968
 30
0.0
 11
207.90484
 21
341.305112
 31
0.0
 12
207.904844
 22
340.070823
 32
0.0
 13
207.904844
 23
340.070823
 33
0.0
  0
MTEXT
  5
31C
330
1F
100
AcDbEntity
  8
2
100
AcDbMText
 10
237.590342
 20
327.385163
 30
0.0
 40
3.5
 41
0.0
 71
     7
 72
     5
  1
\W0.7045;70
  7
cesky
 73
     2
 44
0.8433729999999998
  0
LINE
  5
31D
330
1F
100
AcDbEntity
  8
2
100
AcDbLine
 10
274.404842
 20
288.907994
 30
0.0
 11
274.404842
 21
328.5109970000001
 31
0.0
  0
LINE
  5
31E
330
1F
100
AcDbEntity
  8
2
100
AcDbLine
 10
204.404842
 20
306.907994
 30
0.0
 11
204.404842
 21
328.5109970000001
 31
0.0
  0
LINE
  5
31F
330
1F
100
AcDbEntity
  8
2
100
AcDbLine
 10
274.404842
 20
327.510997
 30
0.0
 11
204.404842
 21
327.510997
 31
0.0
  0
SOLID
  5
320
330
1F
100
AcDbEntity
  8
2
100
AcDbTrace
 10
274.404842
 20
327.510997
 30
0.0
 11
270.904844
 21
326.893852
 31
0.0
 12
270.90484
 22
328.128141
 32
0.0
 13
270.90484
 23
328.128141
 33
0.0
  0
SOLID
  5
321
330
1F
100
AcDbEntity
  8
2
100
AcDbTrace
 10
204.404842
 20
327.510997
 30
0.0
 11
207.90484
 21
328.128141
 31
0.0
 12
207.904844
 22
326.893852
 32
0.0
 13
207.904844
 23
326.893852
 33
0.0
  0
MTEXT
  5
322
330
1F
100
AcDbEntity
  8
2
100
AcDbMText
 10
328.091104
 20
316.511754
 30
0.0
 40
3.5
 41
0.0
 71
     7
 72
     5
  1
\W0.7045;75
  7
cesky
 73
     2
 44
0.8433729999999998
  0
LINE
  5
323
330
1F
100
AcDbEntity
  8
2
100
AcDbLine
 10
367.404842
 20
307.907994
 30
0.0
 11
367.404842
 21
317.637587
 31
0.0
  0
LINE
  5
324
330
1F
100
AcDbEntity
  8
2
100
AcDbLine
 10
292.406366
 20
305.613487
 30
0.0
 11
292.406366
 21
317.637587
 31
0.0
  0
LINE
  5
325
330
1F
100
AcDbEntity
  8
2
100
AcDbLine
 10
367.404842
 20
316.637587
 30
0.0
 11
292.406366
 21
316.637587
 31
0.0
  0
SOLID
  5
326
330
1F
100
AcDbEntity
  8
2
100
AcDbTrace
 10
367.404842
 20
316.637587
 30
0.0
 11
363.904844
 21
316.020443
 31
0.0
 12
363.90484
 22
317.254732
 32
0.0
 13
363.90484
 23
317.254732
 33
0.0
  0
SOLID
  5
327
330
1F
100
AcDbEntity
  8
2
100
AcDbTrace
 10
292.406366
 20
316.637587
 30
0.0
 11
295.906364
 21
317.254732
 31
0.0
 12
295.906369
 22
316.020443
 32
0.0
 13
295.906369
 23
316.020443
 33
0.0
  0
MTEXT
  5
328
330
1F
100
AcDbEntity
  8
2
100
AcDbMText
 10
319.090342
 20
327.385163
 30
0.0
 40
3.5
 41
0.0
 71
     7
 72
     5
  1
\W0.7045;93
  7
cesky
 73
     2
 44
0.8433729999999998
  0
LINE
  5
329
330
1F
100
AcDbEntity
  8
2
100
AcDbLine
 10
367.404842
 20
305.907994
 30
0.0
 11
367.404842
 21
328.5109970000001
 31
0.0
  0
LINE
  5
32A
330
1F
100
AcDbEntity
  8
2
100
AcDbLine
 10
274.404842
 20
289.907567
 30
0.0
 11
274.404842
 21
328.5109970000001
 31
0.0
  0
LINE
  5
32B
330
1F
100
AcDbEntity
  8
2
100
AcDbLine
 10
367.404842
 20
327.510997
 30
0.0
 11
274.404842
 21
327.510997
 31
0.0
  0
SOLID
  5
32C
330
1F
100
AcDbEntity
  8
2
100
AcDbTrace
 10
367.404842
 20
327.510997
 30
0.0
 11
363.904844
 21
326.893852
 31
0.0
 12
363.90484
 22
328.128141
 32
0.0
 13
363.90484
 23
328.128141
 33
0.0
  0
SOLID
  5
32D
330
1F
100
AcDbEntity
  8
2
100
AcDbTrace
 10
274.404842
 20
327.510997
 30
0.0
 11
277.90484
 21
328.128141
 31
0.0
 12
277.904844
 22
326.893852
 32
0.0
 13
277.904844
 23
326.893852
 33
0.0
  0
MTEXT
  5
32E
330
1F
100
AcDbEntity
  8
SK2
100
AcDbMText
 10
192.819032
 20
290.434244
 30
0.0
 40
3.5
 41
0.0
 71
     7
 72
     5
  1
\W0.7045;40
  7
cesky
 11
0.0000000000000001
 21
1.0
 31
0.0
 73
     2
 44
0.8433729999999998
  0
MTEXT
  5
32F
330
1F
100
AcDbEntity
  8
SK2
100
AcDbMText
 10
192.819032
 20
283.696744
 30
0.0
 40
3.5
 41
0.0
 71
     7
 72
     5
  1
\W3.0115;\H2.63;%%c\H3.50;
  7
cesky
 11
0.0000000000000001
 21
1.0
 31
0.0
 73
     2
 44
0.8433729999999998
  0
LINE
  5
330
330
1F
100
AcDbEntity
  8
SK2
100
AcDbLine
 10
206.404842
 20
308.907994
 30
0.0
 11
192.006449
 21
308.907994
 31
0.0
  0
LINE
  5
331
330
1F
100
AcDbEntity
  8
SK2
100
AcDbLine
 10
206.404842
 20
268.907994
 30
0.0
 11
192.006449
 21
268.907994
 31
0.0
  0
LINE
  5
332
330
1F
100
AcDbEntity
  8
SK2
100
AcDbLine
 10
193.006449
 20
308.907994
 30
0.0
 11
193.006449
 21
268.907994
 31
0.0
  0
SOLID
  5
333
330
1F
100
AcDbEntity
  8
SK2
100
AcDbTrace
 10
193.006449
 20
308.907994
 30
0.0
 11
193.623593
 21
305.407996
 31
0.0
 12
192.389304
 22
305.407991
 32
0.0
 13
192.389304
 23
305.407991
 33
0.0
  0
SOLID
  5
334
330
1F
100
AcDbEntity
  8
SK2
100
AcDbTrace
 10
193.006449
 20
268.907994
 30
0.0
 11
192.389304
 21
272.407991
 31
0.0
 12
193.623593
 22
272.407996
 32
0.0
 13
193.623593
 23
272.407996
 33
0.0
  0
MTEXT
  5
335
330
1F
100
AcDbEntity
  8
SK2
100
AcDbMText
 10
179.247371
 20
290.434244
 30
0.0
 40
3.5
 41
0.0
 71
     7
 72
     5
  1
\W0.7045;50
  7
cesky
 11
0.0000000000000001
 21
1.0
 31
0.0
 73
     2
 44
0.8433729999999998
  0
MTEXT
  5
336
330
1F
100
AcDbEntity
  8
SK2
100
AcDbMText
 10
179.247371
 20
283.696744
 30
0.0
 40
3.5
 41
0.0
 71
     7
 72
     5
  1
\W3.0115;\H2.63;%%c\H3.50;
  7
cesky
 11
0.0000000000000001
 21
1.0
 31
0.0
 73
     2
 44
0.8433729999999998
  0
LINE
  5
337
330
1F
100
AcDbEntity
  8
SK2
100
AcDbLine
 10
274.904842
 20
313.907994
 30
0.0
 11
178.434788
 21
313.907994
 31
0.0
  0
LINE
  5
338
330
1F
100
AcDbEntity
  8
SK2
100
AcDbLine
 10
274.904842
 20
263.907994
 30
0.0
 11
178.434788
 21
263.907994
 31
0.0
  0
LINE
  5
339
330
1F
100
AcDbEntity
  8
SK2
100
AcDbLine
 10
179.434788
 20
313.907994
 30
0.0
 11
179.434788
 21
263.907994
 31
0.0
  0
SOLID
  5
33A
330
1F
100
AcDbEntity
  8
SK2
100
AcDbTrace
 10
179.434788
 20
313.907994
 30
0.0
 11
180.051932
 21
310.407996
 31
0.0
 12
178.817644
 22
310.407991
 32
0.0
 13
178.817644
 23
310.407991
 33
0.0
  0
SOLID
  5
33B
330
1F
100
AcDbEntity
  8
SK2
100
AcDbTrace
 10
179.434788
 20
263.907994
 30
0.0
 11
178.817644
 21
267.4079910000001
 31
0.0
 12
180.051932
 22
267.407996
 32
0.0
 13
180.051932
 23
267.407996
 33
0.0
  0
LINE
  5
33C
330
1F
100
AcDbEntity
  8
CUT
100
AcDbLine
 10
367.1302951695565
 20
297.3542400235922
 30
0.0
 11
366.8470132345146
 21
305.1625015666012
 31
0.0
  0
LINE
  5
33D
330
1F
100
AcDbEntity
  8
CUT
100
AcDbLine
 10
366.0467356045165
 20
305.9049165187757
 30
0.0
 11
358.0741120947631
 21
305.6095752511592
 31
0.0
  0
LINE
  5
340
330
1F
100
AcDbEntity
  8
CUT
100
AcDbLine
 10
367.2334058386328
 20
297.1826473299075
 30
0.0
 11
367.1302951695565
 21
297.3542400235922
 31
0.0
  0
LINE
  5
342
330
1F
100
AcDbEntity
  8
CUT
100
AcDbLine
 10
367.3998607906599
 20
289.9114987447
 30
0.0
 11
367.2754235247553
 21
297.0361251382748
 31
0.0
  0
LINE
  5
343
330
1F
100
AcDbEntity
  8
CUT
100
AcDbLine
 10
357.32968
 20
288.907994
 30
0.0
 11
367.399861
 21
288.907994
 31
0.0
  0
LINE
  5
344
330
1F
100
AcDbEntity
  8
CUT
100
AcDbLine
 10
357.32968
 20
304.809555
 30
0.0
 11
357.32968
 21
288.907994
 31
0.0
  0
LINE
  5
345
330
1F
100
AcDbEntity
  8
CUT
100
AcDbLine
 10
367.399861
 20
288.907994
 30
0.0
 11
367.399861
 21
289.9114990000001
 31
0.0
  0
ARC
  5
346
330
1F
100
AcDbEntity
  8
CUT
100
AcDbCircle
 10
366.0671932086367
 20
305.1247934211943
 30
0.0
 40
0.7807311810029702
100
AcDbArc
 50
2.76837727267859
 51
88.73301932386127
  0
ARC
  5
347
330
1F
100
AcDbEntity
  8
CUT
100
AcDbCircle
 10
366.0736127575866
 20
305.1803039379716
 30
0.0
 40
0.725110869878969
100
AcDbArc
 50
89.14316440556744
 51
92.12422726345554
  0
ARC
  5
348
330
1F
100
AcDbEntity
  8
CUT
100
AcDbCircle
 10
358.1117848331814
 20
304.8275964892595
 30
0.0
 40
0.7828857000112225
100
AcDbArc
 50
92.75815844482172
 51
177.1757727334356
  0
ARC
  5
349
330
1F
100
AcDbEntity
  8
CUT
100
AcDbCircle
 10
358.0538015928611
 20
304.8356855593572
 30
0.0
 40
0.7245931403572192
100
AcDbArc
 50
177.5887185292964
 51
182.0667011490764
  0
LINE
  5
34A
330
1F
100
AcDbEntity
  8
CUT
100
AcDbLine
 10
367.2754235247554
 20
297.0361251382748
 30
0.0
 11
367.2754235247554
 21
297.0361251382748
 31
0.0
  0
ARC
  5
34B
330
1F
100
AcDbEntity
  8
CUT
100
AcDbCircle
 10
366.9810551100566
 20
297.0309958104177
 30
0.0
 40
0.2944131002122361
100
AcDbArc
 50
0.9982698028243003
 51
31.00398759328897
  0
ENDSEC
  0
SECTION
  2
OBJECTS
  0
DICTIONARY
  5
C
330
0
100
AcDbDictionary
281
     1
  3
ACAD_CIP_PREVIOUS_PRODUCT_INFO
350
30E
  3
ACAD_COLOR
350
309
  3
ACAD_DETAILVIEWSTYLE
350
305
  3
ACAD_GROUP
350
D
  3
ACAD_LAYOUT
350
1A
  3
ACAD_MATERIAL
350
43
  3
ACAD_MLEADERSTYLE
350
6B
  3
ACAD_MLINESTYLE
350
17
  3
ACAD_PLOTSETTINGS
350
19
  3
ACAD_PLOTSTYLENAME
350
E
  3
ACAD_SCALELIST
350
47
  3
ACAD_SECTIONVIEWSTYLE
350
306
  3
ACAD_TABLESTYLE
350
69
  3
ACAD_VISUALSTYLE
350
2A
  3
ACDB_RECOMPOSE_DATA
350
377
  3
AcDbVariableDictionary
350
2C2
  0
DICTIONARY
  5
35A
330
10
100
AcDbDictionary
280
     1
281
     1
  3
ADSK_XREC_LAYER_RECONCILED
360
35B
  0
DICTIONARY
  5
35C
330
34C
100
AcDbDictionary
280
     1
281
     1
  3
ADSK_XREC_LAYER_RECONCILED
360
35D
  0
DICTIONARY
  5
35E
330
34D
100
AcDbDictionary
280
     1
281
     1
  3
ADSK_XREC_LAYER_RECONCILED
360
35F
  0
DICTIONARY
  5
360
330
34E
100
AcDbDictionary
280
     1
281
     1
  3
ADSK_XREC_LAYER_RECONCILED
360
361
  0
DICTIONARY
  5
362
330
350
100
AcDbDictionary
280
     1
281
     1
  3
ADSK_XREC_LAYER_RECONCILED
360
363
  0
DICTIONARY
  5
364
330
351
100
AcDbDictionary
280
     1
281
     1
  3
ADSK_XREC_LAYER_RECONCILED
360
365
  0
DICTIONARY
  5
366
330
353
100
AcDbDictionary
280
     1
281
     1
  3
ADSK_XREC_LAYER_RECONCILED
360
367
  0
DICTIONARY
  5
368
330
354
100
AcDbDictionary
280
     1
281
     1
  3
ADSK_XREC_LAYER_RECONCILED
360
369
  0
DICTIONARY
  5
36A
330
355
100
AcDbDictionary
280
     1
281
     1
  3
ADSK_XREC_LAYER_RECONCILED
360
36B
  0
DICTIONARY
  5
36C
330
356
100
AcDbDictionary
280
     1
281
     1
  3
ADSK_XREC_LAYER_RECONCILED
360
36D
  0
DICTIONARY
  5
36E
330
357
100
AcDbDictionary
280
     1
281
     1
  3
ADSK_XREC_LAYER_RECONCILED
360
36F
  0
DICTIONARY
  5
370
330
358
100
AcDbDictionary
280
     1
281
     1
  3
ADSK_XREC_LAYER_RECONCILED
360
371
  0
DICTIONARY
  5
30F
330
1F
100
AcDbDictionary
280
     1
281
     1
  3
ACAD_SORTENTS
360
310
  0
XRECORD
  5
30E
102
{ACAD_REACTORS
330
C
102
}
330
C
100
AcDbXrecord
280
     1
300
ACD
300
2019
300
87084ACD_2019_0F
  0
DICTIONARY
  5
309
102
{ACAD_REACTORS
330
C
102
}
330
C
100
AcDbDictionary
281
     1
  0
DICTIONARY
  5
305
102
{ACAD_REACTORS
330
C
102
}
330
C
100
AcDbDictionary
281
     1
  3
Metric50
350
30B
  0
DICTIONARY
  5
D
102
{ACAD_REACTORS
330
C
102
}
330
C
100
AcDbDictionary
281
     1
  3
NULOVY_BOD
350
359
  0
DICTIONARY
  5
1A
102
{ACAD_REACTORS
330
C
102
}
330
C
100
AcDbDictionary
281
     1
  3
Layout1
350
1E
  3
Layout2
350
26
  3
Model
350
22
  0
DICTIONARY
  5
43
102
{ACAD_REACTORS
330
C
102
}
330
C
100
AcDbDictionary
281
     1
  3
ByBlock
350
45
  3
ByLayer
350
44
  3
Global
350
46
  0
DICTIONARY
  5
6B
102
{ACAD_REACTORS
330
C
102
}
330
C
100
AcDbDictionary
281
     1
  3
Standard
350
6C
  0
DICTIONARY
  5
17
102
{ACAD_REACTORS
330
C
102
}
330
C
100
AcDbDictionary
281
     1
  3
Standard
350
18
  0
DICTIONARY
  5
19
102
{ACAD_REACTORS
330
C
102
}
330
C
100
AcDbDictionary
281
     1
  0
ACDBDICTIONARYWDFLT
  5
E
102
{ACAD_REACTORS
330
C
102
}
330
C
100
AcDbDictionary
281
     1
  3
Normal
350
F
100
AcDbDictionaryWithDefault
340
F
  0
DICTIONARY
  5
47
102
{ACAD_REACTORS
330
C
102
}
330
C
100
AcDbDictionary
281
     1
  3
A0
350
48
  3
A1
350
49
  3
A2
350
4A
  3
A3
350
4B
  3
A4
350
4C
  3
A5
350
4D
  3
A6
350
4E
  3
A7
350
4F
  3
A8
350
50
  3
A9
350
51
  3
B0
350
52
  3
B1
350
53
  3
B2
350
54
  3
B3
350
55
  3
B4
350
56
  3
B5
350
57
  3
B6
350
58
  3
B7
350
59
  3
B8
350
5A
  3
B9
350
5B
  3
C0
350
5C
  3
C1
350
5D
  3
C2
350
5E
  3
C3
350
5F
  3
C4
350
60
  3
C5
350
61
  3
C6
350
62
  3
C7
350
63
  3
C8
350
64
  3
C9
350
65
  3
D0
350
66
  3
D1
350
67
  3
D2
350
68
  0
DICTIONARY
  5
306
102
{ACAD_REACTORS
330
C
102
}
330
C
100
AcDbDictionary
281
     1
  3
Metric50
350
30A
  0
DICTIONARY
  5
69
102
{ACAD_REACTORS
330
C
102
}
330
C
100
AcDbDictionary
281
     1
  3
Standard
350
6A
  0
DICTIONARY
  5
2A
102
{ACAD_REACTORS
330
C
102
}
330
C
100
AcDbDictionary
281
     1
  3
2dWireframe
350
2F
  3
Basic
350
32
  3
Brighten
350
36
  3
ColorChange
350
3A
  3
Conceptual
350
34
  3
Dim
350
35
  3
EdgeColorOff
350
3D
  3
Facepattern
350
39
  3
Flat
350
2B
  3
FlatWithEdges
350
2C
  3
Gouraud
350
2D
  3
GouraudWithEdges
350
2E
  3
Hidden
350
31
  3
JitterOff
350
3B
  3
Linepattern
350
38
  3
OverhangOff
350
3C
  3
Realistic
350
33
  3
Shaded
350
42
  3
Shaded with edges
350
41
  3
Shades of Gray
350
3E
  3
Sketchy
350
3F
  3
Thicken
350
37
  3
Wireframe
350
30
  3
X-Ray
350
40
  0
XRECORD
  5
377
102
{ACAD_REACTORS
330
C
102
}
330
C
100
AcDbXrecord
280
     1
 90
        1
330
6A
  0
DICTIONARY
  5
2C2
102
{ACAD_REACTORS
330
C
102
}
330
C
100
AcDbDictionary
281
     1
  3
CANNOSCALE
350
2C3
  3
CMLEADERSTYLE
350
304
  3
CTABLESTYLE
350
303
  3
CVIEWDETAILSTYLE
350
372
  3
CVIEWSECTIONSTYLE
350
373
  3
MSLTSCALE
350
2C4
  3
XCLIPFRAME
350
374
  0
XRECORD
  5
35B
102
{ACAD_REACTORS
330
35A
102
}
330
35A
100
AcDbXrecord
280
     1
290
     1
  0
XRECORD
  5
35D
102
{ACAD_REACTORS
330
35C
102
}
330
35C
100
AcDbXrecord
280
     1
290
     1
  0
XRECORD
  5
35F
102
{ACAD_REACTORS
330
35E
102
}
330
35E
100
AcDbXrecord
280
     1
290
     1
  0
XRECORD
  5
361
102
{ACAD_REACTORS
330
360
102
}
330
360
100
AcDbXrecord
280
     1
290
     1
  0
XRECORD
  5
363
102
{ACAD_REACTORS
330
362
102
}
330
362
100
AcDbXrecord
280
     1
290
     1
  0
XRECORD
  5
365
102
{ACAD_REACTORS
330
364
102
}
330
364
100
AcDbXrecord
280
     1
290
     1
  0
XRECORD
  5
367
102
{ACAD_REACTORS
330
366
102
}
330
366
100
AcDbXrecord
280
     1
290
     1
  0
XRECORD
  5
369
102
{ACAD_REACTORS
330
368
102
}
330
368
100
AcDbXrecord
280
     1
290
     1
  0
XRECORD
  5
36B
102
{ACAD_REACTORS
330
36A
102
}
330
36A
100
AcDbXrecord
280
     1
290
     1
  0
XRECORD
  5
36D
102
{ACAD_REACTORS
330
36C
102
}
330
36C
100
AcDbXrecord
280
     1
290
     1
  0
XRECORD
  5
36F
102
{ACAD_REACTORS
330
36E
102
}
330
36E
100
AcDbXrecord
280
     1
290
     1
  0
XRECORD
  5
371
102
{ACAD_REACTORS
330
370
102
}
330
370
100
AcDbXrecord
280
     1
290
     1
  0
SORTENTSTABLE
  5
310
102
{ACAD_REACTORS
330
30F
102
}
330
30F
100
AcDbSortentsTable
330
1F
331
311
  5
21C
331
312
  5
235
331
313
  5
311
331
314
  5
312
331
315
  5
313
331
316
  5
324
331
317
  5
325
331
318
  5
326
331
319
  5
327
331
31A
  5
328
331
31B
  5
329
331
31C
  5
32A
331
31D
  5
32B
331
31E
  5
32C
331
31F
  5
32D
331
320
  5
32E
331
321
  5
32F
331
322
  5
330
331
323
  5
331
331
324
  5
332
331
325
  5
333
331
326
  5
334
331
327
  5
335
331
328
  5
336
331
329
  5
337
331
32A
  5
338
331
32B
  5
339
331
32C
  5
33A
331
32D
  5
33B
331
32E
  5
316
331
32F
  5
317
331
330
  5
318
331
331
  5
319
331
332
  5
31A
331
333
  5
31B
331
334
  5
31C
331
335
  5
31D
331
336
  5
31E
331
337
  5
31F
331
338
  5
320
331
339
  5
321
331
33A
  5
322
331
33B
  5
323
331
340
  5
345
331
342
  5
348
331
343
  5
349
331
344
  5
34A
331
345
  5
34B
331
346
  5
340
331
347
  5
342
331
348
  5
343
331
349
  5
344
331
34A
  5
346
331
34B
  5
347
  0
ACDBDETAILVIEWSTYLE
  5
30B
102
{ACAD_XDICTIONARY
360
3AB
102
}
102
{ACAD_REACTORS
330
305
102
}
330
305
100
AcDbModelDocViewStyle
 70
     0
  3
Metric50
290
     0
100
AcDbDetailViewStyle
 70
     0
 71
     0
 90
        3
 71
     1
340
11
 62
   256
 40
5.0
340
0
 62
   256
 40
5.0
300

 40
0.0
280
     1
 71
     2
340
16
 90
       25
 62
   256
 71
     3
340
11
 62
   256
 40
5.0
 90
        0
 40
15.0
 90
        1
300
%<\AcVar ViewDetailId>% (%<\AcVar ViewScale \f "%sn">%)
 71
     4
340
16
 90
       25
 62
   256
340
16
 90
       25
 62
   256
280
     0
  0
GROUP
  5
359
102
{ACAD_REACTORS
330
D
102
}
330
D
100
AcDbGroup
300

 70
     0
 71
     1
340
73
  0
LAYOUT
  5
1E
102
{ACAD_REACTORS
330
1A
102
}
330
1A
100
AcDbPlotSettings
  1

  2
none_device
  4

  6

 40
0.0
 41
0.0
 42
0.0
 43
0.0
 44
0.0
 45
0.0
 46
0.0
 47
0.0
 48
0.0
 49
0.0
140
0.0
141
0.0
142
1.0
143
1.0
 70
   688
 72
     0
 73
     0
 74
     5
  7

 75
    16
147
1.0
 76
     0
 77
     2
 78
   300
148
0.0
149
0.0
100
AcDbLayout
  1
Layout1
 70
     1
 71
     1
 10
-0.5
 20
-0.5
 11
5.0
 21
5.0
 12
0.0
 22
0.0
 32
0.0
 14
-0.5
 24
-0.5
 34
-0.5
 15
5.0
 25
5.0
 35
5.0
146
0.0
 13
0.0
 23
0.0
 33
0.0
 16
1.0
 26
0.0
 36
0.0
 17
0.0
 27
1.0
 37
0.0
 76
     0
330
1B
  0
LAYOUT
  5
26
102
{ACAD_REACTORS
330
1A
102
}
330
1A
100
AcDbPlotSettings
  1

  2
none_device
  4

  6

 40
0.0
 41
0.0
 42
0.0
 43
0.0
 44
0.0
 45
0.0
 46
0.0
 47
0.0
 48
0.0
 49
0.0
140
0.0
141
0.0
142
1.0
143
1.0
 70
   688
 72
     0
 73
     0
 74
     5
  7

 75
    16
147
1.0
 76
     0
 77
     2
 78
   300
148
0.0
149
0.0
100
AcDbLayout
  1
Layout2
 70
     1
 71
     2
 10
0.0
 20
0.0
 11
0.0
 21
0.0
 12
0.0
 22
0.0
 32
0.0
 14
0.0
 24
0.0
 34
0.0
 15
0.0
 25
0.0
 35
0.0
146
0.0
 13
0.0
 23
0.0
 33
0.0
 16
1.0
 26
0.0
 36
0.0
 17
0.0
 27
1.0
 37
0.0
 76
     0
330
23
  0
LAYOUT
  5
22
102
{ACAD_REACTORS
330
1A
102
}
330
1A
100
AcDbPlotSettings
  1

  2
none_device
  4
Letter_(8.50_x_11.00_Inches)
  6

 40
6.349999999999999
 41
6.349999999999999
 42
6.350005
 43
6.350005
 44
215.9
 45
279.4
 46
0.0
 47
0.0
 48
0.0
 49
0.0
140
0.0
141
0.0
142
1.0
143
1.0
 70
  1712
 72
     0
 73
     0
 74
     0
  7

 75
     0
147
1.0
 76
     0
 77
     2
 78
   300
148
0.0
149
0.0
100
AcDbLayout
  1
Model
 70
     1
 71
     0
 10
-0.5
 20
-0.5
 11
5.0
 21
5.0
 12
0.0
 22
0.0
 32
0.0
 14
-0.5
 24
-0.5
 34
-0.5
 15
5.0
 25
5.0
 35
5.0
146
0.0
 13
0.0
 23
0.0
 33
0.0
 16
1.0
 26
0.0
 36
0.0
 17
0.0
 27
1.0
 37
0.0
 76
     0
330
1F
331
29
  0
MATERIAL
  5
45
102
{ACAD_XDICTIONARY
360
2F8
102
}
102
{ACAD_REACTORS
330
43
102
}
330
43
100
AcDbMaterial
  1
ByBlock
  0
MATERIAL
  5
44
102
{ACAD_XDICTIONARY
360
2F6
102
}
102
{ACAD_REACTORS
330
43
102
}
330
43
100
AcDbMaterial
  1
ByLayer
  0
MATERIAL
  5
46
102
{ACAD_XDICTIONARY
360
2FA
102
}
102
{ACAD_REACTORS
330
43
102
}
330
43
100
AcDbMaterial
  1
Global
  0
MLEADERSTYLE
  5
6C
102
{ACAD_REACTORS
330
6B
102
}
330
6B
100
AcDbMLeaderStyle
170
     2
171
     1
172
     0
 90
        2
 40
0.0
 41
0.0
173
     1
 91
-1056964608
340
14
 92
       -2
290
     1
 42
0.09
291
     1
 43
0.36
  3
Standard
 44
0.18
300

342
11
174
     1
178
     6
175
     1
176
     0
 93
-1056964608
 45
0.18
292
     0
297
     0
 46
0.18
 94
-1056964608
 47
1.0
 49
1.0
140
1.0
293
     1
141
0.0
294
     1
177
     0
142
1.0
295
     0
296
     0
143
0.125
1001
ACAD_MLEADERVER
1070
     2
  0
MLINESTYLE
  5
18
102
{ACAD_REACTORS
330
17
102
}
330
17
100
AcDbMlineStyle
  2
STANDARD
 70
     0
  3

 62
   256
 51
90.0
 52
90.0
 71
     2
 49
0.5
 62
   256
  6
BYLAYER
 49
-0.5
 62
   256
  6
BYLAYER
  0
ACDBPLACEHOLDER
  5
F
102
{ACAD_REACTORS
330
E
102
}
330
E
  0
SCALE
  5
48
102
{ACAD_REACTORS
330
47
102
}
330
47
100
AcDbScale
 70
     0
300
1:1
140
1.0
141
1.0
290
     1
  0
SCALE
  5
49
102
{ACAD_REACTORS
330
47
102
}
330
47
100
AcDbScale
 70
     0
300
1:2
140
1.0
141
2.0
290
     0
  0
SCALE
  5
4A
102
{ACAD_REACTORS
330
47
102
}
330
47
100
AcDbScale
 70
     0
300
1:4
140
1.0
141
4.0
290
     0
  0
SCALE
  5
4B
102
{ACAD_REACTORS
330
47
102
}
330
47
100
AcDbScale
 70
     0
300
1:5
140
1.0
141
5.0
290
     0
  0
SCALE
  5
4C
102
{ACAD_REACTORS
330
47
102
}
330
47
100
AcDbScale
 70
     0
300
1:8
140
1.0
141
8.0
290
     0
  0
SCALE
  5
4D
102
{ACAD_REACTORS
330
47
102
}
330
47
100
AcDbScale
 70
     0
300
1:10
140
1.0
141
10.0
290
     0
  0
SCALE
  5
4E
102
{ACAD_REACTORS
330
47
102
}
330
47
100
AcDbScale
 70
     0
300
1:16
140
1.0
141
16.0
290
     0
  0
SCALE
  5
4F
102
{ACAD_REACTORS
330
47
102
}
330
47
100
AcDbScale
 70
     0
300
1:20
140
1.0
141
20.0
290
     0
  0
SCALE
  5
50
102
{ACAD_REACTORS
330
47
102
}
330
47
100
AcDbScale
 70
     0
300
1:30
140
1.0
141
30.0
290
     0
  0
SCALE
  5
51
102
{ACAD_REACTORS
330
47
102
}
330
47
100
AcDbScale
 70
     0
300
1:40
140
1.0
141
40.0
290
     0
  0
SCALE
  5
52
102
{ACAD_REACTORS
330
47
102
}
330
47
100
AcDbScale
 70
     0
300
1:50
140
1.0
141
50.0
290
     0
  0
SCALE
  5
53
102
{ACAD_REACTORS
330
47
102
}
330
47
100
AcDbScale
 70
     0
300
1:100
140
1.0
141
100.0
290
     0
  0
SCALE
  5
54
102
{ACAD_REACTORS
330
47
102
}
330
47
100
AcDbScale
 70
     0
300
2:1
140
2.0
141
1.0
290
     0
  0
SCALE
  5
55
102
{ACAD_REACTORS
330
47
102
}
330
47
100
AcDbScale
 70
     0
300
4:1
140
4.0
141
1.0
290
     0
  0
SCALE
  5
56
102
{ACAD_REACTORS
330
47
102
}
330
47
100
AcDbScale
 70
     0
300
8:1
140
8.0
141
1.0
290
     0
  0
SCALE
  5
57
102
{ACAD_REACTORS
330
47
102
}
330
47
100
AcDbScale
 70
     0
300
10:1
140
10.0
141
1.0
290
     0
  0
SCALE
  5
58
102
{ACAD_REACTORS
330
47
102
}
330
47
100
AcDbScale
 70
     0
300
100:1
140
100.0
141
1.0
290
     0
  0
SCALE
  5
59
102
{ACAD_REACTORS
330
47
102
}
330
47
100
AcDbScale
 70
     0
300
1/128" = 1'-0"
140
0.007812
141
12.0
290
     0
  0
SCALE
  5
5A
102
{ACAD_REACTORS
330
47
102
}
330
47
100
AcDbScale
 70
     0
300
1/64" = 1'-0"
140
0.015625
141
12.0
290
     0
  0
SCALE
  5
5B
102
{ACAD_REACTORS
330
47
102
}
330
47
100
AcDbScale
 70
     0
300
1/32" = 1'-0"
140
0.03125
141
12.0
290
     0
  0
SCALE
  5
5C
102
{ACAD_REACTORS
330
47
102
}
330
47
100
AcDbScale
 70
     0
300
1/16" = 1'-0"
140
0.0625
141
12.0
290
     0
  0
SCALE
  5
5D
102
{ACAD_REACTORS
330
47
102
}
330
47
100
AcDbScale
 70
     0
300
3/32" = 1'-0"
140
0.09375
141
12.0
290
     0
  0
SCALE
  5
5E
102
{ACAD_REACTORS
330
47
102
}
330
47
100
AcDbScale
 70
     0
300
1/8" = 1'-0"
140
0.125
141
12.0
290
     0
  0
SCALE
  5
5F
102
{ACAD_REACTORS
330
47
102
}
330
47
100
AcDbScale
 70
     0
300
3/16" = 1'-0"
140
0.1875
141
12.0
290
     0
  0
SCALE
  5
60
102
{ACAD_REACTORS
330
47
102
}
330
47
100
AcDbScale
 70
     0
300
1/4" = 1'-0"
140
0.25
141
12.0
290
     0
  0
SCALE
  5
61
102
{ACAD_REACTORS
330
47
102
}
330
47
100
AcDbScale
 70
     0
300
3/8" = 1'-0"
140
0.375
141
12.0
290
     0
  0
SCALE
  5
62
102
{ACAD_REACTORS
330
47
102
}
330
47
100
AcDbScale
 70
     0
300
1/2" = 1'-0"
140
0.5
141
12.0
290
     0
  0
SCALE
  5
63
102
{ACAD_REACTORS
330
47
102
}
330
47
100
AcDbScale
 70
     0
300
3/4" = 1'-0"
140
0.75
141
12.0
290
     0
  0
SCALE
  5
64
102
{ACAD_REACTORS
330
47
102
}
330
47
100
AcDbScale
 70
     0
300
1" = 1'-0"
140
1.0
141
12.0
290
     0
  0
SCALE
  5
65
102
{ACAD_REACTORS
330
47
102
}
330
47
100
AcDbScale
 70
     0
300
1-1/2" = 1'-0"
140
1.5
141
12.0
290
     0
  0
SCALE
  5
66
102
{ACAD_REACTORS
330
47
102
}
330
47
100
AcDbScale
 70
     0
300
3" = 1'-0"
140
3.0
141
12.0
290
     0
  0
SCALE
  5
67
102
{ACAD_REACTORS
330
47
102
}
330
47
100
AcDbScale
 70
     0
300
6" = 1'-0"
140
6.0
141
12.0
290
     0
  0
SCALE
  5
68
102
{ACAD_REACTORS
330
47
102
}
330
47
100
AcDbScale
 70
     0
300
1'-0" = 1'-0"
140
12.0
141
12.0
290
     0
  0
ACDBSECTIONVIEWSTYLE
  5
30A
102
{ACAD_XDICTIONARY
360
3A9
102
}
102
{ACAD_REACTORS
330
306
102
}
330
306
100
AcDbModelDocViewStyle
 70
     0
  3
Metric50
290
     0
100
AcDbSectionViewStyle
 70
     0
 71
     0
 90
      102
 71
     1
340
11
 62
   256
 40
5.0
340
0
340
0
 62
   256
 40
5.0
300
I, O, Q, S, X, Z
 40
10.0
 90
        0
 40
2.5
 90
        0
 71
     2
340
16
 90
       25
 62
   256
340
16
 90
       50
 62
   256
 40
5.0
 40
2.5
 40
5.0
 71
     3
340
11
 62
   256
 40
5.0
 90
        0
 40
15.0
 90
        1
300
%<\AcVar ViewSectionStartId>%-%<\AcVar ViewSectionEndId>% (%<\AcVar ViewScale \f "%sn">%)
 71
     4
 62
   256
 62
   257
300
ANSI31
 40
1.0
 90
        0
290
     0
290
     0
 90
        6
 40
0.0
 40
1.570796326794896
 40
0.2617993877991494
 40
1.308996938995747
 40
-0.2617993877991494
 40
1.832595714594046
  0
TABLESTYLE
  5
6A
102
{ACAD_XDICTIONARY
360
2FC
102
}
102
{ACAD_REACTORS
330
69
102
}
330
69
100
AcDbTableStyle
  3
Standard
 70
     0
 71
     0
 40
0.06
 41
0.06
280
     0
281
     0
  7
Standard
140
0.18
170
     2
 62
     0
 63
     7
283
     0
274
    -2
284
     1
 64
     0
275
    -2
285
     1
 65
     0
276
    -2
286
     1
 66
     0
277
    -2
287
     1
 67
     0
278
    -2
288
     1
 68
     0
279
    -2
289
     1
 69
     0
  7
Standard
140
0.25
170
     5
 62
     0
 63
     7
283
     0
274
    -2
284
     1
 64
     0
275
    -2
285
     1
 65
     0
276
    -2
286
     1
 66
     0
277
    -2
287
     1
 67
     0
278
    -2
288
     1
 68
     0
279
    -2
289
     1
 69
     0
  7
Standard
140
0.18
170
     5
 62
     0
 63
     7
283
     0
274
    -2
284
     1
 64
     0
275
    -2
285
     1
 65
     0
276
    -2
286
     1
 66
     0
277
    -2
287
     1
 67
     0
278
    -2
288
     1
 68
     0
279
    -2
289
     1
 69
     0
  0
VISUALSTYLE
  5
2F
102
{ACAD_XDICTIONARY
360
380
102
}
102
{ACAD_REACTORS
330
2A
102
}
330
2A
100
AcDbVisualStyle
  2

 70
     4
 71
     0
 72
     2
 73
     0
 90
        0
 40
-0.6
 41
-30.0
 62
     5
 63
     7
421
 16777215
 74
     1
 91
        4
 64
     7
 65
   257
 75
     1
175
     1
 42
1.0
 92
        0
 66
   257
 43
1.0
 76
     1
 77
     6
 78
     2
 67
     7
 79
     5
170
     0
171
     0
290
     0
174
     0
 93
        1
 44
0.0
173
     0
291
     0
 45
0.0
1001
ACAD
1000
AcDbSavedByObjectVersion
1070
     0
  0
VISUALSTYLE
  5
32
102
{ACAD_XDICTIONARY
360
386
102
}
102
{ACAD_REACTORS
330
2A
102
}
330
2A
100
AcDbVisualStyle
  2

 70
     7
 71
     1
 72
     0
 73
     1
 90
        0
 40
-0.6
 41
-30.0
 62
     5
 63
     7
421
 16777215
 74
     0
 91
        4
 64
     7
 65
   257
 75
     1
175
     1
 42
1.0
 92
        8
 66
     7
 43
1.0
 76
     1
 77
     6
 78
     2
 67
     7
 79
     5
170
     0
171
     0
290
     0
174
     0
 93
        1
 44
0.0
173
     0
291
     1
 45
0.0
1001
ACAD
1000
AcDbSavedByObjectVersion
1070
     0
  0
VISUALSTYLE
  5
36
102
{ACAD_XDICTIONARY
360
38E
102
}
102
{ACAD_REACTORS
330
2A
102
}
330
2A
100
AcDbVisualStyle
  2

 70
    12
 71
     2
 72
     2
 73
     0
 90
        0
 40
-0.6
 41
-30.0
 62
     5
 63
     7
421
 16777215
 74
     1
 91
        4
 64
     7
 65
   257
 75
     1
175
     1
 42
1.0
 92
        8
 66
     7
 43
1.0
 76
     1
 77
     6
 78
     2
 67
     7
 79
     5
170
     0
171
     0
290
     0
174
     0
 93
        1
 44
50.0
173
     0
291
     1
 45
0.0
1001
ACAD
1000
AcDbSavedByObjectVersion
1070
     0
  0
VISUALSTYLE
  5
3A
102
{ACAD_XDICTIONARY
360
396
102
}
102
{ACAD_REACTORS
330
2A
102
}
330
2A
100
AcDbVisualStyle
  2

 70
    16
 71
     2
 72
     2
 73
     3
 90
        0
 40
-0.6
 41
-30.0
 62
     5
 63
     8
421
  8421504
 74
     1
 91
        4
 64
     7
 65
   257
 75
     1
175
     1
 42
1.0
 92
        8
 66
     8
424
  8421504
 43
1.0
 76
     1
 77
     6
 78
     2
 67
     7
 79
     5
170
     0
171
     0
290
     0
174
     0
 93
        1
 44
0.0
173
     0
291
     1
 45
0.0
1001
ACAD
1000
AcDbSavedByObjectVersion
1070
     0
  0
VISUALSTYLE
  5
34
102
{ACAD_XDICTIONARY
360
38A
102
}
102
{ACAD_REACTORS
330
2A
102
}
330
2A
100
AcDbVisualStyle
  2

 70
     9
 71
     3
 72
     2
 73
     0
 90
        0
 40
-0.6
 41
-30.0
 62
     5
 63
     7
421
 16777215
 74
     2
 91
        2
 64
     7
 65
   257
 75
     1
175
     1
 42
179.0
 92
        8
 66
     7
 43
1.0
 76
     1
 77
     6
 78
     2
 67
     7
 79
     3
170
     0
171
     0
290
     0
174
     0
 93
        1
 44
0.0
173
     0
291
     0
 45
0.0
1001
ACAD
1000
AcDbSavedByObjectVersion
1070
     0
  0
VISUALSTYLE
  5
35
102
{ACAD_XDICTIONARY
360
38C
102
}
102
{ACAD_REACTORS
330
2A
102
}
330
2A
100
AcDbVisualStyle
  2

 70
    11
 71
     2
 72
     2
 73
     0
 90
        0
 40
-0.6
 41
-30.0
 62
     5
 63
     7
421
 16777215
 74
     1
 91
        4
 64
     7
 65
   257
 75
     1
175
     1
 42
1.0
 92
        8
 66
     7
 43
1.0
 76
     1
 77
     6
 78
     2
 67
     7
 79
     5
170
     0
171
     0
290
     0
174
     0
 93
        1
 44
-50.0
173
     0
291
     1
 45
0.0
1001
ACAD
1000
AcDbSavedByObjectVersion
1070
     0
  0
VISUALSTYLE
  5
3D
102
{ACAD_XDICTIONARY
360
39C
102
}
102
{ACAD_REACTORS
330
2A
102
}
330
2A
100
AcDbVisualStyle
  2

 70
    22
 71
     2
 72
     2
 73
     0
 90
        0
 40
-0.6
 41
-30.0
 62
     5
 63
     7
421
 16777215
 74
     1
 91
        4
 64
     7
 65
   257
 75
     1
175
     1
 42
1.0
 92
        8
 66
     7
 43
1.0
 76
     1
 77
     6
 78
     2
 67
     7
 79
     5
170
     0
171
     0
290
     0
174
     0
 93
        1
 44
0.0
173
     0
291
     1
 45
0.0
1001
ACAD
1000
AcDbSavedByObjectVersion
1070
     0
  0
VISUALSTYLE
  5
39
102
{ACAD_XDICTIONARY
360
394
102
}
102
{ACAD_REACTORS
330
2A
102
}
330
2A
100
AcDbVisualStyle
  2

 70
    15
 71
     2
 72
     2
 73
     0
 90
        0
 40
-0.6
 41
-30.0
 62
     5
 63
     7
421
 16777215
 74
     1
 91
        4
 64
     7
 65
   257
 75
     1
175
     1
 42
1.0
 92
        8
 66
     7
 43
1.0
 76
     1
 77
     6
 78
     2
 67
     7
 79
     5
170
     0
171
     0
290
     0
174
     0
 93
        1
 44
0.0
173
     0
291
     1
 45
0.0
1001
ACAD
1000
AcDbSavedByObjectVersion
1070
     0
  0
VISUALSTYLE
  5
2B
102
{ACAD_XDICTIONARY
360
378
102
}
102
{ACAD_REACTORS
330
2A
102
}
330
2A
100
AcDbVisualStyle
  2

 70
     0
 71
     2
 72
     1
 73
     1
 90
        2
 40
-0.6
 41
30.0
 62
     5
 63
     7
421
 16777215
 74
     0
 91
        0
 64
     7
 65
   257
 75
     1
175
     1
 42
1.0
 92
        8
 66
     7
 43
1.0
 76
     1
 77
     6
 78
     2
 67
     7
 79
     5
170
     0
171
     0
290
     0
174
     0
 93
       13
 44
0.0
173
     0
291
     1
 45
0.0
1001
ACAD
1000
AcDbSavedByObjectVersion
1070
     0
  0
VISUALSTYLE
  5
2C
102
{ACAD_XDICTIONARY
360
37A
102
}
102
{ACAD_REACTORS
330
2A
102
}
330
2A
100
AcDbVisualStyle
  2

 70
     1
 71
     2
 72
     1
 73
     1
 90
        2
 40
-0.6
 41
30.0
 62
     5
 63
     7
421
 16777215
 74
     1
 91
        0
 64
     7
 65
   257
 75
     1
175
     1
 42
1.0
 92
        0
 66
   257
 43
1.0
 76
     1
 77
     6
 78
     2
 67
     7
 79
     5
170
     0
171
     0
290
     0
174
     0
 93
       13
 44
0.0
173
     0
291
     1
 45
0.0
1001
ACAD
1000
AcDbSavedByObjectVersion
1070
     0
  0
VISUALSTYLE
  5
2D
102
{ACAD_XDICTIONARY
360
37C
102
}
102
{ACAD_REACTORS
330
2A
102
}
330
2A
100
AcDbVisualStyle
  2

 70
     2
 71
     2
 72
     2
 73
     1
 90
        2
 40
-0.6
 41
30.0
 62
     5
 63
     7
421
 16777215
 74
     0
 91
        0
 64
     7
 65
   257
 75
     1
175
     1
 42
1.0
 92
        0
 66
     7
 43
1.0
 76
     1
 77
     6
 78
     2
 67
     7
 79
     5
170
     0
171
     0
290
     0
174
     0
 93
       13
 44
0.0
173
     0
291
     1
 45
0.0
1001
ACAD
1000
AcDbSavedByObjectVersion
1070
     0
  0
VISUALSTYLE
  5
2E
102
{ACAD_XDICTIONARY
360
37E
102
}
102
{ACAD_REACTORS
330
2A
102
}
330
2A
100
AcDbVisualStyle
  2

 70
     3
 71
     2
 72
     2
 73
     1
 90
        2
 40
-0.6
 41
30.0
 62
     5
 63
     7
421
 16777215
 74
     1
 91
        0
 64
     7
 65
   257
 75
     1
175
     1
 42
1.0
 92
        0
 66
   257
 43
1.0
 76
     1
 77
     6
 78
     2
 67
     7
 79
     5
170
     0
171
     0
290
     0
174
     0
 93
       13
 44
0.0
173
     0
291
     1
 45
0.0
1001
ACAD
1000
AcDbSavedByObjectVersion
1070
     0
  0
VISUALSTYLE
  5
31
102
{ACAD_XDICTIONARY
360
384
102
}
102
{ACAD_REACTORS
330
2A
102
}
330
2A
100
AcDbVisualStyle
  2

 70
     6
 71
     1
 72
     2
 73
     2
 90
        0
 40
-0.6
 41
-30.0
 62
     5
 63
     7
421
 16777215
 74
     2
 91
        2
 64
     7
 65
   257
 75
     2
175
     1
 42
40.0
 92
        0
 66
   257
 43
1.0
 76
     1
 77
     6
 78
     2
 67
     7
 79
     3
170
     0
171
     0
290
     0
174
     0
 93
        1
 44
0.0
173
     0
291
     0
 45
0.0
1001
ACAD
1000
AcDbSavedByObjectVersion
1070
     0
  0
VISUALSTYLE
  5
3B
102
{ACAD_XDICTIONARY
360
398
102
}
102
{ACAD_REACTORS
330
2A
102
}
330
2A
100
AcDbVisualStyle
  2

 70
    20
 71
     2
 72
     2
 73
     0
 90
        0
 40
-0.6
 41
-30.0
 62
     5
 63
     7
421
 16777215
 74
     1
 91
        4
 64
     7
 65
   257
 75
     1
175
     1
 42
1.0
 92
       10
 66
     7
 43
1.0
 76
     1
 77
     6
 78
     2
 67
     7
 79
     5
170
     0
171
     0
290
     0
174
     0
 93
        1
 44
0.0
173
     0
291
     1
 45
0.0
1001
ACAD
1000
AcDbSavedByObjectVersion
1070
     0
  0
VISUALSTYLE
  5
38
102
{ACAD_XDICTIONARY
360
392
102
}
102
{ACAD_REACTORS
330
2A
102
}
330
2A
100
AcDbVisualStyle
  2

 70
    14
 71
     2
 72
     2
 73
     0
 90
        0
 40
-0.6
 41
-30.0
 62
     5
 63
     7
421
 16777215
 74
     1
 91
        4
 64
     7
 65
   257
 75
     7
175
     7
 42
1.0
 92
        8
 66
     7
 43
1.0
 76
     1
 77
     6
 78
     2
 67
     7
 79
     5
170
     0
171
     0
290
     0
174
     0
 93
        1
 44
0.0
173
     0
291
     1
 45
0.0
1001
ACAD
1000
AcDbSavedByObjectVersion
1070
     0
  0
VISUALSTYLE
  5
3C
102
{ACAD_XDICTIONARY
360
39A
102
}
102
{ACAD_REACTORS
330
2A
102
}
330
2A
100
AcDbVisualStyle
  2

 70
    21
 71
     2
 72
     2
 73
     0
 90
        0
 40
-0.6
 41
-30.0
 62
     5
 63
     7
421
 16777215
 74
     1
 91
        4
 64
     7
 65
   257
 75
     1
175
     1
 42
1.0
 92
        9
 66
     7
 43
1.0
 76
     1
 77
     6
 78
     2
 67
     7
 79
     5
170
     0
171
     0
290
     0
174
     0
 93
        1
 44
0.0
173
     0
291
     1
 45
0.0
1001
ACAD
1000
AcDbSavedByObjectVersion
1070
     0
  0
VISUALSTYLE
  5
33
102
{ACAD_XDICTIONARY
360
388
102
}
102
{ACAD_REACTORS
330
2A
102
}
330
2A
100
AcDbVisualStyle
  2

 70
     8
 71
     2
 72
     3
 73
     0
 90
        2
 40
-0.6
 41
30.0
 62
     5
 63
     7
421
 16777215
 74
     0
 91
        0
 64
     7
 65
   257
 75
     1
175
     1
 42
1.0
 92
        8
 66
   257
 43
1.0
 76
     1
 77
     6
 78
     2
 67
     7
 79
     3
170
     0
171
     0
290
     0
174
     0
 93
       13
 44
0.0
173
     0
291
     0
 45
0.0
1001
ACAD
1000
AcDbSavedByObjectVersion
1070
     0
  0
VISUALSTYLE
  5
42
102
{ACAD_XDICTIONARY
360
3A6
102
}
102
{ACAD_REACTORS
330
2A
102
}
330
2A
100
AcDbVisualStyle
  2

 70
    27
 71
     2
 72
     2
 73
     1
 90
        2
 40
-0.6
 41
30.0
 62
     5
 63
     7
421
 16777215
 74
     0
 91
        4
 64
     7
 65
   257
 75
     1
175
     1
 42
1.0
 92
        8
 66
   257
 43
1.0
 76
     1
 77
     6
 78
     2
 67
     8
425
  7895160
 79
     3
170
     0
171
     0
290
     0
174
     0
 93
        5
 44
0.0
173
     0
291
     0
 45
0.0
1001
ACAD
1000
AcDbSavedByObjectVersion
1070
     0
  0
VISUALSTYLE
  5
41
102
{ACAD_XDICTIONARY
360
3A4
102
}
102
{ACAD_REACTORS
330
2A
102
}
330
2A
100
AcDbVisualStyle
  2

 70
    26
 71
     2
 72
     2
 73
     1
 90
        2
 40
-0.6
 41
30.0
 62
     5
 63
     7
421
 16777215
 74
     1
 91
       10
 64
     7
 65
   257
 75
     2
175
     1
 42
1.0
 92
        8
 66
   257
 43
1.0
 76
     1
 77
     6
 78
     2
 67
     7
 79
     3
170
     0
171
     0
290
     0
174
     0
 93
        5
 44
0.0
173
     0
291
     0
 45
0.0
1001
ACAD
1000
AcDbSavedByObjectVersion
1070
     0
  0
VISUALSTYLE
  5
3E
102
{ACAD_XDICTIONARY
360
39E
102
}
102
{ACAD_REACTORS
330
2A
102
}
330
2A
100
AcDbVisualStyle
  2

 70
    23
 71
     2
 72
     2
 73
     3
 90
        0
 40
-0.6
 41
-30.0
 62
     5
 63
     7
421
 16777215
 74
     2
 91
        2
 64
     7
 65
     7
 75
     1
175
     1
 42
40.0
 92
        8
 66
     7
 43
1.0
 76
     1
 77
     6
 78
     2
 67
     7
 79
     3
170
     0
171
     0
290
     0
174
     0
 93
        1
 44
0.0
173
     0
291
     0
 45
0.0
1001
ACAD
1000
AcDbSavedByObjectVersion
1070
     0
  0
VISUALSTYLE
  5
3F
102
{ACAD_XDICTIONARY
360
3A0
102
}
102
{ACAD_REACTORS
330
2A
102
}
330
2A
100
AcDbVisualStyle
  2

 70
    24
 71
     1
 72
     2
 73
     2
 90
        0
 40
-0.6
 41
-30.0
 62
     5
 63
     7
421
 16777215
 74
     2
 91
        2
 64
     7
 65
     7
 75
     1
175
     1
 42
40.0
 92
       11
 66
     7
 43
1.0
 76
     1
 77
     6
 78
     2
 67
     7
 79
     6
170
     0
171
     0
290
     0
174
     0
 93
        1
 44
0.0
173
     0
291
     0
 45
0.0
1001
ACAD
1000
AcDbSavedByObjectVersion
1070
     0
  0
VISUALSTYLE
  5
37
102
{ACAD_XDICTIONARY
360
390
102
}
102
{ACAD_REACTORS
330
2A
102
}
330
2A
100
AcDbVisualStyle
  2

 70
    13
 71
     2
 72
     2
 73
     0
 90
        0
 40
-0.6
 41
-30.0
 62
     5
 63
     7
421
 16777215
 74
     1
 91
        4
 64
     7
 65
   257
 75
     1
175
     1
 42
1.0
 92
       12
 66
     7
 43
1.0
 76
     1
 77
     6
 78
     2
 67
     7
 79
     5
170
     0
171
     0
290
     0
174
     0
 93
        1
 44
0.0
173
     0
291
     1
 45
0.0
1001
ACAD
1000
AcDbSavedByObjectVersion
1070
     0
  0
VISUALSTYLE
  5
30
102
{ACAD_XDICTIONARY
360
382
102
}
102
{ACAD_REACTORS
330
2A
102
}
330
2A
100
AcDbVisualStyle
  2

 70
     5
 71
     0
 72
     2
 73
     0
 90
        0
 40
-0.6
 41
-30.0
 62
     5
 63
     7
421
 16777215
 74
     1
 91
        4
 64
     7
 65
   257
 75
     1
175
     1
 42
1.0
 92
        0
 66
   257
 43
1.0
 76
     1
 77
     6
 78
     2
 67
     7
 79
     3
170
     0
171
     0
290
     0
174
     0
 93
        1
 44
0.0
173
     0
291
     0
 45
0.0
1001
ACAD
1000
AcDbSavedByObjectVersion
1070
     0
  0
VISUALSTYLE
  5
40
102
{ACAD_XDICTIONARY
360
3A2
102
}
102
{ACAD_REACTORS
330
2A
102
}
330
2A
100
AcDbVisualStyle
  2

 70
    25
 71
     2
 72
     2
 73
     1
 90
        1
 40
0.5
 41
-30.0
 62
     5
 63
     7
421
 16777215
 74
     1
 91
        0
 64
     7
 65
   257
 75
     1
175
     1
 42
1.0
 92
        8
 66
     7
 43
1.0
 76
     1
 77
     6
 78
     2
 67
     7
 79
     3
170
     0
171
     0
290
     0
174
     0
 93
       13
 44
0.0
173
     0
291
     0
 45
0.0
1001
ACAD
1000
AcDbSavedByObjectVersion
1070
     0
  0
DICTIONARYVAR
  5
2C3
102
{ACAD_REACTORS
330
2C2
102
}
330
2C2
100
DictionaryVariables
280
     0
  1
1:1
  0
DICTIONARYVAR
  5
304
102
{ACAD_REACTORS
330
2C2
102
}
330
2C2
100
DictionaryVariables
280
     0
  1
STANDARD
  0
DICTIONARYVAR
  5
303
102
{ACAD_REACTORS
330
2C2
102
}
330
2C2
100
DictionaryVariables
280
     0
  1
STANDARD
  0
DICTIONARYVAR
  5
372
102
{ACAD_REACTORS
330
2C2
102
}
330
2C2
100
DictionaryVariables
280
     0
  1
Metric50
  0
DICTIONARYVAR
  5
373
102
{ACAD_REACTORS
330
2C2
102
}
330
2C2
100
DictionaryVariables
280
     0
  1
Metric50
  0
DICTIONARYVAR
  5
2C4
102
{ACAD_REACTORS
330
2C2
102
}
330
2C2
100
DictionaryVariables
280
     0
  1
1
  0
DICTIONARYVAR
  5
374
102
{ACAD_REACTORS
330
2C2
102
}
330
2C2
100
DictionaryVariables
280
     0
  1
2
  0
DICTIONARY
  5
3AB
330
30B
100
AcDbDictionary
280
     1
281
     1
  3
ACAD_XREC_ROUNDTRIP
360
3AC
  0
DICTIONARY
  5
2F8
330
45
100
AcDbDictionary
280
     1
281
     1
  3
ACAD_XREC_ROUNDTRIP
360
2F9
  0
DICTIONARY
  5
2F6
330
44
100
AcDbDictionary
280
     1
281
     1
  3
ACAD_XREC_ROUNDTRIP
360
2F7
  0
DICTIONARY
  5
2FA
330
46
100
AcDbDictionary
280
     1
281
     1
  3
ACAD_XREC_ROUNDTRIP
360
2FB
  0
DICTIONARY
  5
3A9
330
30A
100
AcDbDictionary
280
     1
281
     1
  3
ACAD_XREC_ROUNDTRIP
360
3AA
  0
DICTIONARY
  5
2FC
330
6A
100
AcDbDictionary
280
     1
281
     1
  3
ACAD_ROUNDTRIP_2008_TABLESTYLE_CELLSTYLEMAP
360
376
  3
ACAD_XREC_ROUNDTRIP
360
3A8
  0
DICTIONARY
  5
380
330
2F
100
AcDbDictionary
280
     1
281
     1
  3
ACAD_XREC_ROUNDTRIP
360
381
  0
DICTIONARY
  5
386
330
32
100
AcDbDictionary
280
     1
281
     1
  3
ACAD_XREC_ROUNDTRIP
360
387
  0
DICTIONARY
  5
38E
330
36
100
AcDbDictionary
280
     1
281
     1
  3
ACAD_XREC_ROUNDTRIP
360
38F
  0
DICTIONARY
  5
396
330
3A
100
AcDbDictionary
280
     1
281
     1
  3
ACAD_XREC_ROUNDTRIP
360
397
  0
DICTIONARY
  5
38A
330
34
100
AcDbDictionary
280
     1
281
     1
  3
ACAD_XREC_ROUNDTRIP
360
38B
  0
DICTIONARY
  5
38C
330
35
100
AcDbDictionary
280
     1
281
     1
  3
ACAD_XREC_ROUNDTRIP
360
38D
  0
DICTIONARY
  5
39C
330
3D
100
AcDbDictionary
280
     1
281
     1
  3
ACAD_XREC_ROUNDTRIP
360
39D
  0
DICTIONARY
  5
394
330
39
100
AcDbDictionary
280
     1
281
     1
  3
ACAD_XREC_ROUNDTRIP
360
395
  0
DICTIONARY
  5
378
330
2B
100
AcDbDictionary
280
     1
281
     1
  3
ACAD_XREC_ROUNDTRIP
360
379
  0
DICTIONARY
  5
37A
330
2C
100
AcDbDictionary
280
     1
281
     1
  3
ACAD_XREC_ROUNDTRIP
360
37B
  0
DICTIONARY
  5
37C
330
2D
100
AcDbDictionary
280
     1
281
     1
  3
ACAD_XREC_ROUNDTRIP
360
37D
  0
DICTIONARY
  5
37E
330
2E
100
AcDbDictionary
280
     1
281
     1
  3
ACAD_XREC_ROUNDTRIP
360
37F
  0
DICTIONARY
  5
384
330
31
100
AcDbDictionary
280
     1
281
     1
  3
ACAD_XREC_ROUNDTRIP
360
385
  0
DICTIONARY
  5
398
330
3B
100
AcDbDictionary
280
     1
281
     1
  3
ACAD_XREC_ROUNDTRIP
360
399
  0
DICTIONARY
  5
392
330
38
100
AcDbDictionary
280
     1
281
     1
  3
ACAD_XREC_ROUNDTRIP
360
393
  0
DICTIONARY
  5
39A
330
3C
100
AcDbDictionary
280
     1
281
     1
  3
ACAD_XREC_ROUNDTRIP
360
39B
  0
DICTIONARY
  5
388
330
33
100
AcDbDictionary
280
     1
281
     1
  3
ACAD_XREC_ROUNDTRIP
360
389
  0
DICTIONARY
  5
3A6
330
42
100
AcDbDictionary
280
     1
281
     1
  3
ACAD_XREC_ROUNDTRIP
360
3A7
  0
DICTIONARY
  5
3A4
330
41
100
AcDbDictionary
280
     1
281
     1
  3
ACAD_XREC_ROUNDTRIP
360
3A5
  0
DICTIONARY
  5
39E
330
3E
100
AcDbDictionary
280
     1
281
     1
  3
ACAD_XREC_ROUNDTRIP
360
39F
  0
DICTIONARY
  5
3A0
330
3F
100
AcDbDictionary
280
     1
281
     1
  3
ACAD_XREC_ROUNDTRIP
360
3A1
  0
DICTIONARY
  5
390
330
37
100
AcDbDictionary
280
     1
281
     1
  3
ACAD_XREC_ROUNDTRIP
360
391
  0
DICTIONARY
  5
382
330
30
100
AcDbDictionary
280
     1
281
     1
  3
ACAD_XREC_ROUNDTRIP
360
383
  0
DICTIONARY
  5
3A2
330
40
100
AcDbDictionary
280
     1
281
     1
  3
ACAD_XREC_ROUNDTRIP
360
3A3
  0
XRECORD
  5
3AC
102
{ACAD_REACTORS
330
3AB
102
}
330
3AB
100
AcDbXrecord
280
     1
102
DISPLAYNAME
  1
Metric50
102
FLAGS
 90
        0
  0
XRECORD
  5
2F9
102
{ACAD_REACTORS
330
2F8
102
}
330
2F8
100
AcDbXrecord
280
     1
102
MATERIAL
148
0.0
149
0.0
149
0.0
 93
        0
 94
      127
282
     0
 72
     1
 77
     1
171
     1
175
     1
179
     1
273
     0
  0
XRECORD
  5
2F7
102
{ACAD_REACTORS
330
2F6
102
}
330
2F6
100
AcDbXrecord
280
     1
102
MATERIAL
148
0.0
149
0.0
149
0.0
 93
        0
 94
      127
282
     0
 72
     1
 77
     1
171
     1
175
     1
179
     1
273
     0
  0
XRECORD
  5
2FB
102
{ACAD_REACTORS
330
2FA
102
}
330
2FA
100
AcDbXrecord
280
     1
102
MATERIAL
148
0.0
149
0.0
149
0.0
 93
        0
 94
      127
282
     0
 72
     1
 77
     1
171
     1
175
     1
179
     1
273
     0
  0
XRECORD
  5
3AA
102
{ACAD_REACTORS
330
3A9
102
}
330
3A9
100
AcDbXrecord
280
     1
102
DISPLAYNAME
  1
Metric50
102
FLAGS
 90
        0
  0
CELLSTYLEMAP
  5
376
102
{ACAD_REACTORS
330
2FC
102
}
330
2FC
100
AcDbCellStyleMap
 90
        3
300
CELLSTYLE
  1
TABLEFORMAT_BEGIN
 90
        5
170
     1
 91
        0
 92
    32768
 62
   257
 93
        1
300
CONTENTFORMAT
  1
CONTENTFORMAT_BEGIN
 90
        0
 91
        0
 92
        4
 93
        0
300

 40
0.0
140
1.0
 94
        5
 62
     0
340
11
144
0.25
309
CONTENTFORMAT_END
171
     1
301
MARGIN
  1
CELLMARGIN_BEGIN
 40
0.06
 40
0.06
 40
0.06
 40
0.06
 40
0.18
 40
0.18
309
CELLMARGIN_END
 94
        6
 95
        1
302
GRIDFORMAT
  1
GRIDFORMAT_BEGIN
 90
        0
 91
        1
 62
     0
 92
       -2
340
14
 93
        0
 40
0.045
309
GRIDFORMAT_END
 95
        2
302
GRIDFORMAT
  1
GRIDFORMAT_BEGIN
 90
        0
 91
        1
 62
     0
 92
       -2
340
14
 93
        0
 40
0.045
309
GRIDFORMAT_END
 95
        4
302
GRIDFORMAT
  1
GRIDFORMAT_BEGIN
 90
        0
 91
        1
 62
     0
 92
       -2
340
14
 93
        0
 40
0.045
309
GRIDFORMAT_END
 95
        8
302
GRIDFORMAT
  1
GRIDFORMAT_BEGIN
 90
        0
 91
        1
 62
     0
 92
       -2
340
14
 93
        0
 40
0.045
309
GRIDFORMAT_END
 95
       16
302
GRIDFORMAT
  1
GRIDFORMAT_BEGIN
 90
        0
 91
        1
 62
     0
 92
       -2
340
14
 93
        0
 40
0.045
309
GRIDFORMAT_END
 95
       32
302
GRIDFORMAT
  1
GRIDFORMAT_BEGIN
 90
        0
 91
        1
 62
     0
 92
       -2
340
14
 93
        0
 40
0.045
309
GRIDFORMAT_END
309
TABLEFORMAT_END
  1
CELLSTYLE_BEGIN
 90
        1
 91
        1
300
_TITLE
309
CELLSTYLE_END
300
CELLSTYLE
  1
TABLEFORMAT_BEGIN
 90
        5
170
     1
 91
        0
 92
        0
 62
   257
 93
        1
300
CONTENTFORMAT
  1
CONTENTFORMAT_BEGIN
 90
        0
 91
        0
 92
        4
 93
        0
300

 40
0.0
140
1.0
 94
        5
 62
     0
340
11
144
0.18
309
CONTENTFORMAT_END
171
     1
301
MARGIN
  1
CELLMARGIN_BEGIN
 40
0.06
 40
0.06
 40
0.06
 40
0.06
 40
0.18
 40
0.18
309
CELLMARGIN_END
 94
        6
 95
        1
302
GRIDFORMAT
  1
GRIDFORMAT_BEGIN
 90
        0
 91
        1
 62
     0
 92
       -2
340
14
 93
        0
 40
0.045
309
GRIDFORMAT_END
 95
        2
302
GRIDFORMAT
  1
GRIDFORMAT_BEGIN
 90
        0
 91
        1
 62
     0
 92
       -2
340
14
 93
        0
 40
0.045
309
GRIDFORMAT_END
 95
        4
302
GRIDFORMAT
  1
GRIDFORMAT_BEGIN
 90
        0
 91
        1
 62
     0
 92
       -2
340
14
 93
        0
 40
0.045
309
GRIDFORMAT_END
 95
        8
302
GRIDFORMAT
  1
GRIDFORMAT_BEGIN
 90
        0
 91
        1
 62
     0
 92
       -2
340
14
 93
        0
 40
0.045
309
GRIDFORMAT_END
 95
       16
302
GRIDFORMAT
  1
GRIDFORMAT_BEGIN
 90
        0
 91
        1
 62
     0
 92
       -2
340
14
 93
        0
 40
0.045
309
GRIDFORMAT_END
 95
       32
302
GRIDFORMAT
  1
GRIDFORMAT_BEGIN
 90
        0
 91
        1
 62
     0
 92
       -2
340
14
 93
        0
 40
0.045
309
GRIDFORMAT_END
309
TABLEFORMAT_END
  1
CELLSTYLE_BEGIN
 90
        2
 91
        1
300
_HEADER
309
CELLSTYLE_END
300
CELLSTYLE
  1
TABLEFORMAT_BEGIN
 90
        5
170
     1
 91
        0
 92
        0
 62
   257
 93
        1
300
CONTENTFORMAT
  1
CONTENTFORMAT_BEGIN
 90
        0
 91
        0
 92
        4
 93
        0
300

 40
0.0
140
1.0
 94
        2
 62
     0
340
11
144
0.18
309
CONTENTFORMAT_END
171
     1
301
MARGIN
  1
CELLMARGIN_BEGIN
 40
0.06
 40
0.06
 40
0.06
 40
0.06
 40
0.18
 40
0.18
309
CELLMARGIN_END
 94
        6
 95
        1
302
GRIDFORMAT
  1
GRIDFORMAT_BEGIN
 90
        0
 91
        1
 62
     0
 92
       -2
340
14
 93
        0
 40
0.045
309
GRIDFORMAT_END
 95
        2
302
GRIDFORMAT
  1
GRIDFORMAT_BEGIN
 90
        0
 91
        1
 62
     0
 92
       -2
340
14
 93
        0
 40
0.045
309
GRIDFORMAT_END
 95
        4
302
GRIDFORMAT
  1
GRIDFORMAT_BEGIN
 90
        0
 91
        1
 62
     0
 92
       -2
340
14
 93
        0
 40
0.045
309
GRIDFORMAT_END
 95
        8
302
GRIDFORMAT
  1
GRIDFORMAT_BEGIN
 90
        0
 91
        1
 62
     0
 92
       -2
340
14
 93
        0
 40
0.045
309
GRIDFORMAT_END
 95
       16
302
GRIDFORMAT
  1
GRIDFORMAT_BEGIN
 90
        0
 91
        1
 62
     0
 92
       -2
340
14
 93
        0
 40
0.045
309
GRIDFORMAT_END
 95
       32
302
GRIDFORMAT
  1
GRIDFORMAT_BEGIN
 90
        0
 91
        1
 62
     0
 92
       -2
340
14
 93
        0
 40
0.045
309
GRIDFORMAT_END
309
TABLEFORMAT_END
  1
CELLSTYLE_BEGIN
 90
        3
 91
        2
300
_DATA
309
CELLSTYLE_END
  0
XRECORD
  5
3A8
102
{ACAD_REACTORS
330
2FC
102
}
330
2FC
100
AcDbXrecord
280
     1
102
ACAD_ROUNDTRIP_PRE2007_TABLESTYLE
 90
        4
 91
        0
  1

 92
        4
 93
        0
  2

 94
        4
 95
        0
  3

  0
XRECORD
  5
381
102
{ACAD_REACTORS
330
380
102
}
330
380
100
AcDbXrecord
280
     1
102
RTVSPost2010Prop28
280
     1
102
RTVSPost2010PropOp28
 70
     1
102
RTVSPost2010Prop29
280
     1
102
RTVSPost2010PropOp29
 70
     1
102
RTVSPost2010Prop30
280
     0
102
RTVSPost2010PropOp30
 70
     1
102
RTVSPost2010Prop31
280
     0
102
RTVSPost2010PropOp31
 70
     1
102
RTVSPost2010Prop32
280
     0
102
RTVSPost2010PropOp32
 70
     1
102
RTVSPost2010Prop33
280
     0
102
RTVSPost2010PropOp33
 70
     1
102
RTVSPost2010Prop34
280
     0
102
RTVSPost2010PropOp34
 70
     1
102
RTVSPost2010Prop35
280
     0
102
RTVSPost2010PropOp35
 70
     1
102
RTVSPost2010Prop36
280
     0
102
RTVSPost2010PropOp36
 70
     1
102
RTVSPost2010Prop37
 90
       50
102
RTVSPost2010PropOp37
 70
     1
102
RTVSPost2010Prop38
140
0.0
102
RTVSPost2010PropOp38
 70
     1
102
RTVSPost2010Prop39
140
1.0
102
RTVSPost2010PropOp39
 70
     1
102
RTVSPost2010Prop40
 90
        0
102
RTVSPost2010PropOp40
 70
     1
102
RTVSPost2010Prop41ColorIndex
 90
       18
102
RTVSPost2010Prop41ColorRGB
 90
        0
102
RTVSPost2010PropOp41
 70
     1
102
RTVSPost2010Prop42
 90
       50
102
RTVSPost2010PropOp42
 70
     1
102
RTVSPost2010Prop43
 90
        3
102
RTVSPost2010PropOp43
 70
     1
102
RTVSPost2010Prop44ColorIndex
 90
        5
102
RTVSPost2010Prop44ColorRGB
 90
      255
102
RTVSPost2010PropOp44
 70
     1
102
RTVSPost2010Prop45
280
     0
102
RTVSPost2010PropOp45
 70
     1
102
RTVSPost2010Prop46
 90
       50
102
RTVSPost2010PropOp46
 70
     1
102
RTVSPost2010Prop47
 90
       50
102
RTVSPost2010PropOp47
 70
     1
102
RTVSPost2010Prop48
 90
       50
102
RTVSPost2010PropOp48
 70
     1
102
RTVSPost2010Prop49
280
     0
102
RTVSPost2010PropOp49
 70
     1
102
RTVSPost2010Prop50
 90
       50
102
RTVSPost2010PropOp50
 70
     1
102
RTVSPost2010Prop51ColorIndex
 90
      256
102
RTVSPost2010Prop51ColorRGB
 90
-16777216
102
RTVSPost2010PropOp51
 70
     0
102
RTVSPost2010Prop52
140
1.0
102
RTVSPost2010PropOp52
 70
     0
102
RTVSPost2010Prop53
 90
        2
102
RTVSPost2010PropOp53
 70
     1
102
RTVSPost2010Prop54
  1
strokes_ogs.tif
102
RTVSPost2010PropOp54
 70
     1
102
RTVSPost2010Prop55
280
     0
102
RTVSPost2010PropOp55
 70
     1
102
RTVSPost2010Prop56
140
1.0
102
RTVSPost2010PropOp56
 70
     1
102
RTVSPost2010Prop57
140
1.0
102
RTVSPost2010PropOp57
 70
     1
102
RTVSPropertyOp0
 70
     1
102
RTVSPropertyOp1
 70
     1
102
RTVSPropertyOp2
 70
     1
102
RTVSPropertyOp3
 70
     1
102
RTVSPropertyOp4
 70
     1
102
RTVSPropertyOp5
 70
     1
102
RTVSPropertyOp6
 70
     1
102
RTVSPropertyOp7
 70
     1
102
RTVSPropertyOp8
 70
     1
102
RTVSPropertyOp9
 70
     1
102
RTVSPropertyOp10
 70
     1
102
RTVSPropertyOp11
 70
     1
102
RTVSPropertyOp12
 70
     1
102
RTVSPropertyOp13
 70
     1
102
RTVSPropertyOp14
 70
     1
102
RTVSPropertyOp15
 70
     1
102
RTVSPropertyOp16
 70
     1
102
RTVSPropertyOp17
 70
     1
102
RTVSPropertyOp18
 70
     1
102
RTVSPropertyOp19
 70
     1
102
RTVSPropertyOp20
 70
     1
102
RTVSPropertyOp21
 70
     1
102
RTVSPropertyOp22
 70
     1
102
RTVSPropertyOp23
 70
     1
102
RTVSPropertyOp24
 70
     1
102
RTVSPropertyOp25
 70
     1
102
RTVSPropertyOp26
 70
     1
102
RTVSPropertyOp27
 70
     1
102
RTVSPropertyOp28
 70
     1
102
RTVSPropertyOp29
 70
     1
102
RTVSPropertyOp30
 70
     1
102
RTVSPropertyOp31
 70
     1
102
RTVSPropertyOp32
 70
     1
102
RTVSPropertyOp33
 70
     1
102
RTVSPropertyOp34
 70
     1
102
RTVSPropertyOp35
 70
     1
102
RTVSPropertyOp36
 70
     1
102
RTVSPropertyOp37
 70
     1
102
RTVSPropertyOp38
 70
     1
102
RTVSPropertyOp39
 70
     1
102
RTVSPropertyOp40
 70
     1
102
RTVSPropertyOp41
 70
     1
102
RTVSPropertyOp42
 70
     1
102
RTVSPropertyOp43
 70
     1
102
RTVSPropertyOp44
 70
     1
102
RTVSPropertyOp45
 70
     1
102
RTVSPropertyOp46
 70
     1
102
RTVSPropertyOp47
 70
     1
102
RTVSPropertyOp48
 70
     1
102
RTVSPropertyOp49
 70
     1
102
RTVSPropertyOp50
 70
     1
102
RTVSPropertyOp51
 70
     0
102
RTVSPropertyOp52
 70
     0
102
RTVSPropertyOp53
 70
     1
102
RTVSPropertyOp54
 70
     1
102
RTVSPropertyOp55
 70
     1
102
RTVSPropertyOp56
 70
     1
102
RTVSPropertyOp57
 70
     1
102
RTVSPropertyOp58
 70
     1
102
RTVSPropertyOp59
 70
     1
102
RTVSPropertyOp60
 70
     1
102
RTVSPropertyOp61
 70
     1
102
RTVSPropertyOp62
 70
     1
  0
XRECORD
  5
387
102
{ACAD_REACTORS
330
386
102
}
330
386
100
AcDbXrecord
280
     1
102
RTVSPost2010Prop28
280
     0
102
RTVSPost2010PropOp28
 70
     1
102
RTVSPost2010Prop29
280
     1
102
RTVSPost2010PropOp29
 70
     1
102
RTVSPost2010Prop30
280
     1
102
RTVSPost2010PropOp30
 70
     1
102
RTVSPost2010Prop31
280
     0
102
RTVSPost2010PropOp31
 70
     1
102
RTVSPost2010Prop32
280
     0
102
RTVSPost2010PropOp32
 70
     1
102
RTVSPost2010Prop33
280
     0
102
RTVSPost2010PropOp33
 70
     1
102
RTVSPost2010Prop34
280
     0
102
RTVSPost2010PropOp34
 70
     1
102
RTVSPost2010Prop35
280
     0
102
RTVSPost2010PropOp35
 70
     1
102
RTVSPost2010Prop36
280
     0
102
RTVSPost2010PropOp36
 70
     1
102
RTVSPost2010Prop37
 90
       50
102
RTVSPost2010PropOp37
 70
     1
102
RTVSPost2010Prop38
140
0.0
102
RTVSPost2010PropOp38
 70
     1
102
RTVSPost2010Prop39
140
1.0
102
RTVSPost2010PropOp39
 70
     1
102
RTVSPost2010Prop40
 90
        0
102
RTVSPost2010PropOp40
 70
     1
102
RTVSPost2010Prop41ColorIndex
 90
       18
102
RTVSPost2010Prop41ColorRGB
 90
        0
102
RTVSPost2010PropOp41
 70
     1
102
RTVSPost2010Prop42
 90
       50
102
RTVSPost2010PropOp42
 70
     1
102
RTVSPost2010Prop43
 90
        3
102
RTVSPost2010PropOp43
 70
     1
102
RTVSPost2010Prop44ColorIndex
 90
        5
102
RTVSPost2010Prop44ColorRGB
 90
      255
102
RTVSPost2010PropOp44
 70
     1
102
RTVSPost2010Prop45
280
     0
102
RTVSPost2010PropOp45
 70
     1
102
RTVSPost2010Prop46
 90
       50
102
RTVSPost2010PropOp46
 70
     1
102
RTVSPost2010Prop47
 90
       50
102
RTVSPost2010PropOp47
 70
     1
102
RTVSPost2010Prop48
 90
       50
102
RTVSPost2010PropOp48
 70
     1
102
RTVSPost2010Prop49
280
     0
102
RTVSPost2010PropOp49
 70
     1
102
RTVSPost2010Prop50
 90
       50
102
RTVSPost2010PropOp50
 70
     1
102
RTVSPost2010Prop51ColorIndex
 90
      256
102
RTVSPost2010Prop51ColorRGB
 90
-16777216
102
RTVSPost2010PropOp51
 70
     0
102
RTVSPost2010Prop52
140
1.0
102
RTVSPost2010PropOp52
 70
     0
102
RTVSPost2010Prop53
 90
        2
102
RTVSPost2010PropOp53
 70
     1
102
RTVSPost2010Prop54
  1
strokes_ogs.tif
102
RTVSPost2010PropOp54
 70
     1
102
RTVSPost2010Prop55
280
     0
102
RTVSPost2010PropOp55
 70
     1
102
RTVSPost2010Prop56
140
1.0
102
RTVSPost2010PropOp56
 70
     1
102
RTVSPost2010Prop57
140
1.0
102
RTVSPost2010PropOp57
 70
     1
102
RTVSPropertyOp0
 70
     1
102
RTVSPropertyOp1
 70
     1
102
RTVSPropertyOp2
 70
     1
102
RTVSPropertyOp3
 70
     1
102
RTVSPropertyOp4
 70
     1
102
RTVSPropertyOp5
 70
     1
102
RTVSPropertyOp6
 70
     1
102
RTVSPropertyOp7
 70
     1
102
RTVSPropertyOp8
 70
     1
102
RTVSPropertyOp9
 70
     1
102
RTVSPropertyOp10
 70
     1
102
RTVSPropertyOp11
 70
     1
102
RTVSPropertyOp12
 70
     1
102
RTVSPropertyOp13
 70
     1
102
RTVSPropertyOp14
 70
     1
102
RTVSPropertyOp15
 70
     1
102
RTVSPropertyOp16
 70
     1
102
RTVSPropertyOp17
 70
     1
102
RTVSPropertyOp18
 70
     1
102
RTVSPropertyOp19
 70
     1
102
RTVSPropertyOp20
 70
     1
102
RTVSPropertyOp21
 70
     1
102
RTVSPropertyOp22
 70
     1
102
RTVSPropertyOp23
 70
     1
102
RTVSPropertyOp24
 70
     1
102
RTVSPropertyOp25
 70
     1
102
RTVSPropertyOp26
 70
     1
102
RTVSPropertyOp27
 70
     1
102
RTVSPropertyOp28
 70
     1
102
RTVSPropertyOp29
 70
     1
102
RTVSPropertyOp30
 70
     1
102
RTVSPropertyOp31
 70
     1
102
RTVSPropertyOp32
 70
     1
102
RTVSPropertyOp33
 70
     1
102
RTVSPropertyOp34
 70
     1
102
RTVSPropertyOp35
 70
     1
102
RTVSPropertyOp36
 70
     1
102
RTVSPropertyOp37
 70
     1
102
RTVSPropertyOp38
 70
     1
102
RTVSPropertyOp39
 70
     1
102
RTVSPropertyOp40
 70
     1
102
RTVSPropertyOp41
 70
     1
102
RTVSPropertyOp42
 70
     1
102
RTVSPropertyOp43
 70
     1
102
RTVSPropertyOp44
 70
     1
102
RTVSPropertyOp45
 70
     1
102
RTVSPropertyOp46
 70
     1
102
RTVSPropertyOp47
 70
     1
102
RTVSPropertyOp48
 70
     1
102
RTVSPropertyOp49
 70
     1
102
RTVSPropertyOp50
 70
     1
102
RTVSPropertyOp51
 70
     0
102
RTVSPropertyOp52
 70
     0
102
RTVSPropertyOp53
 70
     1
102
RTVSPropertyOp54
 70
     1
102
RTVSPropertyOp55
 70
     1
102
RTVSPropertyOp56
 70
     1
102
RTVSPropertyOp57
 70
     1
102
RTVSPropertyOp58
 70
     1
102
RTVSPropertyOp59
 70
     1
102
RTVSPropertyOp60
 70
     1
102
RTVSPropertyOp61
 70
     1
102
RTVSPropertyOp62
 70
     1
  0
XRECORD
  5
38F
102
{ACAD_REACTORS
330
38E
102
}
330
38E
100
AcDbXrecord
280
     1
102
RTVSPost2010Prop28
280
     0
102
RTVSPost2010PropOp28
 70
     1
102
RTVSPost2010Prop29
280
     1
102
RTVSPost2010PropOp29
 70
     1
102
RTVSPost2010Prop30
280
     1
102
RTVSPost2010PropOp30
 70
     1
102
RTVSPost2010Prop31
280
     0
102
RTVSPost2010PropOp31
 70
     1
102
RTVSPost2010Prop32
280
     0
102
RTVSPost2010PropOp32
 70
     1
102
RTVSPost2010Prop33
280
     0
102
RTVSPost2010PropOp33
 70
     1
102
RTVSPost2010Prop34
280
     0
102
RTVSPost2010PropOp34
 70
     1
102
RTVSPost2010Prop35
280
     0
102
RTVSPost2010PropOp35
 70
     1
102
RTVSPost2010Prop36
280
     0
102
RTVSPost2010PropOp36
 70
     1
102
RTVSPost2010Prop37
 90
       50
102
RTVSPost2010PropOp37
 70
     1
102
RTVSPost2010Prop38
140
0.0
102
RTVSPost2010PropOp38
 70
     1
102
RTVSPost2010Prop39
140
1.0
102
RTVSPost2010PropOp39
 70
     1
102
RTVSPost2010Prop40
 90
        0
102
RTVSPost2010PropOp40
 70
     1
102
RTVSPost2010Prop41ColorIndex
 90
       18
102
RTVSPost2010Prop41ColorRGB
 90
        0
102
RTVSPost2010PropOp41
 70
     1
102
RTVSPost2010Prop42
 90
       50
102
RTVSPost2010PropOp42
 70
     1
102
RTVSPost2010Prop43
 90
        3
102
RTVSPost2010PropOp43
 70
     1
102
RTVSPost2010Prop44ColorIndex
 90
        5
102
RTVSPost2010Prop44ColorRGB
 90
      255
102
RTVSPost2010PropOp44
 70
     1
102
RTVSPost2010Prop45
280
     0
102
RTVSPost2010PropOp45
 70
     1
102
RTVSPost2010Prop46
 90
       50
102
RTVSPost2010PropOp46
 70
     1
102
RTVSPost2010Prop47
 90
       50
102
RTVSPost2010PropOp47
 70
     1
102
RTVSPost2010Prop48
 90
       50
102
RTVSPost2010PropOp48
 70
     1
102
RTVSPost2010Prop49
280
     0
102
RTVSPost2010PropOp49
 70
     1
102
RTVSPost2010Prop50
 90
       50
102
RTVSPost2010PropOp50
 70
     1
102
RTVSPost2010Prop51ColorIndex
 90
      256
102
RTVSPost2010Prop51ColorRGB
 90
-16777216
102
RTVSPost2010PropOp51
 70
     0
102
RTVSPost2010Prop52
140
1.0
102
RTVSPost2010PropOp52
 70
     0
102
RTVSPost2010Prop53
 90
        2
102
RTVSPost2010PropOp53
 70
     1
102
RTVSPost2010Prop54
  1
strokes_ogs.tif
102
RTVSPost2010PropOp54
 70
     1
102
RTVSPost2010Prop55
280
     0
102
RTVSPost2010PropOp55
 70
     1
102
RTVSPost2010Prop56
140
1.0
102
RTVSPost2010PropOp56
 70
     1
102
RTVSPost2010Prop57
140
1.0
102
RTVSPost2010PropOp57
 70
     1
102
RTVSPropertyOp0
 70
     1
102
RTVSPropertyOp1
 70
     1
102
RTVSPropertyOp2
 70
     1
102
RTVSPropertyOp3
 70
     1
102
RTVSPropertyOp4
 70
     1
102
RTVSPropertyOp5
 70
     1
102
RTVSPropertyOp6
 70
     1
102
RTVSPropertyOp7
 70
     1
102
RTVSPropertyOp8
 70
     1
102
RTVSPropertyOp9
 70
     1
102
RTVSPropertyOp10
 70
     1
102
RTVSPropertyOp11
 70
     1
102
RTVSPropertyOp12
 70
     1
102
RTVSPropertyOp13
 70
     1
102
RTVSPropertyOp14
 70
     1
102
RTVSPropertyOp15
 70
     1
102
RTVSPropertyOp16
 70
     1
102
RTVSPropertyOp17
 70
     1
102
RTVSPropertyOp18
 70
     1
102
RTVSPropertyOp19
 70
     1
102
RTVSPropertyOp20
 70
     1
102
RTVSPropertyOp21
 70
     1
102
RTVSPropertyOp22
 70
     1
102
RTVSPropertyOp23
 70
     1
102
RTVSPropertyOp24
 70
     1
102
RTVSPropertyOp25
 70
     1
102
RTVSPropertyOp26
 70
     1
102
RTVSPropertyOp27
 70
     1
102
RTVSPropertyOp28
 70
     1
102
RTVSPropertyOp29
 70
     1
102
RTVSPropertyOp30
 70
     1
102
RTVSPropertyOp31
 70
     1
102
RTVSPropertyOp32
 70
     1
102
RTVSPropertyOp33
 70
     1
102
RTVSPropertyOp34
 70
     1
102
RTVSPropertyOp35
 70
     1
102
RTVSPropertyOp36
 70
     1
102
RTVSPropertyOp37
 70
     1
102
RTVSPropertyOp38
 70
     1
102
RTVSPropertyOp39
 70
     1
102
RTVSPropertyOp40
 70
     1
102
RTVSPropertyOp41
 70
     1
102
RTVSPropertyOp42
 70
     1
102
RTVSPropertyOp43
 70
     1
102
RTVSPropertyOp44
 70
     1
102
RTVSPropertyOp45
 70
     1
102
RTVSPropertyOp46
 70
     1
102
RTVSPropertyOp47
 70
     1
102
RTVSPropertyOp48
 70
     1
102
RTVSPropertyOp49
 70
     1
102
RTVSPropertyOp50
 70
     1
102
RTVSPropertyOp51
 70
     0
102
RTVSPropertyOp52
 70
     0
102
RTVSPropertyOp53
 70
     1
102
RTVSPropertyOp54
 70
     1
102
RTVSPropertyOp55
 70
     1
102
RTVSPropertyOp56
 70
     1
102
RTVSPropertyOp57
 70
     1
102
RTVSPropertyOp58
 70
     1
102
RTVSPropertyOp59
 70
     1
102
RTVSPropertyOp60
 70
     1
102
RTVSPropertyOp61
 70
     1
102
RTVSPropertyOp62
 70
     1
  0
XRECORD
  5
397
102
{ACAD_REACTORS
330
396
102
}
330
396
100
AcDbXrecord
280
     1
102
RTVSPost2010Prop28
280
     0
102
RTVSPost2010PropOp28
 70
     1
102
RTVSPost2010Prop29
280
     1
102
RTVSPost2010PropOp29
 70
     1
102
RTVSPost2010Prop30
280
     1
102
RTVSPost2010PropOp30
 70
     1
102
RTVSPost2010Prop31
280
     0
102
RTVSPost2010PropOp31
 70
     1
102
RTVSPost2010Prop32
280
     0
102
RTVSPost2010PropOp32
 70
     1
102
RTVSPost2010Prop33
280
     0
102
RTVSPost2010PropOp33
 70
     1
102
RTVSPost2010Prop34
280
     0
102
RTVSPost2010PropOp34
 70
     1
102
RTVSPost2010Prop35
280
     0
102
RTVSPost2010PropOp35
 70
     1
102
RTVSPost2010Prop36
280
     0
102
RTVSPost2010PropOp36
 70
     1
102
RTVSPost2010Prop37
 90
       50
102
RTVSPost2010PropOp37
 70
     1
102
RTVSPost2010Prop38
140
0.0
102
RTVSPost2010PropOp38
 70
     1
102
RTVSPost2010Prop39
140
1.0
102
RTVSPost2010PropOp39
 70
     1
102
RTVSPost2010Prop40
 90
        0
102
RTVSPost2010PropOp40
 70
     1
102
RTVSPost2010Prop41ColorIndex
 90
       18
102
RTVSPost2010Prop41ColorRGB
 90
        0
102
RTVSPost2010PropOp41
 70
     1
102
RTVSPost2010Prop42
 90
       50
102
RTVSPost2010PropOp42
 70
     1
102
RTVSPost2010Prop43
 90
        3
102
RTVSPost2010PropOp43
 70
     1
102
RTVSPost2010Prop44ColorIndex
 90
        5
102
RTVSPost2010Prop44ColorRGB
 90
      255
102
RTVSPost2010PropOp44
 70
     1
102
RTVSPost2010Prop45
280
     0
102
RTVSPost2010PropOp45
 70
     1
102
RTVSPost2010Prop46
 90
       50
102
RTVSPost2010PropOp46
 70
     1
102
RTVSPost2010Prop47
 90
       50
102
RTVSPost2010PropOp47
 70
     1
102
RTVSPost2010Prop48
 90
       50
102
RTVSPost2010PropOp48
 70
     1
102
RTVSPost2010Prop49
280
     0
102
RTVSPost2010PropOp49
 70
     1
102
RTVSPost2010Prop50
 90
       50
102
RTVSPost2010PropOp50
 70
     1
102
RTVSPost2010Prop51ColorIndex
 90
      256
102
RTVSPost2010Prop51ColorRGB
 90
-16777216
102
RTVSPost2010PropOp51
 70
     0
102
RTVSPost2010Prop52
140
1.0
102
RTVSPost2010PropOp52
 70
     0
102
RTVSPost2010Prop53
 90
        2
102
RTVSPost2010PropOp53
 70
     1
102
RTVSPost2010Prop54
  1
strokes_ogs.tif
102
RTVSPost2010PropOp54
 70
     1
102
RTVSPost2010Prop55
280
     0
102
RTVSPost2010PropOp55
 70
     1
102
RTVSPost2010Prop56
140
1.0
102
RTVSPost2010PropOp56
 70
     1
102
RTVSPost2010Prop57
140
1.0
102
RTVSPost2010PropOp57
 70
     1
102
RTVSPropertyOp0
 70
     1
102
RTVSPropertyOp1
 70
     1
102
RTVSPropertyOp2
 70
     1
102
RTVSPropertyOp3
 70
     1
102
RTVSPropertyOp4
 70
     1
102
RTVSPropertyOp5
 70
     1
102
RTVSPropertyOp6
 70
     1
102
RTVSPropertyOp7
 70
     1
102
RTVSPropertyOp8
 70
     1
102
RTVSPropertyOp9
 70
     1
102
RTVSPropertyOp10
 70
     1
102
RTVSPropertyOp11
 70
     1
102
RTVSPropertyOp12
 70
     1
102
RTVSPropertyOp13
 70
     1
102
RTVSPropertyOp14
 70
     1
102
RTVSPropertyOp15
 70
     1
102
RTVSPropertyOp16
 70
     1
102
RTVSPropertyOp17
 70
     1
102
RTVSPropertyOp18
 70
     1
102
RTVSPropertyOp19
 70
     1
102
RTVSPropertyOp20
 70
     1
102
RTVSPropertyOp21
 70
     1
102
RTVSPropertyOp22
 70
     1
102
RTVSPropertyOp23
 70
     1
102
RTVSPropertyOp24
 70
     1
102
RTVSPropertyOp25
 70
     1
102
RTVSPropertyOp26
 70
     1
102
RTVSPropertyOp27
 70
     1
102
RTVSPropertyOp28
 70
     1
102
RTVSPropertyOp29
 70
     1
102
RTVSPropertyOp30
 70
     1
102
RTVSPropertyOp31
 70
     1
102
RTVSPropertyOp32
 70
     1
102
RTVSPropertyOp33
 70
     1
102
RTVSPropertyOp34
 70
     1
102
RTVSPropertyOp35
 70
     1
102
RTVSPropertyOp36
 70
     1
102
RTVSPropertyOp37
 70
     1
102
RTVSPropertyOp38
 70
     1
102
RTVSPropertyOp39
 70
     1
102
RTVSPropertyOp40
 70
     1
102
RTVSPropertyOp41
 70
     1
102
RTVSPropertyOp42
 70
     1
102
RTVSPropertyOp43
 70
     1
102
RTVSPropertyOp44
 70
     1
102
RTVSPropertyOp45
 70
     1
102
RTVSPropertyOp46
 70
     1
102
RTVSPropertyOp47
 70
     1
102
RTVSPropertyOp48
 70
     1
102
RTVSPropertyOp49
 70
     1
102
RTVSPropertyOp50
 70
     1
102
RTVSPropertyOp51
 70
     0
102
RTVSPropertyOp52
 70
     0
102
RTVSPropertyOp53
 70
     1
102
RTVSPropertyOp54
 70
     1
102
RTVSPropertyOp55
 70
     1
102
RTVSPropertyOp56
 70
     1
102
RTVSPropertyOp57
 70
     1
102
RTVSPropertyOp58
 70
     1
102
RTVSPropertyOp59
 70
     1
102
RTVSPropertyOp60
 70
     1
102
RTVSPropertyOp61
 70
     1
102
RTVSPropertyOp62
 70
     1
  0
XRECORD
  5
38B
102
{ACAD_REACTORS
330
38A
102
}
330
38A
100
AcDbXrecord
280
     1
102
RTVSPost2010Prop28
280
     0
102
RTVSPost2010PropOp28
 70
     1
102
RTVSPost2010Prop29
280
     1
102
RTVSPost2010PropOp29
 70
     1
102
RTVSPost2010Prop30
280
     1
102
RTVSPost2010PropOp30
 70
     1
102
RTVSPost2010Prop31
280
     0
102
RTVSPost2010PropOp31
 70
     1
102
RTVSPost2010Prop32
280
     0
102
RTVSPost2010PropOp32
 70
     1
102
RTVSPost2010Prop33
280
     0
102
RTVSPost2010PropOp33
 70
     1
102
RTVSPost2010Prop34
280
     0
102
RTVSPost2010PropOp34
 70
     1
102
RTVSPost2010Prop35
280
     0
102
RTVSPost2010PropOp35
 70
     1
102
RTVSPost2010Prop36
280
     0
102
RTVSPost2010PropOp36
 70
     1
102
RTVSPost2010Prop37
 90
       50
102
RTVSPost2010PropOp37
 70
     1
102
RTVSPost2010Prop38
140
0.0
102
RTVSPost2010PropOp38
 70
     1
102
RTVSPost2010Prop39
140
1.0
102
RTVSPost2010PropOp39
 70
     1
102
RTVSPost2010Prop40
 90
        0
102
RTVSPost2010PropOp40
 70
     1
102
RTVSPost2010Prop41ColorIndex
 90
       18
102
RTVSPost2010Prop41ColorRGB
 90
        0
102
RTVSPost2010PropOp41
 70
     1
102
RTVSPost2010Prop42
 90
       50
102
RTVSPost2010PropOp42
 70
     1
102
RTVSPost2010Prop43
 90
        3
102
RTVSPost2010PropOp43
 70
     1
102
RTVSPost2010Prop44ColorIndex
 90
        5
102
RTVSPost2010Prop44ColorRGB
 90
      255
102
RTVSPost2010PropOp44
 70
     1
102
RTVSPost2010Prop45
280
     0
102
RTVSPost2010PropOp45
 70
     1
102
RTVSPost2010Prop46
 90
       50
102
RTVSPost2010PropOp46
 70
     1
102
RTVSPost2010Prop47
 90
       50
102
RTVSPost2010PropOp47
 70
     1
102
RTVSPost2010Prop48
 90
       50
102
RTVSPost2010PropOp48
 70
     1
102
RTVSPost2010Prop49
280
     0
102
RTVSPost2010PropOp49
 70
     1
102
RTVSPost2010Prop50
 90
       50
102
RTVSPost2010PropOp50
 70
     1
102
RTVSPost2010Prop51ColorIndex
 90
      256
102
RTVSPost2010Prop51ColorRGB
 90
-16777216
102
RTVSPost2010PropOp51
 70
     0
102
RTVSPost2010Prop52
140
1.0
102
RTVSPost2010PropOp52
 70
     0
102
RTVSPost2010Prop53
 90
        2
102
RTVSPost2010PropOp53
 70
     1
102
RTVSPost2010Prop54
  1
strokes_ogs.tif
102
RTVSPost2010PropOp54
 70
     1
102
RTVSPost2010Prop55
280
     0
102
RTVSPost2010PropOp55
 70
     1
102
RTVSPost2010Prop56
140
1.0
102
RTVSPost2010PropOp56
 70
     1
102
RTVSPost2010Prop57
140
1.0
102
RTVSPost2010PropOp57
 70
     1
102
RTVSPropertyOp0
 70
     1
102
RTVSPropertyOp1
 70
     1
102
RTVSPropertyOp2
 70
     1
102
RTVSPropertyOp3
 70
     1
102
RTVSPropertyOp4
 70
     1
102
RTVSPropertyOp5
 70
     1
102
RTVSPropertyOp6
 70
     1
102
RTVSPropertyOp7
 70
     1
102
RTVSPropertyOp8
 70
     1
102
RTVSPropertyOp9
 70
     1
102
RTVSPropertyOp10
 70
     1
102
RTVSPropertyOp11
 70
     1
102
RTVSPropertyOp12
 70
     1
102
RTVSPropertyOp13
 70
     1
102
RTVSPropertyOp14
 70
     1
102
RTVSPropertyOp15
 70
     1
102
RTVSPropertyOp16
 70
     1
102
RTVSPropertyOp17
 70
     1
102
RTVSPropertyOp18
 70
     1
102
RTVSPropertyOp19
 70
     1
102
RTVSPropertyOp20
 70
     1
102
RTVSPropertyOp21
 70
     1
102
RTVSPropertyOp22
 70
     1
102
RTVSPropertyOp23
 70
     1
102
RTVSPropertyOp24
 70
     1
102
RTVSPropertyOp25
 70
     1
102
RTVSPropertyOp26
 70
     1
102
RTVSPropertyOp27
 70
     1
102
RTVSPropertyOp28
 70
     1
102
RTVSPropertyOp29
 70
     1
102
RTVSPropertyOp30
 70
     1
102
RTVSPropertyOp31
 70
     1
102
RTVSPropertyOp32
 70
     1
102
RTVSPropertyOp33
 70
     1
102
RTVSPropertyOp34
 70
     1
102
RTVSPropertyOp35
 70
     1
102
RTVSPropertyOp36
 70
     1
102
RTVSPropertyOp37
 70
     1
102
RTVSPropertyOp38
 70
     1
102
RTVSPropertyOp39
 70
     1
102
RTVSPropertyOp40
 70
     1
102
RTVSPropertyOp41
 70
     1
102
RTVSPropertyOp42
 70
     1
102
RTVSPropertyOp43
 70
     1
102
RTVSPropertyOp44
 70
     1
102
RTVSPropertyOp45
 70
     1
102
RTVSPropertyOp46
 70
     1
102
RTVSPropertyOp47
 70
     1
102
RTVSPropertyOp48
 70
     1
102
RTVSPropertyOp49
 70
     1
102
RTVSPropertyOp50
 70
     1
102
RTVSPropertyOp51
 70
     0
102
RTVSPropertyOp52
 70
     0
102
RTVSPropertyOp53
 70
     1
102
RTVSPropertyOp54
 70
     1
102
RTVSPropertyOp55
 70
     1
102
RTVSPropertyOp56
 70
     1
102
RTVSPropertyOp57
 70
     1
102
RTVSPropertyOp58
 70
     1
102
RTVSPropertyOp59
 70
     1
102
RTVSPropertyOp60
 70
     1
102
RTVSPropertyOp61
 70
     1
102
RTVSPropertyOp62
 70
     1
  0
XRECORD
  5
38D
102
{ACAD_REACTORS
330
38C
102
}
330
38C
100
AcDbXrecord
280
     1
102
RTVSPost2010Prop28
280
     0
102
RTVSPost2010PropOp28
 70
     1
102
RTVSPost2010Prop29
280
     1
102
RTVSPost2010PropOp29
 70
     1
102
RTVSPost2010Prop30
280
     1
102
RTVSPost2010PropOp30
 70
     1
102
RTVSPost2010Prop31
280
     0
102
RTVSPost2010PropOp31
 70
     1
102
RTVSPost2010Prop32
280
     0
102
RTVSPost2010PropOp32
 70
     1
102
RTVSPost2010Prop33
280
     0
102
RTVSPost2010PropOp33
 70
     1
102
RTVSPost2010Prop34
280
     0
102
RTVSPost2010PropOp34
 70
     1
102
RTVSPost2010Prop35
280
     0
102
RTVSPost2010PropOp35
 70
     1
102
RTVSPost2010Prop36
280
     0
102
RTVSPost2010PropOp36
 70
     1
102
RTVSPost2010Prop37
 90
       50
102
RTVSPost2010PropOp37
 70
     1
102
RTVSPost2010Prop38
140
0.0
102
RTVSPost2010PropOp38
 70
     1
102
RTVSPost2010Prop39
140
1.0
102
RTVSPost2010PropOp39
 70
     1
102
RTVSPost2010Prop40
 90
        0
102
RTVSPost2010PropOp40
 70
     1
102
RTVSPost2010Prop41ColorIndex
 90
       18
102
RTVSPost2010Prop41ColorRGB
 90
        0
102
RTVSPost2010PropOp41
 70
     1
102
RTVSPost2010Prop42
 90
       50
102
RTVSPost2010PropOp42
 70
     1
102
RTVSPost2010Prop43
 90
        3
102
RTVSPost2010PropOp43
 70
     1
102
RTVSPost2010Prop44ColorIndex
 90
        5
102
RTVSPost2010Prop44ColorRGB
 90
      255
102
RTVSPost2010PropOp44
 70
     1
102
RTVSPost2010Prop45
280
     0
102
RTVSPost2010PropOp45
 70
     1
102
RTVSPost2010Prop46
 90
       50
102
RTVSPost2010PropOp46
 70
     1
102
RTVSPost2010Prop47
 90
       50
102
RTVSPost2010PropOp47
 70
     1
102
RTVSPost2010Prop48
 90
       50
102
RTVSPost2010PropOp48
 70
     1
102
RTVSPost2010Prop49
280
     0
102
RTVSPost2010PropOp49
 70
     1
102
RTVSPost2010Prop50
 90
       50
102
RTVSPost2010PropOp50
 70
     1
102
RTVSPost2010Prop51ColorIndex
 90
      256
102
RTVSPost2010Prop51ColorRGB
 90
-16777216
102
RTVSPost2010PropOp51
 70
     0
102
RTVSPost2010Prop52
140
1.0
102
RTVSPost2010PropOp52
 70
     0
102
RTVSPost2010Prop53
 90
        2
102
RTVSPost2010PropOp53
 70
     1
102
RTVSPost2010Prop54
  1
strokes_ogs.tif
102
RTVSPost2010PropOp54
 70
     1
102
RTVSPost2010Prop55
280
     0
102
RTVSPost2010PropOp55
 70
     1
102
RTVSPost2010Prop56
140
1.0
102
RTVSPost2010PropOp56
 70
     1
102
RTVSPost2010Prop57
140
1.0
102
RTVSPost2010PropOp57
 70
     1
102
RTVSPropertyOp0
 70
     1
102
RTVSPropertyOp1
 70
     1
102
RTVSPropertyOp2
 70
     1
102
RTVSPropertyOp3
 70
     1
102
RTVSPropertyOp4
 70
     1
102
RTVSPropertyOp5
 70
     1
102
RTVSPropertyOp6
 70
     1
102
RTVSPropertyOp7
 70
     1
102
RTVSPropertyOp8
 70
     1
102
RTVSPropertyOp9
 70
     1
102
RTVSPropertyOp10
 70
     1
102
RTVSPropertyOp11
 70
     1
102
RTVSPropertyOp12
 70
     1
102
RTVSPropertyOp13
 70
     1
102
RTVSPropertyOp14
 70
     1
102
RTVSPropertyOp15
 70
     1
102
RTVSPropertyOp16
 70
     1
102
RTVSPropertyOp17
 70
     1
102
RTVSPropertyOp18
 70
     1
102
RTVSPropertyOp19
 70
     1
102
RTVSPropertyOp20
 70
     1
102
RTVSPropertyOp21
 70
     1
102
RTVSPropertyOp22
 70
     1
102
RTVSPropertyOp23
 70
     1
102
RTVSPropertyOp24
 70
     1
102
RTVSPropertyOp25
 70
     1
102
RTVSPropertyOp26
 70
     1
102
RTVSPropertyOp27
 70
     1
102
RTVSPropertyOp28
 70
     1
102
RTVSPropertyOp29
 70
     1
102
RTVSPropertyOp30
 70
     1
102
RTVSPropertyOp31
 70
     1
102
RTVSPropertyOp32
 70
     1
102
RTVSPropertyOp33
 70
     1
102
RTVSPropertyOp34
 70
     1
102
RTVSPropertyOp35
 70
     1
102
RTVSPropertyOp36
 70
     1
102
RTVSPropertyOp37
 70
     1
102
RTVSPropertyOp38
 70
     1
102
RTVSPropertyOp39
 70
     1
102
RTVSPropertyOp40
 70
     1
102
RTVSPropertyOp41
 70
     1
102
RTVSPropertyOp42
 70
     1
102
RTVSPropertyOp43
 70
     1
102
RTVSPropertyOp44
 70
     1
102
RTVSPropertyOp45
 70
     1
102
RTVSPropertyOp46
 70
     1
102
RTVSPropertyOp47
 70
     1
102
RTVSPropertyOp48
 70
     1
102
RTVSPropertyOp49
 70
     1
102
RTVSPropertyOp50
 70
     1
102
RTVSPropertyOp51
 70
     0
102
RTVSPropertyOp52
 70
     0
102
RTVSPropertyOp53
 70
     1
102
RTVSPropertyOp54
 70
     1
102
RTVSPropertyOp55
 70
     1
102
RTVSPropertyOp56
 70
     1
102
RTVSPropertyOp57
 70
     1
102
RTVSPropertyOp58
 70
     1
102
RTVSPropertyOp59
 70
     1
102
RTVSPropertyOp60
 70
     1
102
RTVSPropertyOp61
 70
     1
102
RTVSPropertyOp62
 70
     1
  0
XRECORD
  5
39D
102
{ACAD_REACTORS
330
39C
102
}
330
39C
100
AcDbXrecord
280
     1
102
RTVSPost2010Prop28
280
     0
102
RTVSPost2010PropOp28
 70
     0
102
RTVSPost2010Prop29
280
     1
102
RTVSPost2010PropOp29
 70
     0
102
RTVSPost2010Prop30
280
     1
102
RTVSPost2010PropOp30
 70
     0
102
RTVSPost2010Prop31
280
     0
102
RTVSPost2010PropOp31
 70
     0
102
RTVSPost2010Prop32
280
     0
102
RTVSPost2010PropOp32
 70
     0
102
RTVSPost2010Prop33
280
     0
102
RTVSPost2010PropOp33
 70
     0
102
RTVSPost2010Prop34
280
     0
102
RTVSPost2010PropOp34
 70
     0
102
RTVSPost2010Prop35
280
     0
102
RTVSPost2010PropOp35
 70
     0
102
RTVSPost2010Prop36
280
     0
102
RTVSPost2010PropOp36
 70
     0
102
RTVSPost2010Prop37
 90
       50
102
RTVSPost2010PropOp37
 70
     0
102
RTVSPost2010Prop38
140
0.0
102
RTVSPost2010PropOp38
 70
     0
102
RTVSPost2010Prop39
140
1.0
102
RTVSPost2010PropOp39
 70
     0
102
RTVSPost2010Prop40
 90
        0
102
RTVSPost2010PropOp40
 70
     0
102
RTVSPost2010Prop41ColorIndex
 90
       18
102
RTVSPost2010Prop41ColorRGB
 90
        0
102
RTVSPost2010PropOp41
 70
     0
102
RTVSPost2010Prop42
 90
       50
102
RTVSPost2010PropOp42
 70
     0
102
RTVSPost2010Prop43
 90
        3
102
RTVSPost2010PropOp43
 70
     0
102
RTVSPost2010Prop44ColorIndex
 90
        5
102
RTVSPost2010Prop44ColorRGB
 90
      255
102
RTVSPost2010PropOp44
 70
     0
102
RTVSPost2010Prop45
280
     0
102
RTVSPost2010PropOp45
 70
     0
102
RTVSPost2010Prop46
 90
       50
102
RTVSPost2010PropOp46
 70
     0
102
RTVSPost2010Prop47
 90
       50
102
RTVSPost2010PropOp47
 70
     0
102
RTVSPost2010Prop48
 90
       50
102
RTVSPost2010PropOp48
 70
     0
102
RTVSPost2010Prop49
280
     0
102
RTVSPost2010PropOp49
 70
     0
102
RTVSPost2010Prop50
 90
       50
102
RTVSPost2010PropOp50
 70
     0
102
RTVSPost2010Prop51ColorIndex
 90
      256
102
RTVSPost2010Prop51ColorRGB
 90
-16777216
102
RTVSPost2010PropOp51
 70
     0
102
RTVSPost2010Prop52
140
1.0
102
RTVSPost2010PropOp52
 70
     0
102
RTVSPost2010Prop53
 90
        2
102
RTVSPost2010PropOp53
 70
     0
102
RTVSPost2010Prop54
  1
strokes_ogs.tif
102
RTVSPost2010PropOp54
 70
     0
102
RTVSPost2010Prop55
280
     0
102
RTVSPost2010PropOp55
 70
     0
102
RTVSPost2010Prop56
140
1.0
102
RTVSPost2010PropOp56
 70
     0
102
RTVSPost2010Prop57
140
1.0
102
RTVSPost2010PropOp57
 70
     0
102
RTVSPropertyOp0
 70
     0
102
RTVSPropertyOp1
 70
     0
102
RTVSPropertyOp2
 70
     0
102
RTVSPropertyOp3
 70
     0
102
RTVSPropertyOp4
 70
     0
102
RTVSPropertyOp5
 70
     0
102
RTVSPropertyOp6
 70
     0
102
RTVSPropertyOp7
 70
     0
102
RTVSPropertyOp8
 70
     0
102
RTVSPropertyOp9
 70
     0
102
RTVSPropertyOp10
 70
     0
102
RTVSPropertyOp11
 70
     0
102
RTVSPropertyOp12
 70
     0
102
RTVSPropertyOp13
 70
     0
102
RTVSPropertyOp14
 70
     2
102
RTVSPropertyOp15
 70
     0
102
RTVSPropertyOp16
 70
     0
102
RTVSPropertyOp17
 70
     0
102
RTVSPropertyOp18
 70
     0
102
RTVSPropertyOp19
 70
     0
102
RTVSPropertyOp20
 70
     0
102
RTVSPropertyOp21
 70
     0
102
RTVSPropertyOp22
 70
     0
102
RTVSPropertyOp23
 70
     0
102
RTVSPropertyOp24
 70
     0
102
RTVSPropertyOp25
 70
     0
102
RTVSPropertyOp26
 70
     0
102
RTVSPropertyOp27
 70
     0
102
RTVSPropertyOp28
 70
     0
102
RTVSPropertyOp29
 70
     0
102
RTVSPropertyOp30
 70
     0
102
RTVSPropertyOp31
 70
     0
102
RTVSPropertyOp32
 70
     0
102
RTVSPropertyOp33
 70
     0
102
RTVSPropertyOp34
 70
     0
102
RTVSPropertyOp35
 70
     0
102
RTVSPropertyOp36
 70
     0
102
RTVSPropertyOp37
 70
     0
102
RTVSPropertyOp38
 70
     0
102
RTVSPropertyOp39
 70
     0
102
RTVSPropertyOp40
 70
     0
102
RTVSPropertyOp41
 70
     0
102
RTVSPropertyOp42
 70
     0
102
RTVSPropertyOp43
 70
     0
102
RTVSPropertyOp44
 70
     0
102
RTVSPropertyOp45
 70
     0
102
RTVSPropertyOp46
 70
     0
102
RTVSPropertyOp47
 70
     0
102
RTVSPropertyOp48
 70
     0
102
RTVSPropertyOp49
 70
     0
102
RTVSPropertyOp50
 70
     0
102
RTVSPropertyOp51
 70
     0
102
RTVSPropertyOp52
 70
     0
102
RTVSPropertyOp53
 70
     0
102
RTVSPropertyOp54
 70
     0
102
RTVSPropertyOp55
 70
     0
102
RTVSPropertyOp56
 70
     0
102
RTVSPropertyOp57
 70
     0
102
RTVSPropertyOp58
 70
     1
102
RTVSPropertyOp59
 70
     1
102
RTVSPropertyOp60
 70
     1
102
RTVSPropertyOp61
 70
     1
102
RTVSPropertyOp62
 70
     1
  0
XRECORD
  5
395
102
{ACAD_REACTORS
330
394
102
}
330
394
100
AcDbXrecord
280
     1
102
RTVSPost2010Prop28
280
     0
102
RTVSPost2010PropOp28
 70
     1
102
RTVSPost2010Prop29
280
     1
102
RTVSPost2010PropOp29
 70
     1
102
RTVSPost2010Prop30
280
     1
102
RTVSPost2010PropOp30
 70
     1
102
RTVSPost2010Prop31
280
     0
102
RTVSPost2010PropOp31
 70
     1
102
RTVSPost2010Prop32
280
     0
102
RTVSPost2010PropOp32
 70
     1
102
RTVSPost2010Prop33
280
     0
102
RTVSPost2010PropOp33
 70
     1
102
RTVSPost2010Prop34
280
     0
102
RTVSPost2010PropOp34
 70
     1
102
RTVSPost2010Prop35
280
     0
102
RTVSPost2010PropOp35
 70
     1
102
RTVSPost2010Prop36
280
     0
102
RTVSPost2010PropOp36
 70
     1
102
RTVSPost2010Prop37
 90
       50
102
RTVSPost2010PropOp37
 70
     1
102
RTVSPost2010Prop38
140
0.0
102
RTVSPost2010PropOp38
 70
     1
102
RTVSPost2010Prop39
140
1.0
102
RTVSPost2010PropOp39
 70
     1
102
RTVSPost2010Prop40
 90
        0
102
RTVSPost2010PropOp40
 70
     1
102
RTVSPost2010Prop41ColorIndex
 90
       18
102
RTVSPost2010Prop41ColorRGB
 90
        0
102
RTVSPost2010PropOp41
 70
     1
102
RTVSPost2010Prop42
 90
       50
102
RTVSPost2010PropOp42
 70
     1
102
RTVSPost2010Prop43
 90
        3
102
RTVSPost2010PropOp43
 70
     1
102
RTVSPost2010Prop44ColorIndex
 90
        5
102
RTVSPost2010Prop44ColorRGB
 90
      255
102
RTVSPost2010PropOp44
 70
     1
102
RTVSPost2010Prop45
280
     0
102
RTVSPost2010PropOp45
 70
     1
102
RTVSPost2010Prop46
 90
       50
102
RTVSPost2010PropOp46
 70
     1
102
RTVSPost2010Prop47
 90
       50
102
RTVSPost2010PropOp47
 70
     1
102
RTVSPost2010Prop48
 90
       50
102
RTVSPost2010PropOp48
 70
     1
102
RTVSPost2010Prop49
280
     0
102
RTVSPost2010PropOp49
 70
     1
102
RTVSPost2010Prop50
 90
       50
102
RTVSPost2010PropOp50
 70
     1
102
RTVSPost2010Prop51ColorIndex
 90
      256
102
RTVSPost2010Prop51ColorRGB
 90
-16777216
102
RTVSPost2010PropOp51
 70
     0
102
RTVSPost2010Prop52
140
1.0
102
RTVSPost2010PropOp52
 70
     0
102
RTVSPost2010Prop53
 90
        2
102
RTVSPost2010PropOp53
 70
     1
102
RTVSPost2010Prop54
  1
strokes_ogs.tif
102
RTVSPost2010PropOp54
 70
     1
102
RTVSPost2010Prop55
280
     0
102
RTVSPost2010PropOp55
 70
     1
102
RTVSPost2010Prop56
140
1.0
102
RTVSPost2010PropOp56
 70
     1
102
RTVSPost2010Prop57
140
1.0
102
RTVSPost2010PropOp57
 70
     1
102
RTVSPropertyOp0
 70
     1
102
RTVSPropertyOp1
 70
     1
102
RTVSPropertyOp2
 70
     1
102
RTVSPropertyOp3
 70
     1
102
RTVSPropertyOp4
 70
     1
102
RTVSPropertyOp5
 70
     1
102
RTVSPropertyOp6
 70
     1
102
RTVSPropertyOp7
 70
     1
102
RTVSPropertyOp8
 70
     1
102
RTVSPropertyOp9
 70
     1
102
RTVSPropertyOp10
 70
     1
102
RTVSPropertyOp11
 70
     1
102
RTVSPropertyOp12
 70
     1
102
RTVSPropertyOp13
 70
     1
102
RTVSPropertyOp14
 70
     1
102
RTVSPropertyOp15
 70
     1
102
RTVSPropertyOp16
 70
     1
102
RTVSPropertyOp17
 70
     1
102
RTVSPropertyOp18
 70
     1
102
RTVSPropertyOp19
 70
     1
102
RTVSPropertyOp20
 70
     1
102
RTVSPropertyOp21
 70
     1
102
RTVSPropertyOp22
 70
     1
102
RTVSPropertyOp23
 70
     1
102
RTVSPropertyOp24
 70
     1
102
RTVSPropertyOp25
 70
     1
102
RTVSPropertyOp26
 70
     1
102
RTVSPropertyOp27
 70
     1
102
RTVSPropertyOp28
 70
     1
102
RTVSPropertyOp29
 70
     1
102
RTVSPropertyOp30
 70
     1
102
RTVSPropertyOp31
 70
     1
102
RTVSPropertyOp32
 70
     1
102
RTVSPropertyOp33
 70
     1
102
RTVSPropertyOp34
 70
     1
102
RTVSPropertyOp35
 70
     1
102
RTVSPropertyOp36
 70
     1
102
RTVSPropertyOp37
 70
     1
102
RTVSPropertyOp38
 70
     1
102
RTVSPropertyOp39
 70
     1
102
RTVSPropertyOp40
 70
     1
102
RTVSPropertyOp41
 70
     1
102
RTVSPropertyOp42
 70
     1
102
RTVSPropertyOp43
 70
     1
102
RTVSPropertyOp44
 70
     1
102
RTVSPropertyOp45
 70
     1
102
RTVSPropertyOp46
 70
     1
102
RTVSPropertyOp47
 70
     1
102
RTVSPropertyOp48
 70
     1
102
RTVSPropertyOp49
 70
     1
102
RTVSPropertyOp50
 70
     1
102
RTVSPropertyOp51
 70
     0
102
RTVSPropertyOp52
 70
     0
102
RTVSPropertyOp53
 70
     1
102
RTVSPropertyOp54
 70
     1
102
RTVSPropertyOp55
 70
     1
102
RTVSPropertyOp56
 70
     1
102
RTVSPropertyOp57
 70
     1
102
RTVSPropertyOp58
 70
     1
102
RTVSPropertyOp59
 70
     1
102
RTVSPropertyOp60
 70
     1
102
RTVSPropertyOp61
 70
     1
102
RTVSPropertyOp62
 70
     1
  0
XRECORD
  5
379
102
{ACAD_REACTORS
330
378
102
}
330
378
100
AcDbXrecord
280
     1
102
RTVSPost2010Prop28
280
     0
102
RTVSPost2010PropOp28
 70
     1
102
RTVSPost2010Prop29
280
     1
102
RTVSPost2010PropOp29
 70
     1
102
RTVSPost2010Prop30
280
     1
102
RTVSPost2010PropOp30
 70
     1
102
RTVSPost2010Prop31
280
     0
102
RTVSPost2010PropOp31
 70
     1
102
RTVSPost2010Prop32
280
     0
102
RTVSPost2010PropOp32
 70
     1
102
RTVSPost2010Prop33
280
     0
102
RTVSPost2010PropOp33
 70
     1
102
RTVSPost2010Prop34
280
     0
102
RTVSPost2010PropOp34
 70
     1
102
RTVSPost2010Prop35
280
     0
102
RTVSPost2010PropOp35
 70
     1
102
RTVSPost2010Prop36
280
     0
102
RTVSPost2010PropOp36
 70
     1
102
RTVSPost2010Prop37
 90
       50
102
RTVSPost2010PropOp37
 70
     1
102
RTVSPost2010Prop38
140
0.0
102
RTVSPost2010PropOp38
 70
     1
102
RTVSPost2010Prop39
140
1.0
102
RTVSPost2010PropOp39
 70
     1
102
RTVSPost2010Prop40
 90
        0
102
RTVSPost2010PropOp40
 70
     1
102
RTVSPost2010Prop41ColorIndex
 90
       18
102
RTVSPost2010Prop41ColorRGB
 90
        0
102
RTVSPost2010PropOp41
 70
     1
102
RTVSPost2010Prop42
 90
       50
102
RTVSPost2010PropOp42
 70
     1
102
RTVSPost2010Prop43
 90
        3
102
RTVSPost2010PropOp43
 70
     1
102
RTVSPost2010Prop44ColorIndex
 90
        5
102
RTVSPost2010Prop44ColorRGB
 90
      255
102
RTVSPost2010PropOp44
 70
     1
102
RTVSPost2010Prop45
280
     0
102
RTVSPost2010PropOp45
 70
     1
102
RTVSPost2010Prop46
 90
       50
102
RTVSPost2010PropOp46
 70
     1
102
RTVSPost2010Prop47
 90
       50
102
RTVSPost2010PropOp47
 70
     1
102
RTVSPost2010Prop48
 90
       50
102
RTVSPost2010PropOp48
 70
     1
102
RTVSPost2010Prop49
280
     0
102
RTVSPost2010PropOp49
 70
     1
102
RTVSPost2010Prop50
 90
       50
102
RTVSPost2010PropOp50
 70
     1
102
RTVSPost2010Prop51ColorIndex
 90
      256
102
RTVSPost2010Prop51ColorRGB
 90
-16777216
102
RTVSPost2010PropOp51
 70
     0
102
RTVSPost2010Prop52
140
1.0
102
RTVSPost2010PropOp52
 70
     0
102
RTVSPost2010Prop53
 90
        2
102
RTVSPost2010PropOp53
 70
     1
102
RTVSPost2010Prop54
  1
strokes_ogs.tif
102
RTVSPost2010PropOp54
 70
     1
102
RTVSPost2010Prop55
280
     0
102
RTVSPost2010PropOp55
 70
     1
102
RTVSPost2010Prop56
140
1.0
102
RTVSPost2010PropOp56
 70
     1
102
RTVSPost2010Prop57
140
1.0
102
RTVSPost2010PropOp57
 70
     1
102
RTVSPropertyOp0
 70
     1
102
RTVSPropertyOp1
 70
     1
102
RTVSPropertyOp2
 70
     1
102
RTVSPropertyOp3
 70
     1
102
RTVSPropertyOp4
 70
     1
102
RTVSPropertyOp5
 70
     1
102
RTVSPropertyOp6
 70
     1
102
RTVSPropertyOp7
 70
     1
102
RTVSPropertyOp8
 70
     1
102
RTVSPropertyOp9
 70
     1
102
RTVSPropertyOp10
 70
     1
102
RTVSPropertyOp11
 70
     1
102
RTVSPropertyOp12
 70
     1
102
RTVSPropertyOp13
 70
     1
102
RTVSPropertyOp14
 70
     1
102
RTVSPropertyOp15
 70
     1
102
RTVSPropertyOp16
 70
     1
102
RTVSPropertyOp17
 70
     1
102
RTVSPropertyOp18
 70
     1
102
RTVSPropertyOp19
 70
     1
102
RTVSPropertyOp20
 70
     1
102
RTVSPropertyOp21
 70
     1
102
RTVSPropertyOp22
 70
     1
102
RTVSPropertyOp23
 70
     1
102
RTVSPropertyOp24
 70
     1
102
RTVSPropertyOp25
 70
     1
102
RTVSPropertyOp26
 70
     1
102
RTVSPropertyOp27
 70
     1
102
RTVSPropertyOp28
 70
     1
102
RTVSPropertyOp29
 70
     1
102
RTVSPropertyOp30
 70
     1
102
RTVSPropertyOp31
 70
     1
102
RTVSPropertyOp32
 70
     1
102
RTVSPropertyOp33
 70
     1
102
RTVSPropertyOp34
 70
     1
102
RTVSPropertyOp35
 70
     1
102
RTVSPropertyOp36
 70
     1
102
RTVSPropertyOp37
 70
     1
102
RTVSPropertyOp38
 70
     1
102
RTVSPropertyOp39
 70
     1
102
RTVSPropertyOp40
 70
     1
102
RTVSPropertyOp41
 70
     1
102
RTVSPropertyOp42
 70
     1
102
RTVSPropertyOp43
 70
     1
102
RTVSPropertyOp44
 70
     1
102
RTVSPropertyOp45
 70
     1
102
RTVSPropertyOp46
 70
     1
102
RTVSPropertyOp47
 70
     1
102
RTVSPropertyOp48
 70
     1
102
RTVSPropertyOp49
 70
     1
102
RTVSPropertyOp50
 70
     1
102
RTVSPropertyOp51
 70
     0
102
RTVSPropertyOp52
 70
     0
102
RTVSPropertyOp53
 70
     1
102
RTVSPropertyOp54
 70
     1
102
RTVSPropertyOp55
 70
     1
102
RTVSPropertyOp56
 70
     1
102
RTVSPropertyOp57
 70
     1
102
RTVSPropertyOp58
 70
     1
102
RTVSPropertyOp59
 70
     1
102
RTVSPropertyOp60
 70
     1
102
RTVSPropertyOp61
 70
     1
102
RTVSPropertyOp62
 70
     1
  0
XRECORD
  5
37B
102
{ACAD_REACTORS
330
37A
102
}
330
37A
100
AcDbXrecord
280
     1
102
RTVSPost2010Prop28
280
     0
102
RTVSPost2010PropOp28
 70
     1
102
RTVSPost2010Prop29
280
     1
102
RTVSPost2010PropOp29
 70
     1
102
RTVSPost2010Prop30
280
     1
102
RTVSPost2010PropOp30
 70
     1
102
RTVSPost2010Prop31
280
     0
102
RTVSPost2010PropOp31
 70
     1
102
RTVSPost2010Prop32
280
     0
102
RTVSPost2010PropOp32
 70
     1
102
RTVSPost2010Prop33
280
     0
102
RTVSPost2010PropOp33
 70
     1
102
RTVSPost2010Prop34
280
     0
102
RTVSPost2010PropOp34
 70
     1
102
RTVSPost2010Prop35
280
     0
102
RTVSPost2010PropOp35
 70
     1
102
RTVSPost2010Prop36
280
     0
102
RTVSPost2010PropOp36
 70
     1
102
RTVSPost2010Prop37
 90
       50
102
RTVSPost2010PropOp37
 70
     1
102
RTVSPost2010Prop38
140
0.0
102
RTVSPost2010PropOp38
 70
     1
102
RTVSPost2010Prop39
140
1.0
102
RTVSPost2010PropOp39
 70
     1
102
RTVSPost2010Prop40
 90
        0
102
RTVSPost2010PropOp40
 70
     1
102
RTVSPost2010Prop41ColorIndex
 90
       18
102
RTVSPost2010Prop41ColorRGB
 90
        0
102
RTVSPost2010PropOp41
 70
     1
102
RTVSPost2010Prop42
 90
       50
102
RTVSPost2010PropOp42
 70
     1
102
RTVSPost2010Prop43
 90
        3
102
RTVSPost2010PropOp43
 70
     1
102
RTVSPost2010Prop44ColorIndex
 90
        5
102
RTVSPost2010Prop44ColorRGB
 90
      255
102
RTVSPost2010PropOp44
 70
     1
102
RTVSPost2010Prop45
280
     0
102
RTVSPost2010PropOp45
 70
     1
102
RTVSPost2010Prop46
 90
       50
102
RTVSPost2010PropOp46
 70
     1
102
RTVSPost2010Prop47
 90
       50
102
RTVSPost2010PropOp47
 70
     1
102
RTVSPost2010Prop48
 90
       50
102
RTVSPost2010PropOp48
 70
     1
102
RTVSPost2010Prop49
280
     0
102
RTVSPost2010PropOp49
 70
     1
102
RTVSPost2010Prop50
 90
       50
102
RTVSPost2010PropOp50
 70
     1
102
RTVSPost2010Prop51ColorIndex
 90
      256
102
RTVSPost2010Prop51ColorRGB
 90
-16777216
102
RTVSPost2010PropOp51
 70
     0
102
RTVSPost2010Prop52
140
1.0
102
RTVSPost2010PropOp52
 70
     0
102
RTVSPost2010Prop53
 90
        2
102
RTVSPost2010PropOp53
 70
     1
102
RTVSPost2010Prop54
  1
strokes_ogs.tif
102
RTVSPost2010PropOp54
 70
     1
102
RTVSPost2010Prop55
280
     0
102
RTVSPost2010PropOp55
 70
     1
102
RTVSPost2010Prop56
140
1.0
102
RTVSPost2010PropOp56
 70
     1
102
RTVSPost2010Prop57
140
1.0
102
RTVSPost2010PropOp57
 70
     1
102
RTVSPropertyOp0
 70
     1
102
RTVSPropertyOp1
 70
     1
102
RTVSPropertyOp2
 70
     1
102
RTVSPropertyOp3
 70
     1
102
RTVSPropertyOp4
 70
     1
102
RTVSPropertyOp5
 70
     1
102
RTVSPropertyOp6
 70
     1
102
RTVSPropertyOp7
 70
     1
102
RTVSPropertyOp8
 70
     1
102
RTVSPropertyOp9
 70
     1
102
RTVSPropertyOp10
 70
     1
102
RTVSPropertyOp11
 70
     1
102
RTVSPropertyOp12
 70
     1
102
RTVSPropertyOp13
 70
     1
102
RTVSPropertyOp14
 70
     1
102
RTVSPropertyOp15
 70
     1
102
RTVSPropertyOp16
 70
     1
102
RTVSPropertyOp17
 70
     1
102
RTVSPropertyOp18
 70
     1
102
RTVSPropertyOp19
 70
     1
102
RTVSPropertyOp20
 70
     1
102
RTVSPropertyOp21
 70
     1
102
RTVSPropertyOp22
 70
     1
102
RTVSPropertyOp23
 70
     1
102
RTVSPropertyOp24
 70
     1
102
RTVSPropertyOp25
 70
     1
102
RTVSPropertyOp26
 70
     1
102
RTVSPropertyOp27
 70
     1
102
RTVSPropertyOp28
 70
     1
102
RTVSPropertyOp29
 70
     1
102
RTVSPropertyOp30
 70
     1
102
RTVSPropertyOp31
 70
     1
102
RTVSPropertyOp32
 70
     1
102
RTVSPropertyOp33
 70
     1
102
RTVSPropertyOp34
 70
     1
102
RTVSPropertyOp35
 70
     1
102
RTVSPropertyOp36
 70
     1
102
RTVSPropertyOp37
 70
     1
102
RTVSPropertyOp38
 70
     1
102
RTVSPropertyOp39
 70
     1
102
RTVSPropertyOp40
 70
     1
102
RTVSPropertyOp41
 70
     1
102
RTVSPropertyOp42
 70
     1
102
RTVSPropertyOp43
 70
     1
102
RTVSPropertyOp44
 70
     1
102
RTVSPropertyOp45
 70
     1
102
RTVSPropertyOp46
 70
     1
102
RTVSPropertyOp47
 70
     1
102
RTVSPropertyOp48
 70
     1
102
RTVSPropertyOp49
 70
     1
102
RTVSPropertyOp50
 70
     1
102
RTVSPropertyOp51
 70
     0
102
RTVSPropertyOp52
 70
     0
102
RTVSPropertyOp53
 70
     1
102
RTVSPropertyOp54
 70
     1
102
RTVSPropertyOp55
 70
     1
102
RTVSPropertyOp56
 70
     1
102
RTVSPropertyOp57
 70
     1
102
RTVSPropertyOp58
 70
     1
102
RTVSPropertyOp59
 70
     1
102
RTVSPropertyOp60
 70
     1
102
RTVSPropertyOp61
 70
     1
102
RTVSPropertyOp62
 70
     1
  0
XRECORD
  5
37D
102
{ACAD_REACTORS
330
37C
102
}
330
37C
100
AcDbXrecord
280
     1
102
RTVSPost2010Prop28
280
     0
102
RTVSPost2010PropOp28
 70
     1
102
RTVSPost2010Prop29
280
     1
102
RTVSPost2010PropOp29
 70
     1
102
RTVSPost2010Prop30
280
     1
102
RTVSPost2010PropOp30
 70
     1
102
RTVSPost2010Prop31
280
     0
102
RTVSPost2010PropOp31
 70
     1
102
RTVSPost2010Prop32
280
     0
102
RTVSPost2010PropOp32
 70
     1
102
RTVSPost2010Prop33
280
     0
102
RTVSPost2010PropOp33
 70
     1
102
RTVSPost2010Prop34
280
     0
102
RTVSPost2010PropOp34
 70
     1
102
RTVSPost2010Prop35
280
     0
102
RTVSPost2010PropOp35
 70
     1
102
RTVSPost2010Prop36
280
     0
102
RTVSPost2010PropOp36
 70
     1
102
RTVSPost2010Prop37
 90
       50
102
RTVSPost2010PropOp37
 70
     1
102
RTVSPost2010Prop38
140
0.0
102
RTVSPost2010PropOp38
 70
     1
102
RTVSPost2010Prop39
140
1.0
102
RTVSPost2010PropOp39
 70
     1
102
RTVSPost2010Prop40
 90
        0
102
RTVSPost2010PropOp40
 70
     1
102
RTVSPost2010Prop41ColorIndex
 90
       18
102
RTVSPost2010Prop41ColorRGB
 90
        0
102
RTVSPost2010PropOp41
 70
     1
102
RTVSPost2010Prop42
 90
       50
102
RTVSPost2010PropOp42
 70
     1
102
RTVSPost2010Prop43
 90
        3
102
RTVSPost2010PropOp43
 70
     1
102
RTVSPost2010Prop44ColorIndex
 90
        5
102
RTVSPost2010Prop44ColorRGB
 90
      255
102
RTVSPost2010PropOp44
 70
     1
102
RTVSPost2010Prop45
280
     0
102
RTVSPost2010PropOp45
 70
     1
102
RTVSPost2010Prop46
 90
       50
102
RTVSPost2010PropOp46
 70
     1
102
RTVSPost2010Prop47
 90
       50
102
RTVSPost2010PropOp47
 70
     1
102
RTVSPost2010Prop48
 90
       50
102
RTVSPost2010PropOp48
 70
     1
102
RTVSPost2010Prop49
280
     0
102
RTVSPost2010PropOp49
 70
     1
102
RTVSPost2010Prop50
 90
       50
102
RTVSPost2010PropOp50
 70
     1
102
RTVSPost2010Prop51ColorIndex
 90
      256
102
RTVSPost2010Prop51ColorRGB
 90
-16777216
102
RTVSPost2010PropOp51
 70
     0
102
RTVSPost2010Prop52
140
1.0
102
RTVSPost2010PropOp52
 70
     0
102
RTVSPost2010Prop53
 90
        2
102
RTVSPost2010PropOp53
 70
     1
102
RTVSPost2010Prop54
  1
strokes_ogs.tif
102
RTVSPost2010PropOp54
 70
     1
102
RTVSPost2010Prop55
280
     0
102
RTVSPost2010PropOp55
 70
     1
102
RTVSPost2010Prop56
140
1.0
102
RTVSPost2010PropOp56
 70
     1
102
RTVSPost2010Prop57
140
1.0
102
RTVSPost2010PropOp57
 70
     1
102
RTVSPropertyOp0
 70
     1
102
RTVSPropertyOp1
 70
     1
102
RTVSPropertyOp2
 70
     1
102
RTVSPropertyOp3
 70
     1
102
RTVSPropertyOp4
 70
     1
102
RTVSPropertyOp5
 70
     1
102
RTVSPropertyOp6
 70
     1
102
RTVSPropertyOp7
 70
     1
102
RTVSPropertyOp8
 70
     1
102
RTVSPropertyOp9
 70
     1
102
RTVSPropertyOp10
 70
     1
102
RTVSPropertyOp11
 70
     1
102
RTVSPropertyOp12
 70
     1
102
RTVSPropertyOp13
 70
     1
102
RTVSPropertyOp14
 70
     1
102
RTVSPropertyOp15
 70
     1
102
RTVSPropertyOp16
 70
     1
102
RTVSPropertyOp17
 70
     1
102
RTVSPropertyOp18
 70
     1
102
RTVSPropertyOp19
 70
     1
102
RTVSPropertyOp20
 70
     1
102
RTVSPropertyOp21
 70
     1
102
RTVSPropertyOp22
 70
     1
102
RTVSPropertyOp23
 70
     1
102
RTVSPropertyOp24
 70
     1
102
RTVSPropertyOp25
 70
     1
102
RTVSPropertyOp26
 70
     1
102
RTVSPropertyOp27
 70
     1
102
RTVSPropertyOp28
 70
     1
102
RTVSPropertyOp29
 70
     1
102
RTVSPropertyOp30
 70
     1
102
RTVSPropertyOp31
 70
     1
102
RTVSPropertyOp32
 70
     1
102
RTVSPropertyOp33
 70
     1
102
RTVSPropertyOp34
 70
     1
102
RTVSPropertyOp35
 70
     1
102
RTVSPropertyOp36
 70
     1
102
RTVSPropertyOp37
 70
     1
102
RTVSPropertyOp38
 70
     1
102
RTVSPropertyOp39
 70
     1
102
RTVSPropertyOp40
 70
     1
102
RTVSPropertyOp41
 70
     1
102
RTVSPropertyOp42
 70
     1
102
RTVSPropertyOp43
 70
     1
102
RTVSPropertyOp44
 70
     1
102
RTVSPropertyOp45
 70
     1
102
RTVSPropertyOp46
 70
     1
102
RTVSPropertyOp47
 70
     1
102
RTVSPropertyOp48
 70
     1
102
RTVSPropertyOp49
 70
     1
102
RTVSPropertyOp50
 70
     1
102
RTVSPropertyOp51
 70
     0
102
RTVSPropertyOp52
 70
     0
102
RTVSPropertyOp53
 70
     1
102
RTVSPropertyOp54
 70
     1
102
RTVSPropertyOp55
 70
     1
102
RTVSPropertyOp56
 70
     1
102
RTVSPropertyOp57
 70
     1
102
RTVSPropertyOp58
 70
     1
102
RTVSPropertyOp59
 70
     1
102
RTVSPropertyOp60
 70
     1
102
RTVSPropertyOp61
 70
     1
102
RTVSPropertyOp62
 70
     1
  0
XRECORD
  5
37F
102
{ACAD_REACTORS
330
37E
102
}
330
37E
100
AcDbXrecord
280
     1
102
RTVSPost2010Prop28
280
     0
102
RTVSPost2010PropOp28
 70
     1
102
RTVSPost2010Prop29
280
     1
102
RTVSPost2010PropOp29
 70
     1
102
RTVSPost2010Prop30
280
     1
102
RTVSPost2010PropOp30
 70
     1
102
RTVSPost2010Prop31
280
     0
102
RTVSPost2010PropOp31
 70
     1
102
RTVSPost2010Prop32
280
     0
102
RTVSPost2010PropOp32
 70
     1
102
RTVSPost2010Prop33
280
     0
102
RTVSPost2010PropOp33
 70
     1
102
RTVSPost2010Prop34
280
     0
102
RTVSPost2010PropOp34
 70
     1
102
RTVSPost2010Prop35
280
     0
102
RTVSPost2010PropOp35
 70
     1
102
RTVSPost2010Prop36
280
     0
102
RTVSPost2010PropOp36
 70
     1
102
RTVSPost2010Prop37
 90
       50
102
RTVSPost2010PropOp37
 70
     1
102
RTVSPost2010Prop38
140
0.0
102
RTVSPost2010PropOp38
 70
     1
102
RTVSPost2010Prop39
140
1.0
102
RTVSPost2010PropOp39
 70
     1
102
RTVSPost2010Prop40
 90
        0
102
RTVSPost2010PropOp40
 70
     1
102
RTVSPost2010Prop41ColorIndex
 90
       18
102
RTVSPost2010Prop41ColorRGB
 90
        0
102
RTVSPost2010PropOp41
 70
     1
102
RTVSPost2010Prop42
 90
       50
102
RTVSPost2010PropOp42
 70
     1
102
RTVSPost2010Prop43
 90
        3
102
RTVSPost2010PropOp43
 70
     1
102
RTVSPost2010Prop44ColorIndex
 90
        5
102
RTVSPost2010Prop44ColorRGB
 90
      255
102
RTVSPost2010PropOp44
 70
     1
102
RTVSPost2010Prop45
280
     0
102
RTVSPost2010PropOp45
 70
     1
102
RTVSPost2010Prop46
 90
       50
102
RTVSPost2010PropOp46
 70
     1
102
RTVSPost2010Prop47
 90
       50
102
RTVSPost2010PropOp47
 70
     1
102
RTVSPost2010Prop48
 90
       50
102
RTVSPost2010PropOp48
 70
     1
102
RTVSPost2010Prop49
280
     0
102
RTVSPost2010PropOp49
 70
     1
102
RTVSPost2010Prop50
 90
       50
102
RTVSPost2010PropOp50
 70
     1
102
RTVSPost2010Prop51ColorIndex
 90
      256
102
RTVSPost2010Prop51ColorRGB
 90
-16777216
102
RTVSPost2010PropOp51
 70
     0
102
RTVSPost2010Prop52
140
1.0
102
RTVSPost2010PropOp52
 70
     0
102
RTVSPost2010Prop53
 90
        2
102
RTVSPost2010PropOp53
 70
     1
102
RTVSPost2010Prop54
  1
strokes_ogs.tif
102
RTVSPost2010PropOp54
 70
     1
102
RTVSPost2010Prop55
280
     0
102
RTVSPost2010PropOp55
 70
     1
102
RTVSPost2010Prop56
140
1.0
102
RTVSPost2010PropOp56
 70
     1
102
RTVSPost2010Prop57
140
1.0
102
RTVSPost2010PropOp57
 70
     1
102
RTVSPropertyOp0
 70
     1
102
RTVSPropertyOp1
 70
     1
102
RTVSPropertyOp2
 70
     1
102
RTVSPropertyOp3
 70
     1
102
RTVSPropertyOp4
 70
     1
102
RTVSPropertyOp5
 70
     1
102
RTVSPropertyOp6
 70
     1
102
RTVSPropertyOp7
 70
     1
102
RTVSPropertyOp8
 70
     1
102
RTVSPropertyOp9
 70
     1
102
RTVSPropertyOp10
 70
     1
102
RTVSPropertyOp11
 70
     1
102
RTVSPropertyOp12
 70
     1
102
RTVSPropertyOp13
 70
     1
102
RTVSPropertyOp14
 70
     1
102
RTVSPropertyOp15
 70
     1
102
RTVSPropertyOp16
 70
     1
102
RTVSPropertyOp17
 70
     1
102
RTVSPropertyOp18
 70
     1
102
RTVSPropertyOp19
 70
     1
102
RTVSPropertyOp20
 70
     1
102
RTVSPropertyOp21
 70
     1
102
RTVSPropertyOp22
 70
     1
102
RTVSPropertyOp23
 70
     1
102
RTVSPropertyOp24
 70
     1
102
RTVSPropertyOp25
 70
     1
102
RTVSPropertyOp26
 70
     1
102
RTVSPropertyOp27
 70
     1
102
RTVSPropertyOp28
 70
     1
102
RTVSPropertyOp29
 70
     1
102
RTVSPropertyOp30
 70
     1
102
RTVSPropertyOp31
 70
     1
102
RTVSPropertyOp32
 70
     1
102
RTVSPropertyOp33
 70
     1
102
RTVSPropertyOp34
 70
     1
102
RTVSPropertyOp35
 70
     1
102
RTVSPropertyOp36
 70
     1
102
RTVSPropertyOp37
 70
     1
102
RTVSPropertyOp38
 70
     1
102
RTVSPropertyOp39
 70
     1
102
RTVSPropertyOp40
 70
     1
102
RTVSPropertyOp41
 70
     1
102
RTVSPropertyOp42
 70
     1
102
RTVSPropertyOp43
 70
     1
102
RTVSPropertyOp44
 70
     1
102
RTVSPropertyOp45
 70
     1
102
RTVSPropertyOp46
 70
     1
102
RTVSPropertyOp47
 70
     1
102
RTVSPropertyOp48
 70
     1
102
RTVSPropertyOp49
 70
     1
102
RTVSPropertyOp50
 70
     1
102
RTVSPropertyOp51
 70
     0
102
RTVSPropertyOp52
 70
     0
102
RTVSPropertyOp53
 70
     1
102
RTVSPropertyOp54
 70
     1
102
RTVSPropertyOp55
 70
     1
102
RTVSPropertyOp56
 70
     1
102
RTVSPropertyOp57
 70
     1
102
RTVSPropertyOp58
 70
     1
102
RTVSPropertyOp59
 70
     1
102
RTVSPropertyOp60
 70
     1
102
RTVSPropertyOp61
 70
     1
102
RTVSPropertyOp62
 70
     1
  0
XRECORD
  5
385
102
{ACAD_REACTORS
330
384
102
}
330
384
100
AcDbXrecord
280
     1
102
RTVSPost2010Prop28
280
     0
102
RTVSPost2010PropOp28
 70
     1
102
RTVSPost2010Prop29
280
     1
102
RTVSPost2010PropOp29
 70
     1
102
RTVSPost2010Prop30
280
     1
102
RTVSPost2010PropOp30
 70
     1
102
RTVSPost2010Prop31
280
     0
102
RTVSPost2010PropOp31
 70
     1
102
RTVSPost2010Prop32
280
     0
102
RTVSPost2010PropOp32
 70
     1
102
RTVSPost2010Prop33
280
     0
102
RTVSPost2010PropOp33
 70
     1
102
RTVSPost2010Prop34
280
     0
102
RTVSPost2010PropOp34
 70
     1
102
RTVSPost2010Prop35
280
     0
102
RTVSPost2010PropOp35
 70
     1
102
RTVSPost2010Prop36
280
     0
102
RTVSPost2010PropOp36
 70
     1
102
RTVSPost2010Prop37
 90
       50
102
RTVSPost2010PropOp37
 70
     1
102
RTVSPost2010Prop38
140
0.0
102
RTVSPost2010PropOp38
 70
     1
102
RTVSPost2010Prop39
140
1.0
102
RTVSPost2010PropOp39
 70
     1
102
RTVSPost2010Prop40
 90
        0
102
RTVSPost2010PropOp40
 70
     1
102
RTVSPost2010Prop41ColorIndex
 90
       18
102
RTVSPost2010Prop41ColorRGB
 90
        0
102
RTVSPost2010PropOp41
 70
     1
102
RTVSPost2010Prop42
 90
       50
102
RTVSPost2010PropOp42
 70
     1
102
RTVSPost2010Prop43
 90
        3
102
RTVSPost2010PropOp43
 70
     1
102
RTVSPost2010Prop44ColorIndex
 90
        5
102
RTVSPost2010Prop44ColorRGB
 90
      255
102
RTVSPost2010PropOp44
 70
     1
102
RTVSPost2010Prop45
280
     0
102
RTVSPost2010PropOp45
 70
     1
102
RTVSPost2010Prop46
 90
       50
102
RTVSPost2010PropOp46
 70
     1
102
RTVSPost2010Prop47
 90
       50
102
RTVSPost2010PropOp47
 70
     1
102
RTVSPost2010Prop48
 90
       50
102
RTVSPost2010PropOp48
 70
     1
102
RTVSPost2010Prop49
280
     0
102
RTVSPost2010PropOp49
 70
     1
102
RTVSPost2010Prop50
 90
       50
102
RTVSPost2010PropOp50
 70
     1
102
RTVSPost2010Prop51ColorIndex
 90
      256
102
RTVSPost2010Prop51ColorRGB
 90
-16777216
102
RTVSPost2010PropOp51
 70
     0
102
RTVSPost2010Prop52
140
1.0
102
RTVSPost2010PropOp52
 70
     0
102
RTVSPost2010Prop53
 90
        2
102
RTVSPost2010PropOp53
 70
     1
102
RTVSPost2010Prop54
  1
strokes_ogs.tif
102
RTVSPost2010PropOp54
 70
     1
102
RTVSPost2010Prop55
280
     0
102
RTVSPost2010PropOp55
 70
     1
102
RTVSPost2010Prop56
140
1.0
102
RTVSPost2010PropOp56
 70
     1
102
RTVSPost2010Prop57
140
1.0
102
RTVSPost2010PropOp57
 70
     1
102
RTVSPropertyOp0
 70
     1
102
RTVSPropertyOp1
 70
     1
102
RTVSPropertyOp2
 70
     1
102
RTVSPropertyOp3
 70
     1
102
RTVSPropertyOp4
 70
     1
102
RTVSPropertyOp5
 70
     1
102
RTVSPropertyOp6
 70
     1
102
RTVSPropertyOp7
 70
     1
102
RTVSPropertyOp8
 70
     1
102
RTVSPropertyOp9
 70
     1
102
RTVSPropertyOp10
 70
     1
102
RTVSPropertyOp11
 70
     1
102
RTVSPropertyOp12
 70
     1
102
RTVSPropertyOp13
 70
     1
102
RTVSPropertyOp14
 70
     1
102
RTVSPropertyOp15
 70
     1
102
RTVSPropertyOp16
 70
     1
102
RTVSPropertyOp17
 70
     1
102
RTVSPropertyOp18
 70
     1
102
RTVSPropertyOp19
 70
     1
102
RTVSPropertyOp20
 70
     1
102
RTVSPropertyOp21
 70
     1
102
RTVSPropertyOp22
 70
     1
102
RTVSPropertyOp23
 70
     1
102
RTVSPropertyOp24
 70
     1
102
RTVSPropertyOp25
 70
     1
102
RTVSPropertyOp26
 70
     1
102
RTVSPropertyOp27
 70
     1
102
RTVSPropertyOp28
 70
     1
102
RTVSPropertyOp29
 70
     1
102
RTVSPropertyOp30
 70
     1
102
RTVSPropertyOp31
 70
     1
102
RTVSPropertyOp32
 70
     1
102
RTVSPropertyOp33
 70
     1
102
RTVSPropertyOp34
 70
     1
102
RTVSPropertyOp35
 70
     1
102
RTVSPropertyOp36
 70
     1
102
RTVSPropertyOp37
 70
     1
102
RTVSPropertyOp38
 70
     1
102
RTVSPropertyOp39
 70
     1
102
RTVSPropertyOp40
 70
     1
102
RTVSPropertyOp41
 70
     1
102
RTVSPropertyOp42
 70
     1
102
RTVSPropertyOp43
 70
     1
102
RTVSPropertyOp44
 70
     1
102
RTVSPropertyOp45
 70
     1
102
RTVSPropertyOp46
 70
     1
102
RTVSPropertyOp47
 70
     1
102
RTVSPropertyOp48
 70
     1
102
RTVSPropertyOp49
 70
     1
102
RTVSPropertyOp50
 70
     1
102
RTVSPropertyOp51
 70
     0
102
RTVSPropertyOp52
 70
     0
102
RTVSPropertyOp53
 70
     1
102
RTVSPropertyOp54
 70
     1
102
RTVSPropertyOp55
 70
     1
102
RTVSPropertyOp56
 70
     1
102
RTVSPropertyOp57
 70
     1
102
RTVSPropertyOp58
 70
     1
102
RTVSPropertyOp59
 70
     1
102
RTVSPropertyOp60
 70
     1
102
RTVSPropertyOp61
 70
     1
102
RTVSPropertyOp62
 70
     1
  0
XRECORD
  5
399
102
{ACAD_REACTORS
330
398
102
}
330
398
100
AcDbXrecord
280
     1
102
RTVSPost2010Prop28
280
     0
102
RTVSPost2010PropOp28
 70
     0
102
RTVSPost2010Prop29
280
     1
102
RTVSPost2010PropOp29
 70
     0
102
RTVSPost2010Prop30
280
     1
102
RTVSPost2010PropOp30
 70
     0
102
RTVSPost2010Prop31
280
     0
102
RTVSPost2010PropOp31
 70
     0
102
RTVSPost2010Prop32
280
     0
102
RTVSPost2010PropOp32
 70
     0
102
RTVSPost2010Prop33
280
     0
102
RTVSPost2010PropOp33
 70
     0
102
RTVSPost2010Prop34
280
     0
102
RTVSPost2010PropOp34
 70
     0
102
RTVSPost2010Prop35
280
     0
102
RTVSPost2010PropOp35
 70
     0
102
RTVSPost2010Prop36
280
     0
102
RTVSPost2010PropOp36
 70
     0
102
RTVSPost2010Prop37
 90
       50
102
RTVSPost2010PropOp37
 70
     0
102
RTVSPost2010Prop38
140
0.0
102
RTVSPost2010PropOp38
 70
     0
102
RTVSPost2010Prop39
140
1.0
102
RTVSPost2010PropOp39
 70
     0
102
RTVSPost2010Prop40
 90
        0
102
RTVSPost2010PropOp40
 70
     0
102
RTVSPost2010Prop41ColorIndex
 90
       18
102
RTVSPost2010Prop41ColorRGB
 90
        0
102
RTVSPost2010PropOp41
 70
     0
102
RTVSPost2010Prop42
 90
       50
102
RTVSPost2010PropOp42
 70
     0
102
RTVSPost2010Prop43
 90
        3
102
RTVSPost2010PropOp43
 70
     0
102
RTVSPost2010Prop44ColorIndex
 90
        5
102
RTVSPost2010Prop44ColorRGB
 90
      255
102
RTVSPost2010PropOp44
 70
     0
102
RTVSPost2010Prop45
280
     0
102
RTVSPost2010PropOp45
 70
     0
102
RTVSPost2010Prop46
 90
       50
102
RTVSPost2010PropOp46
 70
     0
102
RTVSPost2010Prop47
 90
       50
102
RTVSPost2010PropOp47
 70
     0
102
RTVSPost2010Prop48
 90
       50
102
RTVSPost2010PropOp48
 70
     0
102
RTVSPost2010Prop49
280
     0
102
RTVSPost2010PropOp49
 70
     0
102
RTVSPost2010Prop50
 90
       50
102
RTVSPost2010PropOp50
 70
     0
102
RTVSPost2010Prop51ColorIndex
 90
      256
102
RTVSPost2010Prop51ColorRGB
 90
-16777216
102
RTVSPost2010PropOp51
 70
     0
102
RTVSPost2010Prop52
140
1.0
102
RTVSPost2010PropOp52
 70
     0
102
RTVSPost2010Prop53
 90
        2
102
RTVSPost2010PropOp53
 70
     0
102
RTVSPost2010Prop54
  1
strokes_ogs.tif
102
RTVSPost2010PropOp54
 70
     0
102
RTVSPost2010Prop55
280
     0
102
RTVSPost2010PropOp55
 70
     0
102
RTVSPost2010Prop56
140
1.0
102
RTVSPost2010PropOp56
 70
     0
102
RTVSPost2010Prop57
140
1.0
102
RTVSPost2010PropOp57
 70
     0
102
RTVSPropertyOp0
 70
     0
102
RTVSPropertyOp1
 70
     0
102
RTVSPropertyOp2
 70
     0
102
RTVSPropertyOp3
 70
     0
102
RTVSPropertyOp4
 70
     0
102
RTVSPropertyOp5
 70
     0
102
RTVSPropertyOp6
 70
     0
102
RTVSPropertyOp7
 70
     0
102
RTVSPropertyOp8
 70
     0
102
RTVSPropertyOp9
 70
     0
102
RTVSPropertyOp10
 70
     0
102
RTVSPropertyOp11
 70
     0
102
RTVSPropertyOp12
 70
     0
102
RTVSPropertyOp13
 70
     0
102
RTVSPropertyOp14
 70
     2
102
RTVSPropertyOp15
 70
     0
102
RTVSPropertyOp16
 70
     0
102
RTVSPropertyOp17
 70
     0
102
RTVSPropertyOp18
 70
     0
102
RTVSPropertyOp19
 70
     0
102
RTVSPropertyOp20
 70
     0
102
RTVSPropertyOp21
 70
     0
102
RTVSPropertyOp22
 70
     0
102
RTVSPropertyOp23
 70
     0
102
RTVSPropertyOp24
 70
     0
102
RTVSPropertyOp25
 70
     0
102
RTVSPropertyOp26
 70
     0
102
RTVSPropertyOp27
 70
     0
102
RTVSPropertyOp28
 70
     0
102
RTVSPropertyOp29
 70
     0
102
RTVSPropertyOp30
 70
     0
102
RTVSPropertyOp31
 70
     0
102
RTVSPropertyOp32
 70
     0
102
RTVSPropertyOp33
 70
     0
102
RTVSPropertyOp34
 70
     0
102
RTVSPropertyOp35
 70
     0
102
RTVSPropertyOp36
 70
     0
102
RTVSPropertyOp37
 70
     0
102
RTVSPropertyOp38
 70
     0
102
RTVSPropertyOp39
 70
     0
102
RTVSPropertyOp40
 70
     0
102
RTVSPropertyOp41
 70
     0
102
RTVSPropertyOp42
 70
     0
102
RTVSPropertyOp43
 70
     0
102
RTVSPropertyOp44
 70
     0
102
RTVSPropertyOp45
 70
     0
102
RTVSPropertyOp46
 70
     0
102
RTVSPropertyOp47
 70
     0
102
RTVSPropertyOp48
 70
     0
102
RTVSPropertyOp49
 70
     0
102
RTVSPropertyOp50
 70
     0
102
RTVSPropertyOp51
 70
     0
102
RTVSPropertyOp52
 70
     0
102
RTVSPropertyOp53
 70
     0
102
RTVSPropertyOp54
 70
     0
102
RTVSPropertyOp55
 70
     0
102
RTVSPropertyOp56
 70
     0
102
RTVSPropertyOp57
 70
     0
102
RTVSPropertyOp58
 70
     1
102
RTVSPropertyOp59
 70
     1
102
RTVSPropertyOp60
 70
     1
102
RTVSPropertyOp61
 70
     1
102
RTVSPropertyOp62
 70
     1
  0
XRECORD
  5
393
102
{ACAD_REACTORS
330
392
102
}
330
392
100
AcDbXrecord
280
     1
102
RTVSPost2010Prop28
280
     0
102
RTVSPost2010PropOp28
 70
     1
102
RTVSPost2010Prop29
280
     1
102
RTVSPost2010PropOp29
 70
     1
102
RTVSPost2010Prop30
280
     1
102
RTVSPost2010PropOp30
 70
     1
102
RTVSPost2010Prop31
280
     0
102
RTVSPost2010PropOp31
 70
     1
102
RTVSPost2010Prop32
280
     0
102
RTVSPost2010PropOp32
 70
     1
102
RTVSPost2010Prop33
280
     0
102
RTVSPost2010PropOp33
 70
     1
102
RTVSPost2010Prop34
280
     0
102
RTVSPost2010PropOp34
 70
     1
102
RTVSPost2010Prop35
280
     0
102
RTVSPost2010PropOp35
 70
     1
102
RTVSPost2010Prop36
280
     0
102
RTVSPost2010PropOp36
 70
     1
102
RTVSPost2010Prop37
 90
       50
102
RTVSPost2010PropOp37
 70
     1
102
RTVSPost2010Prop38
140
0.0
102
RTVSPost2010PropOp38
 70
     1
102
RTVSPost2010Prop39
140
1.0
102
RTVSPost2010PropOp39
 70
     1
102
RTVSPost2010Prop40
 90
        0
102
RTVSPost2010PropOp40
 70
     1
102
RTVSPost2010Prop41ColorIndex
 90
       18
102
RTVSPost2010Prop41ColorRGB
 90
        0
102
RTVSPost2010PropOp41
 70
     1
102
RTVSPost2010Prop42
 90
       50
102
RTVSPost2010PropOp42
 70
     1
102
RTVSPost2010Prop43
 90
        3
102
RTVSPost2010PropOp43
 70
     1
102
RTVSPost2010Prop44ColorIndex
 90
        5
102
RTVSPost2010Prop44ColorRGB
 90
      255
102
RTVSPost2010PropOp44
 70
     1
102
RTVSPost2010Prop45
280
     0
102
RTVSPost2010PropOp45
 70
     1
102
RTVSPost2010Prop46
 90
       50
102
RTVSPost2010PropOp46
 70
     1
102
RTVSPost2010Prop47
 90
       50
102
RTVSPost2010PropOp47
 70
     1
102
RTVSPost2010Prop48
 90
       50
102
RTVSPost2010PropOp48
 70
     1
102
RTVSPost2010Prop49
280
     0
102
RTVSPost2010PropOp49
 70
     1
102
RTVSPost2010Prop50
 90
       50
102
RTVSPost2010PropOp50
 70
     1
102
RTVSPost2010Prop51ColorIndex
 90
      256
102
RTVSPost2010Prop51ColorRGB
 90
-16777216
102
RTVSPost2010PropOp51
 70
     0
102
RTVSPost2010Prop52
140
1.0
102
RTVSPost2010PropOp52
 70
     0
102
RTVSPost2010Prop53
 90
        2
102
RTVSPost2010PropOp53
 70
     1
102
RTVSPost2010Prop54
  1
strokes_ogs.tif
102
RTVSPost2010PropOp54
 70
     1
102
RTVSPost2010Prop55
280
     0
102
RTVSPost2010PropOp55
 70
     1
102
RTVSPost2010Prop56
140
1.0
102
RTVSPost2010PropOp56
 70
     1
102
RTVSPost2010Prop57
140
1.0
102
RTVSPost2010PropOp57
 70
     1
102
RTVSPropertyOp0
 70
     1
102
RTVSPropertyOp1
 70
     1
102
RTVSPropertyOp2
 70
     1
102
RTVSPropertyOp3
 70
     1
102
RTVSPropertyOp4
 70
     1
102
RTVSPropertyOp5
 70
     1
102
RTVSPropertyOp6
 70
     1
102
RTVSPropertyOp7
 70
     1
102
RTVSPropertyOp8
 70
     1
102
RTVSPropertyOp9
 70
     1
102
RTVSPropertyOp10
 70
     1
102
RTVSPropertyOp11
 70
     1
102
RTVSPropertyOp12
 70
     1
102
RTVSPropertyOp13
 70
     1
102
RTVSPropertyOp14
 70
     1
102
RTVSPropertyOp15
 70
     1
102
RTVSPropertyOp16
 70
     1
102
RTVSPropertyOp17
 70
     1
102
RTVSPropertyOp18
 70
     1
102
RTVSPropertyOp19
 70
     1
102
RTVSPropertyOp20
 70
     1
102
RTVSPropertyOp21
 70
     1
102
RTVSPropertyOp22
 70
     1
102
RTVSPropertyOp23
 70
     1
102
RTVSPropertyOp24
 70
     1
102
RTVSPropertyOp25
 70
     1
102
RTVSPropertyOp26
 70
     1
102
RTVSPropertyOp27
 70
     1
102
RTVSPropertyOp28
 70
     1
102
RTVSPropertyOp29
 70
     1
102
RTVSPropertyOp30
 70
     1
102
RTVSPropertyOp31
 70
     1
102
RTVSPropertyOp32
 70
     1
102
RTVSPropertyOp33
 70
     1
102
RTVSPropertyOp34
 70
     1
102
RTVSPropertyOp35
 70
     1
102
RTVSPropertyOp36
 70
     1
102
RTVSPropertyOp37
 70
     1
102
RTVSPropertyOp38
 70
     1
102
RTVSPropertyOp39
 70
     1
102
RTVSPropertyOp40
 70
     1
102
RTVSPropertyOp41
 70
     1
102
RTVSPropertyOp42
 70
     1
102
RTVSPropertyOp43
 70
     1
102
RTVSPropertyOp44
 70
     1
102
RTVSPropertyOp45
 70
     1
102
RTVSPropertyOp46
 70
     1
102
RTVSPropertyOp47
 70
     1
102
RTVSPropertyOp48
 70
     1
102
RTVSPropertyOp49
 70
     1
102
RTVSPropertyOp50
 70
     1
102
RTVSPropertyOp51
 70
     0
102
RTVSPropertyOp52
 70
     0
102
RTVSPropertyOp53
 70
     1
102
RTVSPropertyOp54
 70
     1
102
RTVSPropertyOp55
 70
     1
102
RTVSPropertyOp56
 70
     1
102
RTVSPropertyOp57
 70
     1
102
RTVSPropertyOp58
 70
     1
102
RTVSPropertyOp59
 70
     1
102
RTVSPropertyOp60
 70
     1
102
RTVSPropertyOp61
 70
     1
102
RTVSPropertyOp62
 70
     1
  0
XRECORD
  5
39B
102
{ACAD_REACTORS
330
39A
102
}
330
39A
100
AcDbXrecord
280
     1
102
RTVSPost2010Prop28
280
     0
102
RTVSPost2010PropOp28
 70
     0
102
RTVSPost2010Prop29
280
     1
102
RTVSPost2010PropOp29
 70
     0
102
RTVSPost2010Prop30
280
     1
102
RTVSPost2010PropOp30
 70
     0
102
RTVSPost2010Prop31
280
     0
102
RTVSPost2010PropOp31
 70
     0
102
RTVSPost2010Prop32
280
     0
102
RTVSPost2010PropOp32
 70
     0
102
RTVSPost2010Prop33
280
     0
102
RTVSPost2010PropOp33
 70
     0
102
RTVSPost2010Prop34
280
     0
102
RTVSPost2010PropOp34
 70
     0
102
RTVSPost2010Prop35
280
     0
102
RTVSPost2010PropOp35
 70
     0
102
RTVSPost2010Prop36
280
     0
102
RTVSPost2010PropOp36
 70
     0
102
RTVSPost2010Prop37
 90
       50
102
RTVSPost2010PropOp37
 70
     0
102
RTVSPost2010Prop38
140
0.0
102
RTVSPost2010PropOp38
 70
     0
102
RTVSPost2010Prop39
140
1.0
102
RTVSPost2010PropOp39
 70
     0
102
RTVSPost2010Prop40
 90
        0
102
RTVSPost2010PropOp40
 70
     0
102
RTVSPost2010Prop41ColorIndex
 90
       18
102
RTVSPost2010Prop41ColorRGB
 90
        0
102
RTVSPost2010PropOp41
 70
     0
102
RTVSPost2010Prop42
 90
       50
102
RTVSPost2010PropOp42
 70
     0
102
RTVSPost2010Prop43
 90
        3
102
RTVSPost2010PropOp43
 70
     0
102
RTVSPost2010Prop44ColorIndex
 90
        5
102
RTVSPost2010Prop44ColorRGB
 90
      255
102
RTVSPost2010PropOp44
 70
     0
102
RTVSPost2010Prop45
280
     0
102
RTVSPost2010PropOp45
 70
     0
102
RTVSPost2010Prop46
 90
       50
102
RTVSPost2010PropOp46
 70
     0
102
RTVSPost2010Prop47
 90
       50
102
RTVSPost2010PropOp47
 70
     0
102
RTVSPost2010Prop48
 90
       50
102
RTVSPost2010PropOp48
 70
     0
102
RTVSPost2010Prop49
280
     0
102
RTVSPost2010PropOp49
 70
     0
102
RTVSPost2010Prop50
 90
       50
102
RTVSPost2010PropOp50
 70
     0
102
RTVSPost2010Prop51ColorIndex
 90
      256
102
RTVSPost2010Prop51ColorRGB
 90
-16777216
102
RTVSPost2010PropOp51
 70
     0
102
RTVSPost2010Prop52
140
1.0
102
RTVSPost2010PropOp52
 70
     0
102
RTVSPost2010Prop53
 90
        2
102
RTVSPost2010PropOp53
 70
     0
102
RTVSPost2010Prop54
  1
strokes_ogs.tif
102
RTVSPost2010PropOp54
 70
     0
102
RTVSPost2010Prop55
280
     0
102
RTVSPost2010PropOp55
 70
     0
102
RTVSPost2010Prop56
140
1.0
102
RTVSPost2010PropOp56
 70
     0
102
RTVSPost2010Prop57
140
1.0
102
RTVSPost2010PropOp57
 70
     0
102
RTVSPropertyOp0
 70
     0
102
RTVSPropertyOp1
 70
     0
102
RTVSPropertyOp2
 70
     0
102
RTVSPropertyOp3
 70
     0
102
RTVSPropertyOp4
 70
     0
102
RTVSPropertyOp5
 70
     0
102
RTVSPropertyOp6
 70
     0
102
RTVSPropertyOp7
 70
     0
102
RTVSPropertyOp8
 70
     0
102
RTVSPropertyOp9
 70
     0
102
RTVSPropertyOp10
 70
     0
102
RTVSPropertyOp11
 70
     0
102
RTVSPropertyOp12
 70
     0
102
RTVSPropertyOp13
 70
     0
102
RTVSPropertyOp14
 70
     2
102
RTVSPropertyOp15
 70
     0
102
RTVSPropertyOp16
 70
     0
102
RTVSPropertyOp17
 70
     0
102
RTVSPropertyOp18
 70
     0
102
RTVSPropertyOp19
 70
     0
102
RTVSPropertyOp20
 70
     0
102
RTVSPropertyOp21
 70
     0
102
RTVSPropertyOp22
 70
     0
102
RTVSPropertyOp23
 70
     0
102
RTVSPropertyOp24
 70
     0
102
RTVSPropertyOp25
 70
     0
102
RTVSPropertyOp26
 70
     0
102
RTVSPropertyOp27
 70
     0
102
RTVSPropertyOp28
 70
     0
102
RTVSPropertyOp29
 70
     0
102
RTVSPropertyOp30
 70
     0
102
RTVSPropertyOp31
 70
     0
102
RTVSPropertyOp32
 70
     0
102
RTVSPropertyOp33
 70
     0
102
RTVSPropertyOp34
 70
     0
102
RTVSPropertyOp35
 70
     0
102
RTVSPropertyOp36
 70
     0
102
RTVSPropertyOp37
 70
     0
102
RTVSPropertyOp38
 70
     0
102
RTVSPropertyOp39
 70
     0
102
RTVSPropertyOp40
 70
     0
102
RTVSPropertyOp41
 70
     0
102
RTVSPropertyOp42
 70
     0
102
RTVSPropertyOp43
 70
     0
102
RTVSPropertyOp44
 70
     0
102
RTVSPropertyOp45
 70
     0
102
RTVSPropertyOp46
 70
     0
102
RTVSPropertyOp47
 70
     0
102
RTVSPropertyOp48
 70
     0
102
RTVSPropertyOp49
 70
     0
102
RTVSPropertyOp50
 70
     0
102
RTVSPropertyOp51
 70
     0
102
RTVSPropertyOp52
 70
     0
102
RTVSPropertyOp53
 70
     0
102
RTVSPropertyOp54
 70
     0
102
RTVSPropertyOp55
 70
     0
102
RTVSPropertyOp56
 70
     0
102
RTVSPropertyOp57
 70
     0
102
RTVSPropertyOp58
 70
     1
102
RTVSPropertyOp59
 70
     1
102
RTVSPropertyOp60
 70
     1
102
RTVSPropertyOp61
 70
     1
102
RTVSPropertyOp62
 70
     1
  0
XRECORD
  5
389
102
{ACAD_REACTORS
330
388
102
}
330
388
100
AcDbXrecord
280
     1
102
RTVSPost2010Prop28
280
     0
102
RTVSPost2010PropOp28
 70
     1
102
RTVSPost2010Prop29
280
     1
102
RTVSPost2010PropOp29
 70
     1
102
RTVSPost2010Prop30
280
     1
102
RTVSPost2010PropOp30
 70
     1
102
RTVSPost2010Prop31
280
     0
102
RTVSPost2010PropOp31
 70
     1
102
RTVSPost2010Prop32
280
     0
102
RTVSPost2010PropOp32
 70
     1
102
RTVSPost2010Prop33
280
     0
102
RTVSPost2010PropOp33
 70
     1
102
RTVSPost2010Prop34
280
     0
102
RTVSPost2010PropOp34
 70
     1
102
RTVSPost2010Prop35
280
     0
102
RTVSPost2010PropOp35
 70
     1
102
RTVSPost2010Prop36
280
     0
102
RTVSPost2010PropOp36
 70
     1
102
RTVSPost2010Prop37
 90
       50
102
RTVSPost2010PropOp37
 70
     1
102
RTVSPost2010Prop38
140
0.0
102
RTVSPost2010PropOp38
 70
     1
102
RTVSPost2010Prop39
140
1.0
102
RTVSPost2010PropOp39
 70
     1
102
RTVSPost2010Prop40
 90
        0
102
RTVSPost2010PropOp40
 70
     1
102
RTVSPost2010Prop41ColorIndex
 90
       18
102
RTVSPost2010Prop41ColorRGB
 90
        0
102
RTVSPost2010PropOp41
 70
     1
102
RTVSPost2010Prop42
 90
       50
102
RTVSPost2010PropOp42
 70
     1
102
RTVSPost2010Prop43
 90
        3
102
RTVSPost2010PropOp43
 70
     1
102
RTVSPost2010Prop44ColorIndex
 90
        5
102
RTVSPost2010Prop44ColorRGB
 90
      255
102
RTVSPost2010PropOp44
 70
     1
102
RTVSPost2010Prop45
280
     0
102
RTVSPost2010PropOp45
 70
     1
102
RTVSPost2010Prop46
 90
       50
102
RTVSPost2010PropOp46
 70
     1
102
RTVSPost2010Prop47
 90
       50
102
RTVSPost2010PropOp47
 70
     1
102
RTVSPost2010Prop48
 90
       50
102
RTVSPost2010PropOp48
 70
     1
102
RTVSPost2010Prop49
280
     0
102
RTVSPost2010PropOp49
 70
     1
102
RTVSPost2010Prop50
 90
       50
102
RTVSPost2010PropOp50
 70
     1
102
RTVSPost2010Prop51ColorIndex
 90
      256
102
RTVSPost2010Prop51ColorRGB
 90
-16777216
102
RTVSPost2010PropOp51
 70
     0
102
RTVSPost2010Prop52
140
1.0
102
RTVSPost2010PropOp52
 70
     0
102
RTVSPost2010Prop53
 90
        2
102
RTVSPost2010PropOp53
 70
     1
102
RTVSPost2010Prop54
  1
strokes_ogs.tif
102
RTVSPost2010PropOp54
 70
     1
102
RTVSPost2010Prop55
280
     0
102
RTVSPost2010PropOp55
 70
     1
102
RTVSPost2010Prop56
140
1.0
102
RTVSPost2010PropOp56
 70
     1
102
RTVSPost2010Prop57
140
1.0
102
RTVSPost2010PropOp57
 70
     1
102
RTVSPropertyOp0
 70
     1
102
RTVSPropertyOp1
 70
     1
102
RTVSPropertyOp2
 70
     1
102
RTVSPropertyOp3
 70
     1
102
RTVSPropertyOp4
 70
     1
102
RTVSPropertyOp5
 70
     1
102
RTVSPropertyOp6
 70
     1
102
RTVSPropertyOp7
 70
     1
102
RTVSPropertyOp8
 70
     1
102
RTVSPropertyOp9
 70
     1
102
RTVSPropertyOp10
 70
     1
102
RTVSPropertyOp11
 70
     1
102
RTVSPropertyOp12
 70
     1
102
RTVSPropertyOp13
 70
     1
102
RTVSPropertyOp14
 70
     1
102
RTVSPropertyOp15
 70
     1
102
RTVSPropertyOp16
 70
     1
102
RTVSPropertyOp17
 70
     1
102
RTVSPropertyOp18
 70
     1
102
RTVSPropertyOp19
 70
     1
102
RTVSPropertyOp20
 70
     1
102
RTVSPropertyOp21
 70
     1
102
RTVSPropertyOp22
 70
     1
102
RTVSPropertyOp23
 70
     1
102
RTVSPropertyOp24
 70
     1
102
RTVSPropertyOp25
 70
     1
102
RTVSPropertyOp26
 70
     1
102
RTVSPropertyOp27
 70
     1
102
RTVSPropertyOp28
 70
     1
102
RTVSPropertyOp29
 70
     1
102
RTVSPropertyOp30
 70
     1
102
RTVSPropertyOp31
 70
     1
102
RTVSPropertyOp32
 70
     1
102
RTVSPropertyOp33
 70
     1
102
RTVSPropertyOp34
 70
     1
102
RTVSPropertyOp35
 70
     1
102
RTVSPropertyOp36
 70
     1
102
RTVSPropertyOp37
 70
     1
102
RTVSPropertyOp38
 70
     1
102
RTVSPropertyOp39
 70
     1
102
RTVSPropertyOp40
 70
     1
102
RTVSPropertyOp41
 70
     1
102
RTVSPropertyOp42
 70
     1
102
RTVSPropertyOp43
 70
     1
102
RTVSPropertyOp44
 70
     1
102
RTVSPropertyOp45
 70
     1
102
RTVSPropertyOp46
 70
     1
102
RTVSPropertyOp47
 70
     1
102
RTVSPropertyOp48
 70
     1
102
RTVSPropertyOp49
 70
     1
102
RTVSPropertyOp50
 70
     1
102
RTVSPropertyOp51
 70
     0
102
RTVSPropertyOp52
 70
     0
102
RTVSPropertyOp53
 70
     1
102
RTVSPropertyOp54
 70
     1
102
RTVSPropertyOp55
 70
     1
102
RTVSPropertyOp56
 70
     1
102
RTVSPropertyOp57
 70
     1
102
RTVSPropertyOp58
 70
     1
102
RTVSPropertyOp59
 70
     1
102
RTVSPropertyOp60
 70
     1
102
RTVSPropertyOp61
 70
     1
102
RTVSPropertyOp62
 70
     1
  0
XRECORD
  5
3A7
102
{ACAD_REACTORS
330
3A6
102
}
330
3A6
100
AcDbXrecord
280
     1
102
RTVSPost2010Prop28
280
     0
102
RTVSPost2010PropOp28
 70
     1
102
RTVSPost2010Prop29
280
     1
102
RTVSPost2010PropOp29
 70
     1
102
RTVSPost2010Prop30
280
     1
102
RTVSPost2010PropOp30
 70
     1
102
RTVSPost2010Prop31
280
     0
102
RTVSPost2010PropOp31
 70
     1
102
RTVSPost2010Prop32
280
     0
102
RTVSPost2010PropOp32
 70
     1
102
RTVSPost2010Prop33
280
     0
102
RTVSPost2010PropOp33
 70
     1
102
RTVSPost2010Prop34
280
     0
102
RTVSPost2010PropOp34
 70
     1
102
RTVSPost2010Prop35
280
     0
102
RTVSPost2010PropOp35
 70
     1
102
RTVSPost2010Prop36
280
     0
102
RTVSPost2010PropOp36
 70
     1
102
RTVSPost2010Prop37
 90
       50
102
RTVSPost2010PropOp37
 70
     1
102
RTVSPost2010Prop38
140
0.0
102
RTVSPost2010PropOp38
 70
     1
102
RTVSPost2010Prop39
140
1.0
102
RTVSPost2010PropOp39
 70
     1
102
RTVSPost2010Prop40
 90
        0
102
RTVSPost2010PropOp40
 70
     1
102
RTVSPost2010Prop41ColorIndex
 90
       18
102
RTVSPost2010Prop41ColorRGB
 90
        0
102
RTVSPost2010PropOp41
 70
     1
102
RTVSPost2010Prop42
 90
       50
102
RTVSPost2010PropOp42
 70
     1
102
RTVSPost2010Prop43
 90
        3
102
RTVSPost2010PropOp43
 70
     1
102
RTVSPost2010Prop44ColorIndex
 90
        5
102
RTVSPost2010Prop44ColorRGB
 90
      255
102
RTVSPost2010PropOp44
 70
     1
102
RTVSPost2010Prop45
280
     0
102
RTVSPost2010PropOp45
 70
     1
102
RTVSPost2010Prop46
 90
       50
102
RTVSPost2010PropOp46
 70
     1
102
RTVSPost2010Prop47
 90
       50
102
RTVSPost2010PropOp47
 70
     1
102
RTVSPost2010Prop48
 90
       50
102
RTVSPost2010PropOp48
 70
     1
102
RTVSPost2010Prop49
280
     0
102
RTVSPost2010PropOp49
 70
     1
102
RTVSPost2010Prop50
 90
       50
102
RTVSPost2010PropOp50
 70
     1
102
RTVSPost2010Prop51ColorIndex
 90
      256
102
RTVSPost2010Prop51ColorRGB
 90
-16777216
102
RTVSPost2010PropOp51
 70
     0
102
RTVSPost2010Prop52
140
1.0
102
RTVSPost2010PropOp52
 70
     0
102
RTVSPost2010Prop53
 90
        2
102
RTVSPost2010PropOp53
 70
     1
102
RTVSPost2010Prop54
  1
strokes_ogs.tif
102
RTVSPost2010PropOp54
 70
     1
102
RTVSPost2010Prop55
280
     0
102
RTVSPost2010PropOp55
 70
     1
102
RTVSPost2010Prop56
140
1.0
102
RTVSPost2010PropOp56
 70
     1
102
RTVSPost2010Prop57
140
1.0
102
RTVSPost2010PropOp57
 70
     1
102
RTVSPropertyOp0
 70
     1
102
RTVSPropertyOp1
 70
     1
102
RTVSPropertyOp2
 70
     1
102
RTVSPropertyOp3
 70
     1
102
RTVSPropertyOp4
 70
     1
102
RTVSPropertyOp5
 70
     1
102
RTVSPropertyOp6
 70
     1
102
RTVSPropertyOp7
 70
     1
102
RTVSPropertyOp8
 70
     1
102
RTVSPropertyOp9
 70
     1
102
RTVSPropertyOp10
 70
     1
102
RTVSPropertyOp11
 70
     1
102
RTVSPropertyOp12
 70
     1
102
RTVSPropertyOp13
 70
     1
102
RTVSPropertyOp14
 70
     1
102
RTVSPropertyOp15
 70
     1
102
RTVSPropertyOp16
 70
     1
102
RTVSPropertyOp17
 70
     1
102
RTVSPropertyOp18
 70
     1
102
RTVSPropertyOp19
 70
     1
102
RTVSPropertyOp20
 70
     1
102
RTVSPropertyOp21
 70
     1
102
RTVSPropertyOp22
 70
     1
102
RTVSPropertyOp23
 70
     1
102
RTVSPropertyOp24
 70
     1
102
RTVSPropertyOp25
 70
     1
102
RTVSPropertyOp26
 70
     1
102
RTVSPropertyOp27
 70
     1
102
RTVSPropertyOp28
 70
     1
102
RTVSPropertyOp29
 70
     1
102
RTVSPropertyOp30
 70
     1
102
RTVSPropertyOp31
 70
     1
102
RTVSPropertyOp32
 70
     1
102
RTVSPropertyOp33
 70
     1
102
RTVSPropertyOp34
 70
     1
102
RTVSPropertyOp35
 70
     1
102
RTVSPropertyOp36
 70
     1
102
RTVSPropertyOp37
 70
     1
102
RTVSPropertyOp38
 70
     1
102
RTVSPropertyOp39
 70
     1
102
RTVSPropertyOp40
 70
     1
102
RTVSPropertyOp41
 70
     1
102
RTVSPropertyOp42
 70
     1
102
RTVSPropertyOp43
 70
     1
102
RTVSPropertyOp44
 70
     1
102
RTVSPropertyOp45
 70
     1
102
RTVSPropertyOp46
 70
     1
102
RTVSPropertyOp47
 70
     1
102
RTVSPropertyOp48
 70
     1
102
RTVSPropertyOp49
 70
     1
102
RTVSPropertyOp50
 70
     1
102
RTVSPropertyOp51
 70
     0
102
RTVSPropertyOp52
 70
     0
102
RTVSPropertyOp53
 70
     1
102
RTVSPropertyOp54
 70
     1
102
RTVSPropertyOp55
 70
     1
102
RTVSPropertyOp56
 70
     1
102
RTVSPropertyOp57
 70
     1
102
RTVSPropertyOp58
 70
     1
102
RTVSPropertyOp59
 70
     1
102
RTVSPropertyOp60
 70
     1
102
RTVSPropertyOp61
 70
     1
102
RTVSPropertyOp62
 70
     1
  0
XRECORD
  5
3A5
102
{ACAD_REACTORS
330
3A4
102
}
330
3A4
100
AcDbXrecord
280
     1
102
RTVSPost2010Prop28
280
     0
102
RTVSPost2010PropOp28
 70
     1
102
RTVSPost2010Prop29
280
     1
102
RTVSPost2010PropOp29
 70
     1
102
RTVSPost2010Prop30
280
     1
102
RTVSPost2010PropOp30
 70
     1
102
RTVSPost2010Prop31
280
     0
102
RTVSPost2010PropOp31
 70
     1
102
RTVSPost2010Prop32
280
     0
102
RTVSPost2010PropOp32
 70
     1
102
RTVSPost2010Prop33
280
     0
102
RTVSPost2010PropOp33
 70
     1
102
RTVSPost2010Prop34
280
     0
102
RTVSPost2010PropOp34
 70
     1
102
RTVSPost2010Prop35
280
     0
102
RTVSPost2010PropOp35
 70
     1
102
RTVSPost2010Prop36
280
     0
102
RTVSPost2010PropOp36
 70
     1
102
RTVSPost2010Prop37
 90
       50
102
RTVSPost2010PropOp37
 70
     1
102
RTVSPost2010Prop38
140
0.0
102
RTVSPost2010PropOp38
 70
     1
102
RTVSPost2010Prop39
140
1.0
102
RTVSPost2010PropOp39
 70
     1
102
RTVSPost2010Prop40
 90
        0
102
RTVSPost2010PropOp40
 70
     1
102
RTVSPost2010Prop41ColorIndex
 90
       18
102
RTVSPost2010Prop41ColorRGB
 90
        0
102
RTVSPost2010PropOp41
 70
     1
102
RTVSPost2010Prop42
 90
       50
102
RTVSPost2010PropOp42
 70
     1
102
RTVSPost2010Prop43
 90
        3
102
RTVSPost2010PropOp43
 70
     1
102
RTVSPost2010Prop44ColorIndex
 90
        5
102
RTVSPost2010Prop44ColorRGB
 90
      255
102
RTVSPost2010PropOp44
 70
     1
102
RTVSPost2010Prop45
280
     0
102
RTVSPost2010PropOp45
 70
     1
102
RTVSPost2010Prop46
 90
       50
102
RTVSPost2010PropOp46
 70
     1
102
RTVSPost2010Prop47
 90
       50
102
RTVSPost2010PropOp47
 70
     1
102
RTVSPost2010Prop48
 90
       50
102
RTVSPost2010PropOp48
 70
     1
102
RTVSPost2010Prop49
280
     0
102
RTVSPost2010PropOp49
 70
     1
102
RTVSPost2010Prop50
 90
       50
102
RTVSPost2010PropOp50
 70
     1
102
RTVSPost2010Prop51ColorIndex
 90
      256
102
RTVSPost2010Prop51ColorRGB
 90
-16777216
102
RTVSPost2010PropOp51
 70
     0
102
RTVSPost2010Prop52
140
1.0
102
RTVSPost2010PropOp52
 70
     0
102
RTVSPost2010Prop53
 90
        2
102
RTVSPost2010PropOp53
 70
     1
102
RTVSPost2010Prop54
  1
strokes_ogs.tif
102
RTVSPost2010PropOp54
 70
     1
102
RTVSPost2010Prop55
280
     0
102
RTVSPost2010PropOp55
 70
     1
102
RTVSPost2010Prop56
140
1.0
102
RTVSPost2010PropOp56
 70
     1
102
RTVSPost2010Prop57
140
1.0
102
RTVSPost2010PropOp57
 70
     1
102
RTVSPropertyOp0
 70
     1
102
RTVSPropertyOp1
 70
     1
102
RTVSPropertyOp2
 70
     1
102
RTVSPropertyOp3
 70
     1
102
RTVSPropertyOp4
 70
     1
102
RTVSPropertyOp5
 70
     1
102
RTVSPropertyOp6
 70
     1
102
RTVSPropertyOp7
 70
     1
102
RTVSPropertyOp8
 70
     1
102
RTVSPropertyOp9
 70
     1
102
RTVSPropertyOp10
 70
     1
102
RTVSPropertyOp11
 70
     1
102
RTVSPropertyOp12
 70
     1
102
RTVSPropertyOp13
 70
     1
102
RTVSPropertyOp14
 70
     1
102
RTVSPropertyOp15
 70
     1
102
RTVSPropertyOp16
 70
     1
102
RTVSPropertyOp17
 70
     1
102
RTVSPropertyOp18
 70
     1
102
RTVSPropertyOp19
 70
     1
102
RTVSPropertyOp20
 70
     1
102
RTVSPropertyOp21
 70
     1
102
RTVSPropertyOp22
 70
     1
102
RTVSPropertyOp23
 70
     1
102
RTVSPropertyOp24
 70
     1
102
RTVSPropertyOp25
 70
     1
102
RTVSPropertyOp26
 70
     1
102
RTVSPropertyOp27
 70
     1
102
RTVSPropertyOp28
 70
     1
102
RTVSPropertyOp29
 70
     1
102
RTVSPropertyOp30
 70
     1
102
RTVSPropertyOp31
 70
     1
102
RTVSPropertyOp32
 70
     1
102
RTVSPropertyOp33
 70
     1
102
RTVSPropertyOp34
 70
     1
102
RTVSPropertyOp35
 70
     1
102
RTVSPropertyOp36
 70
     1
102
RTVSPropertyOp37
 70
     1
102
RTVSPropertyOp38
 70
     1
102
RTVSPropertyOp39
 70
     1
102
RTVSPropertyOp40
 70
     1
102
RTVSPropertyOp41
 70
     1
102
RTVSPropertyOp42
 70
     1
102
RTVSPropertyOp43
 70
     1
102
RTVSPropertyOp44
 70
     1
102
RTVSPropertyOp45
 70
     1
102
RTVSPropertyOp46
 70
     1
102
RTVSPropertyOp47
 70
     1
102
RTVSPropertyOp48
 70
     1
102
RTVSPropertyOp49
 70
     1
102
RTVSPropertyOp50
 70
     1
102
RTVSPropertyOp51
 70
     0
102
RTVSPropertyOp52
 70
     0
102
RTVSPropertyOp53
 70
     1
102
RTVSPropertyOp54
 70
     1
102
RTVSPropertyOp55
 70
     1
102
RTVSPropertyOp56
 70
     1
102
RTVSPropertyOp57
 70
     1
102
RTVSPropertyOp58
 70
     1
102
RTVSPropertyOp59
 70
     1
102
RTVSPropertyOp60
 70
     1
102
RTVSPropertyOp61
 70
     1
102
RTVSPropertyOp62
 70
     1
  0
XRECORD
  5
39F
102
{ACAD_REACTORS
330
39E
102
}
330
39E
100
AcDbXrecord
280
     1
102
RTVSPost2010Prop28
280
     0
102
RTVSPost2010PropOp28
 70
     1
102
RTVSPost2010Prop29
280
     1
102
RTVSPost2010PropOp29
 70
     1
102
RTVSPost2010Prop30
280
     1
102
RTVSPost2010PropOp30
 70
     1
102
RTVSPost2010Prop31
280
     0
102
RTVSPost2010PropOp31
 70
     1
102
RTVSPost2010Prop32
280
     0
102
RTVSPost2010PropOp32
 70
     1
102
RTVSPost2010Prop33
280
     0
102
RTVSPost2010PropOp33
 70
     1
102
RTVSPost2010Prop34
280
     0
102
RTVSPost2010PropOp34
 70
     1
102
RTVSPost2010Prop35
280
     0
102
RTVSPost2010PropOp35
 70
     1
102
RTVSPost2010Prop36
280
     0
102
RTVSPost2010PropOp36
 70
     1
102
RTVSPost2010Prop37
 90
       50
102
RTVSPost2010PropOp37
 70
     1
102
RTVSPost2010Prop38
140
0.0
102
RTVSPost2010PropOp38
 70
     1
102
RTVSPost2010Prop39
140
1.0
102
RTVSPost2010PropOp39
 70
     1
102
RTVSPost2010Prop40
 90
        0
102
RTVSPost2010PropOp40
 70
     1
102
RTVSPost2010Prop41ColorIndex
 90
       18
102
RTVSPost2010Prop41ColorRGB
 90
        0
102
RTVSPost2010PropOp41
 70
     1
102
RTVSPost2010Prop42
 90
       50
102
RTVSPost2010PropOp42
 70
     1
102
RTVSPost2010Prop43
 90
        3
102
RTVSPost2010PropOp43
 70
     1
102
RTVSPost2010Prop44ColorIndex
 90
        5
102
RTVSPost2010Prop44ColorRGB
 90
      255
102
RTVSPost2010PropOp44
 70
     1
102
RTVSPost2010Prop45
280
     0
102
RTVSPost2010PropOp45
 70
     1
102
RTVSPost2010Prop46
 90
       50
102
RTVSPost2010PropOp46
 70
     1
102
RTVSPost2010Prop47
 90
       50
102
RTVSPost2010PropOp47
 70
     1
102
RTVSPost2010Prop48
 90
       50
102
RTVSPost2010PropOp48
 70
     1
102
RTVSPost2010Prop49
280
     0
102
RTVSPost2010PropOp49
 70
     1
102
RTVSPost2010Prop50
 90
       50
102
RTVSPost2010PropOp50
 70
     1
102
RTVSPost2010Prop51ColorIndex
 90
      256
102
RTVSPost2010Prop51ColorRGB
 90
-16777216
102
RTVSPost2010PropOp51
 70
     0
102
RTVSPost2010Prop52
140
1.0
102
RTVSPost2010PropOp52
 70
     0
102
RTVSPost2010Prop53
 90
        2
102
RTVSPost2010PropOp53
 70
     1
102
RTVSPost2010Prop54
  1
strokes_ogs.tif
102
RTVSPost2010PropOp54
 70
     1
102
RTVSPost2010Prop55
280
     0
102
RTVSPost2010PropOp55
 70
     1
102
RTVSPost2010Prop56
140
1.0
102
RTVSPost2010PropOp56
 70
     1
102
RTVSPost2010Prop57
140
1.0
102
RTVSPost2010PropOp57
 70
     1
102
RTVSPropertyOp0
 70
     1
102
RTVSPropertyOp1
 70
     1
102
RTVSPropertyOp2
 70
     1
102
RTVSPropertyOp3
 70
     1
102
RTVSPropertyOp4
 70
     1
102
RTVSPropertyOp5
 70
     1
102
RTVSPropertyOp6
 70
     1
102
RTVSPropertyOp7
 70
     1
102
RTVSPropertyOp8
 70
     1
102
RTVSPropertyOp9
 70
     1
102
RTVSPropertyOp10
 70
     1
102
RTVSPropertyOp11
 70
     1
102
RTVSPropertyOp12
 70
     1
102
RTVSPropertyOp13
 70
     1
102
RTVSPropertyOp14
 70
     1
102
RTVSPropertyOp15
 70
     1
102
RTVSPropertyOp16
 70
     1
102
RTVSPropertyOp17
 70
     1
102
RTVSPropertyOp18
 70
     1
102
RTVSPropertyOp19
 70
     1
102
RTVSPropertyOp20
 70
     1
102
RTVSPropertyOp21
 70
     1
102
RTVSPropertyOp22
 70
     1
102
RTVSPropertyOp23
 70
     1
102
RTVSPropertyOp24
 70
     1
102
RTVSPropertyOp25
 70
     1
102
RTVSPropertyOp26
 70
     1
102
RTVSPropertyOp27
 70
     1
102
RTVSPropertyOp28
 70
     1
102
RTVSPropertyOp29
 70
     1
102
RTVSPropertyOp30
 70
     1
102
RTVSPropertyOp31
 70
     1
102
RTVSPropertyOp32
 70
     1
102
RTVSPropertyOp33
 70
     1
102
RTVSPropertyOp34
 70
     1
102
RTVSPropertyOp35
 70
     1
102
RTVSPropertyOp36
 70
     1
102
RTVSPropertyOp37
 70
     1
102
RTVSPropertyOp38
 70
     1
102
RTVSPropertyOp39
 70
     1
102
RTVSPropertyOp40
 70
     1
102
RTVSPropertyOp41
 70
     1
102
RTVSPropertyOp42
 70
     1
102
RTVSPropertyOp43
 70
     1
102
RTVSPropertyOp44
 70
     1
102
RTVSPropertyOp45
 70
     1
102
RTVSPropertyOp46
 70
     1
102
RTVSPropertyOp47
 70
     1
102
RTVSPropertyOp48
 70
     1
102
RTVSPropertyOp49
 70
     1
102
RTVSPropertyOp50
 70
     1
102
RTVSPropertyOp51
 70
     0
102
RTVSPropertyOp52
 70
     0
102
RTVSPropertyOp53
 70
     1
102
RTVSPropertyOp54
 70
     1
102
RTVSPropertyOp55
 70
     1
102
RTVSPropertyOp56
 70
     1
102
RTVSPropertyOp57
 70
     1
102
RTVSPropertyOp58
 70
     1
102
RTVSPropertyOp59
 70
     1
102
RTVSPropertyOp60
 70
     1
102
RTVSPropertyOp61
 70
     1
102
RTVSPropertyOp62
 70
     1
  0
XRECORD
  5
3A1
102
{ACAD_REACTORS
330
3A0
102
}
330
3A0
100
AcDbXrecord
280
     1
102
RTVSPost2010Prop28
280
     0
102
RTVSPost2010PropOp28
 70
     1
102
RTVSPost2010Prop29
280
     1
102
RTVSPost2010PropOp29
 70
     1
102
RTVSPost2010Prop30
280
     1
102
RTVSPost2010PropOp30
 70
     1
102
RTVSPost2010Prop31
280
     0
102
RTVSPost2010PropOp31
 70
     1
102
RTVSPost2010Prop32
280
     0
102
RTVSPost2010PropOp32
 70
     1
102
RTVSPost2010Prop33
280
     0
102
RTVSPost2010PropOp33
 70
     1
102
RTVSPost2010Prop34
280
     0
102
RTVSPost2010PropOp34
 70
     1
102
RTVSPost2010Prop35
280
     0
102
RTVSPost2010PropOp35
 70
     1
102
RTVSPost2010Prop36
280
     0
102
RTVSPost2010PropOp36
 70
     1
102
RTVSPost2010Prop37
 90
       50
102
RTVSPost2010PropOp37
 70
     1
102
RTVSPost2010Prop38
140
0.0
102
RTVSPost2010PropOp38
 70
     1
102
RTVSPost2010Prop39
140
1.0
102
RTVSPost2010PropOp39
 70
     1
102
RTVSPost2010Prop40
 90
        0
102
RTVSPost2010PropOp40
 70
     1
102
RTVSPost2010Prop41ColorIndex
 90
       18
102
RTVSPost2010Prop41ColorRGB
 90
        0
102
RTVSPost2010PropOp41
 70
     1
102
RTVSPost2010Prop42
 90
       50
102
RTVSPost2010PropOp42
 70
     1
102
RTVSPost2010Prop43
 90
        3
102
RTVSPost2010PropOp43
 70
     1
102
RTVSPost2010Prop44ColorIndex
 90
        5
102
RTVSPost2010Prop44ColorRGB
 90
      255
102
RTVSPost2010PropOp44
 70
     1
102
RTVSPost2010Prop45
280
     0
102
RTVSPost2010PropOp45
 70
     1
102
RTVSPost2010Prop46
 90
       50
102
RTVSPost2010PropOp46
 70
     1
102
RTVSPost2010Prop47
 90
       50
102
RTVSPost2010PropOp47
 70
     1
102
RTVSPost2010Prop48
 90
       50
102
RTVSPost2010PropOp48
 70
     1
102
RTVSPost2010Prop49
280
     0
102
RTVSPost2010PropOp49
 70
     1
102
RTVSPost2010Prop50
 90
       50
102
RTVSPost2010PropOp50
 70
     1
102
RTVSPost2010Prop51ColorIndex
 90
      256
102
RTVSPost2010Prop51ColorRGB
 90
-16777216
102
RTVSPost2010PropOp51
 70
     0
102
RTVSPost2010Prop52
140
1.0
102
RTVSPost2010PropOp52
 70
     0
102
RTVSPost2010Prop53
 90
        2
102
RTVSPost2010PropOp53
 70
     1
102
RTVSPost2010Prop54
  1
strokes_ogs.tif
102
RTVSPost2010PropOp54
 70
     1
102
RTVSPost2010Prop55
280
     0
102
RTVSPost2010PropOp55
 70
     1
102
RTVSPost2010Prop56
140
1.0
102
RTVSPost2010PropOp56
 70
     1
102
RTVSPost2010Prop57
140
1.0
102
RTVSPost2010PropOp57
 70
     1
102
RTVSPropertyOp0
 70
     1
102
RTVSPropertyOp1
 70
     1
102
RTVSPropertyOp2
 70
     1
102
RTVSPropertyOp3
 70
     1
102
RTVSPropertyOp4
 70
     1
102
RTVSPropertyOp5
 70
     1
102
RTVSPropertyOp6
 70
     1
102
RTVSPropertyOp7
 70
     1
102
RTVSPropertyOp8
 70
     1
102
RTVSPropertyOp9
 70
     1
102
RTVSPropertyOp10
 70
     1
102
RTVSPropertyOp11
 70
     1
102
RTVSPropertyOp12
 70
     1
102
RTVSPropertyOp13
 70
     1
102
RTVSPropertyOp14
 70
     1
102
RTVSPropertyOp15
 70
     1
102
RTVSPropertyOp16
 70
     1
102
RTVSPropertyOp17
 70
     1
102
RTVSPropertyOp18
 70
     1
102
RTVSPropertyOp19
 70
     1
102
RTVSPropertyOp20
 70
     1
102
RTVSPropertyOp21
 70
     1
102
RTVSPropertyOp22
 70
     1
102
RTVSPropertyOp23
 70
     1
102
RTVSPropertyOp24
 70
     1
102
RTVSPropertyOp25
 70
     1
102
RTVSPropertyOp26
 70
     1
102
RTVSPropertyOp27
 70
     1
102
RTVSPropertyOp28
 70
     1
102
RTVSPropertyOp29
 70
     1
102
RTVSPropertyOp30
 70
     1
102
RTVSPropertyOp31
 70
     1
102
RTVSPropertyOp32
 70
     1
102
RTVSPropertyOp33
 70
     1
102
RTVSPropertyOp34
 70
     1
102
RTVSPropertyOp35
 70
     1
102
RTVSPropertyOp36
 70
     1
102
RTVSPropertyOp37
 70
     1
102
RTVSPropertyOp38
 70
     1
102
RTVSPropertyOp39
 70
     1
102
RTVSPropertyOp40
 70
     1
102
RTVSPropertyOp41
 70
     1
102
RTVSPropertyOp42
 70
     1
102
RTVSPropertyOp43
 70
     1
102
RTVSPropertyOp44
 70
     1
102
RTVSPropertyOp45
 70
     1
102
RTVSPropertyOp46
 70
     1
102
RTVSPropertyOp47
 70
     1
102
RTVSPropertyOp48
 70
     1
102
RTVSPropertyOp49
 70
     1
102
RTVSPropertyOp50
 70
     1
102
RTVSPropertyOp51
 70
     0
102
RTVSPropertyOp52
 70
     0
102
RTVSPropertyOp53
 70
     1
102
RTVSPropertyOp54
 70
     1
102
RTVSPropertyOp55
 70
     1
102
RTVSPropertyOp56
 70
     1
102
RTVSPropertyOp57
 70
     1
102
RTVSPropertyOp58
 70
     1
102
RTVSPropertyOp59
 70
     1
102
RTVSPropertyOp60
 70
     1
102
RTVSPropertyOp61
 70
     1
102
RTVSPropertyOp62
 70
     1
  0
XRECORD
  5
391
102
{ACAD_REACTORS
330
390
102
}
330
390
100
AcDbXrecord
280
     1
102
RTVSPost2010Prop28
280
     0
102
RTVSPost2010PropOp28
 70
     1
102
RTVSPost2010Prop29
280
     1
102
RTVSPost2010PropOp29
 70
     1
102
RTVSPost2010Prop30
280
     1
102
RTVSPost2010PropOp30
 70
     1
102
RTVSPost2010Prop31
280
     0
102
RTVSPost2010PropOp31
 70
     1
102
RTVSPost2010Prop32
280
     0
102
RTVSPost2010PropOp32
 70
     1
102
RTVSPost2010Prop33
280
     0
102
RTVSPost2010PropOp33
 70
     1
102
RTVSPost2010Prop34
280
     0
102
RTVSPost2010PropOp34
 70
     1
102
RTVSPost2010Prop35
280
     0
102
RTVSPost2010PropOp35
 70
     1
102
RTVSPost2010Prop36
280
     0
102
RTVSPost2010PropOp36
 70
     1
102
RTVSPost2010Prop37
 90
       50
102
RTVSPost2010PropOp37
 70
     1
102
RTVSPost2010Prop38
140
0.0
102
RTVSPost2010PropOp38
 70
     1
102
RTVSPost2010Prop39
140
1.0
102
RTVSPost2010PropOp39
 70
     1
102
RTVSPost2010Prop40
 90
        0
102
RTVSPost2010PropOp40
 70
     1
102
RTVSPost2010Prop41ColorIndex
 90
       18
102
RTVSPost2010Prop41ColorRGB
 90
        0
102
RTVSPost2010PropOp41
 70
     1
102
RTVSPost2010Prop42
 90
       50
102
RTVSPost2010PropOp42
 70
     1
102
RTVSPost2010Prop43
 90
        3
102
RTVSPost2010PropOp43
 70
     1
102
RTVSPost2010Prop44ColorIndex
 90
        5
102
RTVSPost2010Prop44ColorRGB
 90
      255
102
RTVSPost2010PropOp44
 70
     1
102
RTVSPost2010Prop45
280
     0
102
RTVSPost2010PropOp45
 70
     1
102
RTVSPost2010Prop46
 90
       50
102
RTVSPost2010PropOp46
 70
     1
102
RTVSPost2010Prop47
 90
       50
102
RTVSPost2010PropOp47
 70
     1
102
RTVSPost2010Prop48
 90
       50
102
RTVSPost2010PropOp48
 70
     1
102
RTVSPost2010Prop49
280
     0
102
RTVSPost2010PropOp49
 70
     1
102
RTVSPost2010Prop50
 90
       50
102
RTVSPost2010PropOp50
 70
     1
102
RTVSPost2010Prop51ColorIndex
 90
      256
102
RTVSPost2010Prop51ColorRGB
 90
-16777216
102
RTVSPost2010PropOp51
 70
     0
102
RTVSPost2010Prop52
140
1.0
102
RTVSPost2010PropOp52
 70
     0
102
RTVSPost2010Prop53
 90
        2
102
RTVSPost2010PropOp53
 70
     1
102
RTVSPost2010Prop54
  1
strokes_ogs.tif
102
RTVSPost2010PropOp54
 70
     1
102
RTVSPost2010Prop55
280
     0
102
RTVSPost2010PropOp55
 70
     1
102
RTVSPost2010Prop56
140
1.0
102
RTVSPost2010PropOp56
 70
     1
102
RTVSPost2010Prop57
140
1.0
102
RTVSPost2010PropOp57
 70
     1
102
RTVSPropertyOp0
 70
     1
102
RTVSPropertyOp1
 70
     1
102
RTVSPropertyOp2
 70
     1
102
RTVSPropertyOp3
 70
     1
102
RTVSPropertyOp4
 70
     1
102
RTVSPropertyOp5
 70
     1
102
RTVSPropertyOp6
 70
     1
102
RTVSPropertyOp7
 70
     1
102
RTVSPropertyOp8
 70
     1
102
RTVSPropertyOp9
 70
     1
102
RTVSPropertyOp10
 70
     1
102
RTVSPropertyOp11
 70
     1
102
RTVSPropertyOp12
 70
     1
102
RTVSPropertyOp13
 70
     1
102
RTVSPropertyOp14
 70
     1
102
RTVSPropertyOp15
 70
     1
102
RTVSPropertyOp16
 70
     1
102
RTVSPropertyOp17
 70
     1
102
RTVSPropertyOp18
 70
     1
102
RTVSPropertyOp19
 70
     1
102
RTVSPropertyOp20
 70
     1
102
RTVSPropertyOp21
 70
     1
102
RTVSPropertyOp22
 70
     1
102
RTVSPropertyOp23
 70
     1
102
RTVSPropertyOp24
 70
     1
102
RTVSPropertyOp25
 70
     1
102
RTVSPropertyOp26
 70
     1
102
RTVSPropertyOp27
 70
     1
102
RTVSPropertyOp28
 70
     1
102
RTVSPropertyOp29
 70
     1
102
RTVSPropertyOp30
 70
     1
102
RTVSPropertyOp31
 70
     1
102
RTVSPropertyOp32
 70
     1
102
RTVSPropertyOp33
 70
     1
102
RTVSPropertyOp34
 70
     1
102
RTVSPropertyOp35
 70
     1
102
RTVSPropertyOp36
 70
     1
102
RTVSPropertyOp37
 70
     1
102
RTVSPropertyOp38
 70
     1
102
RTVSPropertyOp39
 70
     1
102
RTVSPropertyOp40
 70
     1
102
RTVSPropertyOp41
 70
     1
102
RTVSPropertyOp42
 70
     1
102
RTVSPropertyOp43
 70
     1
102
RTVSPropertyOp44
 70
     1
102
RTVSPropertyOp45
 70
     1
102
RTVSPropertyOp46
 70
     1
102
RTVSPropertyOp47
 70
     1
102
RTVSPropertyOp48
 70
     1
102
RTVSPropertyOp49
 70
     1
102
RTVSPropertyOp50
 70
     1
102
RTVSPropertyOp51
 70
     0
102
RTVSPropertyOp52
 70
     0
102
RTVSPropertyOp53
 70
     1
102
RTVSPropertyOp54
 70
     1
102
RTVSPropertyOp55
 70
     1
102
RTVSPropertyOp56
 70
     1
102
RTVSPropertyOp57
 70
     1
102
RTVSPropertyOp58
 70
     1
102
RTVSPropertyOp59
 70
     1
102
RTVSPropertyOp60
 70
     1
102
RTVSPropertyOp61
 70
     1
102
RTVSPropertyOp62
 70
     1
  0
XRECORD
  5
383
102
{ACAD_REACTORS
330
382
102
}
330
382
100
AcDbXrecord
280
     1
102
RTVSPost2010Prop28
280
     0
102
RTVSPost2010PropOp28
 70
     1
102
RTVSPost2010Prop29
280
     1
102
RTVSPost2010PropOp29
 70
     1
102
RTVSPost2010Prop30
280
     1
102
RTVSPost2010PropOp30
 70
     1
102
RTVSPost2010Prop31
280
     0
102
RTVSPost2010PropOp31
 70
     1
102
RTVSPost2010Prop32
280
     0
102
RTVSPost2010PropOp32
 70
     1
102
RTVSPost2010Prop33
280
     0
102
RTVSPost2010PropOp33
 70
     1
102
RTVSPost2010Prop34
280
     0
102
RTVSPost2010PropOp34
 70
     1
102
RTVSPost2010Prop35
280
     0
102
RTVSPost2010PropOp35
 70
     1
102
RTVSPost2010Prop36
280
     0
102
RTVSPost2010PropOp36
 70
     1
102
RTVSPost2010Prop37
 90
       50
102
RTVSPost2010PropOp37
 70
     1
102
RTVSPost2010Prop38
140
0.0
102
RTVSPost2010PropOp38
 70
     1
102
RTVSPost2010Prop39
140
1.0
102
RTVSPost2010PropOp39
 70
     1
102
RTVSPost2010Prop40
 90
        0
102
RTVSPost2010PropOp40
 70
     1
102
RTVSPost2010Prop41ColorIndex
 90
       18
102
RTVSPost2010Prop41ColorRGB
 90
        0
102
RTVSPost2010PropOp41
 70
     1
102
RTVSPost2010Prop42
 90
       50
102
RTVSPost2010PropOp42
 70
     1
102
RTVSPost2010Prop43
 90
        3
102
RTVSPost2010PropOp43
 70
     1
102
RTVSPost2010Prop44ColorIndex
 90
        5
102
RTVSPost2010Prop44ColorRGB
 90
      255
102
RTVSPost2010PropOp44
 70
     1
102
RTVSPost2010Prop45
280
     0
102
RTVSPost2010PropOp45
 70
     1
102
RTVSPost2010Prop46
 90
       50
102
RTVSPost2010PropOp46
 70
     1
102
RTVSPost2010Prop47
 90
       50
102
RTVSPost2010PropOp47
 70
     1
102
RTVSPost2010Prop48
 90
       50
102
RTVSPost2010PropOp48
 70
     1
102
RTVSPost2010Prop49
280
     0
102
RTVSPost2010PropOp49
 70
     1
102
RTVSPost2010Prop50
 90
       50
102
RTVSPost2010PropOp50
 70
     1
102
RTVSPost2010Prop51ColorIndex
 90
      256
102
RTVSPost2010Prop51ColorRGB
 90
-16777216
102
RTVSPost2010PropOp51
 70
     0
102
RTVSPost2010Prop52
140
1.0
102
RTVSPost2010PropOp52
 70
     0
102
RTVSPost2010Prop53
 90
        2
102
RTVSPost2010PropOp53
 70
     1
102
RTVSPost2010Prop54
  1
strokes_ogs.tif
102
RTVSPost2010PropOp54
 70
     1
102
RTVSPost2010Prop55
280
     0
102
RTVSPost2010PropOp55
 70
     1
102
RTVSPost2010Prop56
140
1.0
102
RTVSPost2010PropOp56
 70
     1
102
RTVSPost2010Prop57
140
1.0
102
RTVSPost2010PropOp57
 70
     1
102
RTVSPropertyOp0
 70
     1
102
RTVSPropertyOp1
 70
     1
102
RTVSPropertyOp2
 70
     1
102
RTVSPropertyOp3
 70
     1
102
RTVSPropertyOp4
 70
     1
102
RTVSPropertyOp5
 70
     1
102
RTVSPropertyOp6
 70
     1
102
RTVSPropertyOp7
 70
     1
102
RTVSPropertyOp8
 70
     1
102
RTVSPropertyOp9
 70
     1
102
RTVSPropertyOp10
 70
     1
102
RTVSPropertyOp11
 70
     1
102
RTVSPropertyOp12
 70
     1
102
RTVSPropertyOp13
 70
     1
102
RTVSPropertyOp14
 70
     1
102
RTVSPropertyOp15
 70
     1
102
RTVSPropertyOp16
 70
     1
102
RTVSPropertyOp17
 70
     1
102
RTVSPropertyOp18
 70
     1
102
RTVSPropertyOp19
 70
     1
102
RTVSPropertyOp20
 70
     1
102
RTVSPropertyOp21
 70
     1
102
RTVSPropertyOp22
 70
     1
102
RTVSPropertyOp23
 70
     1
102
RTVSPropertyOp24
 70
     1
102
RTVSPropertyOp25
 70
     1
102
RTVSPropertyOp26
 70
     1
102
RTVSPropertyOp27
 70
     1
102
RTVSPropertyOp28
 70
     1
102
RTVSPropertyOp29
 70
     1
102
RTVSPropertyOp30
 70
     1
102
RTVSPropertyOp31
 70
     1
102
RTVSPropertyOp32
 70
     1
102
RTVSPropertyOp33
 70
     1
102
RTVSPropertyOp34
 70
     1
102
RTVSPropertyOp35
 70
     1
102
RTVSPropertyOp36
 70
     1
102
RTVSPropertyOp37
 70
     1
102
RTVSPropertyOp38
 70
     1
102
RTVSPropertyOp39
 70
     1
102
RTVSPropertyOp40
 70
     1
102
RTVSPropertyOp41
 70
     1
102
RTVSPropertyOp42
 70
     1
102
RTVSPropertyOp43
 70
     1
102
RTVSPropertyOp44
 70
     1
102
RTVSPropertyOp45
 70
     1
102
RTVSPropertyOp46
 70
     1
102
RTVSPropertyOp47
 70
     1
102
RTVSPropertyOp48
 70
     1
102
RTVSPropertyOp49
 70
     1
102
RTVSPropertyOp50
 70
     1
102
RTVSPropertyOp51
 70
     0
102
RTVSPropertyOp52
 70
     0
102
RTVSPropertyOp53
 70
     1
102
RTVSPropertyOp54
 70
     1
102
RTVSPropertyOp55
 70
     1
102
RTVSPropertyOp56
 70
     1
102
RTVSPropertyOp57
 70
     1
102
RTVSPropertyOp58
 70
     1
102
RTVSPropertyOp59
 70
     1
102
RTVSPropertyOp60
 70
     1
102
RTVSPropertyOp61
 70
     1
102
RTVSPropertyOp62
 70
     1
  0
XRECORD
  5
3A3
102
{ACAD_REACTORS
330
3A2
102
}
330
3A2
100
AcDbXrecord
280
     1
102
RTVSPost2010Prop28
280
     0
102
RTVSPost2010PropOp28
 70
     1
102
RTVSPost2010Prop29
280
     1
102
RTVSPost2010PropOp29
 70
     1
102
RTVSPost2010Prop30
280
     1
102
RTVSPost2010PropOp30
 70
     1
102
RTVSPost2010Prop31
280
     0
102
RTVSPost2010PropOp31
 70
     1
102
RTVSPost2010Prop32
280
     0
102
RTVSPost2010PropOp32
 70
     1
102
RTVSPost2010Prop33
280
     0
102
RTVSPost2010PropOp33
 70
     1
102
RTVSPost2010Prop34
280
     0
102
RTVSPost2010PropOp34
 70
     1
102
RTVSPost2010Prop35
280
     0
102
RTVSPost2010PropOp35
 70
     1
102
RTVSPost2010Prop36
280
     0
102
RTVSPost2010PropOp36
 70
     1
102
RTVSPost2010Prop37
 90
       50
102
RTVSPost2010PropOp37
 70
     1
102
RTVSPost2010Prop38
140
0.0
102
RTVSPost2010PropOp38
 70
     1
102
RTVSPost2010Prop39
140
1.0
102
RTVSPost2010PropOp39
 70
     1
102
RTVSPost2010Prop40
 90
        0
102
RTVSPost2010PropOp40
 70
     1
102
RTVSPost2010Prop41ColorIndex
 90
       18
102
RTVSPost2010Prop41ColorRGB
 90
        0
102
RTVSPost2010PropOp41
 70
     1
102
RTVSPost2010Prop42
 90
       50
102
RTVSPost2010PropOp42
 70
     1
102
RTVSPost2010Prop43
 90
        3
102
RTVSPost2010PropOp43
 70
     1
102
RTVSPost2010Prop44ColorIndex
 90
        5
102
RTVSPost2010Prop44ColorRGB
 90
      255
102
RTVSPost2010PropOp44
 70
     1
102
RTVSPost2010Prop45
280
     0
102
RTVSPost2010PropOp45
 70
     1
102
RTVSPost2010Prop46
 90
       50
102
RTVSPost2010PropOp46
 70
     1
102
RTVSPost2010Prop47
 90
       50
102
RTVSPost2010PropOp47
 70
     1
102
RTVSPost2010Prop48
 90
       50
102
RTVSPost2010PropOp48
 70
     1
102
RTVSPost2010Prop49
280
     0
102
RTVSPost2010PropOp49
 70
     1
102
RTVSPost2010Prop50
 90
       50
102
RTVSPost2010PropOp50
 70
     1
102
RTVSPost2010Prop51ColorIndex
 90
      256
102
RTVSPost2010Prop51ColorRGB
 90
-16777216
102
RTVSPost2010PropOp51
 70
     0
102
RTVSPost2010Prop52
140
1.0
102
RTVSPost2010PropOp52
 70
     0
102
RTVSPost2010Prop53
 90
        2
102
RTVSPost2010PropOp53
 70
     1
102
RTVSPost2010Prop54
  1
strokes_ogs.tif
102
RTVSPost2010PropOp54
 70
     1
102
RTVSPost2010Prop55
280
     0
102
RTVSPost2010PropOp55
 70
     1
102
RTVSPost2010Prop56
140
1.0
102
RTVSPost2010PropOp56
 70
     1
102
RTVSPost2010Prop57
140
1.0
102
RTVSPost2010PropOp57
 70
     1
102
RTVSPropertyOp0
 70
     1
102
RTVSPropertyOp1
 70
     1
102
RTVSPropertyOp2
 70
     1
102
RTVSPropertyOp3
 70
     1
102
RTVSPropertyOp4
 70
     1
102
RTVSPropertyOp5
 70
     1
102
RTVSPropertyOp6
 70
     1
102
RTVSPropertyOp7
 70
     1
102
RTVSPropertyOp8
 70
     1
102
RTVSPropertyOp9
 70
     1
102
RTVSPropertyOp10
 70
     1
102
RTVSPropertyOp11
 70
     1
102
RTVSPropertyOp12
 70
     1
102
RTVSPropertyOp13
 70
     1
102
RTVSPropertyOp14
 70
     1
102
RTVSPropertyOp15
 70
     1
102
RTVSPropertyOp16
 70
     1
102
RTVSPropertyOp17
 70
     1
102
RTVSPropertyOp18
 70
     1
102
RTVSPropertyOp19
 70
     1
102
RTVSPropertyOp20
 70
     1
102
RTVSPropertyOp21
 70
     1
102
RTVSPropertyOp22
 70
     1
102
RTVSPropertyOp23
 70
     1
102
RTVSPropertyOp24
 70
     1
102
RTVSPropertyOp25
 70
     1
102
RTVSPropertyOp26
 70
     1
102
RTVSPropertyOp27
 70
     1
102
RTVSPropertyOp28
 70
     1
102
RTVSPropertyOp29
 70
     1
102
RTVSPropertyOp30
 70
     1
102
RTVSPropertyOp31
 70
     1
102
RTVSPropertyOp32
 70
     1
102
RTVSPropertyOp33
 70
     1
102
RTVSPropertyOp34
 70
     1
102
RTVSPropertyOp35
 70
     1
102
RTVSPropertyOp36
 70
     1
102
RTVSPropertyOp37
 70
     1
102
RTVSPropertyOp38
 70
     1
102
RTVSPropertyOp39
 70
     1
102
RTVSPropertyOp40
 70
     1
102
RTVSPropertyOp41
 70
     1
102
RTVSPropertyOp42
 70
     1
102
RTVSPropertyOp43
 70
     1
102
RTVSPropertyOp44
 70
     1
102
RTVSPropertyOp45
 70
     1
102
RTVSPropertyOp46
 70
     1
102
RTVSPropertyOp47
 70
     1
102
RTVSPropertyOp48
 70
     1
102
RTVSPropertyOp49
 70
     1
102
RTVSPropertyOp50
 70
     1
102
RTVSPropertyOp51
 70
     0
102
RTVSPropertyOp52
 70
     0
102
RTVSPropertyOp53
 70
     1
102
RTVSPropertyOp54
 70
     1
102
RTVSPropertyOp55
 70
     1
102
RTVSPropertyOp56
 70
     1
102
RTVSPropertyOp57
 70
     1
102
RTVSPropertyOp58
 70
     1
102
RTVSPropertyOp59
 70
     1
102
RTVSPropertyOp60
 70
     1
102
RTVSPropertyOp61
 70
     1
102
RTVSPropertyOp62
 70
     1
  0
ENDSEC
  0
EOF
