ISO-10303-21;
HEADER;
/* Generated by software containing ST-Developer
 * from STEP Tools, Inc. (www.steptools.com) 
 */
/* OPTION: using custom schema-name function */

FILE_DESCRIPTION(
/* description */ (''),
/* implementation_level */ '2;1');

FILE_NAME(
/* name */ '69871.50ADB-W.40.100.C.stp',
/* time_stamp */ '2024-08-04T15:54:24+02:00',
/* author */ (''),
/* organization */ (''),
/* preprocessor_version */ 'ST-DEVELOPER v16.7',
/* originating_system */ 'SIEMENS PLM Software NX 12.0',
/* authorisation */ '');

FILE_SCHEMA (('AUTOMOTIVE_DESIGN { 1 0 10303 214 3 1 1 1 }'));
ENDSEC;

DATA;
#10=CONSTRUCTIVE_GEOMETRY_REPRESENTATION_RELATIONSHIP(
'supplemental geometry','',#32,#11);
#11=CONSTRUCTIVE_GEOMETRY_REPRESENTATION('supplemental geometry',(#274,
#275,#276),#462);
#12=PROPERTY_DEFINITION_REPRESENTATION(#16,#14);
#13=PROPERTY_DEFINITION_REPRESENTATION(#17,#15);
#14=REPRESENTATION('',(#18),#462);
#15=REPRESENTATION('',(#19),#462);
#16=PROPERTY_DEFINITION('pmi validation property','',#23);
#17=PROPERTY_DEFINITION('pmi validation property','',#23);
#18=VALUE_REPRESENTATION_ITEM('number of annotations',COUNT_MEASURE(0.));
#19=VALUE_REPRESENTATION_ITEM('number of views',COUNT_MEASURE(0.));
#20=SHAPE_REPRESENTATION_RELATIONSHIP('None',
'relationship between pf662DBC816Conwn-None and pf662DBC816Conwn-None',
#32,#21);
#21=ADVANCED_BREP_SHAPE_REPRESENTATION('pf662DBC816Conwn-None',(#38),#462);
#22=SHAPE_DEFINITION_REPRESENTATION(#23,#32);
#23=PRODUCT_DEFINITION_SHAPE('','',#24);
#24=PRODUCT_DEFINITION(' ','',#26,#25);
#25=PRODUCT_DEFINITION_CONTEXT('part definition',#31,'design');
#26=PRODUCT_DEFINITION_FORMATION_WITH_SPECIFIED_SOURCE(' ',' ',#28,
 .NOT_KNOWN.);
#27=PRODUCT_RELATED_PRODUCT_CATEGORY('part','',(#28));
#28=PRODUCT('pf662DBC816Conwn','pf662DBC816Conwn',' ',(#29));
#29=PRODUCT_CONTEXT(' ',#31,'mechanical');
#30=APPLICATION_PROTOCOL_DEFINITION('international standard',
'automotive_design',2010,#31);
#31=APPLICATION_CONTEXT(
'core data for automotive mechanical design processes');
#32=SHAPE_REPRESENTATION('pf662DBC816Conwn-None',(#273),#462);
#33=SURFACE_STYLE_USAGE(.BOTH.,#34);
#34=SURFACE_SIDE_STYLE('',(#35));
#35=SURFACE_STYLE_FILL_AREA(#36);
#36=FILL_AREA_STYLE('',(#37));
#37=FILL_AREA_STYLE_COLOUR('',#269);
#38=MANIFOLD_SOLID_BREP('\X2\015400D4015E\X0\#\X2\02DD010600BB\X0\S\X\B1
\X2\010600A6\X0\C3',#39);
#39=CLOSED_SHELL('',(#71,#72,#73,#74,#75,#76,#77,#78,#79,#80,#81,#82,#83,
#84,#85,#86,#87));
#40=TOROIDAL_SURFACE('',#293,46.625,1.);
#41=TOROIDAL_SURFACE('',#302,46.625,1.);
#42=TOROIDAL_SURFACE('',#305,40.5,0.5);
#43=CYLINDRICAL_SURFACE('',#286,40.);
#44=CYLINDRICAL_SURFACE('',#291,45.625);
#45=CYLINDRICAL_SURFACE('',#296,48.75);
#46=CYLINDRICAL_SURFACE('',#298,48.75);
#47=CONICAL_SURFACE('',#283,30.,44.9999999999999);
#48=CONICAL_SURFACE('',#288,30.,44.9999999999999);
#49=CONICAL_SURFACE('',#300,48.75,59.9999999999999);
#50=CONICAL_SURFACE('',#301,46.3475952641916,60.0000000000003);
#51=CONICAL_SURFACE('',#310,35.3916641016626,8.29710000000004);
#52=CONICAL_SURFACE('',#311,35.3916641016626,8.29710000000004);
#53=FACE_OUTER_BOUND('',#116,.T.);
#54=FACE_OUTER_BOUND('',#119,.T.);
#55=FACE_OUTER_BOUND('',#138,.T.);
#56=FACE_OUTER_BOUND('',#139,.T.);
#57=FACE_OUTER_BOUND('',#140,.T.);
#58=FACE_OUTER_BOUND('',#141,.T.);
#59=LINE('',#410,#65);
#60=LINE('',#414,#66);
#61=LINE('',#418,#67);
#62=LINE('',#421,#68);
#63=LINE('',#457,#69);
#64=LINE('',#458,#70);
#65=VECTOR('',#330,1.);
#66=VECTOR('',#333,1.);
#67=VECTOR('',#338,1.);
#68=VECTOR('',#341,1.);
#69=VECTOR('',#390,1.);
#70=VECTOR('',#391,1.);
#71=ADVANCED_FACE('',(#92,#93),#88,.F.);
#72=ADVANCED_FACE('',(#53),#47,.T.);
#73=ADVANCED_FACE('',(#94,#95),#43,.T.);
#74=ADVANCED_FACE('',(#54),#48,.T.);
#75=ADVANCED_FACE('',(#96,#97),#44,.T.);
#76=ADVANCED_FACE('',(#98,#99),#40,.F.);
#77=ADVANCED_FACE('',(#100,#101),#45,.T.);
#78=ADVANCED_FACE('',(#102,#103),#46,.T.);
#79=ADVANCED_FACE('',(#104,#105),#49,.T.);
#80=ADVANCED_FACE('',(#106,#107),#50,.T.);
#81=ADVANCED_FACE('',(#108,#109),#41,.F.);
#82=ADVANCED_FACE('',(#110,#111),#89,.F.);
#83=ADVANCED_FACE('',(#112,#113),#42,.F.);
#84=ADVANCED_FACE('',(#55),#90,.F.);
#85=ADVANCED_FACE('',(#56),#91,.F.);
#86=ADVANCED_FACE('',(#57),#51,.T.);
#87=ADVANCED_FACE('',(#58),#52,.T.);
#88=PLANE('',#280);
#89=PLANE('',#304);
#90=PLANE('',#306);
#91=PLANE('',#309);
#92=FACE_BOUND('',#114,.T.);
#93=FACE_BOUND('',#115,.T.);
#94=FACE_BOUND('',#117,.T.);
#95=FACE_BOUND('',#118,.T.);
#96=FACE_BOUND('',#120,.T.);
#97=FACE_BOUND('',#121,.T.);
#98=FACE_BOUND('',#122,.T.);
#99=FACE_BOUND('',#123,.T.);
#100=FACE_BOUND('',#124,.T.);
#101=FACE_BOUND('',#125,.T.);
#102=FACE_BOUND('',#126,.T.);
#103=FACE_BOUND('',#127,.T.);
#104=FACE_BOUND('',#128,.T.);
#105=FACE_BOUND('',#129,.T.);
#106=FACE_BOUND('',#130,.T.);
#107=FACE_BOUND('',#131,.T.);
#108=FACE_BOUND('',#132,.T.);
#109=FACE_BOUND('',#133,.T.);
#110=FACE_BOUND('',#134,.T.);
#111=FACE_BOUND('',#135,.T.);
#112=FACE_BOUND('',#136,.T.);
#113=FACE_BOUND('',#137,.T.);
#114=EDGE_LOOP('',(#142));
#115=EDGE_LOOP('',(#143,#144));
#116=EDGE_LOOP('',(#145,#146,#147,#148));
#117=EDGE_LOOP('',(#149));
#118=EDGE_LOOP('',(#150,#151,#152,#153,#154,#155));
#119=EDGE_LOOP('',(#156,#157,#158,#159));
#120=EDGE_LOOP('',(#160));
#121=EDGE_LOOP('',(#161));
#122=EDGE_LOOP('',(#162));
#123=EDGE_LOOP('',(#163));
#124=EDGE_LOOP('',(#164));
#125=EDGE_LOOP('',(#165));
#126=EDGE_LOOP('',(#166));
#127=EDGE_LOOP('',(#167));
#128=EDGE_LOOP('',(#168));
#129=EDGE_LOOP('',(#169));
#130=EDGE_LOOP('',(#170));
#131=EDGE_LOOP('',(#171));
#132=EDGE_LOOP('',(#172));
#133=EDGE_LOOP('',(#173));
#134=EDGE_LOOP('',(#174));
#135=EDGE_LOOP('',(#175));
#136=EDGE_LOOP('',(#176));
#137=EDGE_LOOP('',(#177));
#138=EDGE_LOOP('',(#178,#179));
#139=EDGE_LOOP('',(#180,#181));
#140=EDGE_LOOP('',(#182,#183,#184,#185));
#141=EDGE_LOOP('',(#186,#187,#188,#189));
#142=ORIENTED_EDGE('',*,*,#210,.T.);
#143=ORIENTED_EDGE('',*,*,#211,.T.);
#144=ORIENTED_EDGE('',*,*,#212,.T.);
#145=ORIENTED_EDGE('',*,*,#213,.T.);
#146=ORIENTED_EDGE('',*,*,#214,.F.);
#147=ORIENTED_EDGE('',*,*,#215,.T.);
#148=ORIENTED_EDGE('',*,*,#216,.T.);
#149=ORIENTED_EDGE('',*,*,#217,.T.);
#150=ORIENTED_EDGE('',*,*,#218,.T.);
#151=ORIENTED_EDGE('',*,*,#218,.F.);
#152=ORIENTED_EDGE('',*,*,#219,.F.);
#153=ORIENTED_EDGE('',*,*,#220,.T.);
#154=ORIENTED_EDGE('',*,*,#220,.F.);
#155=ORIENTED_EDGE('',*,*,#215,.F.);
#156=ORIENTED_EDGE('',*,*,#214,.T.);
#157=ORIENTED_EDGE('',*,*,#221,.T.);
#158=ORIENTED_EDGE('',*,*,#216,.F.);
#159=ORIENTED_EDGE('',*,*,#219,.T.);
#160=ORIENTED_EDGE('',*,*,#222,.T.);
#161=ORIENTED_EDGE('',*,*,#223,.T.);
#162=ORIENTED_EDGE('',*,*,#223,.F.);
#163=ORIENTED_EDGE('',*,*,#224,.T.);
#164=ORIENTED_EDGE('',*,*,#225,.T.);
#165=ORIENTED_EDGE('',*,*,#226,.F.);
#166=ORIENTED_EDGE('',*,*,#227,.T.);
#167=ORIENTED_EDGE('',*,*,#210,.F.);
#168=ORIENTED_EDGE('',*,*,#228,.T.);
#169=ORIENTED_EDGE('',*,*,#227,.F.);
#170=ORIENTED_EDGE('',*,*,#226,.T.);
#171=ORIENTED_EDGE('',*,*,#224,.F.);
#172=ORIENTED_EDGE('',*,*,#222,.F.);
#173=ORIENTED_EDGE('',*,*,#228,.F.);
#174=ORIENTED_EDGE('',*,*,#229,.T.);
#175=ORIENTED_EDGE('',*,*,#225,.F.);
#176=ORIENTED_EDGE('',*,*,#229,.F.);
#177=ORIENTED_EDGE('',*,*,#217,.F.);
#178=ORIENTED_EDGE('',*,*,#221,.F.);
#179=ORIENTED_EDGE('',*,*,#213,.F.);
#180=ORIENTED_EDGE('',*,*,#230,.F.);
#181=ORIENTED_EDGE('',*,*,#231,.F.);
#182=ORIENTED_EDGE('',*,*,#231,.T.);
#183=ORIENTED_EDGE('',*,*,#232,.T.);
#184=ORIENTED_EDGE('',*,*,#212,.F.);
#185=ORIENTED_EDGE('',*,*,#233,.F.);
#186=ORIENTED_EDGE('',*,*,#233,.T.);
#187=ORIENTED_EDGE('',*,*,#211,.F.);
#188=ORIENTED_EDGE('',*,*,#232,.F.);
#189=ORIENTED_EDGE('',*,*,#230,.T.);
#190=VERTEX_POINT('',#401);
#191=VERTEX_POINT('',#403);
#192=VERTEX_POINT('',#404);
#193=VERTEX_POINT('',#408);
#194=VERTEX_POINT('',#409);
#195=VERTEX_POINT('',#411);
#196=VERTEX_POINT('',#413);
#197=VERTEX_POINT('',#417);
#198=VERTEX_POINT('',#419);
#199=VERTEX_POINT('',#422);
#200=VERTEX_POINT('',#427);
#201=VERTEX_POINT('',#429);
#202=VERTEX_POINT('',#432);
#203=VERTEX_POINT('',#435);
#204=VERTEX_POINT('',#437);
#205=VERTEX_POINT('',#440);
#206=VERTEX_POINT('',#443);
#207=VERTEX_POINT('',#448);
#208=VERTEX_POINT('',#453);
#209=VERTEX_POINT('',#454);
#210=EDGE_CURVE('',#190,#190,#234,.T.);
#211=EDGE_CURVE('',#191,#192,#235,.T.);
#212=EDGE_CURVE('',#192,#191,#236,.T.);
#213=EDGE_CURVE('',#193,#194,#237,.T.);
#214=EDGE_CURVE('',#195,#194,#59,.T.);
#215=EDGE_CURVE('',#195,#196,#238,.T.);
#216=EDGE_CURVE('',#196,#193,#60,.T.);
#217=EDGE_CURVE('',#197,#197,#239,.T.);
#218=EDGE_CURVE('',#195,#198,#61,.T.);
#219=EDGE_CURVE('',#196,#195,#240,.T.);
#220=EDGE_CURVE('',#196,#199,#62,.T.);
#221=EDGE_CURVE('',#194,#193,#241,.T.);
#222=EDGE_CURVE('',#200,#200,#242,.T.);
#223=EDGE_CURVE('',#201,#201,#243,.T.);
#224=EDGE_CURVE('',#202,#202,#244,.T.);
#225=EDGE_CURVE('',#203,#203,#245,.T.);
#226=EDGE_CURVE('',#204,#204,#246,.T.);
#227=EDGE_CURVE('',#205,#205,#247,.T.);
#228=EDGE_CURVE('',#206,#206,#248,.T.);
#229=EDGE_CURVE('',#207,#207,#249,.T.);
#230=EDGE_CURVE('',#208,#209,#250,.T.);
#231=EDGE_CURVE('',#209,#208,#251,.T.);
#232=EDGE_CURVE('',#208,#191,#63,.T.);
#233=EDGE_CURVE('',#209,#192,#64,.T.);
#234=CIRCLE('',#277,48.75);
#235=CIRCLE('',#278,35.3916641016626);
#236=CIRCLE('',#279,35.3916641016626);
#237=CIRCLE('',#281,30.);
#238=CIRCLE('',#282,40.);
#239=CIRCLE('',#284,40.);
#240=CIRCLE('',#285,40.);
#241=CIRCLE('',#287,30.);
#242=CIRCLE('',#289,45.625);
#243=CIRCLE('',#290,45.625);
#244=CIRCLE('',#292,46.3475952641916);
#245=CIRCLE('',#294,48.75);
#246=CIRCLE('',#295,48.75);
#247=CIRCLE('',#297,48.75);
#248=CIRCLE('',#299,46.3475952641916);
#249=CIRCLE('',#303,40.5);
#250=CIRCLE('',#307,20.0865398924475);
#251=CIRCLE('',#308,20.0865398924475);
#252=INVISIBILITY((#253,#254,#255,#256));
#253=PRESENTATION_LAYER_ASSIGNMENT('100','Layer 100',(#274));
#254=PRESENTATION_LAYER_ASSIGNMENT('101','Layer 101',(#275));
#255=PRESENTATION_LAYER_ASSIGNMENT('102','Layer 102',(#276));
#256=PRESENTATION_LAYER_ASSIGNMENT('98','Layer 98',(#38));
#257=STYLED_ITEM('',(#261),#274);
#258=STYLED_ITEM('',(#262),#275);
#259=STYLED_ITEM('',(#263),#276);
#260=STYLED_ITEM('',(#264),#38);
#261=PRESENTATION_STYLE_ASSIGNMENT((#265));
#262=PRESENTATION_STYLE_ASSIGNMENT((#266));
#263=PRESENTATION_STYLE_ASSIGNMENT((#267));
#264=PRESENTATION_STYLE_ASSIGNMENT((#33));
#265=CURVE_STYLE('',#270,POSITIVE_LENGTH_MEASURE(0.7),#268);
#266=CURVE_STYLE('',#271,POSITIVE_LENGTH_MEASURE(0.7),#268);
#267=CURVE_STYLE('',#272,POSITIVE_LENGTH_MEASURE(0.7),#268);
#268=COLOUR_RGB('Medium Maroon',0.6,0.4,0.4);
#269=COLOUR_RGB('Medium Gray',0.490196078431373,0.490196078431373,0.490196078431373);
#270=DRAUGHTING_PRE_DEFINED_CURVE_FONT('continuous');
#271=DRAUGHTING_PRE_DEFINED_CURVE_FONT('continuous');
#272=DRAUGHTING_PRE_DEFINED_CURVE_FONT('continuous');
#273=AXIS2_PLACEMENT_3D('',#396,#312,#313);
#274=AXIS2_PLACEMENT_3D('PCS',#397,#314,#315);
#275=AXIS2_PLACEMENT_3D('CSW',#398,#316,#317);
#276=AXIS2_PLACEMENT_3D('MCS',#399,#318,#319);
#277=AXIS2_PLACEMENT_3D('',#400,#320,#321);
#278=AXIS2_PLACEMENT_3D('',#402,#322,#323);
#279=AXIS2_PLACEMENT_3D('',#405,#324,#325);
#280=AXIS2_PLACEMENT_3D('',#406,#326,#327);
#281=AXIS2_PLACEMENT_3D('',#407,#328,#329);
#282=AXIS2_PLACEMENT_3D('',#412,#331,#332);
#283=AXIS2_PLACEMENT_3D('',#415,#334,#335);
#284=AXIS2_PLACEMENT_3D('',#416,#336,#337);
#285=AXIS2_PLACEMENT_3D('',#420,#339,#340);
#286=AXIS2_PLACEMENT_3D('',#423,#342,#343);
#287=AXIS2_PLACEMENT_3D('',#424,#344,#345);
#288=AXIS2_PLACEMENT_3D('',#425,#346,#347);
#289=AXIS2_PLACEMENT_3D('',#426,#348,#349);
#290=AXIS2_PLACEMENT_3D('',#428,#350,#351);
#291=AXIS2_PLACEMENT_3D('',#430,#352,#353);
#292=AXIS2_PLACEMENT_3D('',#431,#354,#355);
#293=AXIS2_PLACEMENT_3D('',#433,#356,#357);
#294=AXIS2_PLACEMENT_3D('',#434,#358,#359);
#295=AXIS2_PLACEMENT_3D('',#436,#360,#361);
#296=AXIS2_PLACEMENT_3D('',#438,#362,#363);
#297=AXIS2_PLACEMENT_3D('',#439,#364,#365);
#298=AXIS2_PLACEMENT_3D('',#441,#366,#367);
#299=AXIS2_PLACEMENT_3D('',#442,#368,#369);
#300=AXIS2_PLACEMENT_3D('',#444,#370,#371);
#301=AXIS2_PLACEMENT_3D('',#445,#372,#373);
#302=AXIS2_PLACEMENT_3D('',#446,#374,#375);
#303=AXIS2_PLACEMENT_3D('',#447,#376,#377);
#304=AXIS2_PLACEMENT_3D('',#449,#378,#379);
#305=AXIS2_PLACEMENT_3D('',#450,#380,#381);
#306=AXIS2_PLACEMENT_3D('',#451,#382,#383);
#307=AXIS2_PLACEMENT_3D('',#452,#384,#385);
#308=AXIS2_PLACEMENT_3D('',#455,#386,#387);
#309=AXIS2_PLACEMENT_3D('',#456,#388,#389);
#310=AXIS2_PLACEMENT_3D('',#459,#392,#393);
#311=AXIS2_PLACEMENT_3D('',#460,#394,#395);
#312=DIRECTION('',(0.,0.,1.));
#313=DIRECTION('',(1.,0.,0.));
#314=DIRECTION('',(0.,0.,1.));
#315=DIRECTION('',(1.,0.,0.));
#316=DIRECTION('',(0.,0.,1.));
#317=DIRECTION('',(1.,0.,0.));
#318=DIRECTION('',(0.,0.,1.));
#319=DIRECTION('',(1.,0.,0.));
#320=DIRECTION('',(0.,0.,1.));
#321=DIRECTION('',(-1.,0.,0.));
#322=DIRECTION('',(0.,0.,-1.));
#323=DIRECTION('',(-1.,0.,0.));
#324=DIRECTION('',(0.,0.,-1.));
#325=DIRECTION('',(-1.,0.,0.));
#326=DIRECTION('',(0.,0.,-1.));
#327=DIRECTION('',(-1.,0.,0.));
#328=DIRECTION('',(0.,0.,1.));
#329=DIRECTION('',(1.,0.,0.));
#330=DIRECTION('',(-0.707106781186546,8.65956056235492E-17,-0.707106781186549));
#331=DIRECTION('',(0.,0.,-1.));
#332=DIRECTION('',(1.,0.,0.));
#333=DIRECTION('',(0.707106781186546,0.,-0.707106781186549));
#334=DIRECTION('',(0.,0.,1.));
#335=DIRECTION('',(1.,0.,4.04207411878092E-17));
#336=DIRECTION('',(0.,0.,-1.));
#337=DIRECTION('',(-1.,0.,0.));
#338=DIRECTION('',(0.,0.,1.));
#339=DIRECTION('',(0.,0.,-1.));
#340=DIRECTION('',(1.,0.,0.));
#341=DIRECTION('',(0.,0.,1.));
#342=DIRECTION('',(0.,0.,1.));
#343=DIRECTION('',(1.,0.,0.));
#344=DIRECTION('',(0.,0.,1.));
#345=DIRECTION('',(1.,0.,0.));
#346=DIRECTION('',(0.,0.,1.));
#347=DIRECTION('',(1.,0.,4.04207411878092E-17));
#348=DIRECTION('',(0.,0.,-1.));
#349=DIRECTION('',(-1.,-5.32907051820075E-15,0.));
#350=DIRECTION('',(0.,0.,1.));
#351=DIRECTION('',(1.,0.,0.));
#352=DIRECTION('',(0.,0.,1.));
#353=DIRECTION('',(1.,0.,0.));
#354=DIRECTION('',(0.,0.,1.));
#355=DIRECTION('',(-1.,0.,0.));
#356=DIRECTION('',(0.,0.,-1.));
#357=DIRECTION('',(-1.,0.,0.));
#358=DIRECTION('',(0.,0.,1.));
#359=DIRECTION('',(1.,0.,0.));
#360=DIRECTION('',(0.,0.,1.));
#361=DIRECTION('',(-1.,0.,0.));
#362=DIRECTION('',(0.,0.,1.));
#363=DIRECTION('',(1.,0.,0.));
#364=DIRECTION('',(0.,0.,1.));
#365=DIRECTION('',(-1.,0.,0.));
#366=DIRECTION('',(0.,0.,1.));
#367=DIRECTION('',(1.,0.,0.));
#368=DIRECTION('',(0.,0.,1.));
#369=DIRECTION('',(-1.,0.,0.));
#370=DIRECTION('',(0.,0.,1.));
#371=DIRECTION('',(1.,0.,1.36377569913787E-17));
#372=DIRECTION('',(0.,0.,-1.));
#373=DIRECTION('',(-1.,0.,-4.09685399373719E-17));
#374=DIRECTION('',(0.,0.,1.));
#375=DIRECTION('',(1.,0.,0.));
#376=DIRECTION('',(0.,0.,1.));
#377=DIRECTION('',(-1.,0.,0.));
#378=DIRECTION('',(0.,0.,1.));
#379=DIRECTION('',(1.,0.,0.));
#380=DIRECTION('',(0.,0.,1.));
#381=DIRECTION('',(1.,0.,0.));
#382=DIRECTION('',(0.,0.,1.));
#383=DIRECTION('',(1.,0.,0.));
#384=DIRECTION('',(0.,0.,-1.));
#385=DIRECTION('',(-1.,0.,0.));
#386=DIRECTION('',(0.,0.,-1.));
#387=DIRECTION('',(-1.,0.,0.));
#388=DIRECTION('',(0.,0.,-1.));
#389=DIRECTION('',(-1.,0.,0.));
#390=DIRECTION('',(-0.144306116415234,-1.76724023565302E-17,-0.989533094325376));
#391=DIRECTION('',(0.144306116415234,0.,-0.989533094325376));
#392=DIRECTION('',(0.,0.,-1.));
#393=DIRECTION('',(-1.,0.,-5.59976678924025E-16));
#394=DIRECTION('',(0.,0.,-1.));
#395=DIRECTION('',(-1.,0.,-5.59976678924025E-16));
#396=CARTESIAN_POINT('',(0.,0.,0.));
#397=CARTESIAN_POINT('',(0.,0.,0.));
#398=CARTESIAN_POINT('',(0.,0.,-100.));
#399=CARTESIAN_POINT('',(0.,0.,0.));
#400=CARTESIAN_POINT('',(-0.0117684683998649,-2.08166817117217E-14,-3.19999999999999));
#401=CARTESIAN_POINT('',(-48.7617684683999,-2.08166817117217E-14,-3.19999999999999));
#402=CARTESIAN_POINT('',(-0.0117684683998649,-2.08166817117217E-14,-3.19999999999999));
#403=CARTESIAN_POINT('',(-35.4034325700624,-2.08166817117217E-14,-3.19999999999999));
#404=CARTESIAN_POINT('',(35.3798956332627,-1.64824528958617E-14,-3.19999999999999));
#405=CARTESIAN_POINT('',(-0.0117684683998649,-2.08166817117217E-14,-3.19999999999999));
#406=CARTESIAN_POINT('',(-0.0117684683998649,-35.3916641016626,-3.19999999999999));
#407=CARTESIAN_POINT('',(-0.0117684683998649,-2.08166817117217E-14,-100.));
#408=CARTESIAN_POINT('',(-30.0117684683999,-2.08166817117217E-14,-100.));
#409=CARTESIAN_POINT('',(29.9882315316002,-2.77555756156289E-14,-100.));
#410=CARTESIAN_POINT('',(29.9882315316001,-2.77555756156289E-14,-100.));
#411=CARTESIAN_POINT('',(39.9882315316001,-2.83678990152026E-14,-90.));
#412=CARTESIAN_POINT('',(-0.0117684683998649,-2.08166817117217E-14,-90.));
#413=CARTESIAN_POINT('',(-40.0117684683999,-2.08166817117217E-14,-90.));
#414=CARTESIAN_POINT('',(-30.0117684683999,-2.08166817117217E-14,-100.));
#415=CARTESIAN_POINT('',(-0.0117684683998649,-2.08166817117217E-14,-100.));
#416=CARTESIAN_POINT('',(-0.0117684683998649,-2.08166817117217E-14,-19.6));
#417=CARTESIAN_POINT('',(-40.0117684683999,-2.08166817117217E-14,-19.6));
#418=CARTESIAN_POINT('',(39.9882315316001,-2.77555756156289E-14,107.739937011565));
#419=CARTESIAN_POINT('',(39.9882315316001,6.24500451351651E-14,-33.4808771377382));
#420=CARTESIAN_POINT('',(-0.0117684683998649,-2.08166817117217E-14,-90.));
#421=CARTESIAN_POINT('',(-40.0117684683999,-2.08166817117217E-14,107.739937011565));
#422=CARTESIAN_POINT('',(-40.0117684683999,-2.08166817117217E-14,-33.2));
#423=CARTESIAN_POINT('',(-0.0117684683998649,-2.08166817117217E-14,107.739937011565));
#424=CARTESIAN_POINT('',(-0.0117684683998649,-2.08166817117217E-14,-100.));
#425=CARTESIAN_POINT('',(-0.0117684683998649,-2.08166817117217E-14,-100.));
#426=CARTESIAN_POINT('',(-0.0117684683998649,-2.08166817117217E-14,-10.2357531486032));
#427=CARTESIAN_POINT('',(-45.6367684683999,-2.63955524104631E-13,-10.2357531486032));
#428=CARTESIAN_POINT('',(-0.0117684683998649,-2.08166817117217E-14,-12.0642468513967));
#429=CARTESIAN_POINT('',(45.6132315316001,-2.08166817117217E-14,-12.0642468513967));
#430=CARTESIAN_POINT('',(-0.0117684683998649,-2.08166817117217E-14,-3.19999999999999));
#431=CARTESIAN_POINT('',(-0.0117684683998649,-2.08166817117217E-14,-13.025));
#432=CARTESIAN_POINT('',(-46.3593637325915,-2.08166817117217E-14,-13.025));
#433=CARTESIAN_POINT('',(-0.0117684683998649,-2.08166817117217E-14,-12.0642468513967));
#434=CARTESIAN_POINT('',(-0.0117684683998649,-2.08166817117217E-14,-19.1));
#435=CARTESIAN_POINT('',(48.7382315316001,-2.08166817117217E-14,-19.1));
#436=CARTESIAN_POINT('',(-0.0117684683998649,-2.08166817117217E-14,-14.4120290209214));
#437=CARTESIAN_POINT('',(-48.7617684683999,-2.08166817117217E-14,-14.4120290209214));
#438=CARTESIAN_POINT('',(-0.0117684683998649,-2.08166817117217E-14,107.739937011565));
#439=CARTESIAN_POINT('',(-0.0117684683998649,-2.08166817117217E-14,-7.88797097907859));
#440=CARTESIAN_POINT('',(-48.7617684683999,-2.08166817117217E-14,-7.88797097907859));
#441=CARTESIAN_POINT('',(-0.0117684683998649,-2.08166817117217E-14,107.739937011565));
#442=CARTESIAN_POINT('',(-0.0117684683998649,-2.08166817117217E-14,-9.27499999999999));
#443=CARTESIAN_POINT('',(-46.3593637325915,-2.08166817117217E-14,-9.27499999999999));
#444=CARTESIAN_POINT('',(-0.0117684683998649,-2.08166817117217E-14,-7.88797097907859));
#445=CARTESIAN_POINT('',(-0.0117684683998649,-2.08166817117217E-14,-13.025));
#446=CARTESIAN_POINT('',(-0.0117684683998649,-2.08166817117217E-14,-10.2357531486032));
#447=CARTESIAN_POINT('',(-0.0117684683998649,-2.08166817117217E-14,-19.1));
#448=CARTESIAN_POINT('',(-40.5117684683999,-2.08166817117217E-14,-19.1));
#449=CARTESIAN_POINT('',(-0.0117684683998649,-48.75,-19.1));
#450=CARTESIAN_POINT('',(-0.0117684683998649,-2.08166817117217E-14,-19.6));
#451=CARTESIAN_POINT('',(-0.0117684683998649,-30.,-100.));
#452=CARTESIAN_POINT('',(-0.0117684683998649,-2.08166817117217E-14,101.75));
#453=CARTESIAN_POINT('',(-20.0983083608473,-2.58812384782921E-14,101.75));
#454=CARTESIAN_POINT('',(20.0747714240476,-2.08166817117217E-14,101.75));
#455=CARTESIAN_POINT('',(-0.0117684683998649,-2.08166817117217E-14,101.75));
#456=CARTESIAN_POINT('',(-0.0117684683998649,-2.08166817117217E-14,101.75));
#457=CARTESIAN_POINT('',(-35.4034325700624,-2.77555756156289E-14,-3.19999999999999));
#458=CARTESIAN_POINT('',(35.3798956332627,-2.08166817117217E-14,-3.19999999999999));
#459=CARTESIAN_POINT('',(-0.0117684683998649,-2.08166817117217E-14,-3.19999999999999));
#460=CARTESIAN_POINT('',(-0.0117684683998649,-2.08166817117217E-14,-3.19999999999999));
#461=MECHANICAL_DESIGN_GEOMETRIC_PRESENTATION_REPRESENTATION('',(#257,#258,
#259,#260),#462);
#462=(
GEOMETRIC_REPRESENTATION_CONTEXT(3)
GLOBAL_UNCERTAINTY_ASSIGNED_CONTEXT((#463))
GLOBAL_UNIT_ASSIGNED_CONTEXT((#469,#465,#464))
REPRESENTATION_CONTEXT('69871.50ADB-W.40.100','TOP_LEVEL_ASSEMBLY_PART')
);
#463=UNCERTAINTY_MEASURE_WITH_UNIT(LENGTH_MEASURE(2.E-5),#469,
'DISTANCE_ACCURACY_VALUE','Maximum Tolerance applied to model');
#464=(
NAMED_UNIT(*)
SI_UNIT($,.STERADIAN.)
SOLID_ANGLE_UNIT()
);
#465=(
CONVERSION_BASED_UNIT('DEGREE',#467)
NAMED_UNIT(#466)
PLANE_ANGLE_UNIT()
);
#466=DIMENSIONAL_EXPONENTS(0.,0.,0.,0.,0.,0.,0.);
#467=PLANE_ANGLE_MEASURE_WITH_UNIT(PLANE_ANGLE_MEASURE(0.0174532925),#468);
#468=(
NAMED_UNIT(*)
PLANE_ANGLE_UNIT()
SI_UNIT($,.RADIAN.)
);
#469=(
LENGTH_UNIT()
NAMED_UNIT(*)
SI_UNIT(.MILLI.,.METRE.)
);
ENDSEC;
END-ISO-10303-21;
