ISO-10303-21;
HEADER;
/* Generated by software containing ST-Developer
 * from STEP Tools, Inc. (www.steptools.com) 
 */
/* OPTION: using custom schema-name function */

FILE_DESCRIPTION(
/* description */ (''),
/* implementation_level */ '2;1');

FILE_NAME(
/* name */ 'oznaceni_DOCUMENTNUMBERndi000_00_SIM.stp',
/* time_stamp */ '2023-05-30T08:13:49+02:00',
/* author */ (''),
/* organization */ (''),
/* preprocessor_version */ 'ST-DEVELOPER v16.7',
/* originating_system */ 'SIEMENS PLM Software NX 12.0',
/* authorisation */ '');

FILE_SCHEMA (('AUTOMOTIVE_DESIGN { 1 0 10303 214 3 1 1 1 }'));
ENDSEC;

DATA;
#10=CONSTRUCTIVE_GEOMETRY_REPRESENTATION_RELATIONSHIP(
'supplemental geometry','',#24,#11);
#11=CONSTRUCTIVE_GEOMETRY_REPRESENTATION('supplemental geometry',(#199,
#200,#201),#336);
#12=SHAPE_REPRESENTATION_RELATIONSHIP('None',
'relationship between 204753992ndi000_00-None and 204753992ndi000_00-N
one',#24,#13);
#13=ADVANCED_BREP_SHAPE_REPRESENTATION('204753992ndi000_00-None',(#30),
#336);
#14=SHAPE_DEFINITION_REPRESENTATION(#15,#24);
#15=PRODUCT_DEFINITION_SHAPE('','',#16);
#16=PRODUCT_DEFINITION(' ','',#18,#17);
#17=PRODUCT_DEFINITION_CONTEXT('part definition',#23,'design');
#18=PRODUCT_DEFINITION_FORMATION_WITH_SPECIFIED_SOURCE(' ',' ',#20,
 .NOT_KNOWN.);
#19=PRODUCT_RELATED_PRODUCT_CATEGORY('part','',(#20));
#20=PRODUCT('204753992ndi000_00','204753992ndi000_00',' ',(#21));
#21=PRODUCT_CONTEXT(' ',#23,'mechanical');
#22=APPLICATION_PROTOCOL_DEFINITION('international standard',
'automotive_design',2010,#23);
#23=APPLICATION_CONTEXT(
'core data for automotive mechanical design processes');
#24=SHAPE_REPRESENTATION('204753992ndi000_00-None',(#198),#336);
#25=SURFACE_STYLE_USAGE(.BOTH.,#26);
#26=SURFACE_SIDE_STYLE('',(#27));
#27=SURFACE_STYLE_FILL_AREA(#28);
#28=FILL_AREA_STYLE('',(#29));
#29=FILL_AREA_STYLE_COLOUR('',#194);
#30=MANIFOLD_SOLID_BREP('S\X\D3LIDO1',#31);
#31=CLOSED_SHELL('',(#64,#65,#66,#67,#68,#69,#70,#71,#72,#73,#74,#75,#76,
#77));
#32=CONICAL_SURFACE('',#208,47.6612976320958,60.0000000000001);
#33=CONICAL_SURFACE('',#219,47.6612976320958,60.);
#34=CONICAL_SURFACE('',#226,27.6262235022471,8.20000000000001);
#35=CYLINDRICAL_SURFACE('',#206,48.75);
#36=CYLINDRICAL_SURFACE('',#212,45.5);
#37=CYLINDRICAL_SURFACE('',#220,48.75);
#38=CYLINDRICAL_SURFACE('',#227,34.9754357704682);
#39=CYLINDRICAL_SURFACE('',#228,20.);
#40=FACE_BOUND('',#87,.T.);
#41=FACE_BOUND('',#88,.T.);
#42=FACE_BOUND('',#89,.T.);
#43=FACE_BOUND('',#90,.T.);
#44=FACE_BOUND('',#91,.T.);
#45=FACE_BOUND('',#92,.T.);
#46=FACE_BOUND('',#93,.T.);
#47=FACE_BOUND('',#94,.T.);
#48=FACE_BOUND('',#95,.T.);
#49=FACE_BOUND('',#96,.T.);
#50=FACE_BOUND('',#97,.T.);
#51=FACE_BOUND('',#98,.T.);
#52=FACE_BOUND('',#99,.T.);
#53=FACE_BOUND('',#100,.T.);
#54=FACE_BOUND('',#101,.T.);
#55=FACE_BOUND('',#102,.T.);
#56=FACE_BOUND('',#103,.T.);
#57=FACE_BOUND('',#104,.T.);
#58=FACE_BOUND('',#106,.T.);
#59=FACE_BOUND('',#107,.T.);
#60=FACE_BOUND('',#108,.T.);
#61=FACE_BOUND('',#109,.T.);
#62=FACE_BOUND('',#110,.T.);
#63=FACE_BOUND('',#111,.T.);
#64=ADVANCED_FACE('',(#84),#78,.T.);
#65=ADVANCED_FACE('',(#40,#41),#35,.T.);
#66=ADVANCED_FACE('',(#42,#43),#32,.T.);
#67=ADVANCED_FACE('',(#44,#45),#79,.T.);
#68=ADVANCED_FACE('',(#46,#47),#36,.T.);
#69=ADVANCED_FACE('',(#48,#49),#80,.T.);
#70=ADVANCED_FACE('',(#50,#51),#81,.T.);
#71=ADVANCED_FACE('',(#52,#53),#33,.T.);
#72=ADVANCED_FACE('',(#54,#55),#37,.T.);
#73=ADVANCED_FACE('',(#56,#57),#82,.T.);
#74=ADVANCED_FACE('',(#85),#83,.T.);
#75=ADVANCED_FACE('',(#58,#59),#34,.T.);
#76=ADVANCED_FACE('',(#60,#61),#38,.T.);
#77=ADVANCED_FACE('',(#62,#63),#39,.T.);
#78=PLANE('',#203);
#79=PLANE('',#210);
#80=PLANE('',#215);
#81=PLANE('',#217);
#82=PLANE('',#222);
#83=PLANE('',#224);
#84=FACE_OUTER_BOUND('',#86,.T.);
#85=FACE_OUTER_BOUND('',#105,.T.);
#86=EDGE_LOOP('',(#112));
#87=EDGE_LOOP('',(#113));
#88=EDGE_LOOP('',(#114));
#89=EDGE_LOOP('',(#115));
#90=EDGE_LOOP('',(#116));
#91=EDGE_LOOP('',(#117));
#92=EDGE_LOOP('',(#118));
#93=EDGE_LOOP('',(#119));
#94=EDGE_LOOP('',(#120));
#95=EDGE_LOOP('',(#121));
#96=EDGE_LOOP('',(#122));
#97=EDGE_LOOP('',(#123));
#98=EDGE_LOOP('',(#124));
#99=EDGE_LOOP('',(#125));
#100=EDGE_LOOP('',(#126));
#101=EDGE_LOOP('',(#127));
#102=EDGE_LOOP('',(#128));
#103=EDGE_LOOP('',(#129));
#104=EDGE_LOOP('',(#130));
#105=EDGE_LOOP('',(#131));
#106=EDGE_LOOP('',(#132));
#107=EDGE_LOOP('',(#133));
#108=EDGE_LOOP('',(#134));
#109=EDGE_LOOP('',(#135));
#110=EDGE_LOOP('',(#136));
#111=EDGE_LOOP('',(#137));
#112=ORIENTED_EDGE('',*,*,#151,.T.);
#113=ORIENTED_EDGE('',*,*,#152,.T.);
#114=ORIENTED_EDGE('',*,*,#153,.T.);
#115=ORIENTED_EDGE('',*,*,#153,.F.);
#116=ORIENTED_EDGE('',*,*,#154,.T.);
#117=ORIENTED_EDGE('',*,*,#154,.F.);
#118=ORIENTED_EDGE('',*,*,#155,.T.);
#119=ORIENTED_EDGE('',*,*,#155,.F.);
#120=ORIENTED_EDGE('',*,*,#156,.T.);
#121=ORIENTED_EDGE('',*,*,#157,.F.);
#122=ORIENTED_EDGE('',*,*,#158,.T.);
#123=ORIENTED_EDGE('',*,*,#156,.F.);
#124=ORIENTED_EDGE('',*,*,#159,.T.);
#125=ORIENTED_EDGE('',*,*,#159,.F.);
#126=ORIENTED_EDGE('',*,*,#160,.T.);
#127=ORIENTED_EDGE('',*,*,#160,.F.);
#128=ORIENTED_EDGE('',*,*,#157,.T.);
#129=ORIENTED_EDGE('',*,*,#152,.F.);
#130=ORIENTED_EDGE('',*,*,#161,.F.);
#131=ORIENTED_EDGE('',*,*,#162,.T.);
#132=ORIENTED_EDGE('',*,*,#163,.F.);
#133=ORIENTED_EDGE('',*,*,#162,.F.);
#134=ORIENTED_EDGE('',*,*,#158,.F.);
#135=ORIENTED_EDGE('',*,*,#163,.T.);
#136=ORIENTED_EDGE('',*,*,#151,.F.);
#137=ORIENTED_EDGE('',*,*,#161,.T.);
#138=VERTEX_POINT('',#296);
#139=VERTEX_POINT('',#299);
#140=VERTEX_POINT('',#301);
#141=VERTEX_POINT('',#304);
#142=VERTEX_POINT('',#307);
#143=VERTEX_POINT('',#310);
#144=VERTEX_POINT('',#313);
#145=VERTEX_POINT('',#315);
#146=VERTEX_POINT('',#318);
#147=VERTEX_POINT('',#321);
#148=VERTEX_POINT('',#325);
#149=VERTEX_POINT('',#328);
#150=VERTEX_POINT('',#331);
#151=EDGE_CURVE('',#138,#138,#164,.T.);
#152=EDGE_CURVE('',#139,#139,#165,.T.);
#153=EDGE_CURVE('',#140,#140,#166,.T.);
#154=EDGE_CURVE('',#141,#141,#167,.T.);
#155=EDGE_CURVE('',#142,#142,#168,.T.);
#156=EDGE_CURVE('',#143,#143,#169,.T.);
#157=EDGE_CURVE('',#144,#144,#170,.T.);
#158=EDGE_CURVE('',#145,#145,#171,.T.);
#159=EDGE_CURVE('',#146,#146,#172,.T.);
#160=EDGE_CURVE('',#147,#147,#173,.T.);
#161=EDGE_CURVE('',#148,#148,#174,.T.);
#162=EDGE_CURVE('',#149,#149,#175,.T.);
#163=EDGE_CURVE('',#150,#150,#176,.T.);
#164=CIRCLE('',#202,20.);
#165=CIRCLE('',#204,48.75);
#166=CIRCLE('',#205,48.75);
#167=CIRCLE('',#207,46.5725952641916);
#168=CIRCLE('',#209,45.5);
#169=CIRCLE('',#211,45.5);
#170=CIRCLE('',#213,48.75);
#171=CIRCLE('',#214,34.9754357704682);
#172=CIRCLE('',#216,46.5725952641916);
#173=CIRCLE('',#218,48.75);
#174=CIRCLE('',#221,20.);
#175=CIRCLE('',#223,20.2770112340261);
#176=CIRCLE('',#225,34.9754357704682);
#177=INVISIBILITY((#178,#179,#180));
#178=PRESENTATION_LAYER_ASSIGNMENT('100','Layer 100',(#199));
#179=PRESENTATION_LAYER_ASSIGNMENT('101','Layer 101',(#200));
#180=PRESENTATION_LAYER_ASSIGNMENT('102','Layer 102',(#201));
#181=PRESENTATION_LAYER_ASSIGNMENT('98','Layer 98',(#30));
#182=STYLED_ITEM('',(#186),#199);
#183=STYLED_ITEM('',(#187),#200);
#184=STYLED_ITEM('',(#188),#201);
#185=STYLED_ITEM('',(#189),#30);
#186=PRESENTATION_STYLE_ASSIGNMENT((#190));
#187=PRESENTATION_STYLE_ASSIGNMENT((#191));
#188=PRESENTATION_STYLE_ASSIGNMENT((#192));
#189=PRESENTATION_STYLE_ASSIGNMENT((#25));
#190=CURVE_STYLE('',#195,POSITIVE_LENGTH_MEASURE(0.7),#193);
#191=CURVE_STYLE('',#196,POSITIVE_LENGTH_MEASURE(0.7),#193);
#192=CURVE_STYLE('',#197,POSITIVE_LENGTH_MEASURE(0.7),#193);
#193=COLOUR_RGB('Medium Maroon',0.6,0.4,0.4);
#194=COLOUR_RGB('Medium Gray',0.490196078431373,0.490196078431373,0.490196078431373);
#195=DRAUGHTING_PRE_DEFINED_CURVE_FONT('continuous');
#196=DRAUGHTING_PRE_DEFINED_CURVE_FONT('continuous');
#197=DRAUGHTING_PRE_DEFINED_CURVE_FONT('continuous');
#198=AXIS2_PLACEMENT_3D('',#291,#229,#230);
#199=AXIS2_PLACEMENT_3D('PCS',#292,#231,#232);
#200=AXIS2_PLACEMENT_3D('CSW',#293,#233,#234);
#201=AXIS2_PLACEMENT_3D('MCS',#294,#235,#236);
#202=AXIS2_PLACEMENT_3D('',#295,#237,#238);
#203=AXIS2_PLACEMENT_3D('',#297,#239,#240);
#204=AXIS2_PLACEMENT_3D('',#298,#241,#242);
#205=AXIS2_PLACEMENT_3D('',#300,#243,#244);
#206=AXIS2_PLACEMENT_3D('',#302,#245,#246);
#207=AXIS2_PLACEMENT_3D('',#303,#247,#248);
#208=AXIS2_PLACEMENT_3D('',#305,#249,#250);
#209=AXIS2_PLACEMENT_3D('',#306,#251,#252);
#210=AXIS2_PLACEMENT_3D('',#308,#253,#254);
#211=AXIS2_PLACEMENT_3D('',#309,#255,#256);
#212=AXIS2_PLACEMENT_3D('',#311,#257,#258);
#213=AXIS2_PLACEMENT_3D('',#312,#259,#260);
#214=AXIS2_PLACEMENT_3D('',#314,#261,#262);
#215=AXIS2_PLACEMENT_3D('',#316,#263,#264);
#216=AXIS2_PLACEMENT_3D('',#317,#265,#266);
#217=AXIS2_PLACEMENT_3D('',#319,#267,#268);
#218=AXIS2_PLACEMENT_3D('',#320,#269,#270);
#219=AXIS2_PLACEMENT_3D('',#322,#271,#272);
#220=AXIS2_PLACEMENT_3D('',#323,#273,#274);
#221=AXIS2_PLACEMENT_3D('',#324,#275,#276);
#222=AXIS2_PLACEMENT_3D('',#326,#277,#278);
#223=AXIS2_PLACEMENT_3D('',#327,#279,#280);
#224=AXIS2_PLACEMENT_3D('',#329,#281,#282);
#225=AXIS2_PLACEMENT_3D('',#330,#283,#284);
#226=AXIS2_PLACEMENT_3D('',#332,#285,#286);
#227=AXIS2_PLACEMENT_3D('',#333,#287,#288);
#228=AXIS2_PLACEMENT_3D('',#334,#289,#290);
#229=DIRECTION('',(0.,0.,1.));
#230=DIRECTION('',(1.,0.,0.));
#231=DIRECTION('',(0.,0.,1.));
#232=DIRECTION('',(1.,0.,0.));
#233=DIRECTION('',(0.,0.,1.));
#234=DIRECTION('',(1.,0.,0.));
#235=DIRECTION('',(0.,0.,1.));
#236=DIRECTION('',(1.,0.,0.));
#237=DIRECTION('',(0.,0.,-1.));
#238=DIRECTION('',(1.,0.,0.));
#239=DIRECTION('',(0.,0.,-1.));
#240=DIRECTION('',(-1.,0.,0.));
#241=DIRECTION('',(0.,0.,1.));
#242=DIRECTION('',(-1.,0.,0.));
#243=DIRECTION('',(0.,0.,-1.));
#244=DIRECTION('',(1.,0.,0.));
#245=DIRECTION('',(1.471103E-16,0.,-1.));
#246=DIRECTION('',(-1.,0.,-1.42336285208353E-16));
#247=DIRECTION('',(0.,0.,-1.));
#248=DIRECTION('',(1.,0.,0.));
#249=DIRECTION('',(1.471103E-16,0.,-1.));
#250=DIRECTION('',(-1.,0.,-9.45479758653143E-17));
#251=DIRECTION('',(0.,0.,-1.));
#252=DIRECTION('',(1.,0.,0.));
#253=DIRECTION('',(0.,0.,1.));
#254=DIRECTION('',(1.,0.,0.));
#255=DIRECTION('',(0.,0.,-1.));
#256=DIRECTION('',(1.,0.,0.));
#257=DIRECTION('',(1.471103E-16,0.,-1.));
#258=DIRECTION('',(-1.,0.,-1.52503162723236E-16));
#259=DIRECTION('',(0.,0.,-1.));
#260=DIRECTION('',(1.,0.,0.));
#261=DIRECTION('',(0.,0.,-1.));
#262=DIRECTION('',(1.,0.,0.));
#263=DIRECTION('',(0.,0.,1.));
#264=DIRECTION('',(1.,0.,0.));
#265=DIRECTION('',(0.,0.,-1.));
#266=DIRECTION('',(1.,0.,0.));
#267=DIRECTION('',(0.,0.,-1.));
#268=DIRECTION('',(-1.,0.,0.));
#269=DIRECTION('',(0.,0.,-1.));
#270=DIRECTION('',(1.,0.,0.));
#271=DIRECTION('',(-1.471103E-16,0.,1.));
#272=DIRECTION('',(-1.,0.,-1.44258767299656E-16));
#273=DIRECTION('',(1.471103E-16,0.,-1.));
#274=DIRECTION('',(-1.,0.,-1.42336285208353E-16));
#275=DIRECTION('',(0.,0.,-1.));
#276=DIRECTION('',(1.,0.,0.));
#277=DIRECTION('',(0.,0.,-1.));
#278=DIRECTION('',(-1.,0.,0.));
#279=DIRECTION('',(0.,0.,1.));
#280=DIRECTION('',(1.,0.,0.));
#281=DIRECTION('',(0.,0.,1.));
#282=DIRECTION('',(1.,0.,0.));
#283=DIRECTION('',(0.,0.,-1.));
#284=DIRECTION('',(1.,0.,0.));
#285=DIRECTION('',(1.471103E-16,0.,-1.));
#286=DIRECTION('',(-1.,0.,-1.21218614397279E-16));
#287=DIRECTION('',(1.471103E-16,0.,-1.));
#288=DIRECTION('',(-1.,0.,-1.48795013222526E-16));
#289=DIRECTION('',(1.471103E-16,0.,-1.));
#290=DIRECTION('',(-1.,0.,0.));
#291=CARTESIAN_POINT('',(0.,0.,0.));
#292=CARTESIAN_POINT('',(0.,0.,0.));
#293=CARTESIAN_POINT('',(0.,0.,-60.));
#294=CARTESIAN_POINT('',(0.,0.,0.));
#295=CARTESIAN_POINT('',(1.04577E-14,0.,-60.));
#296=CARTESIAN_POINT('',(20.,0.,-60.));
#297=CARTESIAN_POINT('',(10.,0.,-60.));
#298=CARTESIAN_POINT('',(4.44089211033365E-15,0.,-19.1));
#299=CARTESIAN_POINT('',(-48.75,0.,-19.1));
#300=CARTESIAN_POINT('',(3.871888E-15,0.,-15.2321252103537));
#301=CARTESIAN_POINT('',(48.75,0.,-15.2321252103537));
#302=CARTESIAN_POINT('',(4.15639E-15,0.,-17.1660626051769));
#303=CARTESIAN_POINT('',(3.686952E-15,0.,-13.975));
#304=CARTESIAN_POINT('',(46.5725952641917,0.,-13.975));
#305=CARTESIAN_POINT('',(3.77942E-15,0.,-14.6035626051769));
#306=CARTESIAN_POINT('',(3.686952E-15,0.,-13.975));
#307=CARTESIAN_POINT('',(45.5,0.,-13.975));
#308=CARTESIAN_POINT('',(46.0362976320958,0.,-13.975));
#309=CARTESIAN_POINT('',(3.135288E-15,0.,-10.225));
#310=CARTESIAN_POINT('',(45.5,0.,-10.225));
#311=CARTESIAN_POINT('',(3.41112E-15,0.,-12.1));
#312=CARTESIAN_POINT('',(2.10183810466635E-15,0.,-3.2));
#313=CARTESIAN_POINT('',(48.75,0.,-3.2));
#314=CARTESIAN_POINT('',(2.101838E-15,0.,-3.20000000000001));
#315=CARTESIAN_POINT('',(34.9754357704682,0.,-3.2));
#316=CARTESIAN_POINT('',(41.8627178852341,0.,-3.2));
#317=CARTESIAN_POINT('',(3.135288E-15,0.,-10.225));
#318=CARTESIAN_POINT('',(46.5725952641916,0.,-10.225));
#319=CARTESIAN_POINT('',(46.0362976320958,0.,-10.225));
#320=CARTESIAN_POINT('',(2.950352E-15,0.,-8.96787478964629));
#321=CARTESIAN_POINT('',(48.75,0.,-8.96787478964629));
#322=CARTESIAN_POINT('',(3.04282E-15,0.,-9.59643739482315));
#323=CARTESIAN_POINT('',(2.526095E-15,0.,-6.08393739482315));
#324=CARTESIAN_POINT('',(4.440892E-15,0.,-19.1));
#325=CARTESIAN_POINT('',(20.,0.,-19.1));
#326=CARTESIAN_POINT('',(24.375,0.,-19.1));
#327=CARTESIAN_POINT('',(-1.28928256001567E-14,0.,101.65));
#328=CARTESIAN_POINT('',(20.2770112340261,0.,101.65));
#329=CARTESIAN_POINT('',(15.388505617013,0.,101.65));
#330=CARTESIAN_POINT('',(1.682574E-15,0.,-0.350000000000006));
#331=CARTESIAN_POINT('',(34.9754357704682,0.,-0.350000000000001));
#332=CARTESIAN_POINT('',(-5.820051E-15,0.,50.65));
#333=CARTESIAN_POINT('',(1.892206E-15,0.,-1.77500000000001));
#334=CARTESIAN_POINT('',(7.449298E-15,0.,-39.55));
#335=MECHANICAL_DESIGN_GEOMETRIC_PRESENTATION_REPRESENTATION('',(#182,#183,
#184,#185),#336);
#336=(
GEOMETRIC_REPRESENTATION_CONTEXT(3)
GLOBAL_UNCERTAINTY_ASSIGNED_CONTEXT((#337))
GLOBAL_UNIT_ASSIGNED_CONTEXT((#343,#339,#338))
REPRESENTATION_CONTEXT('oznaceni_DOCUMENTNUMBERndi000_00_SIM',
'TOP_LEVEL_ASSEMBLY_PART')
);
#337=UNCERTAINTY_MEASURE_WITH_UNIT(LENGTH_MEASURE(2.E-5),#343,
'DISTANCE_ACCURACY_VALUE','Maximum Tolerance applied to model');
#338=(
NAMED_UNIT(*)
SI_UNIT($,.STERADIAN.)
SOLID_ANGLE_UNIT()
);
#339=(
CONVERSION_BASED_UNIT('DEGREE',#341)
NAMED_UNIT(#340)
PLANE_ANGLE_UNIT()
);
#340=DIMENSIONAL_EXPONENTS(0.,0.,0.,0.,0.,0.,0.);
#341=PLANE_ANGLE_MEASURE_WITH_UNIT(PLANE_ANGLE_MEASURE(0.0174532925),#342);
#342=(
NAMED_UNIT(*)
PLANE_ANGLE_UNIT()
SI_UNIT($,.RADIAN.)
);
#343=(
LENGTH_UNIT()
NAMED_UNIT(*)
SI_UNIT(.MILLI.,.METRE.)
);
ENDSEC;
END-ISO-10303-21;
