ISO-10303-21;
HEADER;
/* Generated by software containing ST-Developer
 * from STEP Tools, Inc. (www.steptools.com) 
 */
/* OPTION: using custom schema-name function */

FILE_DESCRIPTION(
/* description */ (''),
/* implementation_level */ '2;1');

FILE_NAME(
/* name */ '69871.50ADB-CC.ER40.200.stp',
/* time_stamp */ '2024-07-30T11:31:43+02:00',
/* author */ (''),
/* organization */ (''),
/* preprocessor_version */ 'ST-DEVELOPER v16.7',
/* originating_system */ 'SIEMENS PLM Software NX 12.0',
/* authorisation */ '');

FILE_SCHEMA (('AUTOMOTIVE_DESIGN { 1 0 10303 214 3 1 1 1 }'));
ENDSEC;

DATA;
#10=CONSTRUCTIVE_GEOMETRY_REPRESENTATION_RELATIONSHIP(
'supplemental geometry','',#32,#11);
#11=CONSTRUCTIVE_GEOMETRY_REPRESENTATION('supplemental geometry',(#333,
#334,#335),#574);
#12=PROPERTY_DEFINITION_REPRESENTATION(#16,#14);
#13=PROPERTY_DEFINITION_REPRESENTATION(#17,#15);
#14=REPRESENTATION('',(#18),#574);
#15=REPRESENTATION('',(#19),#574);
#16=PROPERTY_DEFINITION('pmi validation property','',#23);
#17=PROPERTY_DEFINITION('pmi validation property','',#23);
#18=VALUE_REPRESENTATION_ITEM('number of annotations',COUNT_MEASURE(0.));
#19=VALUE_REPRESENTATION_ITEM('number of views',COUNT_MEASURE(0.));
#20=SHAPE_REPRESENTATION_RELATIONSHIP('None',
'relationship between pf663AEC53C0f42q-None and pf663AEC53C0f42q-None',
#32,#21);
#21=ADVANCED_BREP_SHAPE_REPRESENTATION('pf663AEC53C0f42q-None',(#38),#574);
#22=SHAPE_DEFINITION_REPRESENTATION(#23,#32);
#23=PRODUCT_DEFINITION_SHAPE('','',#24);
#24=PRODUCT_DEFINITION(' ','',#26,#25);
#25=PRODUCT_DEFINITION_CONTEXT('part definition',#31,'design');
#26=PRODUCT_DEFINITION_FORMATION_WITH_SPECIFIED_SOURCE(' ',' ',#28,
 .NOT_KNOWN.);
#27=PRODUCT_RELATED_PRODUCT_CATEGORY('part','',(#28));
#28=PRODUCT('pf663AEC53C0f42q','pf663AEC53C0f42q',' ',(#29));
#29=PRODUCT_CONTEXT(' ',#31,'mechanical');
#30=APPLICATION_PROTOCOL_DEFINITION('international standard',
'automotive_design',2010,#31);
#31=APPLICATION_CONTEXT(
'core data for automotive mechanical design processes');
#32=SHAPE_REPRESENTATION('pf663AEC53C0f42q-None',(#332),#574);
#33=SURFACE_STYLE_USAGE(.BOTH.,#34);
#34=SURFACE_SIDE_STYLE('',(#35));
#35=SURFACE_STYLE_FILL_AREA(#36);
#36=FILL_AREA_STYLE('',(#37));
#37=FILL_AREA_STYLE_COLOUR('',#328);
#38=MANIFOLD_SOLID_BREP('\X\B0\X2\014100AE0106\X0\-\X\B1\X2\017000C20154\X0\1
1',#39);
#39=CLOSED_SHELL('',(#77,#78,#79,#80,#81,#82,#83,#84,#85,#86,#87,#88,#89,
#90,#91,#92,#93,#94,#95,#96,#97));
#40=TOROIDAL_SURFACE('',#354,30.,5.);
#41=TOROIDAL_SURFACE('',#359,46.625,1.);
#42=TOROIDAL_SURFACE('',#361,46.625,1.);
#43=TOROIDAL_SURFACE('',#371,30.,5.);
#44=CYLINDRICAL_SURFACE('',#350,25.);
#45=CYLINDRICAL_SURFACE('',#357,45.625);
#46=CYLINDRICAL_SURFACE('',#363,48.75);
#47=CYLINDRICAL_SURFACE('',#370,48.75);
#48=CYLINDRICAL_SURFACE('',#373,31.5);
#49=CYLINDRICAL_SURFACE('',#375,31.5);
#50=FACE_BOUND('',#117,.T.);
#51=FACE_BOUND('',#118,.T.);
#52=FACE_BOUND('',#119,.T.);
#53=FACE_BOUND('',#120,.T.);
#54=FACE_BOUND('',#122,.T.);
#55=FACE_BOUND('',#123,.T.);
#56=FACE_BOUND('',#124,.T.);
#57=FACE_BOUND('',#125,.T.);
#58=FACE_BOUND('',#126,.T.);
#59=FACE_BOUND('',#127,.T.);
#60=FACE_BOUND('',#128,.T.);
#61=FACE_BOUND('',#129,.T.);
#62=FACE_BOUND('',#130,.T.);
#63=FACE_BOUND('',#131,.T.);
#64=FACE_BOUND('',#132,.T.);
#65=FACE_BOUND('',#133,.T.);
#66=FACE_BOUND('',#134,.T.);
#67=FACE_BOUND('',#135,.T.);
#68=FACE_BOUND('',#136,.T.);
#69=FACE_BOUND('',#137,.T.);
#70=FACE_BOUND('',#141,.T.);
#71=FACE_BOUND('',#142,.T.);
#72=PLANE('',#342);
#73=PLANE('',#346);
#74=PLANE('',#369);
#75=PLANE('',#376);
#76=PLANE('',#379);
#77=ADVANCED_FACE('',(#104),#98,.T.);
#78=ADVANCED_FACE('',(#105),#99,.T.);
#79=ADVANCED_FACE('',(#106),#72,.F.);
#80=ADVANCED_FACE('',(#50,#51),#73,.F.);
#81=ADVANCED_FACE('',(#52,#53),#44,.T.);
#82=ADVANCED_FACE('',(#107),#40,.F.);
#83=ADVANCED_FACE('',(#54,#55),#45,.T.);
#84=ADVANCED_FACE('',(#56,#57),#41,.F.);
#85=ADVANCED_FACE('',(#58,#59),#42,.F.);
#86=ADVANCED_FACE('',(#60,#61),#46,.T.);
#87=ADVANCED_FACE('',(#62,#63),#100,.T.);
#88=ADVANCED_FACE('',(#64,#65),#101,.T.);
#89=ADVANCED_FACE('',(#66,#67),#74,.F.);
#90=ADVANCED_FACE('',(#68,#69),#47,.T.);
#91=ADVANCED_FACE('',(#108),#43,.F.);
#92=ADVANCED_FACE('',(#109),#48,.T.);
#93=ADVANCED_FACE('',(#110),#49,.T.);
#94=ADVANCED_FACE('',(#70,#71),#75,.F.);
#95=ADVANCED_FACE('',(#111),#76,.F.);
#96=ADVANCED_FACE('',(#112),#102,.T.);
#97=ADVANCED_FACE('',(#113),#103,.T.);
#98=CONICAL_SURFACE('',#338,30.5,60.0000000000004);
#99=CONICAL_SURFACE('',#341,30.5,60.0000000000004);
#100=CONICAL_SURFACE('',#364,48.75,59.9999999999999);
#101=CONICAL_SURFACE('',#366,46.3475952641916,60.0000000000003);
#102=CONICAL_SURFACE('',#380,35.3916641016626,8.29710000000004);
#103=CONICAL_SURFACE('',#381,35.3916641016626,8.29710000000004);
#104=FACE_OUTER_BOUND('',#114,.T.);
#105=FACE_OUTER_BOUND('',#115,.T.);
#106=FACE_OUTER_BOUND('',#116,.T.);
#107=FACE_OUTER_BOUND('',#121,.T.);
#108=FACE_OUTER_BOUND('',#138,.T.);
#109=FACE_OUTER_BOUND('',#139,.T.);
#110=FACE_OUTER_BOUND('',#140,.T.);
#111=FACE_OUTER_BOUND('',#143,.T.);
#112=FACE_OUTER_BOUND('',#144,.T.);
#113=FACE_OUTER_BOUND('',#145,.T.);
#114=EDGE_LOOP('',(#171,#172,#173,#174));
#115=EDGE_LOOP('',(#175,#176,#177,#178));
#116=EDGE_LOOP('',(#179,#180));
#117=EDGE_LOOP('',(#181));
#118=EDGE_LOOP('',(#182,#183));
#119=EDGE_LOOP('',(#184,#185,#186,#187,#188,#189));
#120=EDGE_LOOP('',(#190));
#121=EDGE_LOOP('',(#191,#192,#193,#194));
#122=EDGE_LOOP('',(#195));
#123=EDGE_LOOP('',(#196));
#124=EDGE_LOOP('',(#197));
#125=EDGE_LOOP('',(#198));
#126=EDGE_LOOP('',(#199));
#127=EDGE_LOOP('',(#200));
#128=EDGE_LOOP('',(#201));
#129=EDGE_LOOP('',(#202));
#130=EDGE_LOOP('',(#203));
#131=EDGE_LOOP('',(#204));
#132=EDGE_LOOP('',(#205));
#133=EDGE_LOOP('',(#206));
#134=EDGE_LOOP('',(#207));
#135=EDGE_LOOP('',(#208,#209));
#136=EDGE_LOOP('',(#210));
#137=EDGE_LOOP('',(#211));
#138=EDGE_LOOP('',(#212,#213,#214,#215));
#139=EDGE_LOOP('',(#216,#217,#218,#219));
#140=EDGE_LOOP('',(#220,#221,#222,#223));
#141=EDGE_LOOP('',(#224));
#142=EDGE_LOOP('',(#225,#226));
#143=EDGE_LOOP('',(#227,#228));
#144=EDGE_LOOP('',(#229,#230,#231,#232));
#145=EDGE_LOOP('',(#233,#234,#235,#236));
#146=CIRCLE('',#336,31.5);
#147=CIRCLE('',#337,24.75);
#148=CIRCLE('',#339,31.5);
#149=CIRCLE('',#340,24.75);
#150=CIRCLE('',#343,48.75);
#151=CIRCLE('',#344,35.3916641016626);
#152=CIRCLE('',#345,35.3916641016626);
#153=CIRCLE('',#347,25.);
#154=CIRCLE('',#348,25.);
#155=CIRCLE('',#349,25.);
#156=CIRCLE('',#351,30.);
#157=CIRCLE('',#352,5.);
#158=CIRCLE('',#353,5.);
#159=CIRCLE('',#355,45.625);
#160=CIRCLE('',#356,45.625);
#161=CIRCLE('',#358,46.3475952641916);
#162=CIRCLE('',#360,46.3475952641916);
#163=CIRCLE('',#362,48.75);
#164=CIRCLE('',#365,48.75);
#165=CIRCLE('',#367,48.75);
#166=CIRCLE('',#368,30.);
#167=CIRCLE('',#372,31.5);
#168=CIRCLE('',#374,31.5);
#169=CIRCLE('',#377,20.0865398924475);
#170=CIRCLE('',#378,20.0865398924475);
#171=ORIENTED_EDGE('',*,*,#262,.T.);
#172=ORIENTED_EDGE('',*,*,#263,.T.);
#173=ORIENTED_EDGE('',*,*,#264,.F.);
#174=ORIENTED_EDGE('',*,*,#265,.F.);
#175=ORIENTED_EDGE('',*,*,#264,.T.);
#176=ORIENTED_EDGE('',*,*,#266,.T.);
#177=ORIENTED_EDGE('',*,*,#262,.F.);
#178=ORIENTED_EDGE('',*,*,#267,.F.);
#179=ORIENTED_EDGE('',*,*,#267,.T.);
#180=ORIENTED_EDGE('',*,*,#265,.T.);
#181=ORIENTED_EDGE('',*,*,#268,.T.);
#182=ORIENTED_EDGE('',*,*,#269,.T.);
#183=ORIENTED_EDGE('',*,*,#270,.T.);
#184=ORIENTED_EDGE('',*,*,#271,.F.);
#185=ORIENTED_EDGE('',*,*,#271,.T.);
#186=ORIENTED_EDGE('',*,*,#272,.T.);
#187=ORIENTED_EDGE('',*,*,#273,.F.);
#188=ORIENTED_EDGE('',*,*,#273,.T.);
#189=ORIENTED_EDGE('',*,*,#274,.T.);
#190=ORIENTED_EDGE('',*,*,#275,.T.);
#191=ORIENTED_EDGE('',*,*,#276,.F.);
#192=ORIENTED_EDGE('',*,*,#277,.F.);
#193=ORIENTED_EDGE('',*,*,#272,.F.);
#194=ORIENTED_EDGE('',*,*,#278,.T.);
#195=ORIENTED_EDGE('',*,*,#279,.T.);
#196=ORIENTED_EDGE('',*,*,#280,.T.);
#197=ORIENTED_EDGE('',*,*,#280,.F.);
#198=ORIENTED_EDGE('',*,*,#281,.F.);
#199=ORIENTED_EDGE('',*,*,#279,.F.);
#200=ORIENTED_EDGE('',*,*,#282,.T.);
#201=ORIENTED_EDGE('',*,*,#268,.F.);
#202=ORIENTED_EDGE('',*,*,#283,.T.);
#203=ORIENTED_EDGE('',*,*,#283,.F.);
#204=ORIENTED_EDGE('',*,*,#281,.T.);
#205=ORIENTED_EDGE('',*,*,#282,.F.);
#206=ORIENTED_EDGE('',*,*,#284,.T.);
#207=ORIENTED_EDGE('',*,*,#285,.T.);
#208=ORIENTED_EDGE('',*,*,#286,.T.);
#209=ORIENTED_EDGE('',*,*,#276,.T.);
#210=ORIENTED_EDGE('',*,*,#284,.F.);
#211=ORIENTED_EDGE('',*,*,#285,.F.);
#212=ORIENTED_EDGE('',*,*,#277,.T.);
#213=ORIENTED_EDGE('',*,*,#286,.F.);
#214=ORIENTED_EDGE('',*,*,#278,.F.);
#215=ORIENTED_EDGE('',*,*,#274,.F.);
#216=ORIENTED_EDGE('',*,*,#266,.F.);
#217=ORIENTED_EDGE('',*,*,#287,.T.);
#218=ORIENTED_EDGE('',*,*,#288,.T.);
#219=ORIENTED_EDGE('',*,*,#289,.F.);
#220=ORIENTED_EDGE('',*,*,#263,.F.);
#221=ORIENTED_EDGE('',*,*,#289,.T.);
#222=ORIENTED_EDGE('',*,*,#290,.T.);
#223=ORIENTED_EDGE('',*,*,#287,.F.);
#224=ORIENTED_EDGE('',*,*,#275,.F.);
#225=ORIENTED_EDGE('',*,*,#288,.F.);
#226=ORIENTED_EDGE('',*,*,#290,.F.);
#227=ORIENTED_EDGE('',*,*,#291,.F.);
#228=ORIENTED_EDGE('',*,*,#292,.F.);
#229=ORIENTED_EDGE('',*,*,#293,.T.);
#230=ORIENTED_EDGE('',*,*,#270,.F.);
#231=ORIENTED_EDGE('',*,*,#294,.F.);
#232=ORIENTED_EDGE('',*,*,#291,.T.);
#233=ORIENTED_EDGE('',*,*,#292,.T.);
#234=ORIENTED_EDGE('',*,*,#294,.T.);
#235=ORIENTED_EDGE('',*,*,#269,.F.);
#236=ORIENTED_EDGE('',*,*,#293,.F.);
#237=VERTEX_POINT('',#495);
#238=VERTEX_POINT('',#496);
#239=VERTEX_POINT('',#498);
#240=VERTEX_POINT('',#500);
#241=VERTEX_POINT('',#508);
#242=VERTEX_POINT('',#510);
#243=VERTEX_POINT('',#511);
#244=VERTEX_POINT('',#515);
#245=VERTEX_POINT('',#516);
#246=VERTEX_POINT('',#518);
#247=VERTEX_POINT('',#520);
#248=VERTEX_POINT('',#523);
#249=VERTEX_POINT('',#526);
#250=VERTEX_POINT('',#527);
#251=VERTEX_POINT('',#532);
#252=VERTEX_POINT('',#534);
#253=VERTEX_POINT('',#537);
#254=VERTEX_POINT('',#540);
#255=VERTEX_POINT('',#543);
#256=VERTEX_POINT('',#547);
#257=VERTEX_POINT('',#550);
#258=VERTEX_POINT('',#556);
#259=VERTEX_POINT('',#558);
#260=VERTEX_POINT('',#565);
#261=VERTEX_POINT('',#566);
#262=EDGE_CURVE('',#237,#238,#295,.T.);
#263=EDGE_CURVE('',#238,#239,#146,.T.);
#264=EDGE_CURVE('',#240,#239,#296,.T.);
#265=EDGE_CURVE('',#237,#240,#147,.T.);
#266=EDGE_CURVE('',#239,#238,#148,.T.);
#267=EDGE_CURVE('',#240,#237,#149,.T.);
#268=EDGE_CURVE('',#241,#241,#150,.T.);
#269=EDGE_CURVE('',#242,#243,#151,.T.);
#270=EDGE_CURVE('',#243,#242,#152,.T.);
#271=EDGE_CURVE('',#244,#245,#297,.T.);
#272=EDGE_CURVE('',#245,#246,#153,.T.);
#273=EDGE_CURVE('',#247,#246,#298,.T.);
#274=EDGE_CURVE('',#246,#245,#154,.T.);
#275=EDGE_CURVE('',#248,#248,#155,.T.);
#276=EDGE_CURVE('',#249,#250,#156,.T.);
#277=EDGE_CURVE('',#246,#249,#157,.T.);
#278=EDGE_CURVE('',#245,#250,#158,.T.);
#279=EDGE_CURVE('',#251,#251,#159,.T.);
#280=EDGE_CURVE('',#252,#252,#160,.T.);
#281=EDGE_CURVE('',#253,#253,#161,.T.);
#282=EDGE_CURVE('',#254,#254,#162,.T.);
#283=EDGE_CURVE('',#255,#255,#163,.T.);
#284=EDGE_CURVE('',#256,#256,#164,.T.);
#285=EDGE_CURVE('',#257,#257,#165,.T.);
#286=EDGE_CURVE('',#250,#249,#166,.T.);
#287=EDGE_CURVE('',#239,#258,#299,.T.);
#288=EDGE_CURVE('',#258,#259,#167,.T.);
#289=EDGE_CURVE('',#238,#259,#300,.T.);
#290=EDGE_CURVE('',#259,#258,#168,.T.);
#291=EDGE_CURVE('',#260,#261,#169,.T.);
#292=EDGE_CURVE('',#261,#260,#170,.T.);
#293=EDGE_CURVE('',#261,#242,#301,.T.);
#294=EDGE_CURVE('',#260,#243,#302,.T.);
#295=LINE('',#494,#303);
#296=LINE('',#499,#304);
#297=LINE('',#514,#305);
#298=LINE('',#519,#306);
#299=LINE('',#555,#307);
#300=LINE('',#559,#308);
#301=LINE('',#569,#309);
#302=LINE('',#570,#310);
#303=VECTOR('',#390,1.);
#304=VECTOR('',#393,1.);
#305=VECTOR('',#414,1.);
#306=VECTOR('',#417,1.);
#307=VECTOR('',#466,1.);
#308=VECTOR('',#469,1.);
#309=VECTOR('',#484,1.);
#310=VECTOR('',#485,1.);
#311=INVISIBILITY((#312,#313,#314,#315));
#312=PRESENTATION_LAYER_ASSIGNMENT('100','Layer 100',(#333));
#313=PRESENTATION_LAYER_ASSIGNMENT('101','Layer 101',(#334));
#314=PRESENTATION_LAYER_ASSIGNMENT('102','Layer 102',(#335));
#315=PRESENTATION_LAYER_ASSIGNMENT('98','Layer 98',(#38));
#316=STYLED_ITEM('',(#320),#333);
#317=STYLED_ITEM('',(#321),#334);
#318=STYLED_ITEM('',(#322),#335);
#319=STYLED_ITEM('',(#323),#38);
#320=PRESENTATION_STYLE_ASSIGNMENT((#324));
#321=PRESENTATION_STYLE_ASSIGNMENT((#325));
#322=PRESENTATION_STYLE_ASSIGNMENT((#326));
#323=PRESENTATION_STYLE_ASSIGNMENT((#33));
#324=CURVE_STYLE('',#329,POSITIVE_LENGTH_MEASURE(0.7),#327);
#325=CURVE_STYLE('',#330,POSITIVE_LENGTH_MEASURE(0.7),#327);
#326=CURVE_STYLE('',#331,POSITIVE_LENGTH_MEASURE(0.7),#327);
#327=COLOUR_RGB('Medium Maroon',0.6,0.4,0.4);
#328=COLOUR_RGB('Medium Gray',0.490196078431373,0.490196078431373,0.490196078431373);
#329=DRAUGHTING_PRE_DEFINED_CURVE_FONT('continuous');
#330=DRAUGHTING_PRE_DEFINED_CURVE_FONT('continuous');
#331=DRAUGHTING_PRE_DEFINED_CURVE_FONT('continuous');
#332=AXIS2_PLACEMENT_3D('',#490,#382,#383);
#333=AXIS2_PLACEMENT_3D('PCS',#491,#384,#385);
#334=AXIS2_PLACEMENT_3D('CSW',#492,#386,#387);
#335=AXIS2_PLACEMENT_3D('MCS',#493,#388,#389);
#336=AXIS2_PLACEMENT_3D('',#497,#391,#392);
#337=AXIS2_PLACEMENT_3D('',#501,#394,#395);
#338=AXIS2_PLACEMENT_3D('',#502,#396,#397);
#339=AXIS2_PLACEMENT_3D('',#503,#398,#399);
#340=AXIS2_PLACEMENT_3D('',#504,#400,#401);
#341=AXIS2_PLACEMENT_3D('',#505,#402,#403);
#342=AXIS2_PLACEMENT_3D('',#506,#404,#405);
#343=AXIS2_PLACEMENT_3D('',#507,#406,#407);
#344=AXIS2_PLACEMENT_3D('',#509,#408,#409);
#345=AXIS2_PLACEMENT_3D('',#512,#410,#411);
#346=AXIS2_PLACEMENT_3D('',#513,#412,#413);
#347=AXIS2_PLACEMENT_3D('',#517,#415,#416);
#348=AXIS2_PLACEMENT_3D('',#521,#418,#419);
#349=AXIS2_PLACEMENT_3D('',#522,#420,#421);
#350=AXIS2_PLACEMENT_3D('',#524,#422,#423);
#351=AXIS2_PLACEMENT_3D('',#525,#424,#425);
#352=AXIS2_PLACEMENT_3D('',#528,#426,#427);
#353=AXIS2_PLACEMENT_3D('',#529,#428,#429);
#354=AXIS2_PLACEMENT_3D('',#530,#430,#431);
#355=AXIS2_PLACEMENT_3D('',#531,#432,#433);
#356=AXIS2_PLACEMENT_3D('',#533,#434,#435);
#357=AXIS2_PLACEMENT_3D('',#535,#436,#437);
#358=AXIS2_PLACEMENT_3D('',#536,#438,#439);
#359=AXIS2_PLACEMENT_3D('',#538,#440,#441);
#360=AXIS2_PLACEMENT_3D('',#539,#442,#443);
#361=AXIS2_PLACEMENT_3D('',#541,#444,#445);
#362=AXIS2_PLACEMENT_3D('',#542,#446,#447);
#363=AXIS2_PLACEMENT_3D('',#544,#448,#449);
#364=AXIS2_PLACEMENT_3D('',#545,#450,#451);
#365=AXIS2_PLACEMENT_3D('',#546,#452,#453);
#366=AXIS2_PLACEMENT_3D('',#548,#454,#455);
#367=AXIS2_PLACEMENT_3D('',#549,#456,#457);
#368=AXIS2_PLACEMENT_3D('',#551,#458,#459);
#369=AXIS2_PLACEMENT_3D('',#552,#460,#461);
#370=AXIS2_PLACEMENT_3D('',#553,#462,#463);
#371=AXIS2_PLACEMENT_3D('',#554,#464,#465);
#372=AXIS2_PLACEMENT_3D('',#557,#467,#468);
#373=AXIS2_PLACEMENT_3D('',#560,#470,#471);
#374=AXIS2_PLACEMENT_3D('',#561,#472,#473);
#375=AXIS2_PLACEMENT_3D('',#562,#474,#475);
#376=AXIS2_PLACEMENT_3D('',#563,#476,#477);
#377=AXIS2_PLACEMENT_3D('',#564,#478,#479);
#378=AXIS2_PLACEMENT_3D('',#567,#480,#481);
#379=AXIS2_PLACEMENT_3D('',#568,#482,#483);
#380=AXIS2_PLACEMENT_3D('',#571,#486,#487);
#381=AXIS2_PLACEMENT_3D('',#572,#488,#489);
#382=DIRECTION('',(0.,0.,1.));
#383=DIRECTION('',(1.,0.,0.));
#384=DIRECTION('',(0.,0.,1.));
#385=DIRECTION('',(1.,0.,0.));
#386=DIRECTION('',(0.,0.,1.));
#387=DIRECTION('',(1.,0.,0.));
#388=DIRECTION('',(0.,0.,1.));
#389=DIRECTION('',(1.,0.,0.));
#390=DIRECTION('',(0.219468171951235,-0.837755167993841,0.499999999999995));
#391=DIRECTION('',(0.,0.,-1.));
#392=DIRECTION('',(1.,0.,0.));
#393=DIRECTION('',(-0.219468171951235,0.837755167993841,0.499999999999995));
#394=DIRECTION('',(0.,0.,-1.));
#395=DIRECTION('',(1.,0.,0.));
#396=DIRECTION('',(0.,0.,1.));
#397=DIRECTION('',(-0.2534200163092,0.967356343512485,0.));
#398=DIRECTION('',(0.,0.,-1.));
#399=DIRECTION('',(1.,0.,0.));
#400=DIRECTION('',(0.,0.,-1.));
#401=DIRECTION('',(1.,0.,0.));
#402=DIRECTION('',(0.,0.,1.));
#403=DIRECTION('',(-0.2534200163092,0.967356343512485,0.));
#404=DIRECTION('',(0.,0.,1.));
#405=DIRECTION('',(-0.2534200163092,0.967356343512485,0.));
#406=DIRECTION('',(0.,0.,1.));
#407=DIRECTION('',(-1.,0.,0.));
#408=DIRECTION('',(0.,0.,-1.));
#409=DIRECTION('',(-1.,0.,0.));
#410=DIRECTION('',(0.,0.,-1.));
#411=DIRECTION('',(-1.,0.,0.));
#412=DIRECTION('',(0.,0.,-1.));
#413=DIRECTION('',(-1.,0.,0.));
#414=DIRECTION('',(0.,0.,1.));
#415=DIRECTION('',(0.,0.,-1.));
#416=DIRECTION('',(-1.,0.,0.));
#417=DIRECTION('',(0.,0.,1.));
#418=DIRECTION('',(0.,0.,-1.));
#419=DIRECTION('',(-1.,0.,0.));
#420=DIRECTION('',(0.,0.,1.));
#421=DIRECTION('',(-1.,0.,0.));
#422=DIRECTION('',(0.,0.,1.));
#423=DIRECTION('',(1.,0.,0.));
#424=DIRECTION('',(0.,0.,1.));
#425=DIRECTION('',(-1.,0.,0.));
#426=DIRECTION('',(1.22464679914735E-16,1.,0.));
#427=DIRECTION('',(-1.,1.22464679914735E-16,0.));
#428=DIRECTION('',(0.,-1.,0.));
#429=DIRECTION('',(1.,0.,0.));
#430=DIRECTION('',(0.,0.,1.));
#431=DIRECTION('',(1.,0.,0.));
#432=DIRECTION('',(0.,0.,1.));
#433=DIRECTION('',(1.,0.,0.));
#434=DIRECTION('',(0.,0.,-1.));
#435=DIRECTION('',(-1.,-5.32907051820075E-15,0.));
#436=DIRECTION('',(0.,0.,1.));
#437=DIRECTION('',(1.,0.,0.));
#438=DIRECTION('',(0.,0.,1.));
#439=DIRECTION('',(-1.,0.,0.));
#440=DIRECTION('',(0.,0.,1.));
#441=DIRECTION('',(1.,0.,0.));
#442=DIRECTION('',(0.,0.,1.));
#443=DIRECTION('',(-1.,0.,0.));
#444=DIRECTION('',(0.,0.,-1.));
#445=DIRECTION('',(-1.,0.,0.));
#446=DIRECTION('',(0.,0.,1.));
#447=DIRECTION('',(-1.,0.,0.));
#448=DIRECTION('',(0.,0.,1.));
#449=DIRECTION('',(1.,0.,0.));
#450=DIRECTION('',(0.,0.,1.));
#451=DIRECTION('',(1.,0.,2.33790119852207E-17));
#452=DIRECTION('',(0.,0.,1.));
#453=DIRECTION('',(-1.,0.,0.));
#454=DIRECTION('',(0.,0.,-1.));
#455=DIRECTION('',(-1.,0.,-3.90176570832113E-17));
#456=DIRECTION('',(0.,0.,-1.));
#457=DIRECTION('',(1.,0.,0.));
#458=DIRECTION('',(0.,0.,1.));
#459=DIRECTION('',(-1.,0.,0.));
#460=DIRECTION('',(0.,0.,1.));
#461=DIRECTION('',(1.,0.,0.));
#462=DIRECTION('',(0.,0.,1.));
#463=DIRECTION('',(1.,0.,0.));
#464=DIRECTION('',(0.,0.,1.));
#465=DIRECTION('',(1.,0.,0.));
#466=DIRECTION('',(0.,0.,1.));
#467=DIRECTION('',(0.,0.,-1.));
#468=DIRECTION('',(-1.,0.,0.));
#469=DIRECTION('',(0.,0.,1.));
#470=DIRECTION('',(0.,0.,-1.));
#471=DIRECTION('',(0.2534200163092,-0.967356343512485,0.));
#472=DIRECTION('',(0.,0.,-1.));
#473=DIRECTION('',(-1.,0.,0.));
#474=DIRECTION('',(0.,0.,-1.));
#475=DIRECTION('',(0.2534200163092,-0.967356343512485,0.));
#476=DIRECTION('',(0.,0.,-1.));
#477=DIRECTION('',(0.2534200163092,-0.967356343512485,0.));
#478=DIRECTION('',(0.,0.,-1.));
#479=DIRECTION('',(-1.,0.,0.));
#480=DIRECTION('',(0.,0.,-1.));
#481=DIRECTION('',(-1.,0.,0.));
#482=DIRECTION('',(0.,0.,-1.));
#483=DIRECTION('',(-1.,0.,0.));
#484=DIRECTION('',(0.144306116415234,0.,-0.989533094325376));
#485=DIRECTION('',(-0.144306116415234,-1.76724023565302E-17,-0.989533094325376));
#486=DIRECTION('',(0.,0.,-1.));
#487=DIRECTION('',(-1.,0.,-4.59468044245354E-16));
#488=DIRECTION('',(0.,0.,-1.));
#489=DIRECTION('',(-1.,0.,-4.59468044245354E-16));
#490=CARTESIAN_POINT('',(0.,0.,0.));
#491=CARTESIAN_POINT('',(0.,0.,0.));
#492=CARTESIAN_POINT('',(0.,0.,-185.));
#493=CARTESIAN_POINT('',(0.,0.,0.));
#494=CARTESIAN_POINT('',(7.71754202903092,-29.5043684771308,-191.38023595216));
#495=CARTESIAN_POINT('',(6.26037693525303,-23.942069501934,-194.7));
#496=CARTESIAN_POINT('',(7.97096204534012,-30.4717248206433,-190.80288568297));
#497=CARTESIAN_POINT('',(-0.01176846839967,-3.60377959462711E-17,-190.80288568297));
#498=CARTESIAN_POINT('',(-7.99449898213946,30.4717248206433,-190.80288568297));
#499=CARTESIAN_POINT('',(-7.74107896583026,29.5043684771308,-191.38023595216));
#500=CARTESIAN_POINT('',(-6.28391387205237,23.942069501934,-194.7));
#501=CARTESIAN_POINT('',(-0.01176846839967,-3.60377959462711E-17,-194.7));
#502=CARTESIAN_POINT('',(-0.01176846839967,-3.60377959462711E-17,-191.38023595216));
#503=CARTESIAN_POINT('',(-0.01176846839967,-3.60377959462711E-17,-190.80288568297));
#504=CARTESIAN_POINT('',(-0.01176846839967,-3.60377959462711E-17,-194.7));
#505=CARTESIAN_POINT('',(-0.01176846839967,-3.60377959462711E-17,-191.38023595216));
#506=CARTESIAN_POINT('',(16.0802043059305,4.21564197130354,-194.7));
#507=CARTESIAN_POINT('',(-0.01176846839967,-3.60377959462711E-17,-3.20000000000001));
#508=CARTESIAN_POINT('',(-48.7617684683997,-3.60377959462711E-17,-3.20000000000001));
#509=CARTESIAN_POINT('',(-0.01176846839967,-3.60377959462711E-17,-3.20000000000001));
#510=CARTESIAN_POINT('',(35.3798956332629,4.29819101991367E-15,-3.20000000000001));
#511=CARTESIAN_POINT('',(-35.4034325700623,-3.60377959462711E-17,-3.20000000000001));
#512=CARTESIAN_POINT('',(-0.01176846839967,-3.60377959462711E-17,-3.20000000000001));
#513=CARTESIAN_POINT('',(-0.01176846839967,-35.3916641016626,-3.20000000000001));
#514=CARTESIAN_POINT('',(-25.0117684683997,-3.60377959462711E-17,107.739937011565));
#515=CARTESIAN_POINT('',(-25.0117684683997,4.5563877008563E-15,-168.875));
#516=CARTESIAN_POINT('',(-25.0117684683997,-3.60377959462711E-17,-24.1));
#517=CARTESIAN_POINT('',(-0.01176846839967,-3.60377959462711E-17,-24.1));
#518=CARTESIAN_POINT('',(24.9882315316003,-3.09765479381465E-15,-24.1));
#519=CARTESIAN_POINT('',(24.9882315316003,-3.09765479381465E-15,107.739937011565));
#520=CARTESIAN_POINT('',(24.9882315316003,-1.56684629488046E-15,-168.125));
#521=CARTESIAN_POINT('',(-0.01176846839967,-3.60377959462711E-17,-24.1));
#522=CARTESIAN_POINT('',(-0.01176846839967,-3.60377959462711E-17,-169.2));
#523=CARTESIAN_POINT('',(-25.0117684683997,-3.60377959462711E-17,-169.2));
#524=CARTESIAN_POINT('',(-0.01176846839967,-3.60377959462711E-17,107.739937011565));
#525=CARTESIAN_POINT('',(-0.01176846839967,-3.60377959462711E-17,-19.1));
#526=CARTESIAN_POINT('',(29.9882315316003,-3.70997819338833E-15,-19.1));
#527=CARTESIAN_POINT('',(-30.0117684683997,-3.60377959462711E-17,-19.1));
#528=CARTESIAN_POINT('',(29.9882315316003,-3.70997819338833E-15,-24.1));
#529=CARTESIAN_POINT('',(-30.0117684683997,-3.60377959462711E-17,-24.1));
#530=CARTESIAN_POINT('',(-0.01176846839967,-3.60377959462711E-17,-24.1));
#531=CARTESIAN_POINT('',(-0.01176846839967,-3.60377959462711E-17,-12.0642468513967));
#532=CARTESIAN_POINT('',(45.6132315316003,-3.60377959462711E-17,-12.0642468513967));
#533=CARTESIAN_POINT('',(-0.01176846839967,-3.60377959462711E-17,-10.2357531486033));
#534=CARTESIAN_POINT('',(-45.6367684683997,-2.43174880188856E-13,-10.2357531486033));
#535=CARTESIAN_POINT('',(-0.01176846839967,-3.60377959462711E-17,-3.20000000000001));
#536=CARTESIAN_POINT('',(-0.01176846839967,-3.60377959462711E-17,-9.275));
#537=CARTESIAN_POINT('',(-46.3593637325913,-3.60377959462711E-17,-9.275));
#538=CARTESIAN_POINT('',(-0.01176846839967,-3.60377959462711E-17,-10.2357531486033));
#539=CARTESIAN_POINT('',(-0.01176846839967,-3.60377959462711E-17,-13.025));
#540=CARTESIAN_POINT('',(-46.3593637325913,-3.60377959462711E-17,-13.025));
#541=CARTESIAN_POINT('',(-0.01176846839967,-3.60377959462711E-17,-12.0642468513967));
#542=CARTESIAN_POINT('',(-0.01176846839967,-3.60377959462711E-17,-7.8879709790786));
#543=CARTESIAN_POINT('',(-48.7617684683997,-3.60377959462711E-17,-7.8879709790786));
#544=CARTESIAN_POINT('',(-0.01176846839967,-3.60377959462711E-17,107.739937011565));
#545=CARTESIAN_POINT('',(-0.01176846839967,-3.60377959462711E-17,-7.8879709790786));
#546=CARTESIAN_POINT('',(-0.01176846839967,-3.60377959462711E-17,-14.4120290209214));
#547=CARTESIAN_POINT('',(-48.7617684683997,-3.60377959462711E-17,-14.4120290209214));
#548=CARTESIAN_POINT('',(-0.01176846839967,-3.60377959462711E-17,-13.025));
#549=CARTESIAN_POINT('',(-0.01176846839967,-3.60377959462711E-17,-19.1));
#550=CARTESIAN_POINT('',(48.7382315316003,-3.60377959462711E-17,-19.1));
#551=CARTESIAN_POINT('',(-0.01176846839967,-3.60377959462711E-17,-19.1));
#552=CARTESIAN_POINT('',(-0.01176846839967,-48.75,-19.1));
#553=CARTESIAN_POINT('',(-0.01176846839967,-3.60377959462711E-17,107.739937011565));
#554=CARTESIAN_POINT('',(-0.01176846839967,-3.60377959462711E-17,-24.1));
#555=CARTESIAN_POINT('',(-7.99449898213947,30.4717248206433,-194.7));
#556=CARTESIAN_POINT('',(-7.99449898213947,30.4717248206433,-169.2));
#557=CARTESIAN_POINT('',(-0.01176846839967,-3.60377959462711E-17,-169.2));
#558=CARTESIAN_POINT('',(7.97096204534013,-30.4717248206433,-169.2));
#559=CARTESIAN_POINT('',(7.97096204534013,-30.4717248206433,-194.7));
#560=CARTESIAN_POINT('',(-0.01176846839967,-3.60377959462711E-17,-194.7));
#561=CARTESIAN_POINT('',(-0.01176846839967,-3.60377959462711E-17,-169.2));
#562=CARTESIAN_POINT('',(-0.01176846839967,-3.60377959462711E-17,-194.7));
#563=CARTESIAN_POINT('',(28.5252436652186,7.47589048112139,-169.2));
#564=CARTESIAN_POINT('',(-0.01176846839967,-3.60377959462711E-17,101.75));
#565=CARTESIAN_POINT('',(-20.0983083608471,-2.49592947446941E-15,101.75));
#566=CARTESIAN_POINT('',(20.0747714240478,-3.60377959462711E-17,101.75));
#567=CARTESIAN_POINT('',(-0.01176846839967,-3.60377959462711E-17,101.75));
#568=CARTESIAN_POINT('',(-0.01176846839967,-3.60377959462711E-17,101.75));
#569=CARTESIAN_POINT('',(35.3798956332629,-3.60377959462711E-17,-3.20000000000001));
#570=CARTESIAN_POINT('',(-35.4034325700623,-4.37026661180621E-15,-3.20000000000001));
#571=CARTESIAN_POINT('',(-0.01176846839967,-3.60377959462711E-17,-3.20000000000001));
#572=CARTESIAN_POINT('',(-0.01176846839967,-3.60377959462711E-17,-3.20000000000001));
#573=MECHANICAL_DESIGN_GEOMETRIC_PRESENTATION_REPRESENTATION('',(#316,#317,
#318,#319),#574);
#574=(
GEOMETRIC_REPRESENTATION_CONTEXT(3)
GLOBAL_UNCERTAINTY_ASSIGNED_CONTEXT((#575))
GLOBAL_UNIT_ASSIGNED_CONTEXT((#581,#577,#576))
REPRESENTATION_CONTEXT('69871.50ADB-CC.ER40','TOP_LEVEL_ASSEMBLY_PART')
);
#575=UNCERTAINTY_MEASURE_WITH_UNIT(LENGTH_MEASURE(2.E-5),#581,
'DISTANCE_ACCURACY_VALUE','Maximum Tolerance applied to model');
#576=(
NAMED_UNIT(*)
SI_UNIT($,.STERADIAN.)
SOLID_ANGLE_UNIT()
);
#577=(
CONVERSION_BASED_UNIT('DEGREE',#579)
NAMED_UNIT(#578)
PLANE_ANGLE_UNIT()
);
#578=DIMENSIONAL_EXPONENTS(0.,0.,0.,0.,0.,0.,0.);
#579=PLANE_ANGLE_MEASURE_WITH_UNIT(PLANE_ANGLE_MEASURE(0.0174532925),#580);
#580=(
NAMED_UNIT(*)
PLANE_ANGLE_UNIT()
SI_UNIT($,.RADIAN.)
);
#581=(
LENGTH_UNIT()
NAMED_UNIT(*)
SI_UNIT(.MILLI.,.METRE.)
);
ENDSEC;
END-ISO-10303-21;
