ISO-10303-21;
HEADER;
/* Generated by software containing ST-Developer
 * from STEP Tools, Inc. (www.steptools.com) 
 */
/* OPTION: using custom schema-name function */

FILE_DESCRIPTION(
/* description */ (''),
/* implementation_level */ '2;1');

FILE_NAME(
/* name */ '69871.50AD-QTCW.M5.M22.stp',
/* time_stamp */ '2024-07-22T15:27:11+02:00',
/* author */ (''),
/* organization */ (''),
/* preprocessor_version */ 'ST-DEVELOPER v16.7',
/* originating_system */ 'SIEMENS PLM Software NX 12.0',
/* authorisation */ '');

FILE_SCHEMA (('AUTOMOTIVE_DESIGN { 1 0 10303 214 3 1 1 1 }'));
ENDSEC;

DATA;
#10=CONSTRUCTIVE_GEOMETRY_REPRESENTATION_RELATIONSHIP(
'supplemental geometry','',#32,#11);
#11=CONSTRUCTIVE_GEOMETRY_REPRESENTATION('supplemental geometry',(#386,
#387,#388),#678);
#12=PROPERTY_DEFINITION_REPRESENTATION(#16,#14);
#13=PROPERTY_DEFINITION_REPRESENTATION(#17,#15);
#14=REPRESENTATION('',(#18),#678);
#15=REPRESENTATION('',(#19),#678);
#16=PROPERTY_DEFINITION('pmi validation property','',#23);
#17=PROPERTY_DEFINITION('pmi validation property','',#23);
#18=VALUE_REPRESENTATION_ITEM('number of annotations',COUNT_MEASURE(0.));
#19=VALUE_REPRESENTATION_ITEM('number of views',COUNT_MEASURE(0.));
#20=SHAPE_REPRESENTATION_RELATIONSHIP('None',
'relationship between pf6612088076yvmj-None and pf6612088076yvmj-None',
#32,#21);
#21=ADVANCED_BREP_SHAPE_REPRESENTATION('pf6612088076yvmj-None',(#38),#678);
#22=SHAPE_DEFINITION_REPRESENTATION(#23,#32);
#23=PRODUCT_DEFINITION_SHAPE('','',#24);
#24=PRODUCT_DEFINITION(' ','',#26,#25);
#25=PRODUCT_DEFINITION_CONTEXT('part definition',#31,'design');
#26=PRODUCT_DEFINITION_FORMATION_WITH_SPECIFIED_SOURCE(' ',' ',#28,
 .NOT_KNOWN.);
#27=PRODUCT_RELATED_PRODUCT_CATEGORY('part','',(#28));
#28=PRODUCT('pf6612088076yvmj','pf6612088076yvmj',' ',(#29));
#29=PRODUCT_CONTEXT(' ',#31,'mechanical');
#30=APPLICATION_PROTOCOL_DEFINITION('international standard',
'automotive_design',2010,#31);
#31=APPLICATION_CONTEXT(
'core data for automotive mechanical design processes');
#32=SHAPE_REPRESENTATION('pf6612088076yvmj-None',(#385),#678);
#33=SURFACE_STYLE_USAGE(.BOTH.,#34);
#34=SURFACE_SIDE_STYLE('',(#35));
#35=SURFACE_STYLE_FILL_AREA(#36);
#36=FILL_AREA_STYLE('',(#37));
#37=FILL_AREA_STYLE_COLOUR('',#381);
#38=MANIFOLD_SOLID_BREP('',#39);
#39=CLOSED_SHELL('',(#99,#100,#101,#102,#103,#104,#105,#106,#107,#108,#109,
#110,#111,#112,#113,#114,#115,#116,#117,#118,#119,#120,#121,#122,#123,#124));
#40=CONICAL_SURFACE('',#422,47.5612976321,60.);
#41=CONICAL_SURFACE('',#434,47.5612976321,60.);
#42=CONICAL_SURFACE('',#445,27.74925447211,8.2971);
#43=CONICAL_SURFACE('',#446,27.74925447211,8.2971);
#44=TOROIDAL_SURFACE('',#410,24.375,0.125);
#45=TOROIDAL_SURFACE('',#412,24.375,0.125);
#46=TOROIDAL_SURFACE('',#426,46.,0.5);
#47=TOROIDAL_SURFACE('',#430,46.,0.5);
#48=TOROIDAL_SURFACE('',#439,27.15,5.);
#49=TOROIDAL_SURFACE('',#440,27.15,5.);
#50=CYLINDRICAL_SURFACE('',#398,22.15);
#51=CYLINDRICAL_SURFACE('',#404,24.5);
#52=CYLINDRICAL_SURFACE('',#406,24.5);
#53=CYLINDRICAL_SURFACE('',#413,24.25);
#54=CYLINDRICAL_SURFACE('',#414,24.25);
#55=CYLINDRICAL_SURFACE('',#420,48.75);
#56=CYLINDRICAL_SURFACE('',#428,45.5);
#57=CYLINDRICAL_SURFACE('',#435,48.75);
#58=CYLINDRICAL_SURFACE('',#441,22.15);
#59=LINE('',#595,#67);
#60=LINE('',#600,#68);
#61=LINE('',#610,#69);
#62=LINE('',#612,#70);
#63=LINE('',#626,#71);
#64=LINE('',#627,#72);
#65=LINE('',#673,#73);
#66=LINE('',#674,#74);
#67=VECTOR('',#469,1.);
#68=VECTOR('',#472,1.);
#69=VECTOR('',#485,1.);
#70=VECTOR('',#486,1.);
#71=VECTOR('',#507,1.);
#72=VECTOR('',#508,1.);
#73=VECTOR('',#573,1.);
#74=VECTOR('',#574,1.);
#75=FACE_BOUND('',#147,.T.);
#76=FACE_BOUND('',#148,.T.);
#77=FACE_BOUND('',#150,.T.);
#78=FACE_BOUND('',#151,.T.);
#79=FACE_BOUND('',#158,.T.);
#80=FACE_BOUND('',#159,.T.);
#81=FACE_BOUND('',#160,.T.);
#82=FACE_BOUND('',#161,.T.);
#83=FACE_BOUND('',#162,.T.);
#84=FACE_BOUND('',#163,.T.);
#85=FACE_BOUND('',#164,.T.);
#86=FACE_BOUND('',#165,.T.);
#87=FACE_BOUND('',#166,.T.);
#88=FACE_BOUND('',#167,.T.);
#89=FACE_BOUND('',#168,.T.);
#90=FACE_BOUND('',#169,.T.);
#91=FACE_BOUND('',#170,.T.);
#92=FACE_BOUND('',#171,.T.);
#93=FACE_BOUND('',#172,.T.);
#94=FACE_BOUND('',#173,.T.);
#95=FACE_BOUND('',#174,.T.);
#96=FACE_BOUND('',#175,.T.);
#97=FACE_BOUND('',#176,.T.);
#98=FACE_BOUND('',#177,.T.);
#99=ADVANCED_FACE('',(#132),#125,.T.);
#100=ADVANCED_FACE('',(#75,#76),#126,.F.);
#101=ADVANCED_FACE('',(#133),#50,.T.);
#102=ADVANCED_FACE('',(#77,#78),#127,.F.);
#103=ADVANCED_FACE('',(#134),#51,.T.);
#104=ADVANCED_FACE('',(#135),#52,.T.);
#105=ADVANCED_FACE('',(#136),#44,.F.);
#106=ADVANCED_FACE('',(#137),#45,.F.);
#107=ADVANCED_FACE('',(#138),#53,.T.);
#108=ADVANCED_FACE('',(#139),#54,.T.);
#109=ADVANCED_FACE('',(#79,#80),#128,.T.);
#110=ADVANCED_FACE('',(#81,#82),#55,.T.);
#111=ADVANCED_FACE('',(#83,#84),#40,.T.);
#112=ADVANCED_FACE('',(#85,#86),#129,.F.);
#113=ADVANCED_FACE('',(#87,#88),#46,.F.);
#114=ADVANCED_FACE('',(#89,#90),#56,.T.);
#115=ADVANCED_FACE('',(#91,#92),#47,.F.);
#116=ADVANCED_FACE('',(#93,#94),#130,.T.);
#117=ADVANCED_FACE('',(#95,#96),#41,.T.);
#118=ADVANCED_FACE('',(#97,#98),#57,.T.);
#119=ADVANCED_FACE('',(#140),#48,.F.);
#120=ADVANCED_FACE('',(#141),#49,.F.);
#121=ADVANCED_FACE('',(#142),#58,.T.);
#122=ADVANCED_FACE('',(#143),#131,.F.);
#123=ADVANCED_FACE('',(#144),#42,.T.);
#124=ADVANCED_FACE('',(#145),#43,.T.);
#125=PLANE('',#391);
#126=PLANE('',#395);
#127=PLANE('',#402);
#128=PLANE('',#418);
#129=PLANE('',#424);
#130=PLANE('',#432);
#131=PLANE('',#444);
#132=FACE_OUTER_BOUND('',#146,.T.);
#133=FACE_OUTER_BOUND('',#149,.T.);
#134=FACE_OUTER_BOUND('',#152,.T.);
#135=FACE_OUTER_BOUND('',#153,.T.);
#136=FACE_OUTER_BOUND('',#154,.T.);
#137=FACE_OUTER_BOUND('',#155,.T.);
#138=FACE_OUTER_BOUND('',#156,.T.);
#139=FACE_OUTER_BOUND('',#157,.T.);
#140=FACE_OUTER_BOUND('',#178,.T.);
#141=FACE_OUTER_BOUND('',#179,.T.);
#142=FACE_OUTER_BOUND('',#180,.T.);
#143=FACE_OUTER_BOUND('',#181,.T.);
#144=FACE_OUTER_BOUND('',#182,.T.);
#145=FACE_OUTER_BOUND('',#183,.T.);
#146=EDGE_LOOP('',(#184,#185));
#147=EDGE_LOOP('',(#186));
#148=EDGE_LOOP('',(#187,#188));
#149=EDGE_LOOP('',(#189,#190,#191,#192));
#150=EDGE_LOOP('',(#193,#194));
#151=EDGE_LOOP('',(#195,#196));
#152=EDGE_LOOP('',(#197,#198,#199,#200));
#153=EDGE_LOOP('',(#201,#202,#203,#204));
#154=EDGE_LOOP('',(#205,#206,#207,#208));
#155=EDGE_LOOP('',(#209,#210,#211,#212));
#156=EDGE_LOOP('',(#213,#214,#215,#216));
#157=EDGE_LOOP('',(#217,#218,#219,#220));
#158=EDGE_LOOP('',(#221));
#159=EDGE_LOOP('',(#222,#223));
#160=EDGE_LOOP('',(#224));
#161=EDGE_LOOP('',(#225));
#162=EDGE_LOOP('',(#226));
#163=EDGE_LOOP('',(#227));
#164=EDGE_LOOP('',(#228));
#165=EDGE_LOOP('',(#229));
#166=EDGE_LOOP('',(#230));
#167=EDGE_LOOP('',(#231));
#168=EDGE_LOOP('',(#232));
#169=EDGE_LOOP('',(#233));
#170=EDGE_LOOP('',(#234));
#171=EDGE_LOOP('',(#235));
#172=EDGE_LOOP('',(#236));
#173=EDGE_LOOP('',(#237));
#174=EDGE_LOOP('',(#238));
#175=EDGE_LOOP('',(#239));
#176=EDGE_LOOP('',(#240));
#177=EDGE_LOOP('',(#241));
#178=EDGE_LOOP('',(#242,#243,#244,#245));
#179=EDGE_LOOP('',(#246,#247,#248,#249));
#180=EDGE_LOOP('',(#250,#251,#252,#253));
#181=EDGE_LOOP('',(#254,#255));
#182=EDGE_LOOP('',(#256,#257,#258,#259));
#183=EDGE_LOOP('',(#260,#261,#262,#263));
#184=ORIENTED_EDGE('',*,*,#292,.T.);
#185=ORIENTED_EDGE('',*,*,#293,.T.);
#186=ORIENTED_EDGE('',*,*,#294,.T.);
#187=ORIENTED_EDGE('',*,*,#295,.T.);
#188=ORIENTED_EDGE('',*,*,#296,.T.);
#189=ORIENTED_EDGE('',*,*,#297,.F.);
#190=ORIENTED_EDGE('',*,*,#298,.F.);
#191=ORIENTED_EDGE('',*,*,#299,.T.);
#192=ORIENTED_EDGE('',*,*,#300,.F.);
#193=ORIENTED_EDGE('',*,*,#301,.T.);
#194=ORIENTED_EDGE('',*,*,#302,.T.);
#195=ORIENTED_EDGE('',*,*,#300,.T.);
#196=ORIENTED_EDGE('',*,*,#303,.T.);
#197=ORIENTED_EDGE('',*,*,#304,.F.);
#198=ORIENTED_EDGE('',*,*,#301,.F.);
#199=ORIENTED_EDGE('',*,*,#305,.T.);
#200=ORIENTED_EDGE('',*,*,#306,.T.);
#201=ORIENTED_EDGE('',*,*,#305,.F.);
#202=ORIENTED_EDGE('',*,*,#302,.F.);
#203=ORIENTED_EDGE('',*,*,#304,.T.);
#204=ORIENTED_EDGE('',*,*,#307,.T.);
#205=ORIENTED_EDGE('',*,*,#308,.F.);
#206=ORIENTED_EDGE('',*,*,#309,.F.);
#207=ORIENTED_EDGE('',*,*,#310,.T.);
#208=ORIENTED_EDGE('',*,*,#307,.F.);
#209=ORIENTED_EDGE('',*,*,#310,.F.);
#210=ORIENTED_EDGE('',*,*,#311,.F.);
#211=ORIENTED_EDGE('',*,*,#308,.T.);
#212=ORIENTED_EDGE('',*,*,#306,.F.);
#213=ORIENTED_EDGE('',*,*,#293,.F.);
#214=ORIENTED_EDGE('',*,*,#312,.F.);
#215=ORIENTED_EDGE('',*,*,#311,.T.);
#216=ORIENTED_EDGE('',*,*,#313,.T.);
#217=ORIENTED_EDGE('',*,*,#292,.F.);
#218=ORIENTED_EDGE('',*,*,#313,.F.);
#219=ORIENTED_EDGE('',*,*,#309,.T.);
#220=ORIENTED_EDGE('',*,*,#312,.T.);
#221=ORIENTED_EDGE('',*,*,#314,.F.);
#222=ORIENTED_EDGE('',*,*,#315,.F.);
#223=ORIENTED_EDGE('',*,*,#316,.F.);
#224=ORIENTED_EDGE('',*,*,#314,.T.);
#225=ORIENTED_EDGE('',*,*,#317,.T.);
#226=ORIENTED_EDGE('',*,*,#317,.F.);
#227=ORIENTED_EDGE('',*,*,#318,.T.);
#228=ORIENTED_EDGE('',*,*,#318,.F.);
#229=ORIENTED_EDGE('',*,*,#319,.T.);
#230=ORIENTED_EDGE('',*,*,#319,.F.);
#231=ORIENTED_EDGE('',*,*,#320,.T.);
#232=ORIENTED_EDGE('',*,*,#320,.F.);
#233=ORIENTED_EDGE('',*,*,#321,.T.);
#234=ORIENTED_EDGE('',*,*,#321,.F.);
#235=ORIENTED_EDGE('',*,*,#322,.T.);
#236=ORIENTED_EDGE('',*,*,#322,.F.);
#237=ORIENTED_EDGE('',*,*,#323,.T.);
#238=ORIENTED_EDGE('',*,*,#323,.F.);
#239=ORIENTED_EDGE('',*,*,#324,.T.);
#240=ORIENTED_EDGE('',*,*,#324,.F.);
#241=ORIENTED_EDGE('',*,*,#294,.F.);
#242=ORIENTED_EDGE('',*,*,#325,.T.);
#243=ORIENTED_EDGE('',*,*,#326,.F.);
#244=ORIENTED_EDGE('',*,*,#327,.F.);
#245=ORIENTED_EDGE('',*,*,#316,.T.);
#246=ORIENTED_EDGE('',*,*,#327,.T.);
#247=ORIENTED_EDGE('',*,*,#298,.T.);
#248=ORIENTED_EDGE('',*,*,#325,.F.);
#249=ORIENTED_EDGE('',*,*,#315,.T.);
#250=ORIENTED_EDGE('',*,*,#299,.F.);
#251=ORIENTED_EDGE('',*,*,#326,.T.);
#252=ORIENTED_EDGE('',*,*,#297,.T.);
#253=ORIENTED_EDGE('',*,*,#303,.F.);
#254=ORIENTED_EDGE('',*,*,#328,.T.);
#255=ORIENTED_EDGE('',*,*,#329,.T.);
#256=ORIENTED_EDGE('',*,*,#330,.T.);
#257=ORIENTED_EDGE('',*,*,#296,.F.);
#258=ORIENTED_EDGE('',*,*,#331,.F.);
#259=ORIENTED_EDGE('',*,*,#329,.F.);
#260=ORIENTED_EDGE('',*,*,#331,.T.);
#261=ORIENTED_EDGE('',*,*,#295,.F.);
#262=ORIENTED_EDGE('',*,*,#330,.F.);
#263=ORIENTED_EDGE('',*,*,#328,.F.);
#264=VERTEX_POINT('',#584);
#265=VERTEX_POINT('',#585);
#266=VERTEX_POINT('',#589);
#267=VERTEX_POINT('',#591);
#268=VERTEX_POINT('',#592);
#269=VERTEX_POINT('',#596);
#270=VERTEX_POINT('',#597);
#271=VERTEX_POINT('',#599);
#272=VERTEX_POINT('',#601);
#273=VERTEX_POINT('',#605);
#274=VERTEX_POINT('',#606);
#275=VERTEX_POINT('',#611);
#276=VERTEX_POINT('',#613);
#277=VERTEX_POINT('',#619);
#278=VERTEX_POINT('',#621);
#279=VERTEX_POINT('',#631);
#280=VERTEX_POINT('',#633);
#281=VERTEX_POINT('',#634);
#282=VERTEX_POINT('',#638);
#283=VERTEX_POINT('',#641);
#284=VERTEX_POINT('',#644);
#285=VERTEX_POINT('',#647);
#286=VERTEX_POINT('',#650);
#287=VERTEX_POINT('',#653);
#288=VERTEX_POINT('',#656);
#289=VERTEX_POINT('',#659);
#290=VERTEX_POINT('',#669);
#291=VERTEX_POINT('',#670);
#292=EDGE_CURVE('',#264,#265,#332,.T.);
#293=EDGE_CURVE('',#265,#264,#333,.T.);
#294=EDGE_CURVE('',#266,#266,#334,.T.);
#295=EDGE_CURVE('',#267,#268,#335,.T.);
#296=EDGE_CURVE('',#268,#267,#336,.T.);
#297=EDGE_CURVE('',#269,#270,#59,.T.);
#298=EDGE_CURVE('',#271,#269,#337,.T.);
#299=EDGE_CURVE('',#271,#272,#60,.T.);
#300=EDGE_CURVE('',#270,#272,#338,.T.);
#301=EDGE_CURVE('',#273,#274,#339,.T.);
#302=EDGE_CURVE('',#274,#273,#340,.T.);
#303=EDGE_CURVE('',#272,#270,#341,.T.);
#304=EDGE_CURVE('',#274,#275,#61,.T.);
#305=EDGE_CURVE('',#273,#276,#62,.T.);
#306=EDGE_CURVE('',#276,#275,#342,.T.);
#307=EDGE_CURVE('',#275,#276,#343,.T.);
#308=EDGE_CURVE('',#277,#275,#344,.T.);
#309=EDGE_CURVE('',#278,#277,#345,.T.);
#310=EDGE_CURVE('',#278,#276,#346,.T.);
#311=EDGE_CURVE('',#277,#278,#347,.T.);
#312=EDGE_CURVE('',#277,#265,#63,.T.);
#313=EDGE_CURVE('',#278,#264,#64,.T.);
#314=EDGE_CURVE('',#279,#279,#348,.T.);
#315=EDGE_CURVE('',#280,#281,#349,.T.);
#316=EDGE_CURVE('',#281,#280,#350,.T.);
#317=EDGE_CURVE('',#282,#282,#351,.T.);
#318=EDGE_CURVE('',#283,#283,#352,.T.);
#319=EDGE_CURVE('',#284,#284,#353,.T.);
#320=EDGE_CURVE('',#285,#285,#354,.T.);
#321=EDGE_CURVE('',#286,#286,#355,.T.);
#322=EDGE_CURVE('',#287,#287,#356,.T.);
#323=EDGE_CURVE('',#288,#288,#357,.T.);
#324=EDGE_CURVE('',#289,#289,#358,.T.);
#325=EDGE_CURVE('',#280,#269,#359,.T.);
#326=EDGE_CURVE('',#271,#269,#360,.T.);
#327=EDGE_CURVE('',#281,#271,#361,.T.);
#328=EDGE_CURVE('',#290,#291,#362,.T.);
#329=EDGE_CURVE('',#291,#290,#363,.T.);
#330=EDGE_CURVE('',#291,#267,#65,.T.);
#331=EDGE_CURVE('',#290,#268,#66,.T.);
#332=CIRCLE('',#389,24.25);
#333=CIRCLE('',#390,24.25);
#334=CIRCLE('',#392,48.75);
#335=CIRCLE('',#393,35.3916641016586);
#336=CIRCLE('',#394,35.3916641016586);
#337=CIRCLE('',#396,22.15);
#338=CIRCLE('',#397,22.15);
#339=CIRCLE('',#399,24.5);
#340=CIRCLE('',#400,24.5);
#341=CIRCLE('',#401,22.15);
#342=CIRCLE('',#403,24.5);
#343=CIRCLE('',#405,24.5);
#344=CIRCLE('',#407,0.125);
#345=CIRCLE('',#408,24.25);
#346=CIRCLE('',#409,0.125);
#347=CIRCLE('',#411,24.25);
#348=CIRCLE('',#415,48.75);
#349=CIRCLE('',#416,27.15);
#350=CIRCLE('',#417,27.15);
#351=CIRCLE('',#419,48.75);
#352=CIRCLE('',#421,46.37259526419);
#353=CIRCLE('',#423,46.);
#354=CIRCLE('',#425,45.5);
#355=CIRCLE('',#427,45.5);
#356=CIRCLE('',#429,46.);
#357=CIRCLE('',#431,46.37259526419);
#358=CIRCLE('',#433,48.75);
#359=CIRCLE('',#436,5.);
#360=CIRCLE('',#437,22.15);
#361=CIRCLE('',#438,5.);
#362=CIRCLE('',#442,20.0865398924436);
#363=CIRCLE('',#443,20.0865398924436);
#364=INVISIBILITY((#365,#366,#367,#368));
#365=PRESENTATION_LAYER_ASSIGNMENT('100','Layer 100',(#386));
#366=PRESENTATION_LAYER_ASSIGNMENT('101','Layer 101',(#387));
#367=PRESENTATION_LAYER_ASSIGNMENT('102','Layer 102',(#388));
#368=PRESENTATION_LAYER_ASSIGNMENT('98','Layer 98',(#38));
#369=STYLED_ITEM('',(#373),#386);
#370=STYLED_ITEM('',(#374),#387);
#371=STYLED_ITEM('',(#375),#388);
#372=STYLED_ITEM('',(#376),#38);
#373=PRESENTATION_STYLE_ASSIGNMENT((#377));
#374=PRESENTATION_STYLE_ASSIGNMENT((#378));
#375=PRESENTATION_STYLE_ASSIGNMENT((#379));
#376=PRESENTATION_STYLE_ASSIGNMENT((#33));
#377=CURVE_STYLE('',#382,POSITIVE_LENGTH_MEASURE(0.7),#380);
#378=CURVE_STYLE('',#383,POSITIVE_LENGTH_MEASURE(0.7),#380);
#379=CURVE_STYLE('',#384,POSITIVE_LENGTH_MEASURE(0.7),#380);
#380=COLOUR_RGB('Medium Maroon',0.6,0.4,0.4);
#381=COLOUR_RGB('Medium Gray',0.490196078431373,0.490196078431373,0.490196078431373);
#382=DRAUGHTING_PRE_DEFINED_CURVE_FONT('continuous');
#383=DRAUGHTING_PRE_DEFINED_CURVE_FONT('continuous');
#384=DRAUGHTING_PRE_DEFINED_CURVE_FONT('continuous');
#385=AXIS2_PLACEMENT_3D('',#579,#447,#448);
#386=AXIS2_PLACEMENT_3D('PCS',#580,#449,#450);
#387=AXIS2_PLACEMENT_3D('CSW',#581,#451,#452);
#388=AXIS2_PLACEMENT_3D('MCS',#582,#453,#454);
#389=AXIS2_PLACEMENT_3D('',#583,#455,#456);
#390=AXIS2_PLACEMENT_3D('',#586,#457,#458);
#391=AXIS2_PLACEMENT_3D('',#587,#459,#460);
#392=AXIS2_PLACEMENT_3D('',#588,#461,#462);
#393=AXIS2_PLACEMENT_3D('',#590,#463,#464);
#394=AXIS2_PLACEMENT_3D('',#593,#465,#466);
#395=AXIS2_PLACEMENT_3D('',#594,#467,#468);
#396=AXIS2_PLACEMENT_3D('',#598,#470,#471);
#397=AXIS2_PLACEMENT_3D('',#602,#473,#474);
#398=AXIS2_PLACEMENT_3D('',#603,#475,#476);
#399=AXIS2_PLACEMENT_3D('',#604,#477,#478);
#400=AXIS2_PLACEMENT_3D('',#607,#479,#480);
#401=AXIS2_PLACEMENT_3D('',#608,#481,#482);
#402=AXIS2_PLACEMENT_3D('',#609,#483,#484);
#403=AXIS2_PLACEMENT_3D('',#614,#487,#488);
#404=AXIS2_PLACEMENT_3D('',#615,#489,#490);
#405=AXIS2_PLACEMENT_3D('',#616,#491,#492);
#406=AXIS2_PLACEMENT_3D('',#617,#493,#494);
#407=AXIS2_PLACEMENT_3D('',#618,#495,#496);
#408=AXIS2_PLACEMENT_3D('',#620,#497,#498);
#409=AXIS2_PLACEMENT_3D('',#622,#499,#500);
#410=AXIS2_PLACEMENT_3D('',#623,#501,#502);
#411=AXIS2_PLACEMENT_3D('',#624,#503,#504);
#412=AXIS2_PLACEMENT_3D('',#625,#505,#506);
#413=AXIS2_PLACEMENT_3D('',#628,#509,#510);
#414=AXIS2_PLACEMENT_3D('',#629,#511,#512);
#415=AXIS2_PLACEMENT_3D('',#630,#513,#514);
#416=AXIS2_PLACEMENT_3D('',#632,#515,#516);
#417=AXIS2_PLACEMENT_3D('',#635,#517,#518);
#418=AXIS2_PLACEMENT_3D('',#636,#519,#520);
#419=AXIS2_PLACEMENT_3D('',#637,#521,#522);
#420=AXIS2_PLACEMENT_3D('',#639,#523,#524);
#421=AXIS2_PLACEMENT_3D('',#640,#525,#526);
#422=AXIS2_PLACEMENT_3D('',#642,#527,#528);
#423=AXIS2_PLACEMENT_3D('',#643,#529,#530);
#424=AXIS2_PLACEMENT_3D('',#645,#531,#532);
#425=AXIS2_PLACEMENT_3D('',#646,#533,#534);
#426=AXIS2_PLACEMENT_3D('',#648,#535,#536);
#427=AXIS2_PLACEMENT_3D('',#649,#537,#538);
#428=AXIS2_PLACEMENT_3D('',#651,#539,#540);
#429=AXIS2_PLACEMENT_3D('',#652,#541,#542);
#430=AXIS2_PLACEMENT_3D('',#654,#543,#544);
#431=AXIS2_PLACEMENT_3D('',#655,#545,#546);
#432=AXIS2_PLACEMENT_3D('',#657,#547,#548);
#433=AXIS2_PLACEMENT_3D('',#658,#549,#550);
#434=AXIS2_PLACEMENT_3D('',#660,#551,#552);
#435=AXIS2_PLACEMENT_3D('',#661,#553,#554);
#436=AXIS2_PLACEMENT_3D('',#662,#555,#556);
#437=AXIS2_PLACEMENT_3D('',#663,#557,#558);
#438=AXIS2_PLACEMENT_3D('',#664,#559,#560);
#439=AXIS2_PLACEMENT_3D('',#665,#561,#562);
#440=AXIS2_PLACEMENT_3D('',#666,#563,#564);
#441=AXIS2_PLACEMENT_3D('',#667,#565,#566);
#442=AXIS2_PLACEMENT_3D('',#668,#567,#568);
#443=AXIS2_PLACEMENT_3D('',#671,#569,#570);
#444=AXIS2_PLACEMENT_3D('',#672,#571,#572);
#445=AXIS2_PLACEMENT_3D('',#675,#575,#576);
#446=AXIS2_PLACEMENT_3D('',#676,#577,#578);
#447=DIRECTION('',(0.,0.,1.));
#448=DIRECTION('',(1.,0.,0.));
#449=DIRECTION('',(0.,0.,1.));
#450=DIRECTION('',(1.,0.,0.));
#451=DIRECTION('',(0.,0.,1.));
#452=DIRECTION('',(1.,0.,0.));
#453=DIRECTION('',(0.,0.,1.));
#454=DIRECTION('',(1.,0.,0.));
#455=DIRECTION('',(0.,0.,-1.));
#456=DIRECTION('',(-1.,0.,0.));
#457=DIRECTION('',(0.,0.,-1.));
#458=DIRECTION('',(-1.,0.,0.));
#459=DIRECTION('',(0.,0.,-1.));
#460=DIRECTION('',(0.,-1.,0.));
#461=DIRECTION('',(0.,0.,1.));
#462=DIRECTION('',(-1.,0.,0.));
#463=DIRECTION('',(0.,0.,-1.));
#464=DIRECTION('',(-1.,0.,0.));
#465=DIRECTION('',(0.,0.,-1.));
#466=DIRECTION('',(-1.,0.,0.));
#467=DIRECTION('',(0.,0.,-1.));
#468=DIRECTION('',(0.,-1.,0.));
#469=DIRECTION('',(0.,0.,-1.));
#470=DIRECTION('',(0.,0.,1.));
#471=DIRECTION('',(0.,-1.,0.));
#472=DIRECTION('',(0.,0.,-1.));
#473=DIRECTION('',(0.,0.,-1.));
#474=DIRECTION('',(0.,1.,0.));
#475=DIRECTION('',(0.,0.,-1.));
#476=DIRECTION('',(0.,-1.,0.));
#477=DIRECTION('',(0.,0.,1.));
#478=DIRECTION('',(-1.,0.,0.));
#479=DIRECTION('',(0.,0.,1.));
#480=DIRECTION('',(-1.,0.,0.));
#481=DIRECTION('',(0.,0.,-1.));
#482=DIRECTION('',(0.,-1.,0.));
#483=DIRECTION('',(0.,0.,-1.));
#484=DIRECTION('',(0.,-1.,0.));
#485=DIRECTION('',(9.861102863978E-14,0.,-1.));
#486=DIRECTION('',(-9.834404643624E-14,0.,-1.));
#487=DIRECTION('',(0.,0.,1.));
#488=DIRECTION('',(-1.,0.,0.));
#489=DIRECTION('',(0.,0.,-1.));
#490=DIRECTION('',(0.,-1.,0.));
#491=DIRECTION('',(0.,0.,1.));
#492=DIRECTION('',(-1.,0.,0.));
#493=DIRECTION('',(0.,0.,-1.));
#494=DIRECTION('',(0.,-1.,0.));
#495=DIRECTION('',(1.,0.,0.));
#496=DIRECTION('',(0.,0.,1.));
#497=DIRECTION('',(0.,0.,-1.));
#498=DIRECTION('',(0.,1.,0.));
#499=DIRECTION('',(-1.,0.,0.));
#500=DIRECTION('',(0.,0.,1.));
#501=DIRECTION('',(0.,0.,-1.));
#502=DIRECTION('',(0.00457598635343617,-0.999989530119637,0.));
#503=DIRECTION('',(0.,0.,-1.));
#504=DIRECTION('',(0.,-1.,0.));
#505=DIRECTION('',(0.,0.,-1.));
#506=DIRECTION('',(-0.00457598635343617,0.999989530119637,0.));
#507=DIRECTION('',(1.237309536862E-11,8.961874274145E-13,-1.));
#508=DIRECTION('',(-1.237282366965E-11,-8.961874274145E-13,-1.));
#509=DIRECTION('',(0.,0.,-1.));
#510=DIRECTION('',(0.,-1.,0.));
#511=DIRECTION('',(0.,0.,-1.));
#512=DIRECTION('',(0.,-1.,0.));
#513=DIRECTION('',(0.,0.,1.));
#514=DIRECTION('',(-1.,0.,0.));
#515=DIRECTION('',(0.,0.,-1.));
#516=DIRECTION('',(0.,1.,0.));
#517=DIRECTION('',(0.,0.,-1.));
#518=DIRECTION('',(0.,-1.,0.));
#519=DIRECTION('',(0.,0.,-1.));
#520=DIRECTION('',(0.,-1.,0.));
#521=DIRECTION('',(0.,0.,-1.));
#522=DIRECTION('',(-0.964634877595825,0.263589743589707,0.));
#523=DIRECTION('',(0.,0.,-1.));
#524=DIRECTION('',(0.,-1.,0.));
#525=DIRECTION('',(0.,0.,-1.));
#526=DIRECTION('',(-0.96084012785507,0.277103317741691,0.));
#527=DIRECTION('',(0.,0.,-1.));
#528=DIRECTION('',(0.,-1.,0.));
#529=DIRECTION('',(0.,0.,-1.));
#530=DIRECTION('',(-0.960189977067283,0.279347826086995,0.));
#531=DIRECTION('',(0.,0.,-1.));
#532=DIRECTION('',(0.,-1.,0.));
#533=DIRECTION('',(0.,0.,-1.));
#534=DIRECTION('',(-0.959291566282851,0.282417582417586,0.));
#535=DIRECTION('',(0.,0.,-1.));
#536=DIRECTION('',(0.00255647807815495,-0.999996732204579,0.));
#537=DIRECTION('',(0.,0.,-1.));
#538=DIRECTION('',(-0.959291566282851,0.282417582417586,0.));
#539=DIRECTION('',(0.,0.,-1.));
#540=DIRECTION('',(0.,-1.,0.));
#541=DIRECTION('',(0.,0.,-1.));
#542=DIRECTION('',(-0.960189977067283,0.279347826086995,0.));
#543=DIRECTION('',(0.,0.,-1.));
#544=DIRECTION('',(0.00243885596347993,-0.999997025986372,0.));
#545=DIRECTION('',(0.,0.,-1.));
#546=DIRECTION('',(-0.96084012785507,0.277103317741691,0.));
#547=DIRECTION('',(0.,0.,-1.));
#548=DIRECTION('',(0.,-1.,0.));
#549=DIRECTION('',(0.,0.,-1.));
#550=DIRECTION('',(-0.964634877595825,0.263589743589707,0.));
#551=DIRECTION('',(0.,0.,1.));
#552=DIRECTION('',(0.,1.,1.94955234447666E-18));
#553=DIRECTION('',(0.,0.,-1.));
#554=DIRECTION('',(0.,-1.,0.));
#555=DIRECTION('',(1.,0.,0.));
#556=DIRECTION('',(0.,-1.,0.));
#557=DIRECTION('',(0.,0.,-1.));
#558=DIRECTION('',(0.,-1.,0.));
#559=DIRECTION('',(-1.,0.,0.));
#560=DIRECTION('',(0.,1.,0.));
#561=DIRECTION('',(0.,0.,-1.));
#562=DIRECTION('',(0.,-1.,0.));
#563=DIRECTION('',(0.,0.,-1.));
#564=DIRECTION('',(0.,-1.,0.));
#565=DIRECTION('',(0.,0.,-1.));
#566=DIRECTION('',(0.,-1.,0.));
#567=DIRECTION('',(0.,0.,1.));
#568=DIRECTION('',(-1.,0.,0.));
#569=DIRECTION('',(0.,0.,1.));
#570=DIRECTION('',(-1.,0.,0.));
#571=DIRECTION('',(0.,0.,-1.));
#572=DIRECTION('',(0.,-1.,0.));
#573=DIRECTION('',(2.24995690910396E-14,-0.144306116415197,-0.989533094325381));
#574=DIRECTION('',(-2.25128168043696E-14,0.144306116415197,-0.989533094325381));
#575=DIRECTION('',(0.,0.,-1.));
#576=DIRECTION('',(0.,-1.,0.));
#577=DIRECTION('',(0.,0.,-1.));
#578=DIRECTION('',(0.,-1.,0.));
#579=CARTESIAN_POINT('',(0.,0.,0.));
#580=CARTESIAN_POINT('',(0.,0.,0.));
#581=CARTESIAN_POINT('',(0.,0.,-85.));
#582=CARTESIAN_POINT('',(0.,0.,0.));
#583=CARTESIAN_POINT('',(0.,0.,-85.));
#584=CARTESIAN_POINT('',(-8.89978507166162E-11,24.25,-85.));
#585=CARTESIAN_POINT('',(0.,-24.25,-85.));
#586=CARTESIAN_POINT('',(0.,0.,-85.));
#587=CARTESIAN_POINT('',(0.,0.,-85.));
#588=CARTESIAN_POINT('',(0.,0.,-3.20000000000001));
#589=CARTESIAN_POINT('',(-48.75,0.,-3.20000000000001));
#590=CARTESIAN_POINT('',(0.,0.,-3.2));
#591=CARTESIAN_POINT('',(0.,-35.3916641016586,-3.2));
#592=CARTESIAN_POINT('',(1.48878610507166E-12,35.3916641016586,-3.2));
#593=CARTESIAN_POINT('',(0.,0.,-3.2));
#594=CARTESIAN_POINT('',(0.,0.,-3.2));
#595=CARTESIAN_POINT('',(0.,22.15,-34.4));
#596=CARTESIAN_POINT('',(0.,22.15,-24.1));
#597=CARTESIAN_POINT('',(0.,22.15,-34.4));
#598=CARTESIAN_POINT('',(0.,0.,-24.1));
#599=CARTESIAN_POINT('',(0.,-22.15,-24.1));
#600=CARTESIAN_POINT('',(0.,-22.15,-34.4));
#601=CARTESIAN_POINT('',(0.,-22.15,-34.4));
#602=CARTESIAN_POINT('',(0.,0.,-34.4));
#603=CARTESIAN_POINT('',(0.,0.,-15.805));
#604=CARTESIAN_POINT('',(0.,0.,-34.4));
#605=CARTESIAN_POINT('',(2.4920853354903E-13,24.5,-34.4));
#606=CARTESIAN_POINT('',(-2.48057653654848E-13,-24.5,-34.4));
#607=CARTESIAN_POINT('',(0.,0.,-34.4));
#608=CARTESIAN_POINT('',(0.,0.,-34.4));
#609=CARTESIAN_POINT('',(0.,0.,-34.4));
#610=CARTESIAN_POINT('',(1.613225511921E-12,-24.5,-53.275));
#611=CARTESIAN_POINT('',(8.12680247239148E-13,-24.5,-53.525));
#612=CARTESIAN_POINT('',(-1.607035342935E-12,24.5,-53.275));
#613=CARTESIAN_POINT('',(-8.0277250062659E-13,24.5,-53.525));
#614=CARTESIAN_POINT('',(0.,0.,-53.525));
#615=CARTESIAN_POINT('',(0.,0.,-31.87));
#616=CARTESIAN_POINT('',(0.,0.,-53.525));
#617=CARTESIAN_POINT('',(0.,0.,-31.87));
#618=CARTESIAN_POINT('',(-1.251777460265E-14,-24.375,-53.525));
#619=CARTESIAN_POINT('',(0.,-24.25,-53.525));
#620=CARTESIAN_POINT('',(0.,0.,-53.525));
#621=CARTESIAN_POINT('',(0.,24.25,-53.525));
#622=CARTESIAN_POINT('',(2.607635329088E-14,24.375,-53.525));
#623=CARTESIAN_POINT('',(0.,0.,-53.525));
#624=CARTESIAN_POINT('',(0.,0.,-53.525));
#625=CARTESIAN_POINT('',(0.,0.,-53.525));
#626=CARTESIAN_POINT('',(3.652966124298E-10,-24.24999999997,-83.80000000003));
#627=CARTESIAN_POINT('',(-3.652900347704E-10,24.24999999997,-83.80000000003));
#628=CARTESIAN_POINT('',(0.,0.,-31.87));
#629=CARTESIAN_POINT('',(0.,0.,-31.87));
#630=CARTESIAN_POINT('',(0.,0.,-19.1));
#631=CARTESIAN_POINT('',(-48.75,0.,-19.1));
#632=CARTESIAN_POINT('',(0.,0.,-19.1));
#633=CARTESIAN_POINT('',(0.,27.15,-19.1));
#634=CARTESIAN_POINT('',(0.,-27.15,-19.1));
#635=CARTESIAN_POINT('',(0.,0.,-19.1));
#636=CARTESIAN_POINT('',(0.,0.,-19.1));
#637=CARTESIAN_POINT('',(0.,0.,-14.347595264192));
#638=CARTESIAN_POINT('',(-47.0259502827965,12.8499999999982,-14.347595264192));
#639=CARTESIAN_POINT('',(0.,0.,107.7925));
#640=CARTESIAN_POINT('',(0.,0.,-12.975));
#641=CARTESIAN_POINT('',(-44.5566503626157,12.8499999999997,-12.975));
#642=CARTESIAN_POINT('',(0.,0.,-13.661297632096));
#643=CARTESIAN_POINT('',(0.,0.,-12.975));
#644=CARTESIAN_POINT('',(-44.168738945095,12.8500000000018,-12.975));
#645=CARTESIAN_POINT('',(0.,0.,-12.975));
#646=CARTESIAN_POINT('',(0.,0.,-12.475));
#647=CARTESIAN_POINT('',(-43.6477662658697,12.8500000000001,-12.475));
#648=CARTESIAN_POINT('',(0.,0.,-12.475));
#649=CARTESIAN_POINT('',(0.,0.,-9.725));
#650=CARTESIAN_POINT('',(-43.6477662658697,12.8500000000001,-9.725));
#651=CARTESIAN_POINT('',(0.,0.,107.7925));
#652=CARTESIAN_POINT('',(0.,0.,-9.225));
#653=CARTESIAN_POINT('',(-44.168738945095,12.8500000000018,-9.225));
#654=CARTESIAN_POINT('',(0.,0.,-9.725));
#655=CARTESIAN_POINT('',(0.,0.,-9.225));
#656=CARTESIAN_POINT('',(-44.5566503626157,12.8499999999997,-9.225));
#657=CARTESIAN_POINT('',(0.,0.,-9.225));
#658=CARTESIAN_POINT('',(0.,0.,-7.85240473581));
#659=CARTESIAN_POINT('',(-47.0259502827965,12.8499999999982,-7.85240473581));
#660=CARTESIAN_POINT('',(0.,0.,-8.5387023679));
#661=CARTESIAN_POINT('',(0.,0.,107.7925));
#662=CARTESIAN_POINT('',(0.,27.15,-24.1));
#663=CARTESIAN_POINT('',(0.,0.,-24.1));
#664=CARTESIAN_POINT('',(0.,-27.15,-24.1));
#665=CARTESIAN_POINT('',(0.,0.,-24.1));
#666=CARTESIAN_POINT('',(0.,0.,-24.1));
#667=CARTESIAN_POINT('',(0.,0.,-15.805));
#668=CARTESIAN_POINT('',(0.,0.,101.75));
#669=CARTESIAN_POINT('',(2.34221018306613E-12,20.086539892448,101.75));
#670=CARTESIAN_POINT('',(-2.34083190466883E-12,-20.086539892448,101.75));
#671=CARTESIAN_POINT('',(0.,0.,101.75));
#672=CARTESIAN_POINT('',(0.,0.,101.75));
#673=CARTESIAN_POINT('',(0.,-35.09999903812,-1.2));
#674=CARTESIAN_POINT('',(0.,35.09999903812,-1.2));
#675=CARTESIAN_POINT('',(0.,0.,49.20538264552));
#676=CARTESIAN_POINT('',(0.,0.,49.20538264552));
#677=MECHANICAL_DESIGN_GEOMETRIC_PRESENTATION_REPRESENTATION('',(#369,#370,
#371,#372),#678);
#678=(
GEOMETRIC_REPRESENTATION_CONTEXT(3)
GLOBAL_UNCERTAINTY_ASSIGNED_CONTEXT((#679))
GLOBAL_UNIT_ASSIGNED_CONTEXT((#685,#681,#680))
REPRESENTATION_CONTEXT('69871.50AD-QTCW.M5','TOP_LEVEL_ASSEMBLY_PART')
);
#679=UNCERTAINTY_MEASURE_WITH_UNIT(LENGTH_MEASURE(2.E-5),#685,
'DISTANCE_ACCURACY_VALUE','Maximum Tolerance applied to model');
#680=(
NAMED_UNIT(*)
SI_UNIT($,.STERADIAN.)
SOLID_ANGLE_UNIT()
);
#681=(
CONVERSION_BASED_UNIT('DEGREE',#683)
NAMED_UNIT(#682)
PLANE_ANGLE_UNIT()
);
#682=DIMENSIONAL_EXPONENTS(0.,0.,0.,0.,0.,0.,0.);
#683=PLANE_ANGLE_MEASURE_WITH_UNIT(PLANE_ANGLE_MEASURE(0.0174532925),#684);
#684=(
NAMED_UNIT(*)
PLANE_ANGLE_UNIT()
SI_UNIT($,.RADIAN.)
);
#685=(
LENGTH_UNIT()
NAMED_UNIT(*)
SI_UNIT(.MILLI.,.METRE.)
);
ENDSEC;
END-ISO-10303-21;
