ISO-10303-21;
HEADER;
/* Generated by software containing ST-Developer
 * from STEP Tools, Inc. (www.steptools.com) 
 */
/* OPTION: using custom schema-name function */

FILE_DESCRIPTION(
/* description */ (''),
/* implementation_level */ '2;1');

FILE_NAME(
/* name */ '69871.50A-QTCC.M5.M22.stp',
/* time_stamp */ '2024-07-22T15:12:58+02:00',
/* author */ (''),
/* organization */ (''),
/* preprocessor_version */ 'ST-DEVELOPER v16.7',
/* originating_system */ 'SIEMENS PLM Software NX 12.0',
/* authorisation */ '');

FILE_SCHEMA (('AUTOMOTIVE_DESIGN { 1 0 10303 214 3 1 1 1 }'));
ENDSEC;

DATA;
#10=CONSTRUCTIVE_GEOMETRY_REPRESENTATION_RELATIONSHIP(
'supplemental geometry','',#32,#11);
#11=CONSTRUCTIVE_GEOMETRY_REPRESENTATION('supplemental geometry',(#318,
#319,#320),#540);
#12=PROPERTY_DEFINITION_REPRESENTATION(#16,#14);
#13=PROPERTY_DEFINITION_REPRESENTATION(#17,#15);
#14=REPRESENTATION('',(#18),#540);
#15=REPRESENTATION('',(#19),#540);
#16=PROPERTY_DEFINITION('pmi validation property','',#23);
#17=PROPERTY_DEFINITION('pmi validation property','',#23);
#18=VALUE_REPRESENTATION_ITEM('number of annotations',COUNT_MEASURE(0.));
#19=VALUE_REPRESENTATION_ITEM('number of views',COUNT_MEASURE(0.));
#20=SHAPE_REPRESENTATION_RELATIONSHIP('None',
'relationship between pf6612088076yvkh-None and pf6612088076yvkh-None',
#32,#21);
#21=ADVANCED_BREP_SHAPE_REPRESENTATION('pf6612088076yvkh-None',(#38),#540);
#22=SHAPE_DEFINITION_REPRESENTATION(#23,#32);
#23=PRODUCT_DEFINITION_SHAPE('','',#24);
#24=PRODUCT_DEFINITION(' ','',#26,#25);
#25=PRODUCT_DEFINITION_CONTEXT('part definition',#31,'design');
#26=PRODUCT_DEFINITION_FORMATION_WITH_SPECIFIED_SOURCE(' ',' ',#28,
 .NOT_KNOWN.);
#27=PRODUCT_RELATED_PRODUCT_CATEGORY('part','',(#28));
#28=PRODUCT('pf6612088076yvkh','pf6612088076yvkh',' ',(#29));
#29=PRODUCT_CONTEXT(' ',#31,'mechanical');
#30=APPLICATION_PROTOCOL_DEFINITION('international standard',
'automotive_design',2010,#31);
#31=APPLICATION_CONTEXT(
'core data for automotive mechanical design processes');
#32=SHAPE_REPRESENTATION('pf6612088076yvkh-None',(#317),#540);
#33=SURFACE_STYLE_USAGE(.BOTH.,#34);
#34=SURFACE_SIDE_STYLE('',(#35));
#35=SURFACE_STYLE_FILL_AREA(#36);
#36=FILL_AREA_STYLE('',(#37));
#37=FILL_AREA_STYLE_COLOUR('',#313);
#38=MANIFOLD_SOLID_BREP('',#39);
#39=CLOSED_SHELL('',(#74,#75,#76,#77,#78,#79,#80,#81,#82,#83,#84,#85,#86,
#87,#88,#89,#90,#91,#92));
#40=LINE('',#508,#48);
#41=LINE('',#512,#49);
#42=LINE('',#521,#50);
#43=LINE('',#523,#51);
#44=LINE('',#525,#52);
#45=LINE('',#527,#53);
#46=LINE('',#535,#54);
#47=LINE('',#536,#55);
#48=VECTOR('',#426,1.);
#49=VECTOR('',#429,1.);
#50=VECTOR('',#442,1.);
#51=VECTOR('',#443,1.);
#52=VECTOR('',#444,1.);
#53=VECTOR('',#445,1.);
#54=VECTOR('',#454,1.);
#55=VECTOR('',#455,1.);
#56=TOROIDAL_SURFACE('',#339,46.,0.5);
#57=TOROIDAL_SURFACE('',#343,46.,0.5);
#58=CONICAL_SURFACE('',#335,47.5612976321,60.);
#59=CONICAL_SURFACE('',#347,47.5612976321,60.);
#60=CONICAL_SURFACE('',#360,27.74925447211,8.2971);
#61=CONICAL_SURFACE('',#361,27.74925447211,8.2971);
#62=CYLINDRICAL_SURFACE('',#333,48.75);
#63=CYLINDRICAL_SURFACE('',#341,45.5);
#64=CYLINDRICAL_SURFACE('',#348,48.75);
#65=CYLINDRICAL_SURFACE('',#350,27.);
#66=CYLINDRICAL_SURFACE('',#352,27.);
#67=CYLINDRICAL_SURFACE('',#356,25.);
#68=FACE_OUTER_BOUND('',#128,.T.);
#69=FACE_OUTER_BOUND('',#149,.T.);
#70=FACE_OUTER_BOUND('',#150,.T.);
#71=FACE_OUTER_BOUND('',#155,.T.);
#72=FACE_OUTER_BOUND('',#156,.T.);
#73=FACE_OUTER_BOUND('',#157,.T.);
#74=ADVANCED_FACE('',(#100,#101),#93,.F.);
#75=ADVANCED_FACE('',(#68),#94,.T.);
#76=ADVANCED_FACE('',(#102,#103),#95,.T.);
#77=ADVANCED_FACE('',(#104,#105),#62,.T.);
#78=ADVANCED_FACE('',(#106,#107),#58,.T.);
#79=ADVANCED_FACE('',(#108,#109),#96,.F.);
#80=ADVANCED_FACE('',(#110,#111),#56,.F.);
#81=ADVANCED_FACE('',(#112,#113),#63,.T.);
#82=ADVANCED_FACE('',(#114,#115),#57,.F.);
#83=ADVANCED_FACE('',(#116,#117),#97,.T.);
#84=ADVANCED_FACE('',(#118,#119),#59,.T.);
#85=ADVANCED_FACE('',(#120,#121),#64,.T.);
#86=ADVANCED_FACE('',(#69),#65,.T.);
#87=ADVANCED_FACE('',(#70),#66,.T.);
#88=ADVANCED_FACE('',(#122,#123),#98,.F.);
#89=ADVANCED_FACE('',(#124,#125),#67,.T.);
#90=ADVANCED_FACE('',(#71),#99,.F.);
#91=ADVANCED_FACE('',(#72),#60,.T.);
#92=ADVANCED_FACE('',(#73),#61,.T.);
#93=PLANE('',#324);
#94=PLANE('',#327);
#95=PLANE('',#331);
#96=PLANE('',#337);
#97=PLANE('',#345);
#98=PLANE('',#355);
#99=PLANE('',#359);
#100=FACE_BOUND('',#126,.T.);
#101=FACE_BOUND('',#127,.T.);
#102=FACE_BOUND('',#129,.T.);
#103=FACE_BOUND('',#130,.T.);
#104=FACE_BOUND('',#131,.T.);
#105=FACE_BOUND('',#132,.T.);
#106=FACE_BOUND('',#133,.T.);
#107=FACE_BOUND('',#134,.T.);
#108=FACE_BOUND('',#135,.T.);
#109=FACE_BOUND('',#136,.T.);
#110=FACE_BOUND('',#137,.T.);
#111=FACE_BOUND('',#138,.T.);
#112=FACE_BOUND('',#139,.T.);
#113=FACE_BOUND('',#140,.T.);
#114=FACE_BOUND('',#141,.T.);
#115=FACE_BOUND('',#142,.T.);
#116=FACE_BOUND('',#143,.T.);
#117=FACE_BOUND('',#144,.T.);
#118=FACE_BOUND('',#145,.T.);
#119=FACE_BOUND('',#146,.T.);
#120=FACE_BOUND('',#147,.T.);
#121=FACE_BOUND('',#148,.T.);
#122=FACE_BOUND('',#151,.T.);
#123=FACE_BOUND('',#152,.T.);
#124=FACE_BOUND('',#153,.T.);
#125=FACE_BOUND('',#154,.T.);
#126=EDGE_LOOP('',(#158));
#127=EDGE_LOOP('',(#159,#160));
#128=EDGE_LOOP('',(#161,#162));
#129=EDGE_LOOP('',(#163));
#130=EDGE_LOOP('',(#164,#165));
#131=EDGE_LOOP('',(#166));
#132=EDGE_LOOP('',(#167));
#133=EDGE_LOOP('',(#168));
#134=EDGE_LOOP('',(#169));
#135=EDGE_LOOP('',(#170));
#136=EDGE_LOOP('',(#171));
#137=EDGE_LOOP('',(#172));
#138=EDGE_LOOP('',(#173));
#139=EDGE_LOOP('',(#174));
#140=EDGE_LOOP('',(#175));
#141=EDGE_LOOP('',(#176));
#142=EDGE_LOOP('',(#177));
#143=EDGE_LOOP('',(#178));
#144=EDGE_LOOP('',(#179));
#145=EDGE_LOOP('',(#180));
#146=EDGE_LOOP('',(#181));
#147=EDGE_LOOP('',(#182));
#148=EDGE_LOOP('',(#183));
#149=EDGE_LOOP('',(#184,#185,#186,#187));
#150=EDGE_LOOP('',(#188,#189,#190,#191));
#151=EDGE_LOOP('',(#192,#193));
#152=EDGE_LOOP('',(#194,#195));
#153=EDGE_LOOP('',(#196,#197,#198,#199,#200,#201));
#154=EDGE_LOOP('',(#202,#203,#204,#205,#206,#207));
#155=EDGE_LOOP('',(#208,#209));
#156=EDGE_LOOP('',(#210,#211,#212,#213));
#157=EDGE_LOOP('',(#214,#215,#216,#217));
#158=ORIENTED_EDGE('',*,*,#244,.T.);
#159=ORIENTED_EDGE('',*,*,#245,.T.);
#160=ORIENTED_EDGE('',*,*,#246,.T.);
#161=ORIENTED_EDGE('',*,*,#247,.T.);
#162=ORIENTED_EDGE('',*,*,#248,.T.);
#163=ORIENTED_EDGE('',*,*,#249,.F.);
#164=ORIENTED_EDGE('',*,*,#250,.F.);
#165=ORIENTED_EDGE('',*,*,#251,.F.);
#166=ORIENTED_EDGE('',*,*,#252,.T.);
#167=ORIENTED_EDGE('',*,*,#249,.T.);
#168=ORIENTED_EDGE('',*,*,#253,.T.);
#169=ORIENTED_EDGE('',*,*,#252,.F.);
#170=ORIENTED_EDGE('',*,*,#254,.T.);
#171=ORIENTED_EDGE('',*,*,#253,.F.);
#172=ORIENTED_EDGE('',*,*,#255,.T.);
#173=ORIENTED_EDGE('',*,*,#254,.F.);
#174=ORIENTED_EDGE('',*,*,#256,.T.);
#175=ORIENTED_EDGE('',*,*,#255,.F.);
#176=ORIENTED_EDGE('',*,*,#257,.T.);
#177=ORIENTED_EDGE('',*,*,#256,.F.);
#178=ORIENTED_EDGE('',*,*,#258,.T.);
#179=ORIENTED_EDGE('',*,*,#257,.F.);
#180=ORIENTED_EDGE('',*,*,#259,.T.);
#181=ORIENTED_EDGE('',*,*,#258,.F.);
#182=ORIENTED_EDGE('',*,*,#244,.F.);
#183=ORIENTED_EDGE('',*,*,#259,.F.);
#184=ORIENTED_EDGE('',*,*,#247,.F.);
#185=ORIENTED_EDGE('',*,*,#260,.T.);
#186=ORIENTED_EDGE('',*,*,#261,.F.);
#187=ORIENTED_EDGE('',*,*,#262,.F.);
#188=ORIENTED_EDGE('',*,*,#248,.F.);
#189=ORIENTED_EDGE('',*,*,#262,.T.);
#190=ORIENTED_EDGE('',*,*,#263,.F.);
#191=ORIENTED_EDGE('',*,*,#260,.F.);
#192=ORIENTED_EDGE('',*,*,#263,.T.);
#193=ORIENTED_EDGE('',*,*,#261,.T.);
#194=ORIENTED_EDGE('',*,*,#264,.T.);
#195=ORIENTED_EDGE('',*,*,#265,.T.);
#196=ORIENTED_EDGE('',*,*,#266,.F.);
#197=ORIENTED_EDGE('',*,*,#266,.T.);
#198=ORIENTED_EDGE('',*,*,#265,.F.);
#199=ORIENTED_EDGE('',*,*,#267,.F.);
#200=ORIENTED_EDGE('',*,*,#267,.T.);
#201=ORIENTED_EDGE('',*,*,#264,.F.);
#202=ORIENTED_EDGE('',*,*,#268,.T.);
#203=ORIENTED_EDGE('',*,*,#268,.F.);
#204=ORIENTED_EDGE('',*,*,#251,.T.);
#205=ORIENTED_EDGE('',*,*,#269,.T.);
#206=ORIENTED_EDGE('',*,*,#269,.F.);
#207=ORIENTED_EDGE('',*,*,#250,.T.);
#208=ORIENTED_EDGE('',*,*,#270,.T.);
#209=ORIENTED_EDGE('',*,*,#271,.T.);
#210=ORIENTED_EDGE('',*,*,#272,.T.);
#211=ORIENTED_EDGE('',*,*,#246,.F.);
#212=ORIENTED_EDGE('',*,*,#273,.F.);
#213=ORIENTED_EDGE('',*,*,#271,.F.);
#214=ORIENTED_EDGE('',*,*,#273,.T.);
#215=ORIENTED_EDGE('',*,*,#245,.F.);
#216=ORIENTED_EDGE('',*,*,#272,.F.);
#217=ORIENTED_EDGE('',*,*,#270,.F.);
#218=VERTEX_POINT('',#465);
#219=VERTEX_POINT('',#467);
#220=VERTEX_POINT('',#468);
#221=VERTEX_POINT('',#472);
#222=VERTEX_POINT('',#473);
#223=VERTEX_POINT('',#477);
#224=VERTEX_POINT('',#479);
#225=VERTEX_POINT('',#480);
#226=VERTEX_POINT('',#484);
#227=VERTEX_POINT('',#487);
#228=VERTEX_POINT('',#490);
#229=VERTEX_POINT('',#493);
#230=VERTEX_POINT('',#496);
#231=VERTEX_POINT('',#499);
#232=VERTEX_POINT('',#502);
#233=VERTEX_POINT('',#505);
#234=VERTEX_POINT('',#509);
#235=VERTEX_POINT('',#511);
#236=VERTEX_POINT('',#517);
#237=VERTEX_POINT('',#518);
#238=VERTEX_POINT('',#522);
#239=VERTEX_POINT('',#524);
#240=VERTEX_POINT('',#526);
#241=VERTEX_POINT('',#528);
#242=VERTEX_POINT('',#531);
#243=VERTEX_POINT('',#532);
#244=EDGE_CURVE('',#218,#218,#274,.T.);
#245=EDGE_CURVE('',#219,#220,#275,.T.);
#246=EDGE_CURVE('',#220,#219,#276,.T.);
#247=EDGE_CURVE('',#221,#222,#277,.T.);
#248=EDGE_CURVE('',#222,#221,#278,.T.);
#249=EDGE_CURVE('',#223,#223,#279,.T.);
#250=EDGE_CURVE('',#224,#225,#280,.T.);
#251=EDGE_CURVE('',#225,#224,#281,.T.);
#252=EDGE_CURVE('',#226,#226,#282,.T.);
#253=EDGE_CURVE('',#227,#227,#283,.T.);
#254=EDGE_CURVE('',#228,#228,#284,.T.);
#255=EDGE_CURVE('',#229,#229,#285,.T.);
#256=EDGE_CURVE('',#230,#230,#286,.T.);
#257=EDGE_CURVE('',#231,#231,#287,.T.);
#258=EDGE_CURVE('',#232,#232,#288,.T.);
#259=EDGE_CURVE('',#233,#233,#289,.T.);
#260=EDGE_CURVE('',#221,#234,#40,.T.);
#261=EDGE_CURVE('',#235,#234,#290,.T.);
#262=EDGE_CURVE('',#222,#235,#41,.T.);
#263=EDGE_CURVE('',#234,#235,#291,.T.);
#264=EDGE_CURVE('',#236,#237,#292,.T.);
#265=EDGE_CURVE('',#237,#236,#293,.T.);
#266=EDGE_CURVE('',#238,#236,#42,.T.);
#267=EDGE_CURVE('',#239,#237,#43,.T.);
#268=EDGE_CURVE('',#225,#240,#44,.T.);
#269=EDGE_CURVE('',#224,#241,#45,.T.);
#270=EDGE_CURVE('',#242,#243,#294,.T.);
#271=EDGE_CURVE('',#243,#242,#295,.T.);
#272=EDGE_CURVE('',#243,#219,#46,.T.);
#273=EDGE_CURVE('',#242,#220,#47,.T.);
#274=CIRCLE('',#321,48.75);
#275=CIRCLE('',#322,35.3916641016586);
#276=CIRCLE('',#323,35.3916641016586);
#277=CIRCLE('',#325,27.);
#278=CIRCLE('',#326,27.);
#279=CIRCLE('',#328,48.75);
#280=CIRCLE('',#329,25.);
#281=CIRCLE('',#330,25.);
#282=CIRCLE('',#332,48.75);
#283=CIRCLE('',#334,46.37259526419);
#284=CIRCLE('',#336,46.);
#285=CIRCLE('',#338,45.5);
#286=CIRCLE('',#340,45.5);
#287=CIRCLE('',#342,46.);
#288=CIRCLE('',#344,46.37259526419);
#289=CIRCLE('',#346,48.75);
#290=CIRCLE('',#349,27.);
#291=CIRCLE('',#351,27.);
#292=CIRCLE('',#353,25.);
#293=CIRCLE('',#354,25.);
#294=CIRCLE('',#357,20.0865398924436);
#295=CIRCLE('',#358,20.0865398924436);
#296=INVISIBILITY((#297,#298,#299,#300));
#297=PRESENTATION_LAYER_ASSIGNMENT('100','Layer 100',(#318));
#298=PRESENTATION_LAYER_ASSIGNMENT('101','Layer 101',(#319));
#299=PRESENTATION_LAYER_ASSIGNMENT('102','Layer 102',(#320));
#300=PRESENTATION_LAYER_ASSIGNMENT('98','Layer 98',(#38));
#301=STYLED_ITEM('',(#305),#318);
#302=STYLED_ITEM('',(#306),#319);
#303=STYLED_ITEM('',(#307),#320);
#304=STYLED_ITEM('',(#308),#38);
#305=PRESENTATION_STYLE_ASSIGNMENT((#309));
#306=PRESENTATION_STYLE_ASSIGNMENT((#310));
#307=PRESENTATION_STYLE_ASSIGNMENT((#311));
#308=PRESENTATION_STYLE_ASSIGNMENT((#33));
#309=CURVE_STYLE('',#314,POSITIVE_LENGTH_MEASURE(0.7),#312);
#310=CURVE_STYLE('',#315,POSITIVE_LENGTH_MEASURE(0.7),#312);
#311=CURVE_STYLE('',#316,POSITIVE_LENGTH_MEASURE(0.7),#312);
#312=COLOUR_RGB('Medium Maroon',0.6,0.4,0.4);
#313=COLOUR_RGB('Medium Gray',0.490196078431373,0.490196078431373,0.490196078431373);
#314=DRAUGHTING_PRE_DEFINED_CURVE_FONT('continuous');
#315=DRAUGHTING_PRE_DEFINED_CURVE_FONT('continuous');
#316=DRAUGHTING_PRE_DEFINED_CURVE_FONT('continuous');
#317=AXIS2_PLACEMENT_3D('',#460,#362,#363);
#318=AXIS2_PLACEMENT_3D('PCS',#461,#364,#365);
#319=AXIS2_PLACEMENT_3D('CSW',#462,#366,#367);
#320=AXIS2_PLACEMENT_3D('MCS',#463,#368,#369);
#321=AXIS2_PLACEMENT_3D('',#464,#370,#371);
#322=AXIS2_PLACEMENT_3D('',#466,#372,#373);
#323=AXIS2_PLACEMENT_3D('',#469,#374,#375);
#324=AXIS2_PLACEMENT_3D('',#470,#376,#377);
#325=AXIS2_PLACEMENT_3D('',#471,#378,#379);
#326=AXIS2_PLACEMENT_3D('',#474,#380,#381);
#327=AXIS2_PLACEMENT_3D('',#475,#382,#383);
#328=AXIS2_PLACEMENT_3D('',#476,#384,#385);
#329=AXIS2_PLACEMENT_3D('',#478,#386,#387);
#330=AXIS2_PLACEMENT_3D('',#481,#388,#389);
#331=AXIS2_PLACEMENT_3D('',#482,#390,#391);
#332=AXIS2_PLACEMENT_3D('',#483,#392,#393);
#333=AXIS2_PLACEMENT_3D('',#485,#394,#395);
#334=AXIS2_PLACEMENT_3D('',#486,#396,#397);
#335=AXIS2_PLACEMENT_3D('',#488,#398,#399);
#336=AXIS2_PLACEMENT_3D('',#489,#400,#401);
#337=AXIS2_PLACEMENT_3D('',#491,#402,#403);
#338=AXIS2_PLACEMENT_3D('',#492,#404,#405);
#339=AXIS2_PLACEMENT_3D('',#494,#406,#407);
#340=AXIS2_PLACEMENT_3D('',#495,#408,#409);
#341=AXIS2_PLACEMENT_3D('',#497,#410,#411);
#342=AXIS2_PLACEMENT_3D('',#498,#412,#413);
#343=AXIS2_PLACEMENT_3D('',#500,#414,#415);
#344=AXIS2_PLACEMENT_3D('',#501,#416,#417);
#345=AXIS2_PLACEMENT_3D('',#503,#418,#419);
#346=AXIS2_PLACEMENT_3D('',#504,#420,#421);
#347=AXIS2_PLACEMENT_3D('',#506,#422,#423);
#348=AXIS2_PLACEMENT_3D('',#507,#424,#425);
#349=AXIS2_PLACEMENT_3D('',#510,#427,#428);
#350=AXIS2_PLACEMENT_3D('',#513,#430,#431);
#351=AXIS2_PLACEMENT_3D('',#514,#432,#433);
#352=AXIS2_PLACEMENT_3D('',#515,#434,#435);
#353=AXIS2_PLACEMENT_3D('',#516,#436,#437);
#354=AXIS2_PLACEMENT_3D('',#519,#438,#439);
#355=AXIS2_PLACEMENT_3D('',#520,#440,#441);
#356=AXIS2_PLACEMENT_3D('',#529,#446,#447);
#357=AXIS2_PLACEMENT_3D('',#530,#448,#449);
#358=AXIS2_PLACEMENT_3D('',#533,#450,#451);
#359=AXIS2_PLACEMENT_3D('',#534,#452,#453);
#360=AXIS2_PLACEMENT_3D('',#537,#456,#457);
#361=AXIS2_PLACEMENT_3D('',#538,#458,#459);
#362=DIRECTION('',(0.,0.,1.));
#363=DIRECTION('',(1.,0.,0.));
#364=DIRECTION('',(0.,0.,1.));
#365=DIRECTION('',(1.,0.,0.));
#366=DIRECTION('',(0.,0.,1.));
#367=DIRECTION('',(1.,0.,0.));
#368=DIRECTION('',(0.,0.,1.));
#369=DIRECTION('',(1.,0.,0.));
#370=DIRECTION('',(0.,0.,1.));
#371=DIRECTION('',(-1.,0.,0.));
#372=DIRECTION('',(0.,0.,-1.));
#373=DIRECTION('',(-1.,0.,0.));
#374=DIRECTION('',(0.,0.,-1.));
#375=DIRECTION('',(-1.,0.,0.));
#376=DIRECTION('',(0.,0.,-1.));
#377=DIRECTION('',(0.,-1.,0.));
#378=DIRECTION('',(0.,0.,-1.));
#379=DIRECTION('',(-1.,0.,0.));
#380=DIRECTION('',(0.,0.,-1.));
#381=DIRECTION('',(-1.,0.,0.));
#382=DIRECTION('',(0.,0.,-1.));
#383=DIRECTION('',(0.,-1.,0.));
#384=DIRECTION('',(0.,0.,1.));
#385=DIRECTION('',(-1.,0.,0.));
#386=DIRECTION('',(0.,0.,-1.));
#387=DIRECTION('',(-1.,0.,0.));
#388=DIRECTION('',(0.,0.,-1.));
#389=DIRECTION('',(-1.,0.,0.));
#390=DIRECTION('',(0.,0.,-1.));
#391=DIRECTION('',(0.,-1.,0.));
#392=DIRECTION('',(0.,0.,-1.));
#393=DIRECTION('',(-0.964634877595825,0.263589743589707,0.));
#394=DIRECTION('',(0.,0.,-1.));
#395=DIRECTION('',(0.,-1.,0.));
#396=DIRECTION('',(0.,0.,-1.));
#397=DIRECTION('',(-0.96084012785507,0.277103317741691,0.));
#398=DIRECTION('',(0.,0.,-1.));
#399=DIRECTION('',(0.,-1.,0.));
#400=DIRECTION('',(0.,0.,-1.));
#401=DIRECTION('',(-0.960189977067283,0.279347826086995,0.));
#402=DIRECTION('',(0.,0.,-1.));
#403=DIRECTION('',(0.,-1.,0.));
#404=DIRECTION('',(0.,0.,-1.));
#405=DIRECTION('',(-0.959291566282851,0.282417582417586,0.));
#406=DIRECTION('',(0.,0.,-1.));
#407=DIRECTION('',(0.00255647807815495,-0.999996732204579,0.));
#408=DIRECTION('',(0.,0.,-1.));
#409=DIRECTION('',(-0.959291566282851,0.282417582417586,0.));
#410=DIRECTION('',(0.,0.,-1.));
#411=DIRECTION('',(0.,-1.,0.));
#412=DIRECTION('',(0.,0.,-1.));
#413=DIRECTION('',(-0.960189977067283,0.279347826086995,0.));
#414=DIRECTION('',(0.,0.,-1.));
#415=DIRECTION('',(0.00243885596347993,-0.999997025986372,0.));
#416=DIRECTION('',(0.,0.,-1.));
#417=DIRECTION('',(-0.96084012785507,0.277103317741691,0.));
#418=DIRECTION('',(0.,0.,-1.));
#419=DIRECTION('',(0.,-1.,0.));
#420=DIRECTION('',(0.,0.,-1.));
#421=DIRECTION('',(-0.964634877595825,0.263589743589707,0.));
#422=DIRECTION('',(0.,0.,1.));
#423=DIRECTION('',(0.,1.,1.94955234447666E-18));
#424=DIRECTION('',(0.,0.,-1.));
#425=DIRECTION('',(0.,-1.,0.));
#426=DIRECTION('',(2.914245948439E-14,0.,1.));
#427=DIRECTION('',(0.,0.,1.));
#428=DIRECTION('',(-1.,0.,0.));
#429=DIRECTION('',(-3.013601826994E-14,0.,1.));
#430=DIRECTION('',(0.,0.,-1.));
#431=DIRECTION('',(0.,-1.,0.));
#432=DIRECTION('',(0.,0.,1.));
#433=DIRECTION('',(-1.,0.,0.));
#434=DIRECTION('',(0.,0.,-1.));
#435=DIRECTION('',(0.,-1.,0.));
#436=DIRECTION('',(0.,0.,-1.));
#437=DIRECTION('',(0.,1.,0.));
#438=DIRECTION('',(0.,0.,-1.));
#439=DIRECTION('',(0.,-1.,0.));
#440=DIRECTION('',(0.,0.,-1.));
#441=DIRECTION('',(0.,-1.,0.));
#442=DIRECTION('',(0.,0.,-1.));
#443=DIRECTION('',(0.,0.,-1.));
#444=DIRECTION('',(0.,0.,-1.));
#445=DIRECTION('',(0.,0.,-1.));
#446=DIRECTION('',(0.,0.,-1.));
#447=DIRECTION('',(0.,-1.,0.));
#448=DIRECTION('',(0.,0.,1.));
#449=DIRECTION('',(-1.,0.,0.));
#450=DIRECTION('',(0.,0.,1.));
#451=DIRECTION('',(-1.,0.,0.));
#452=DIRECTION('',(0.,0.,-1.));
#453=DIRECTION('',(0.,-1.,0.));
#454=DIRECTION('',(2.24995690910396E-14,-0.144306116415197,-0.989533094325381));
#455=DIRECTION('',(-2.25128168043696E-14,0.144306116415197,-0.989533094325381));
#456=DIRECTION('',(0.,0.,-1.));
#457=DIRECTION('',(0.,-1.,0.));
#458=DIRECTION('',(0.,0.,-1.));
#459=DIRECTION('',(0.,-1.,0.));
#460=CARTESIAN_POINT('',(0.,0.,0.));
#461=CARTESIAN_POINT('',(0.,0.,0.));
#462=CARTESIAN_POINT('',(0.,0.,-93.9));
#463=CARTESIAN_POINT('',(0.,0.,0.));
#464=CARTESIAN_POINT('',(0.,0.,-3.20000000000001));
#465=CARTESIAN_POINT('',(-48.75,0.,-3.20000000000001));
#466=CARTESIAN_POINT('',(0.,0.,-3.2));
#467=CARTESIAN_POINT('',(0.,-35.3916641016586,-3.2));
#468=CARTESIAN_POINT('',(1.48878610507166E-12,35.3916641016586,-3.2));
#469=CARTESIAN_POINT('',(0.,0.,-3.2));
#470=CARTESIAN_POINT('',(0.,0.,-3.2));
#471=CARTESIAN_POINT('',(0.,0.,-93.9));
#472=CARTESIAN_POINT('',(-3.45066952080526E-14,27.,-93.9));
#473=CARTESIAN_POINT('',(-1.58214095917185E-13,-27.,-93.9));
#474=CARTESIAN_POINT('',(0.,0.,-93.9));
#475=CARTESIAN_POINT('',(0.,0.,-93.9));
#476=CARTESIAN_POINT('',(0.,0.,-19.1));
#477=CARTESIAN_POINT('',(-48.75,0.,-19.1));
#478=CARTESIAN_POINT('',(0.,0.,-19.1));
#479=CARTESIAN_POINT('',(0.,-25.,-19.1));
#480=CARTESIAN_POINT('',(-1.53080849893419E-15,25.,-19.1));
#481=CARTESIAN_POINT('',(0.,0.,-19.1));
#482=CARTESIAN_POINT('',(0.,0.,-19.1));
#483=CARTESIAN_POINT('',(0.,0.,-14.347595264192));
#484=CARTESIAN_POINT('',(-47.0259502827965,12.8499999999982,-14.347595264192));
#485=CARTESIAN_POINT('',(0.,0.,107.7925));
#486=CARTESIAN_POINT('',(0.,0.,-12.975));
#487=CARTESIAN_POINT('',(-44.5566503626157,12.8499999999997,-12.975));
#488=CARTESIAN_POINT('',(0.,0.,-13.661297632096));
#489=CARTESIAN_POINT('',(0.,0.,-12.975));
#490=CARTESIAN_POINT('',(-44.168738945095,12.8500000000018,-12.975));
#491=CARTESIAN_POINT('',(0.,0.,-12.975));
#492=CARTESIAN_POINT('',(0.,0.,-12.475));
#493=CARTESIAN_POINT('',(-43.6477662658697,12.8500000000001,-12.475));
#494=CARTESIAN_POINT('',(0.,0.,-12.475));
#495=CARTESIAN_POINT('',(0.,0.,-9.725));
#496=CARTESIAN_POINT('',(-43.6477662658697,12.8500000000001,-9.725));
#497=CARTESIAN_POINT('',(0.,0.,107.7925));
#498=CARTESIAN_POINT('',(0.,0.,-9.225));
#499=CARTESIAN_POINT('',(-44.168738945095,12.8500000000018,-9.225));
#500=CARTESIAN_POINT('',(0.,0.,-9.725));
#501=CARTESIAN_POINT('',(0.,0.,-9.225));
#502=CARTESIAN_POINT('',(-44.5566503626157,12.8499999999997,-9.225));
#503=CARTESIAN_POINT('',(0.,0.,-9.225));
#504=CARTESIAN_POINT('',(0.,0.,-7.85240473581));
#505=CARTESIAN_POINT('',(-47.0259502827965,12.8499999999982,-7.85240473581));
#506=CARTESIAN_POINT('',(0.,0.,-8.5387023679));
#507=CARTESIAN_POINT('',(0.,0.,107.7925));
#508=CARTESIAN_POINT('',(0.,27.,-56.4));
#509=CARTESIAN_POINT('',(3.05995824586095E-13,27.,-45.9));
#510=CARTESIAN_POINT('',(0.,0.,-45.9));
#511=CARTESIAN_POINT('',(-3.1642819183437E-13,-27.,-45.9));
#512=CARTESIAN_POINT('',(0.,-27.,-56.4));
#513=CARTESIAN_POINT('',(0.,0.,-43.5));
#514=CARTESIAN_POINT('',(0.,0.,-45.9));
#515=CARTESIAN_POINT('',(0.,0.,-43.5));
#516=CARTESIAN_POINT('',(0.,0.,-45.9));
#517=CARTESIAN_POINT('',(0.,25.,-45.9));
#518=CARTESIAN_POINT('',(0.,-25.,-45.9));
#519=CARTESIAN_POINT('',(0.,0.,-45.9));
#520=CARTESIAN_POINT('',(0.,0.,-45.9));
#521=CARTESIAN_POINT('',(0.,25.,-45.9));
#522=CARTESIAN_POINT('',(0.,25.,-35.1));
#523=CARTESIAN_POINT('',(0.,-25.,-45.9));
#524=CARTESIAN_POINT('',(0.,-25.,-35.1));
#525=CARTESIAN_POINT('',(0.,25.,-30.1));
#526=CARTESIAN_POINT('',(0.,25.,-30.1));
#527=CARTESIAN_POINT('',(0.,-25.,-30.1));
#528=CARTESIAN_POINT('',(0.,-25.,-30.1));
#529=CARTESIAN_POINT('',(0.,0.,-16.11));
#530=CARTESIAN_POINT('',(0.,0.,101.75));
#531=CARTESIAN_POINT('',(2.34221018306613E-12,20.086539892448,101.75));
#532=CARTESIAN_POINT('',(-2.34083190466883E-12,-20.086539892448,101.75));
#533=CARTESIAN_POINT('',(0.,0.,101.75));
#534=CARTESIAN_POINT('',(0.,0.,101.75));
#535=CARTESIAN_POINT('',(0.,-35.09999903812,-1.2));
#536=CARTESIAN_POINT('',(0.,35.09999903812,-1.2));
#537=CARTESIAN_POINT('',(0.,0.,49.20538264552));
#538=CARTESIAN_POINT('',(0.,0.,49.20538264552));
#539=MECHANICAL_DESIGN_GEOMETRIC_PRESENTATION_REPRESENTATION('',(#301,#302,
#303,#304),#540);
#540=(
GEOMETRIC_REPRESENTATION_CONTEXT(3)
GLOBAL_UNCERTAINTY_ASSIGNED_CONTEXT((#541))
GLOBAL_UNIT_ASSIGNED_CONTEXT((#547,#543,#542))
REPRESENTATION_CONTEXT('69871.50A-QTCC.M5','TOP_LEVEL_ASSEMBLY_PART')
);
#541=UNCERTAINTY_MEASURE_WITH_UNIT(LENGTH_MEASURE(2.E-5),#547,
'DISTANCE_ACCURACY_VALUE','Maximum Tolerance applied to model');
#542=(
NAMED_UNIT(*)
SI_UNIT($,.STERADIAN.)
SOLID_ANGLE_UNIT()
);
#543=(
CONVERSION_BASED_UNIT('DEGREE',#545)
NAMED_UNIT(#544)
PLANE_ANGLE_UNIT()
);
#544=DIMENSIONAL_EXPONENTS(0.,0.,0.,0.,0.,0.,0.);
#545=PLANE_ANGLE_MEASURE_WITH_UNIT(PLANE_ANGLE_MEASURE(0.0174532925),#546);
#546=(
NAMED_UNIT(*)
PLANE_ANGLE_UNIT()
SI_UNIT($,.RADIAN.)
);
#547=(
LENGTH_UNIT()
NAMED_UNIT(*)
SI_UNIT(.MILLI.,.METRE.)
);
ENDSEC;
END-ISO-10303-21;
