ISO-10303-21;
HEADER;
/* Generated by software containing ST-Developer
 * from STEP Tools, Inc. (www.steptools.com) 
 */
/* OPTION: using custom schema-name function */

FILE_DESCRIPTION(
/* description */ (''),
/* implementation_level */ '2;1');

FILE_NAME(
/* name */ '69871.40ADB-W.20.100.stp',
/* time_stamp */ '2024-07-30T10:42:33+02:00',
/* author */ (''),
/* organization */ (''),
/* preprocessor_version */ 'ST-DEVELOPER v16.7',
/* originating_system */ 'SIEMENS PLM Software NX 12.0',
/* authorisation */ '');

FILE_SCHEMA (('AUTOMOTIVE_DESIGN { 1 0 10303 214 3 1 1 1 }'));
ENDSEC;

DATA;
#10=CONSTRUCTIVE_GEOMETRY_REPRESENTATION_RELATIONSHIP(
'supplemental geometry','',#32,#11);
#11=CONSTRUCTIVE_GEOMETRY_REPRESENTATION('supplemental geometry',(#355,
#356,#357),#616);
#12=PROPERTY_DEFINITION_REPRESENTATION(#16,#14);
#13=PROPERTY_DEFINITION_REPRESENTATION(#17,#15);
#14=REPRESENTATION('',(#18),#616);
#15=REPRESENTATION('',(#19),#616);
#16=PROPERTY_DEFINITION('pmi validation property','',#23);
#17=PROPERTY_DEFINITION('pmi validation property','',#23);
#18=VALUE_REPRESENTATION_ITEM('number of annotations',COUNT_MEASURE(0.));
#19=VALUE_REPRESENTATION_ITEM('number of views',COUNT_MEASURE(0.));
#20=SHAPE_REPRESENTATION_RELATIONSHIP('None',
'relationship between pf663AEC53C0f3ua-None and pf663AEC53C0f3ua-None',
#32,#21);
#21=ADVANCED_BREP_SHAPE_REPRESENTATION('pf663AEC53C0f3ua-None',(#38),#616);
#22=SHAPE_DEFINITION_REPRESENTATION(#23,#32);
#23=PRODUCT_DEFINITION_SHAPE('','',#24);
#24=PRODUCT_DEFINITION(' ','',#26,#25);
#25=PRODUCT_DEFINITION_CONTEXT('part definition',#31,'design');
#26=PRODUCT_DEFINITION_FORMATION_WITH_SPECIFIED_SOURCE(' ',' ',#28,
 .NOT_KNOWN.);
#27=PRODUCT_RELATED_PRODUCT_CATEGORY('part','',(#28));
#28=PRODUCT('pf663AEC53C0f3ua','pf663AEC53C0f3ua',' ',(#29));
#29=PRODUCT_CONTEXT(' ',#31,'mechanical');
#30=APPLICATION_PROTOCOL_DEFINITION('international standard',
'automotive_design',2010,#31);
#31=APPLICATION_CONTEXT(
'core data for automotive mechanical design processes');
#32=SHAPE_REPRESENTATION('pf663AEC53C0f3ua-None',(#354),#616);
#33=SURFACE_STYLE_USAGE(.BOTH.,#34);
#34=SURFACE_SIDE_STYLE('',(#35));
#35=SURFACE_STYLE_FILL_AREA(#36);
#36=FILL_AREA_STYLE('',(#37));
#37=FILL_AREA_STYLE_COLOUR('',#350);
#38=MANIFOLD_SOLID_BREP('\X\B6\X2\011800A800A4\X0\10',#39);
#39=CLOSED_SHELL('',(#93,#94,#95,#96,#97,#98,#99,#100,#101,#102,#103,#104,
#105,#106,#107,#108,#109,#110,#111,#112,#113,#114,#115));
#40=CONICAL_SURFACE('',#372,26.,45.);
#41=CONICAL_SURFACE('',#375,20.,24.9999999999998);
#42=CONICAL_SURFACE('',#377,22.6916641016626,8.29709999999964);
#43=CONICAL_SURFACE('',#388,31.775,60.0000000000003);
#44=CONICAL_SURFACE('',#391,28.8725952641916,59.9999999999999);
#45=CONICAL_SURFACE('',#402,22.6916641016626,8.29709999999964);
#46=CONICAL_SURFACE('',#403,20.,24.9999999999998);
#47=CONICAL_SURFACE('',#404,26.,45.);
#48=CYLINDRICAL_SURFACE('',#369,24.);
#49=CYLINDRICAL_SURFACE('',#378,26.);
#50=CYLINDRICAL_SURFACE('',#381,26.);
#51=CYLINDRICAL_SURFACE('',#384,28.125);
#52=CYLINDRICAL_SURFACE('',#386,31.775);
#53=CYLINDRICAL_SURFACE('',#395,31.775);
#54=LINE('',#546,#64);
#55=LINE('',#550,#65);
#56=LINE('',#554,#66);
#57=LINE('',#558,#67);
#58=LINE('',#563,#68);
#59=LINE('',#567,#69);
#60=LINE('',#572,#70);
#61=LINE('',#573,#71);
#62=LINE('',#575,#72);
#63=LINE('',#576,#73);
#64=VECTOR('',#434,1.);
#65=VECTOR('',#439,1.);
#66=VECTOR('',#444,1.);
#67=VECTOR('',#447,1.);
#68=VECTOR('',#452,1.);
#69=VECTOR('',#455,1.);
#70=VECTOR('',#460,1.);
#71=VECTOR('',#461,1.);
#72=VECTOR('',#464,1.);
#73=VECTOR('',#465,1.);
#74=TOROIDAL_SURFACE('',#366,24.5,0.5);
#75=TOROIDAL_SURFACE('',#396,29.125,1.);
#76=TOROIDAL_SURFACE('',#397,29.125,1.);
#77=TOROIDAL_SURFACE('',#405,24.5,0.5);
#78=TOROIDAL_SURFACE('',#407,24.5,0.5);
#79=FACE_OUTER_BOUND('',#140,.T.);
#80=FACE_OUTER_BOUND('',#141,.T.);
#81=FACE_OUTER_BOUND('',#142,.T.);
#82=FACE_OUTER_BOUND('',#143,.T.);
#83=FACE_OUTER_BOUND('',#144,.T.);
#84=FACE_OUTER_BOUND('',#145,.T.);
#85=FACE_OUTER_BOUND('',#146,.T.);
#86=FACE_OUTER_BOUND('',#163,.T.);
#87=FACE_OUTER_BOUND('',#164,.T.);
#88=FACE_OUTER_BOUND('',#165,.T.);
#89=FACE_OUTER_BOUND('',#166,.T.);
#90=FACE_OUTER_BOUND('',#167,.T.);
#91=FACE_OUTER_BOUND('',#168,.T.);
#92=FACE_OUTER_BOUND('',#169,.T.);
#93=ADVANCED_FACE('',(#120,#121),#116,.F.);
#94=ADVANCED_FACE('',(#79),#74,.F.);
#95=ADVANCED_FACE('',(#80),#48,.T.);
#96=ADVANCED_FACE('',(#81),#40,.T.);
#97=ADVANCED_FACE('',(#82),#41,.T.);
#98=ADVANCED_FACE('',(#83),#42,.T.);
#99=ADVANCED_FACE('',(#84),#49,.T.);
#100=ADVANCED_FACE('',(#85),#50,.T.);
#101=ADVANCED_FACE('',(#122,#123),#51,.T.);
#102=ADVANCED_FACE('',(#124,#125),#52,.T.);
#103=ADVANCED_FACE('',(#126,#127),#43,.T.);
#104=ADVANCED_FACE('',(#128,#129),#44,.T.);
#105=ADVANCED_FACE('',(#130,#131),#117,.F.);
#106=ADVANCED_FACE('',(#132,#133),#53,.T.);
#107=ADVANCED_FACE('',(#134,#135),#75,.F.);
#108=ADVANCED_FACE('',(#136,#137),#76,.F.);
#109=ADVANCED_FACE('',(#86),#118,.F.);
#110=ADVANCED_FACE('',(#87),#119,.F.);
#111=ADVANCED_FACE('',(#88),#45,.T.);
#112=ADVANCED_FACE('',(#89),#46,.T.);
#113=ADVANCED_FACE('',(#90),#47,.T.);
#114=ADVANCED_FACE('',(#91),#77,.F.);
#115=ADVANCED_FACE('',(#92),#78,.F.);
#116=PLANE('',#361);
#117=PLANE('',#394);
#118=PLANE('',#399);
#119=PLANE('',#401);
#120=FACE_BOUND('',#138,.T.);
#121=FACE_BOUND('',#139,.T.);
#122=FACE_BOUND('',#147,.T.);
#123=FACE_BOUND('',#148,.T.);
#124=FACE_BOUND('',#149,.T.);
#125=FACE_BOUND('',#150,.T.);
#126=FACE_BOUND('',#151,.T.);
#127=FACE_BOUND('',#152,.T.);
#128=FACE_BOUND('',#153,.T.);
#129=FACE_BOUND('',#154,.T.);
#130=FACE_BOUND('',#155,.T.);
#131=FACE_BOUND('',#156,.T.);
#132=FACE_BOUND('',#157,.T.);
#133=FACE_BOUND('',#158,.T.);
#134=FACE_BOUND('',#159,.T.);
#135=FACE_BOUND('',#160,.T.);
#136=FACE_BOUND('',#161,.T.);
#137=FACE_BOUND('',#162,.T.);
#138=EDGE_LOOP('',(#170));
#139=EDGE_LOOP('',(#171,#172));
#140=EDGE_LOOP('',(#173,#174,#175,#176));
#141=EDGE_LOOP('',(#177,#178,#179,#180,#181,#182,#183));
#142=EDGE_LOOP('',(#184,#185,#186,#187));
#143=EDGE_LOOP('',(#188,#189,#190,#191));
#144=EDGE_LOOP('',(#192,#193,#194,#195));
#145=EDGE_LOOP('',(#196,#197,#198,#199));
#146=EDGE_LOOP('',(#200,#201,#202,#203));
#147=EDGE_LOOP('',(#204));
#148=EDGE_LOOP('',(#205));
#149=EDGE_LOOP('',(#206));
#150=EDGE_LOOP('',(#207));
#151=EDGE_LOOP('',(#208));
#152=EDGE_LOOP('',(#209));
#153=EDGE_LOOP('',(#210));
#154=EDGE_LOOP('',(#211));
#155=EDGE_LOOP('',(#212));
#156=EDGE_LOOP('',(#213));
#157=EDGE_LOOP('',(#214));
#158=EDGE_LOOP('',(#215));
#159=EDGE_LOOP('',(#216));
#160=EDGE_LOOP('',(#217));
#161=EDGE_LOOP('',(#218));
#162=EDGE_LOOP('',(#219));
#163=EDGE_LOOP('',(#220,#221));
#164=EDGE_LOOP('',(#222,#223));
#165=EDGE_LOOP('',(#224,#225,#226,#227));
#166=EDGE_LOOP('',(#228,#229,#230,#231));
#167=EDGE_LOOP('',(#232,#233,#234,#235));
#168=EDGE_LOOP('',(#236,#237,#238,#239));
#169=EDGE_LOOP('',(#240,#241,#242,#243));
#170=ORIENTED_EDGE('',*,*,#269,.T.);
#171=ORIENTED_EDGE('',*,*,#270,.T.);
#172=ORIENTED_EDGE('',*,*,#271,.T.);
#173=ORIENTED_EDGE('',*,*,#272,.F.);
#174=ORIENTED_EDGE('',*,*,#273,.T.);
#175=ORIENTED_EDGE('',*,*,#274,.F.);
#176=ORIENTED_EDGE('',*,*,#275,.F.);
#177=ORIENTED_EDGE('',*,*,#276,.T.);
#178=ORIENTED_EDGE('',*,*,#277,.T.);
#179=ORIENTED_EDGE('',*,*,#276,.F.);
#180=ORIENTED_EDGE('',*,*,#278,.T.);
#181=ORIENTED_EDGE('',*,*,#279,.T.);
#182=ORIENTED_EDGE('',*,*,#279,.F.);
#183=ORIENTED_EDGE('',*,*,#274,.T.);
#184=ORIENTED_EDGE('',*,*,#280,.T.);
#185=ORIENTED_EDGE('',*,*,#281,.T.);
#186=ORIENTED_EDGE('',*,*,#282,.T.);
#187=ORIENTED_EDGE('',*,*,#283,.F.);
#188=ORIENTED_EDGE('',*,*,#284,.T.);
#189=ORIENTED_EDGE('',*,*,#285,.F.);
#190=ORIENTED_EDGE('',*,*,#286,.F.);
#191=ORIENTED_EDGE('',*,*,#287,.T.);
#192=ORIENTED_EDGE('',*,*,#288,.T.);
#193=ORIENTED_EDGE('',*,*,#289,.T.);
#194=ORIENTED_EDGE('',*,*,#271,.F.);
#195=ORIENTED_EDGE('',*,*,#290,.F.);
#196=ORIENTED_EDGE('',*,*,#282,.F.);
#197=ORIENTED_EDGE('',*,*,#291,.T.);
#198=ORIENTED_EDGE('',*,*,#286,.T.);
#199=ORIENTED_EDGE('',*,*,#292,.F.);
#200=ORIENTED_EDGE('',*,*,#291,.F.);
#201=ORIENTED_EDGE('',*,*,#293,.F.);
#202=ORIENTED_EDGE('',*,*,#292,.T.);
#203=ORIENTED_EDGE('',*,*,#294,.T.);
#204=ORIENTED_EDGE('',*,*,#295,.T.);
#205=ORIENTED_EDGE('',*,*,#296,.T.);
#206=ORIENTED_EDGE('',*,*,#297,.T.);
#207=ORIENTED_EDGE('',*,*,#269,.F.);
#208=ORIENTED_EDGE('',*,*,#298,.T.);
#209=ORIENTED_EDGE('',*,*,#297,.F.);
#210=ORIENTED_EDGE('',*,*,#299,.T.);
#211=ORIENTED_EDGE('',*,*,#300,.F.);
#212=ORIENTED_EDGE('',*,*,#301,.F.);
#213=ORIENTED_EDGE('',*,*,#302,.T.);
#214=ORIENTED_EDGE('',*,*,#301,.T.);
#215=ORIENTED_EDGE('',*,*,#299,.F.);
#216=ORIENTED_EDGE('',*,*,#296,.F.);
#217=ORIENTED_EDGE('',*,*,#298,.F.);
#218=ORIENTED_EDGE('',*,*,#300,.T.);
#219=ORIENTED_EDGE('',*,*,#295,.F.);
#220=ORIENTED_EDGE('',*,*,#303,.F.);
#221=ORIENTED_EDGE('',*,*,#288,.F.);
#222=ORIENTED_EDGE('',*,*,#304,.F.);
#223=ORIENTED_EDGE('',*,*,#284,.F.);
#224=ORIENTED_EDGE('',*,*,#289,.F.);
#225=ORIENTED_EDGE('',*,*,#303,.T.);
#226=ORIENTED_EDGE('',*,*,#290,.T.);
#227=ORIENTED_EDGE('',*,*,#270,.F.);
#228=ORIENTED_EDGE('',*,*,#285,.T.);
#229=ORIENTED_EDGE('',*,*,#304,.T.);
#230=ORIENTED_EDGE('',*,*,#287,.F.);
#231=ORIENTED_EDGE('',*,*,#294,.F.);
#232=ORIENTED_EDGE('',*,*,#281,.F.);
#233=ORIENTED_EDGE('',*,*,#272,.T.);
#234=ORIENTED_EDGE('',*,*,#283,.T.);
#235=ORIENTED_EDGE('',*,*,#293,.T.);
#236=ORIENTED_EDGE('',*,*,#273,.F.);
#237=ORIENTED_EDGE('',*,*,#280,.F.);
#238=ORIENTED_EDGE('',*,*,#275,.T.);
#239=ORIENTED_EDGE('',*,*,#278,.F.);
#240=ORIENTED_EDGE('',*,*,#277,.F.);
#241=ORIENTED_EDGE('',*,*,#305,.F.);
#242=ORIENTED_EDGE('',*,*,#302,.F.);
#243=ORIENTED_EDGE('',*,*,#305,.T.);
#244=VERTEX_POINT('',#531);
#245=VERTEX_POINT('',#533);
#246=VERTEX_POINT('',#534);
#247=VERTEX_POINT('',#538);
#248=VERTEX_POINT('',#539);
#249=VERTEX_POINT('',#541);
#250=VERTEX_POINT('',#543);
#251=VERTEX_POINT('',#547);
#252=VERTEX_POINT('',#551);
#253=VERTEX_POINT('',#555);
#254=VERTEX_POINT('',#557);
#255=VERTEX_POINT('',#561);
#256=VERTEX_POINT('',#562);
#257=VERTEX_POINT('',#564);
#258=VERTEX_POINT('',#566);
#259=VERTEX_POINT('',#570);
#260=VERTEX_POINT('',#571);
#261=VERTEX_POINT('',#582);
#262=VERTEX_POINT('',#584);
#263=VERTEX_POINT('',#587);
#264=VERTEX_POINT('',#590);
#265=VERTEX_POINT('',#593);
#266=VERTEX_POINT('',#595);
#267=VERTEX_POINT('',#598);
#268=VERTEX_POINT('',#600);
#269=EDGE_CURVE('',#244,#244,#306,.T.);
#270=EDGE_CURVE('',#245,#246,#307,.T.);
#271=EDGE_CURVE('',#246,#245,#308,.T.);
#272=EDGE_CURVE('',#247,#248,#309,.T.);
#273=EDGE_CURVE('',#247,#249,#310,.T.);
#274=EDGE_CURVE('',#250,#249,#311,.T.);
#275=EDGE_CURVE('',#248,#250,#312,.T.);
#276=EDGE_CURVE('',#249,#251,#54,.T.);
#277=EDGE_CURVE('',#251,#251,#313,.T.);
#278=EDGE_CURVE('',#249,#250,#314,.T.);
#279=EDGE_CURVE('',#250,#252,#55,.T.);
#280=EDGE_CURVE('',#248,#247,#315,.T.);
#281=EDGE_CURVE('',#247,#253,#56,.T.);
#282=EDGE_CURVE('',#253,#254,#316,.T.);
#283=EDGE_CURVE('',#248,#254,#57,.T.);
#284=EDGE_CURVE('',#255,#256,#317,.T.);
#285=EDGE_CURVE('',#257,#256,#58,.T.);
#286=EDGE_CURVE('',#258,#257,#318,.T.);
#287=EDGE_CURVE('',#258,#255,#59,.T.);
#288=EDGE_CURVE('',#259,#260,#319,.T.);
#289=EDGE_CURVE('',#260,#245,#60,.T.);
#290=EDGE_CURVE('',#259,#246,#61,.T.);
#291=EDGE_CURVE('',#253,#258,#62,.T.);
#292=EDGE_CURVE('',#254,#257,#63,.T.);
#293=EDGE_CURVE('',#254,#253,#320,.T.);
#294=EDGE_CURVE('',#257,#258,#321,.T.);
#295=EDGE_CURVE('',#261,#261,#322,.T.);
#296=EDGE_CURVE('',#262,#262,#323,.T.);
#297=EDGE_CURVE('',#263,#263,#324,.T.);
#298=EDGE_CURVE('',#264,#264,#325,.T.);
#299=EDGE_CURVE('',#265,#265,#326,.T.);
#300=EDGE_CURVE('',#266,#266,#327,.T.);
#301=EDGE_CURVE('',#267,#267,#328,.T.);
#302=EDGE_CURVE('',#268,#268,#329,.T.);
#303=EDGE_CURVE('',#260,#259,#330,.T.);
#304=EDGE_CURVE('',#256,#255,#331,.T.);
#305=EDGE_CURVE('',#268,#251,#332,.T.);
#306=CIRCLE('',#358,31.775);
#307=CIRCLE('',#359,22.6916641016626);
#308=CIRCLE('',#360,22.6916641016626);
#309=CIRCLE('',#362,24.1464466094067);
#310=CIRCLE('',#363,0.5);
#311=CIRCLE('',#364,24.);
#312=CIRCLE('',#365,0.5);
#313=CIRCLE('',#367,24.);
#314=CIRCLE('',#368,24.);
#315=CIRCLE('',#370,24.1464466094067);
#316=CIRCLE('',#371,26.);
#317=CIRCLE('',#373,20.);
#318=CIRCLE('',#374,26.);
#319=CIRCLE('',#376,12.2500548269627);
#320=CIRCLE('',#379,26.);
#321=CIRCLE('',#380,26.);
#322=CIRCLE('',#382,28.125);
#323=CIRCLE('',#383,28.125);
#324=CIRCLE('',#385,31.775);
#325=CIRCLE('',#387,28.8725952641916);
#326=CIRCLE('',#389,31.775);
#327=CIRCLE('',#390,28.8725952641916);
#328=CIRCLE('',#392,31.775);
#329=CIRCLE('',#393,24.5);
#330=CIRCLE('',#398,12.2500548269627);
#331=CIRCLE('',#400,20.);
#332=CIRCLE('',#406,0.5);
#333=INVISIBILITY((#334,#335,#336,#337));
#334=PRESENTATION_LAYER_ASSIGNMENT('100','Layer 100',(#355));
#335=PRESENTATION_LAYER_ASSIGNMENT('101','Layer 101',(#356));
#336=PRESENTATION_LAYER_ASSIGNMENT('102','Layer 102',(#357));
#337=PRESENTATION_LAYER_ASSIGNMENT('98','Layer 98',(#38));
#338=STYLED_ITEM('',(#342),#355);
#339=STYLED_ITEM('',(#343),#356);
#340=STYLED_ITEM('',(#344),#357);
#341=STYLED_ITEM('',(#345),#38);
#342=PRESENTATION_STYLE_ASSIGNMENT((#346));
#343=PRESENTATION_STYLE_ASSIGNMENT((#347));
#344=PRESENTATION_STYLE_ASSIGNMENT((#348));
#345=PRESENTATION_STYLE_ASSIGNMENT((#33));
#346=CURVE_STYLE('',#351,POSITIVE_LENGTH_MEASURE(0.7),#349);
#347=CURVE_STYLE('',#352,POSITIVE_LENGTH_MEASURE(0.7),#349);
#348=CURVE_STYLE('',#353,POSITIVE_LENGTH_MEASURE(0.7),#349);
#349=COLOUR_RGB('Medium Maroon',0.6,0.4,0.4);
#350=COLOUR_RGB('Medium Gray',0.490196078431373,0.490196078431373,0.490196078431373);
#351=DRAUGHTING_PRE_DEFINED_CURVE_FONT('continuous');
#352=DRAUGHTING_PRE_DEFINED_CURVE_FONT('continuous');
#353=DRAUGHTING_PRE_DEFINED_CURVE_FONT('continuous');
#354=AXIS2_PLACEMENT_3D('',#526,#408,#409);
#355=AXIS2_PLACEMENT_3D('PCS',#527,#410,#411);
#356=AXIS2_PLACEMENT_3D('CSW',#528,#412,#413);
#357=AXIS2_PLACEMENT_3D('MCS',#529,#414,#415);
#358=AXIS2_PLACEMENT_3D('',#530,#416,#417);
#359=AXIS2_PLACEMENT_3D('',#532,#418,#419);
#360=AXIS2_PLACEMENT_3D('',#535,#420,#421);
#361=AXIS2_PLACEMENT_3D('',#536,#422,#423);
#362=AXIS2_PLACEMENT_3D('',#537,#424,#425);
#363=AXIS2_PLACEMENT_3D('',#540,#426,#427);
#364=AXIS2_PLACEMENT_3D('',#542,#428,#429);
#365=AXIS2_PLACEMENT_3D('',#544,#430,#431);
#366=AXIS2_PLACEMENT_3D('',#545,#432,#433);
#367=AXIS2_PLACEMENT_3D('',#548,#435,#436);
#368=AXIS2_PLACEMENT_3D('',#549,#437,#438);
#369=AXIS2_PLACEMENT_3D('',#552,#440,#441);
#370=AXIS2_PLACEMENT_3D('',#553,#442,#443);
#371=AXIS2_PLACEMENT_3D('',#556,#445,#446);
#372=AXIS2_PLACEMENT_3D('',#559,#448,#449);
#373=AXIS2_PLACEMENT_3D('',#560,#450,#451);
#374=AXIS2_PLACEMENT_3D('',#565,#453,#454);
#375=AXIS2_PLACEMENT_3D('',#568,#456,#457);
#376=AXIS2_PLACEMENT_3D('',#569,#458,#459);
#377=AXIS2_PLACEMENT_3D('',#574,#462,#463);
#378=AXIS2_PLACEMENT_3D('',#577,#466,#467);
#379=AXIS2_PLACEMENT_3D('',#578,#468,#469);
#380=AXIS2_PLACEMENT_3D('',#579,#470,#471);
#381=AXIS2_PLACEMENT_3D('',#580,#472,#473);
#382=AXIS2_PLACEMENT_3D('',#581,#474,#475);
#383=AXIS2_PLACEMENT_3D('',#583,#476,#477);
#384=AXIS2_PLACEMENT_3D('',#585,#478,#479);
#385=AXIS2_PLACEMENT_3D('',#586,#480,#481);
#386=AXIS2_PLACEMENT_3D('',#588,#482,#483);
#387=AXIS2_PLACEMENT_3D('',#589,#484,#485);
#388=AXIS2_PLACEMENT_3D('',#591,#486,#487);
#389=AXIS2_PLACEMENT_3D('',#592,#488,#489);
#390=AXIS2_PLACEMENT_3D('',#594,#490,#491);
#391=AXIS2_PLACEMENT_3D('',#596,#492,#493);
#392=AXIS2_PLACEMENT_3D('',#597,#494,#495);
#393=AXIS2_PLACEMENT_3D('',#599,#496,#497);
#394=AXIS2_PLACEMENT_3D('',#601,#498,#499);
#395=AXIS2_PLACEMENT_3D('',#602,#500,#501);
#396=AXIS2_PLACEMENT_3D('',#603,#502,#503);
#397=AXIS2_PLACEMENT_3D('',#604,#504,#505);
#398=AXIS2_PLACEMENT_3D('',#605,#506,#507);
#399=AXIS2_PLACEMENT_3D('',#606,#508,#509);
#400=AXIS2_PLACEMENT_3D('',#607,#510,#511);
#401=AXIS2_PLACEMENT_3D('',#608,#512,#513);
#402=AXIS2_PLACEMENT_3D('',#609,#514,#515);
#403=AXIS2_PLACEMENT_3D('',#610,#516,#517);
#404=AXIS2_PLACEMENT_3D('',#611,#518,#519);
#405=AXIS2_PLACEMENT_3D('',#612,#520,#521);
#406=AXIS2_PLACEMENT_3D('',#613,#522,#523);
#407=AXIS2_PLACEMENT_3D('',#614,#524,#525);
#408=DIRECTION('',(0.,0.,1.));
#409=DIRECTION('',(1.,0.,0.));
#410=DIRECTION('',(0.,0.,1.));
#411=DIRECTION('',(1.,0.,0.));
#412=DIRECTION('',(0.,0.,1.));
#413=DIRECTION('',(1.,0.,0.));
#414=DIRECTION('',(0.,0.,1.));
#415=DIRECTION('',(1.,0.,0.));
#416=DIRECTION('',(0.,0.,1.));
#417=DIRECTION('',(-1.,0.,0.));
#418=DIRECTION('',(0.,0.,-1.));
#419=DIRECTION('',(-1.,0.,0.));
#420=DIRECTION('',(0.,0.,-1.));
#421=DIRECTION('',(-1.,0.,0.));
#422=DIRECTION('',(0.,0.,-1.));
#423=DIRECTION('',(-1.,0.,0.));
#424=DIRECTION('',(0.,0.,-1.));
#425=DIRECTION('',(-1.,0.,0.));
#426=DIRECTION('',(1.22464679914735E-16,-1.,0.));
#427=DIRECTION('',(-1.,-1.22464679914735E-16,0.));
#428=DIRECTION('',(0.,0.,1.));
#429=DIRECTION('',(1.,0.,0.));
#430=DIRECTION('',(0.,1.,0.));
#431=DIRECTION('',(1.,0.,0.));
#432=DIRECTION('',(0.,0.,-1.));
#433=DIRECTION('',(-1.,0.,0.));
#434=DIRECTION('',(0.,0.,1.));
#435=DIRECTION('',(0.,0.,-1.));
#436=DIRECTION('',(-1.,0.,0.));
#437=DIRECTION('',(0.,0.,1.));
#438=DIRECTION('',(1.,0.,0.));
#439=DIRECTION('',(0.,0.,1.));
#440=DIRECTION('',(0.,0.,1.));
#441=DIRECTION('',(1.,0.,0.));
#442=DIRECTION('',(0.,0.,-1.));
#443=DIRECTION('',(-1.,0.,0.));
#444=DIRECTION('',(-0.707106781186547,-8.65956056235492E-17,-0.707106781186548));
#445=DIRECTION('',(0.,0.,1.));
#446=DIRECTION('',(-1.,0.,0.));
#447=DIRECTION('',(0.707106781186547,0.,-0.707106781186548));
#448=DIRECTION('',(0.,0.,-1.));
#449=DIRECTION('',(-1.,0.,4.05783269234342E-17));
#450=DIRECTION('',(0.,0.,1.));
#451=DIRECTION('',(1.,0.,0.));
#452=DIRECTION('',(-0.422618261740697,5.17558101501962E-17,-0.906307787036651));
#453=DIRECTION('',(0.,0.,1.));
#454=DIRECTION('',(1.,0.,0.));
#455=DIRECTION('',(0.422618261740697,0.,-0.906307787036651));
#456=DIRECTION('',(0.,0.,1.));
#457=DIRECTION('',(1.,0.,2.85370538075947E-17));
#458=DIRECTION('',(0.,0.,-1.));
#459=DIRECTION('',(-1.,0.,0.));
#460=DIRECTION('',(-0.144306116415227,-1.76724023565294E-17,-0.989533094325377));
#461=DIRECTION('',(0.144306116415227,0.,-0.989533094325377));
#462=DIRECTION('',(0.,0.,-1.));
#463=DIRECTION('',(-1.,0.,5.76442534868639E-16));
#464=DIRECTION('',(0.,0.,-1.));
#465=DIRECTION('',(0.,0.,-1.));
#466=DIRECTION('',(0.,0.,-1.));
#467=DIRECTION('',(-1.,0.,0.));
#468=DIRECTION('',(0.,0.,1.));
#469=DIRECTION('',(-1.,0.,0.));
#470=DIRECTION('',(0.,0.,1.));
#471=DIRECTION('',(1.,0.,0.));
#472=DIRECTION('',(0.,0.,-1.));
#473=DIRECTION('',(-1.,0.,0.));
#474=DIRECTION('',(0.,0.,1.));
#475=DIRECTION('',(1.,-1.33226762955019E-14,0.));
#476=DIRECTION('',(0.,0.,-1.));
#477=DIRECTION('',(-1.,0.,0.));
#478=DIRECTION('',(0.,0.,1.));
#479=DIRECTION('',(1.,0.,0.));
#480=DIRECTION('',(0.,0.,1.));
#481=DIRECTION('',(-1.,0.,0.));
#482=DIRECTION('',(0.,0.,1.));
#483=DIRECTION('',(1.,0.,0.));
#484=DIRECTION('',(0.,0.,1.));
#485=DIRECTION('',(-1.,0.,0.));
#486=DIRECTION('',(0.,0.,1.));
#487=DIRECTION('',(1.,0.,-3.1472014409274E-17));
#488=DIRECTION('',(0.,0.,1.));
#489=DIRECTION('',(-1.,0.,0.));
#490=DIRECTION('',(0.,0.,1.));
#491=DIRECTION('',(-1.,0.,0.));
#492=DIRECTION('',(0.,0.,-1.));
#493=DIRECTION('',(-1.,0.,3.94048593638064E-18));
#494=DIRECTION('',(0.,0.,1.));
#495=DIRECTION('',(1.,0.,0.));
#496=DIRECTION('',(0.,0.,1.));
#497=DIRECTION('',(-1.,0.,0.));
#498=DIRECTION('',(0.,0.,1.));
#499=DIRECTION('',(1.,0.,0.));
#500=DIRECTION('',(0.,0.,1.));
#501=DIRECTION('',(1.,0.,0.));
#502=DIRECTION('',(0.,0.,1.));
#503=DIRECTION('',(1.,0.,0.));
#504=DIRECTION('',(0.,0.,-1.));
#505=DIRECTION('',(-1.,0.,0.));
#506=DIRECTION('',(0.,0.,-1.));
#507=DIRECTION('',(-1.,0.,0.));
#508=DIRECTION('',(0.,0.,-1.));
#509=DIRECTION('',(-1.,0.,0.));
#510=DIRECTION('',(0.,0.,1.));
#511=DIRECTION('',(1.,0.,0.));
#512=DIRECTION('',(0.,0.,1.));
#513=DIRECTION('',(1.,0.,0.));
#514=DIRECTION('',(0.,0.,-1.));
#515=DIRECTION('',(-1.,0.,5.76442534868639E-16));
#516=DIRECTION('',(0.,0.,1.));
#517=DIRECTION('',(1.,0.,2.85370538075947E-17));
#518=DIRECTION('',(0.,0.,-1.));
#519=DIRECTION('',(-1.,0.,4.05783269234342E-17));
#520=DIRECTION('',(0.,0.,-1.));
#521=DIRECTION('',(-1.,0.,0.));
#522=DIRECTION('',(0.,1.,0.));
#523=DIRECTION('',(1.,0.,0.));
#524=DIRECTION('',(0.,0.,1.));
#525=DIRECTION('',(1.,0.,0.));
#526=CARTESIAN_POINT('',(0.,0.,0.));
#527=CARTESIAN_POINT('',(0.,0.,0.));
#528=CARTESIAN_POINT('',(0.,0.,-100.));
#529=CARTESIAN_POINT('',(0.,0.,0.));
#530=CARTESIAN_POINT('',(0.00794083348505628,6.93889390390723E-15,-3.19999999999997));
#531=CARTESIAN_POINT('',(-31.7670591665149,6.93889390390723E-15,-3.19999999999997));
#532=CARTESIAN_POINT('',(0.00794083348505628,6.93889390390723E-15,-3.19999999999997));
#533=CARTESIAN_POINT('',(-22.6837232681775,6.93889390390723E-15,-3.19999999999997));
#534=CARTESIAN_POINT('',(22.6996049351476,9.71782128485002E-15,-3.19999999999997));
#535=CARTESIAN_POINT('',(0.00794083348505628,6.93889390390723E-15,-3.19999999999997));
#536=CARTESIAN_POINT('',(0.00794083348505628,-22.6916641016626,-3.19999999999997));
#537=CARTESIAN_POINT('',(0.00794083348505628,6.93889390390723E-15,-35.1464466094067));
#538=CARTESIAN_POINT('',(-24.1385057759217,3.46944695195361E-15,-35.1464466094067));
#539=CARTESIAN_POINT('',(24.1543874428918,6.93889390390723E-15,-35.1464466094067));
#540=CARTESIAN_POINT('',(-24.4920591665149,3.46944695195361E-15,-34.7928932188134));
#541=CARTESIAN_POINT('',(-23.9920591665149,6.93889390390723E-15,-34.7928932188134));
#542=CARTESIAN_POINT('',(0.00794083348505628,6.93889390390723E-15,-34.7928932188134));
#543=CARTESIAN_POINT('',(24.0079408334851,3.46944695195361E-15,-34.7928932188134));
#544=CARTESIAN_POINT('',(24.5079408334851,6.93889390390723E-15,-34.7928932188134));
#545=CARTESIAN_POINT('',(0.00794083348505628,6.93889390390723E-15,-34.7928932188134));
#546=CARTESIAN_POINT('',(-23.9920591665149,6.93889390390723E-15,82.6493200682369));
#547=CARTESIAN_POINT('',(-23.9920591665149,6.93889390390723E-15,-19.6));
#548=CARTESIAN_POINT('',(0.00794083348505628,6.93889390390723E-15,-19.6));
#549=CARTESIAN_POINT('',(0.00794083348505628,6.93889390390723E-15,-34.7928932188134));
#550=CARTESIAN_POINT('',(24.0079408334851,3.46944695195361E-15,82.6493200682369));
#551=CARTESIAN_POINT('',(24.0079408334851,6.93889390390723E-15,-27.2));
#552=CARTESIAN_POINT('',(0.00794083348505628,6.93889390390723E-15,82.6493200682369));
#553=CARTESIAN_POINT('',(0.00794083348505628,6.93889390390723E-15,-35.1464466094067));
#554=CARTESIAN_POINT('',(-25.9920591665149,3.46944695195361E-15,-37.));
#555=CARTESIAN_POINT('',(-25.9920591665149,3.45962990230868E-15,-37.));
#556=CARTESIAN_POINT('',(0.00794083348505628,6.93889390390723E-15,-37.));
#557=CARTESIAN_POINT('',(26.0079408334851,6.93889390390723E-15,-37.));
#558=CARTESIAN_POINT('',(26.007940833485,6.93889390390723E-15,-37.));
#559=CARTESIAN_POINT('',(0.00794083348505628,6.93889390390723E-15,-37.));
#560=CARTESIAN_POINT('',(0.00794083348505628,6.93889390390723E-15,-100.));
#561=CARTESIAN_POINT('',(-19.9920591665149,6.93889390390723E-15,-100.));
#562=CARTESIAN_POINT('',(20.0079408334851,3.46944695195361E-15,-100.));
#563=CARTESIAN_POINT('',(20.0079408334851,3.46944695195361E-15,-100.));
#564=CARTESIAN_POINT('',(26.0079408334851,4.83677638818622E-15,-87.1329584769425));
#565=CARTESIAN_POINT('',(0.00794083348505628,6.93889390390723E-15,-87.1329584769425));
#566=CARTESIAN_POINT('',(-25.9920591665149,5.20417042793042E-15,-87.1329584769425));
#567=CARTESIAN_POINT('',(-19.9920591665149,6.93889390390723E-15,-100.));
#568=CARTESIAN_POINT('',(0.00794083348505628,6.93889390390723E-15,-100.));
#569=CARTESIAN_POINT('',(0.00794083348505628,6.93889390390723E-15,68.4));
#570=CARTESIAN_POINT('',(12.2579956604478,6.93889390390723E-15,68.4));
#571=CARTESIAN_POINT('',(-12.2421139934777,4.74817528957446E-15,68.4));
#572=CARTESIAN_POINT('',(-22.6837232681775,3.46944695195361E-15,-3.19999999999997));
#573=CARTESIAN_POINT('',(22.6996049351476,6.93889390390723E-15,-3.19999999999997));
#574=CARTESIAN_POINT('',(0.00794083348505628,6.93889390390723E-15,-3.19999999999997));
#575=CARTESIAN_POINT('',(-25.9920591665149,3.46944695195361E-15,-100.));
#576=CARTESIAN_POINT('',(26.0079408334851,6.93889390390723E-15,-100.));
#577=CARTESIAN_POINT('',(0.00794083348505628,6.93889390390723E-15,-100.));
#578=CARTESIAN_POINT('',(0.00794083348505628,6.93889390390723E-15,-37.));
#579=CARTESIAN_POINT('',(0.00794083348505628,6.93889390390723E-15,-87.1329584769425));
#580=CARTESIAN_POINT('',(0.00794083348505628,6.93889390390723E-15,-100.));
#581=CARTESIAN_POINT('',(0.00794083348505628,6.93889390390723E-15,-12.0073782508947));
#582=CARTESIAN_POINT('',(28.1329408334851,-3.67761376907083E-13,-12.0073782508947));
#583=CARTESIAN_POINT('',(0.00794083348505628,6.93889390390723E-15,-10.1926217491052));
#584=CARTESIAN_POINT('',(-28.1170591665149,6.93889390390723E-15,-10.1926217491052));
#585=CARTESIAN_POINT('',(0.00794083348505628,6.93889390390723E-15,-3.19999999999997));
#586=CARTESIAN_POINT('',(0.00794083348505628,6.93889390390723E-15,-7.54929584448377));
#587=CARTESIAN_POINT('',(-31.7670591665149,6.93889390390723E-15,-7.54929584448377));
#588=CARTESIAN_POINT('',(0.00794083348505628,6.93889390390723E-15,82.6493200682369));
#589=CARTESIAN_POINT('',(0.00794083348505628,6.93889390390723E-15,-9.22499999999997));
#590=CARTESIAN_POINT('',(-28.8646544307066,6.93889390390723E-15,-9.22499999999997));
#591=CARTESIAN_POINT('',(0.00794083348505628,6.93889390390723E-15,-7.54929584448377));
#592=CARTESIAN_POINT('',(0.00794083348505628,6.93889390390723E-15,-14.6507041555162));
#593=CARTESIAN_POINT('',(-31.7670591665149,6.93889390390723E-15,-14.6507041555162));
#594=CARTESIAN_POINT('',(0.00794083348505628,6.93889390390723E-15,-12.975));
#595=CARTESIAN_POINT('',(-28.8646544307066,6.93889390390723E-15,-12.975));
#596=CARTESIAN_POINT('',(0.00794083348505628,6.93889390390723E-15,-12.975));
#597=CARTESIAN_POINT('',(0.00794083348505628,6.93889390390723E-15,-19.1));
#598=CARTESIAN_POINT('',(31.7829408334851,6.93889390390723E-15,-19.1));
#599=CARTESIAN_POINT('',(0.00794083348505628,6.93889390390723E-15,-19.1));
#600=CARTESIAN_POINT('',(-24.4920591665149,6.93889390390723E-15,-19.1));
#601=CARTESIAN_POINT('',(0.00794083348505628,-31.775,-19.1));
#602=CARTESIAN_POINT('',(0.00794083348505628,6.93889390390723E-15,82.6493200682369));
#603=CARTESIAN_POINT('',(0.00794083348505628,6.93889390390723E-15,-10.1926217491052));
#604=CARTESIAN_POINT('',(0.00794083348505628,6.93889390390723E-15,-12.0073782508947));
#605=CARTESIAN_POINT('',(0.00794083348505628,6.93889390390723E-15,68.4));
#606=CARTESIAN_POINT('',(0.00794083348505628,6.93889390390723E-15,68.4));
#607=CARTESIAN_POINT('',(0.00794083348505628,6.93889390390723E-15,-100.));
#608=CARTESIAN_POINT('',(0.00794083348505628,-20.,-100.));
#609=CARTESIAN_POINT('',(0.00794083348505628,6.93889390390723E-15,-3.19999999999997));
#610=CARTESIAN_POINT('',(0.00794083348505628,6.93889390390723E-15,-100.));
#611=CARTESIAN_POINT('',(0.00794083348505628,6.93889390390723E-15,-37.));
#612=CARTESIAN_POINT('',(0.00794083348505628,6.93889390390723E-15,-34.7928932188134));
#613=CARTESIAN_POINT('',(-24.4920591665149,6.93889390390723E-15,-19.6));
#614=CARTESIAN_POINT('',(0.00794083348505628,6.93889390390723E-15,-19.6));
#615=MECHANICAL_DESIGN_GEOMETRIC_PRESENTATION_REPRESENTATION('',(#338,#339,
#340,#341),#616);
#616=(
GEOMETRIC_REPRESENTATION_CONTEXT(3)
GLOBAL_UNCERTAINTY_ASSIGNED_CONTEXT((#617))
GLOBAL_UNIT_ASSIGNED_CONTEXT((#623,#619,#618))
REPRESENTATION_CONTEXT('69871.40ADB-W.20','TOP_LEVEL_ASSEMBLY_PART')
);
#617=UNCERTAINTY_MEASURE_WITH_UNIT(LENGTH_MEASURE(2.E-5),#623,
'DISTANCE_ACCURACY_VALUE','Maximum Tolerance applied to model');
#618=(
NAMED_UNIT(*)
SI_UNIT($,.STERADIAN.)
SOLID_ANGLE_UNIT()
);
#619=(
CONVERSION_BASED_UNIT('DEGREE',#621)
NAMED_UNIT(#620)
PLANE_ANGLE_UNIT()
);
#620=DIMENSIONAL_EXPONENTS(0.,0.,0.,0.,0.,0.,0.);
#621=PLANE_ANGLE_MEASURE_WITH_UNIT(PLANE_ANGLE_MEASURE(0.0174532925),#622);
#622=(
NAMED_UNIT(*)
PLANE_ANGLE_UNIT()
SI_UNIT($,.RADIAN.)
);
#623=(
LENGTH_UNIT()
NAMED_UNIT(*)
SI_UNIT(.MILLI.,.METRE.)
);
ENDSEC;
END-ISO-10303-21;
