ISO-10303-21;
HEADER;
/* Generated by software containing ST-Developer
 * from STEP Tools, Inc. (www.steptools.com) 
 */
/* OPTION: using custom schema-name function */

FILE_DESCRIPTION(
/* description */ (''),
/* implementation_level */ '2;1');

FILE_NAME(
/* name */ '69871.40ADB-W.10.100.C.stp',
/* time_stamp */ '2024-07-30T10:07:20+02:00',
/* author */ (''),
/* organization */ (''),
/* preprocessor_version */ 'ST-DEVELOPER v16.7',
/* originating_system */ 'SIEMENS PLM Software NX 12.0',
/* authorisation */ '');

FILE_SCHEMA (('AUTOMOTIVE_DESIGN { 1 0 10303 214 3 1 1 1 }'));
ENDSEC;

DATA;
#10=CONSTRUCTIVE_GEOMETRY_REPRESENTATION_RELATIONSHIP(
'supplemental geometry','',#32,#11);
#11=CONSTRUCTIVE_GEOMETRY_REPRESENTATION('supplemental geometry',(#286,
#287,#288),#490);
#12=PROPERTY_DEFINITION_REPRESENTATION(#16,#14);
#13=PROPERTY_DEFINITION_REPRESENTATION(#17,#15);
#14=REPRESENTATION('',(#18),#490);
#15=REPRESENTATION('',(#19),#490);
#16=PROPERTY_DEFINITION('pmi validation property','',#23);
#17=PROPERTY_DEFINITION('pmi validation property','',#23);
#18=VALUE_REPRESENTATION_ITEM('number of annotations',COUNT_MEASURE(0.));
#19=VALUE_REPRESENTATION_ITEM('number of views',COUNT_MEASURE(0.));
#20=SHAPE_REPRESENTATION_RELATIONSHIP('None',
'relationship between pf663AEC53C0f3mz-None and pf663AEC53C0f3mz-None',
#32,#21);
#21=ADVANCED_BREP_SHAPE_REPRESENTATION('pf663AEC53C0f3mz-None',(#38),#490);
#22=SHAPE_DEFINITION_REPRESENTATION(#23,#32);
#23=PRODUCT_DEFINITION_SHAPE('','',#24);
#24=PRODUCT_DEFINITION(' ','',#26,#25);
#25=PRODUCT_DEFINITION_CONTEXT('part definition',#31,'design');
#26=PRODUCT_DEFINITION_FORMATION_WITH_SPECIFIED_SOURCE(' ',' ',#28,
 .NOT_KNOWN.);
#27=PRODUCT_RELATED_PRODUCT_CATEGORY('part','',(#28));
#28=PRODUCT('pf663AEC53C0f3mz','pf663AEC53C0f3mz',' ',(#29));
#29=PRODUCT_CONTEXT(' ',#31,'mechanical');
#30=APPLICATION_PROTOCOL_DEFINITION('international standard',
'automotive_design',2010,#31);
#31=APPLICATION_CONTEXT(
'core data for automotive mechanical design processes');
#32=SHAPE_REPRESENTATION('pf663AEC53C0f3mz-None',(#285),#490);
#33=SURFACE_STYLE_USAGE(.BOTH.,#34);
#34=SURFACE_SIDE_STYLE('',(#35));
#35=SURFACE_STYLE_FILL_AREA(#36);
#36=FILL_AREA_STYLE('',(#37));
#37=FILL_AREA_STYLE_COLOUR('',#281);
#38=MANIFOLD_SOLID_BREP('\X\B6\X2\011800A800A4\X0\11',#39);
#39=CLOSED_SHELL('',(#75,#76,#77,#78,#79,#80,#81,#82,#83,#84,#85,#86,#87,
#88,#89,#90,#91,#92));
#40=TOROIDAL_SURFACE('',#305,29.125,1.);
#41=TOROIDAL_SURFACE('',#316,29.125,1.);
#42=TOROIDAL_SURFACE('',#322,22.5,5.);
#43=CYLINDRICAL_SURFACE('',#297,17.5);
#44=CYLINDRICAL_SURFACE('',#300,17.5);
#45=CYLINDRICAL_SURFACE('',#303,28.125);
#46=CYLINDRICAL_SURFACE('',#311,31.775);
#47=CYLINDRICAL_SURFACE('',#313,31.775);
#48=CONICAL_SURFACE('',#295,12.5,24.9999999999999);
#49=CONICAL_SURFACE('',#307,28.8725952641916,59.9999999999999);
#50=CONICAL_SURFACE('',#315,31.775,60.0000000000003);
#51=CONICAL_SURFACE('',#319,12.5,24.9999999999999);
#52=CONICAL_SURFACE('',#324,22.6916641016626,8.29709999999963);
#53=CONICAL_SURFACE('',#326,22.6916641016626,8.29709999999963);
#54=FACE_OUTER_BOUND('',#117,.T.);
#55=FACE_OUTER_BOUND('',#118,.T.);
#56=FACE_OUTER_BOUND('',#119,.T.);
#57=FACE_OUTER_BOUND('',#136,.T.);
#58=FACE_OUTER_BOUND('',#137,.T.);
#59=FACE_OUTER_BOUND('',#138,.T.);
#60=FACE_OUTER_BOUND('',#139,.T.);
#61=FACE_OUTER_BOUND('',#140,.T.);
#62=FACE_OUTER_BOUND('',#141,.T.);
#63=LINE('',#434,#69);
#64=LINE('',#438,#70);
#65=LINE('',#440,#71);
#66=LINE('',#444,#72);
#67=LINE('',#483,#73);
#68=LINE('',#484,#74);
#69=VECTOR('',#346,1.);
#70=VECTOR('',#349,1.);
#71=VECTOR('',#352,1.);
#72=VECTOR('',#355,1.);
#73=VECTOR('',#410,1.);
#74=VECTOR('',#411,1.);
#75=ADVANCED_FACE('',(#97,#98),#93,.F.);
#76=ADVANCED_FACE('',(#54),#48,.T.);
#77=ADVANCED_FACE('',(#55),#43,.T.);
#78=ADVANCED_FACE('',(#56),#44,.T.);
#79=ADVANCED_FACE('',(#99,#100),#45,.T.);
#80=ADVANCED_FACE('',(#101,#102),#40,.F.);
#81=ADVANCED_FACE('',(#103,#104),#49,.T.);
#82=ADVANCED_FACE('',(#105,#106),#94,.F.);
#83=ADVANCED_FACE('',(#107,#108),#46,.T.);
#84=ADVANCED_FACE('',(#109,#110),#47,.T.);
#85=ADVANCED_FACE('',(#111,#112),#50,.T.);
#86=ADVANCED_FACE('',(#113,#114),#41,.F.);
#87=ADVANCED_FACE('',(#57),#95,.F.);
#88=ADVANCED_FACE('',(#58),#51,.T.);
#89=ADVANCED_FACE('',(#59),#42,.F.);
#90=ADVANCED_FACE('',(#60),#52,.T.);
#91=ADVANCED_FACE('',(#61),#53,.T.);
#92=ADVANCED_FACE('',(#62),#96,.F.);
#93=PLANE('',#292);
#94=PLANE('',#310);
#95=PLANE('',#318);
#96=PLANE('',#327);
#97=FACE_BOUND('',#115,.T.);
#98=FACE_BOUND('',#116,.T.);
#99=FACE_BOUND('',#120,.T.);
#100=FACE_BOUND('',#121,.T.);
#101=FACE_BOUND('',#122,.T.);
#102=FACE_BOUND('',#123,.T.);
#103=FACE_BOUND('',#124,.T.);
#104=FACE_BOUND('',#125,.T.);
#105=FACE_BOUND('',#126,.T.);
#106=FACE_BOUND('',#127,.T.);
#107=FACE_BOUND('',#128,.T.);
#108=FACE_BOUND('',#129,.T.);
#109=FACE_BOUND('',#130,.T.);
#110=FACE_BOUND('',#131,.T.);
#111=FACE_BOUND('',#132,.T.);
#112=FACE_BOUND('',#133,.T.);
#113=FACE_BOUND('',#134,.T.);
#114=FACE_BOUND('',#135,.T.);
#115=EDGE_LOOP('',(#142));
#116=EDGE_LOOP('',(#143,#144));
#117=EDGE_LOOP('',(#145,#146,#147,#148));
#118=EDGE_LOOP('',(#149,#150,#151,#152));
#119=EDGE_LOOP('',(#153,#154,#155,#156));
#120=EDGE_LOOP('',(#157));
#121=EDGE_LOOP('',(#158));
#122=EDGE_LOOP('',(#159));
#123=EDGE_LOOP('',(#160));
#124=EDGE_LOOP('',(#161));
#125=EDGE_LOOP('',(#162));
#126=EDGE_LOOP('',(#163));
#127=EDGE_LOOP('',(#164));
#128=EDGE_LOOP('',(#165));
#129=EDGE_LOOP('',(#166));
#130=EDGE_LOOP('',(#167));
#131=EDGE_LOOP('',(#168));
#132=EDGE_LOOP('',(#169));
#133=EDGE_LOOP('',(#170));
#134=EDGE_LOOP('',(#171));
#135=EDGE_LOOP('',(#172));
#136=EDGE_LOOP('',(#173,#174));
#137=EDGE_LOOP('',(#175,#176,#177,#178));
#138=EDGE_LOOP('',(#179,#180,#181,#182,#183,#184,#185));
#139=EDGE_LOOP('',(#186,#187,#188,#189));
#140=EDGE_LOOP('',(#190,#191,#192,#193));
#141=EDGE_LOOP('',(#194,#195));
#142=ORIENTED_EDGE('',*,*,#216,.F.);
#143=ORIENTED_EDGE('',*,*,#217,.T.);
#144=ORIENTED_EDGE('',*,*,#218,.T.);
#145=ORIENTED_EDGE('',*,*,#219,.T.);
#146=ORIENTED_EDGE('',*,*,#220,.F.);
#147=ORIENTED_EDGE('',*,*,#221,.T.);
#148=ORIENTED_EDGE('',*,*,#222,.T.);
#149=ORIENTED_EDGE('',*,*,#221,.F.);
#150=ORIENTED_EDGE('',*,*,#223,.F.);
#151=ORIENTED_EDGE('',*,*,#224,.T.);
#152=ORIENTED_EDGE('',*,*,#225,.T.);
#153=ORIENTED_EDGE('',*,*,#223,.T.);
#154=ORIENTED_EDGE('',*,*,#226,.F.);
#155=ORIENTED_EDGE('',*,*,#225,.F.);
#156=ORIENTED_EDGE('',*,*,#227,.T.);
#157=ORIENTED_EDGE('',*,*,#228,.T.);
#158=ORIENTED_EDGE('',*,*,#229,.T.);
#159=ORIENTED_EDGE('',*,*,#229,.F.);
#160=ORIENTED_EDGE('',*,*,#230,.T.);
#161=ORIENTED_EDGE('',*,*,#230,.F.);
#162=ORIENTED_EDGE('',*,*,#231,.T.);
#163=ORIENTED_EDGE('',*,*,#232,.T.);
#164=ORIENTED_EDGE('',*,*,#233,.T.);
#165=ORIENTED_EDGE('',*,*,#231,.F.);
#166=ORIENTED_EDGE('',*,*,#232,.F.);
#167=ORIENTED_EDGE('',*,*,#216,.T.);
#168=ORIENTED_EDGE('',*,*,#234,.T.);
#169=ORIENTED_EDGE('',*,*,#234,.F.);
#170=ORIENTED_EDGE('',*,*,#235,.T.);
#171=ORIENTED_EDGE('',*,*,#235,.F.);
#172=ORIENTED_EDGE('',*,*,#228,.F.);
#173=ORIENTED_EDGE('',*,*,#236,.F.);
#174=ORIENTED_EDGE('',*,*,#219,.F.);
#175=ORIENTED_EDGE('',*,*,#220,.T.);
#176=ORIENTED_EDGE('',*,*,#236,.T.);
#177=ORIENTED_EDGE('',*,*,#222,.F.);
#178=ORIENTED_EDGE('',*,*,#226,.T.);
#179=ORIENTED_EDGE('',*,*,#237,.F.);
#180=ORIENTED_EDGE('',*,*,#237,.T.);
#181=ORIENTED_EDGE('',*,*,#227,.F.);
#182=ORIENTED_EDGE('',*,*,#238,.F.);
#183=ORIENTED_EDGE('',*,*,#233,.F.);
#184=ORIENTED_EDGE('',*,*,#238,.T.);
#185=ORIENTED_EDGE('',*,*,#224,.F.);
#186=ORIENTED_EDGE('',*,*,#239,.T.);
#187=ORIENTED_EDGE('',*,*,#240,.T.);
#188=ORIENTED_EDGE('',*,*,#217,.F.);
#189=ORIENTED_EDGE('',*,*,#241,.F.);
#190=ORIENTED_EDGE('',*,*,#240,.F.);
#191=ORIENTED_EDGE('',*,*,#242,.T.);
#192=ORIENTED_EDGE('',*,*,#241,.T.);
#193=ORIENTED_EDGE('',*,*,#218,.F.);
#194=ORIENTED_EDGE('',*,*,#242,.F.);
#195=ORIENTED_EDGE('',*,*,#239,.F.);
#196=VERTEX_POINT('',#425);
#197=VERTEX_POINT('',#427);
#198=VERTEX_POINT('',#428);
#199=VERTEX_POINT('',#432);
#200=VERTEX_POINT('',#433);
#201=VERTEX_POINT('',#435);
#202=VERTEX_POINT('',#437);
#203=VERTEX_POINT('',#441);
#204=VERTEX_POINT('',#443);
#205=VERTEX_POINT('',#450);
#206=VERTEX_POINT('',#452);
#207=VERTEX_POINT('',#455);
#208=VERTEX_POINT('',#458);
#209=VERTEX_POINT('',#461);
#210=VERTEX_POINT('',#463);
#211=VERTEX_POINT('',#467);
#212=VERTEX_POINT('',#470);
#213=VERTEX_POINT('',#477);
#214=VERTEX_POINT('',#481);
#215=VERTEX_POINT('',#482);
#216=EDGE_CURVE('',#196,#196,#243,.T.);
#217=EDGE_CURVE('',#197,#198,#244,.T.);
#218=EDGE_CURVE('',#198,#197,#245,.T.);
#219=EDGE_CURVE('',#199,#200,#246,.T.);
#220=EDGE_CURVE('',#201,#200,#63,.T.);
#221=EDGE_CURVE('',#201,#202,#247,.T.);
#222=EDGE_CURVE('',#202,#199,#64,.T.);
#223=EDGE_CURVE('',#203,#201,#65,.T.);
#224=EDGE_CURVE('',#203,#204,#248,.T.);
#225=EDGE_CURVE('',#204,#202,#66,.T.);
#226=EDGE_CURVE('',#202,#201,#249,.T.);
#227=EDGE_CURVE('',#204,#203,#250,.T.);
#228=EDGE_CURVE('',#205,#205,#251,.T.);
#229=EDGE_CURVE('',#206,#206,#252,.T.);
#230=EDGE_CURVE('',#207,#207,#253,.T.);
#231=EDGE_CURVE('',#208,#208,#254,.T.);
#232=EDGE_CURVE('',#209,#209,#255,.T.);
#233=EDGE_CURVE('',#210,#210,#256,.T.);
#234=EDGE_CURVE('',#211,#211,#257,.T.);
#235=EDGE_CURVE('',#212,#212,#258,.T.);
#236=EDGE_CURVE('',#200,#199,#259,.T.);
#237=EDGE_CURVE('',#213,#203,#260,.T.);
#238=EDGE_CURVE('',#210,#204,#261,.T.);
#239=EDGE_CURVE('',#214,#215,#262,.T.);
#240=EDGE_CURVE('',#215,#198,#67,.T.);
#241=EDGE_CURVE('',#214,#197,#68,.T.);
#242=EDGE_CURVE('',#215,#214,#263,.T.);
#243=CIRCLE('',#289,31.775);
#244=CIRCLE('',#290,22.6916641016626);
#245=CIRCLE('',#291,22.6916641016626);
#246=CIRCLE('',#293,12.5);
#247=CIRCLE('',#294,17.5);
#248=CIRCLE('',#296,17.5);
#249=CIRCLE('',#298,17.5);
#250=CIRCLE('',#299,17.5);
#251=CIRCLE('',#301,28.125);
#252=CIRCLE('',#302,28.125);
#253=CIRCLE('',#304,28.8725952641916);
#254=CIRCLE('',#306,31.775);
#255=CIRCLE('',#308,31.775);
#256=CIRCLE('',#309,22.5);
#257=CIRCLE('',#312,31.775);
#258=CIRCLE('',#314,28.8725952641916);
#259=CIRCLE('',#317,12.5);
#260=CIRCLE('',#320,5.);
#261=CIRCLE('',#321,5.);
#262=CIRCLE('',#323,12.2500548269627);
#263=CIRCLE('',#325,12.2500548269627);
#264=INVISIBILITY((#265,#266,#267,#268));
#265=PRESENTATION_LAYER_ASSIGNMENT('100','Layer 100',(#286));
#266=PRESENTATION_LAYER_ASSIGNMENT('101','Layer 101',(#287));
#267=PRESENTATION_LAYER_ASSIGNMENT('102','Layer 102',(#288));
#268=PRESENTATION_LAYER_ASSIGNMENT('98','Layer 98',(#38));
#269=STYLED_ITEM('',(#273),#286);
#270=STYLED_ITEM('',(#274),#287);
#271=STYLED_ITEM('',(#275),#288);
#272=STYLED_ITEM('',(#276),#38);
#273=PRESENTATION_STYLE_ASSIGNMENT((#277));
#274=PRESENTATION_STYLE_ASSIGNMENT((#278));
#275=PRESENTATION_STYLE_ASSIGNMENT((#279));
#276=PRESENTATION_STYLE_ASSIGNMENT((#33));
#277=CURVE_STYLE('',#282,POSITIVE_LENGTH_MEASURE(0.7),#280);
#278=CURVE_STYLE('',#283,POSITIVE_LENGTH_MEASURE(0.7),#280);
#279=CURVE_STYLE('',#284,POSITIVE_LENGTH_MEASURE(0.7),#280);
#280=COLOUR_RGB('Medium Maroon',0.6,0.4,0.4);
#281=COLOUR_RGB('Medium Gray',0.490196078431373,0.490196078431373,0.490196078431373);
#282=DRAUGHTING_PRE_DEFINED_CURVE_FONT('continuous');
#283=DRAUGHTING_PRE_DEFINED_CURVE_FONT('continuous');
#284=DRAUGHTING_PRE_DEFINED_CURVE_FONT('continuous');
#285=AXIS2_PLACEMENT_3D('',#420,#328,#329);
#286=AXIS2_PLACEMENT_3D('PCS',#421,#330,#331);
#287=AXIS2_PLACEMENT_3D('CSW',#422,#332,#333);
#288=AXIS2_PLACEMENT_3D('MCS',#423,#334,#335);
#289=AXIS2_PLACEMENT_3D('',#424,#336,#337);
#290=AXIS2_PLACEMENT_3D('',#426,#338,#339);
#291=AXIS2_PLACEMENT_3D('',#429,#340,#341);
#292=AXIS2_PLACEMENT_3D('',#430,#342,#343);
#293=AXIS2_PLACEMENT_3D('',#431,#344,#345);
#294=AXIS2_PLACEMENT_3D('',#436,#347,#348);
#295=AXIS2_PLACEMENT_3D('',#439,#350,#351);
#296=AXIS2_PLACEMENT_3D('',#442,#353,#354);
#297=AXIS2_PLACEMENT_3D('',#445,#356,#357);
#298=AXIS2_PLACEMENT_3D('',#446,#358,#359);
#299=AXIS2_PLACEMENT_3D('',#447,#360,#361);
#300=AXIS2_PLACEMENT_3D('',#448,#362,#363);
#301=AXIS2_PLACEMENT_3D('',#449,#364,#365);
#302=AXIS2_PLACEMENT_3D('',#451,#366,#367);
#303=AXIS2_PLACEMENT_3D('',#453,#368,#369);
#304=AXIS2_PLACEMENT_3D('',#454,#370,#371);
#305=AXIS2_PLACEMENT_3D('',#456,#372,#373);
#306=AXIS2_PLACEMENT_3D('',#457,#374,#375);
#307=AXIS2_PLACEMENT_3D('',#459,#376,#377);
#308=AXIS2_PLACEMENT_3D('',#460,#378,#379);
#309=AXIS2_PLACEMENT_3D('',#462,#380,#381);
#310=AXIS2_PLACEMENT_3D('',#464,#382,#383);
#311=AXIS2_PLACEMENT_3D('',#465,#384,#385);
#312=AXIS2_PLACEMENT_3D('',#466,#386,#387);
#313=AXIS2_PLACEMENT_3D('',#468,#388,#389);
#314=AXIS2_PLACEMENT_3D('',#469,#390,#391);
#315=AXIS2_PLACEMENT_3D('',#471,#392,#393);
#316=AXIS2_PLACEMENT_3D('',#472,#394,#395);
#317=AXIS2_PLACEMENT_3D('',#473,#396,#397);
#318=AXIS2_PLACEMENT_3D('',#474,#398,#399);
#319=AXIS2_PLACEMENT_3D('',#475,#400,#401);
#320=AXIS2_PLACEMENT_3D('',#476,#402,#403);
#321=AXIS2_PLACEMENT_3D('',#478,#404,#405);
#322=AXIS2_PLACEMENT_3D('',#479,#406,#407);
#323=AXIS2_PLACEMENT_3D('',#480,#408,#409);
#324=AXIS2_PLACEMENT_3D('',#485,#412,#413);
#325=AXIS2_PLACEMENT_3D('',#486,#414,#415);
#326=AXIS2_PLACEMENT_3D('',#487,#416,#417);
#327=AXIS2_PLACEMENT_3D('',#488,#418,#419);
#328=DIRECTION('',(0.,0.,1.));
#329=DIRECTION('',(1.,0.,0.));
#330=DIRECTION('',(0.,0.,1.));
#331=DIRECTION('',(1.,0.,0.));
#332=DIRECTION('',(0.,0.,1.));
#333=DIRECTION('',(1.,0.,0.));
#334=DIRECTION('',(0.,0.,1.));
#335=DIRECTION('',(1.,0.,0.));
#336=DIRECTION('',(0.,0.,-1.));
#337=DIRECTION('',(-1.,0.,0.));
#338=DIRECTION('',(0.,0.,-1.));
#339=DIRECTION('',(-1.,0.,0.));
#340=DIRECTION('',(0.,0.,-1.));
#341=DIRECTION('',(-1.,0.,0.));
#342=DIRECTION('',(0.,0.,-1.));
#343=DIRECTION('',(-1.,0.,0.));
#344=DIRECTION('',(0.,0.,1.));
#345=DIRECTION('',(1.,0.,0.));
#346=DIRECTION('',(-0.422618261740698,5.17558101501964E-17,-0.906307787036651));
#347=DIRECTION('',(0.,0.,-1.));
#348=DIRECTION('',(1.,0.,0.));
#349=DIRECTION('',(0.422618261740698,0.,-0.906307787036651));
#350=DIRECTION('',(0.,0.,1.));
#351=DIRECTION('',(1.,0.,2.89840556462487E-17));
#352=DIRECTION('',(0.,0.,-1.));
#353=DIRECTION('',(0.,0.,-1.));
#354=DIRECTION('',(-1.,0.,0.));
#355=DIRECTION('',(0.,0.,-1.));
#356=DIRECTION('',(0.,0.,1.));
#357=DIRECTION('',(1.,0.,0.));
#358=DIRECTION('',(0.,0.,-1.));
#359=DIRECTION('',(1.,0.,0.));
#360=DIRECTION('',(0.,0.,-1.));
#361=DIRECTION('',(-1.,0.,0.));
#362=DIRECTION('',(0.,0.,1.));
#363=DIRECTION('',(1.,0.,0.));
#364=DIRECTION('',(0.,0.,-1.));
#365=DIRECTION('',(-1.,0.,0.));
#366=DIRECTION('',(0.,0.,1.));
#367=DIRECTION('',(1.,-2.04281036531029E-14,0.));
#368=DIRECTION('',(0.,0.,1.));
#369=DIRECTION('',(1.,0.,0.));
#370=DIRECTION('',(0.,0.,1.));
#371=DIRECTION('',(-1.,0.,0.));
#372=DIRECTION('',(0.,0.,-1.));
#373=DIRECTION('',(-1.,0.,0.));
#374=DIRECTION('',(0.,0.,1.));
#375=DIRECTION('',(-1.,0.,0.));
#376=DIRECTION('',(0.,0.,-1.));
#377=DIRECTION('',(-1.,0.,9.8512148409516E-18));
#378=DIRECTION('',(0.,0.,-1.));
#379=DIRECTION('',(1.,0.,0.));
#380=DIRECTION('',(0.,0.,1.));
#381=DIRECTION('',(-1.,0.,0.));
#382=DIRECTION('',(0.,0.,1.));
#383=DIRECTION('',(1.,0.,0.));
#384=DIRECTION('',(0.,0.,1.));
#385=DIRECTION('',(1.,0.,0.));
#386=DIRECTION('',(0.,0.,1.));
#387=DIRECTION('',(-1.,0.,0.));
#388=DIRECTION('',(0.,0.,1.));
#389=DIRECTION('',(1.,0.,0.));
#390=DIRECTION('',(0.,0.,1.));
#391=DIRECTION('',(-1.,0.,0.));
#392=DIRECTION('',(0.,0.,1.));
#393=DIRECTION('',(1.,0.,-2.75380126081148E-17));
#394=DIRECTION('',(0.,0.,1.));
#395=DIRECTION('',(1.,0.,0.));
#396=DIRECTION('',(0.,0.,1.));
#397=DIRECTION('',(1.,0.,0.));
#398=DIRECTION('',(0.,0.,1.));
#399=DIRECTION('',(1.,0.,0.));
#400=DIRECTION('',(0.,0.,1.));
#401=DIRECTION('',(1.,0.,2.89840556462487E-17));
#402=DIRECTION('',(-1.22464679914735E-16,-1.,0.));
#403=DIRECTION('',(-1.,1.22464679914735E-16,0.));
#404=DIRECTION('',(0.,1.,0.));
#405=DIRECTION('',(1.,0.,0.));
#406=DIRECTION('',(0.,0.,1.));
#407=DIRECTION('',(1.,0.,0.));
#408=DIRECTION('',(0.,0.,-1.));
#409=DIRECTION('',(-1.,0.,0.));
#410=DIRECTION('',(-0.144306116415227,-1.76724023565294E-17,-0.989533094325377));
#411=DIRECTION('',(0.144306116415227,0.,-0.989533094325377));
#412=DIRECTION('',(0.,0.,-1.));
#413=DIRECTION('',(-1.,0.,6.1761700164497E-16));
#414=DIRECTION('',(0.,0.,-1.));
#415=DIRECTION('',(-1.,0.,0.));
#416=DIRECTION('',(0.,0.,-1.));
#417=DIRECTION('',(-1.,0.,6.1761700164497E-16));
#418=DIRECTION('',(0.,0.,-1.));
#419=DIRECTION('',(-1.,0.,0.));
#420=CARTESIAN_POINT('',(0.,0.,0.));
#421=CARTESIAN_POINT('',(0.,0.,0.));
#422=CARTESIAN_POINT('',(0.,0.,-100.));
#423=CARTESIAN_POINT('',(0.,0.,0.));
#424=CARTESIAN_POINT('',(0.0112472380000033,6.93889390390723E-15,-3.19999999999997));
#425=CARTESIAN_POINT('',(-31.763752762,6.93889390390723E-15,-3.19999999999997));
#426=CARTESIAN_POINT('',(0.0112472380000033,6.93889390390723E-15,-3.19999999999997));
#427=CARTESIAN_POINT('',(22.7029113396626,9.71782128485002E-15,-3.19999999999997));
#428=CARTESIAN_POINT('',(-22.6804168636626,6.93889390390723E-15,-3.19999999999997));
#429=CARTESIAN_POINT('',(0.0112472380000033,6.93889390390723E-15,-3.19999999999997));
#430=CARTESIAN_POINT('',(0.0112472380000033,-22.6916641016626,-3.19999999999997));
#431=CARTESIAN_POINT('',(0.0112472380000033,6.93889390390723E-15,-100.));
#432=CARTESIAN_POINT('',(-12.488752762,6.93889390390723E-15,-100.));
#433=CARTESIAN_POINT('',(12.511247238,6.93889390390723E-15,-100.));
#434=CARTESIAN_POINT('',(12.511247238,6.93889390390723E-15,-100.));
#435=CARTESIAN_POINT('',(17.511247238,6.63273220412039E-15,-89.2774653974521));
#436=CARTESIAN_POINT('',(0.0112472380000033,6.93889390390723E-15,-89.2774653974521));
#437=CARTESIAN_POINT('',(-17.488752762,6.93889390390723E-15,-89.2774653974521));
#438=CARTESIAN_POINT('',(-12.488752762,6.93889390390723E-15,-100.));
#439=CARTESIAN_POINT('',(0.0112472380000033,6.93889390390723E-15,-100.));
#440=CARTESIAN_POINT('',(17.511247238,6.93889390390723E-15,82.6493200682369));
#441=CARTESIAN_POINT('',(17.511247238,6.93889390390723E-15,-24.1));
#442=CARTESIAN_POINT('',(0.0112472380000033,6.93889390390723E-15,-24.1));
#443=CARTESIAN_POINT('',(-17.488752762,6.93889390390723E-15,-24.1));
#444=CARTESIAN_POINT('',(-17.488752762,6.93889390390723E-15,82.6493200682369));
#445=CARTESIAN_POINT('',(0.0112472380000033,6.93889390390723E-15,82.6493200682369));
#446=CARTESIAN_POINT('',(0.0112472380000033,6.93889390390723E-15,-89.2774653974521));
#447=CARTESIAN_POINT('',(0.0112472380000033,6.93889390390723E-15,-24.1));
#448=CARTESIAN_POINT('',(0.0112472380000033,6.93889390390723E-15,82.6493200682369));
#449=CARTESIAN_POINT('',(0.0112472380000033,6.93889390390723E-15,-10.1926217491052));
#450=CARTESIAN_POINT('',(-28.113752762,6.93889390390723E-15,-10.1926217491052));
#451=CARTESIAN_POINT('',(0.0112472380000033,6.93889390390723E-15,-12.0073782508947));
#452=CARTESIAN_POINT('',(28.136247238,-5.67601521339611E-13,-12.0073782508947));
#453=CARTESIAN_POINT('',(0.0112472380000033,6.93889390390723E-15,-3.19999999999997));
#454=CARTESIAN_POINT('',(0.0112472380000033,6.93889390390723E-15,-12.975));
#455=CARTESIAN_POINT('',(-28.8613480261916,6.93889390390723E-15,-12.975));
#456=CARTESIAN_POINT('',(0.0112472380000033,6.93889390390723E-15,-12.0073782508947));
#457=CARTESIAN_POINT('',(0.0112472380000033,6.93889390390723E-15,-14.6507041555162));
#458=CARTESIAN_POINT('',(-31.763752762,6.93889390390723E-15,-14.6507041555162));
#459=CARTESIAN_POINT('',(0.0112472380000033,6.93889390390723E-15,-12.975));
#460=CARTESIAN_POINT('',(0.0112472380000033,6.93889390390723E-15,-19.1));
#461=CARTESIAN_POINT('',(31.786247238,6.93889390390723E-15,-19.1));
#462=CARTESIAN_POINT('',(0.0112472380000033,6.93889390390723E-15,-19.1));
#463=CARTESIAN_POINT('',(-22.488752762,6.93889390390723E-15,-19.1));
#464=CARTESIAN_POINT('',(0.0112472380000033,-31.775,-19.1));
#465=CARTESIAN_POINT('',(0.0112472380000033,6.93889390390723E-15,82.6493200682369));
#466=CARTESIAN_POINT('',(0.0112472380000033,6.93889390390723E-15,-7.54929584448378));
#467=CARTESIAN_POINT('',(-31.763752762,6.93889390390723E-15,-7.54929584448378));
#468=CARTESIAN_POINT('',(0.0112472380000033,6.93889390390723E-15,82.6493200682369));
#469=CARTESIAN_POINT('',(0.0112472380000033,6.93889390390723E-15,-9.22499999999997));
#470=CARTESIAN_POINT('',(-28.8613480261916,6.93889390390723E-15,-9.22499999999997));
#471=CARTESIAN_POINT('',(0.0112472380000033,6.93889390390723E-15,-7.54929584448378));
#472=CARTESIAN_POINT('',(0.0112472380000033,6.93889390390723E-15,-10.1926217491052));
#473=CARTESIAN_POINT('',(0.0112472380000033,6.93889390390723E-15,-100.));
#474=CARTESIAN_POINT('',(0.0112472380000033,-12.5,-100.));
#475=CARTESIAN_POINT('',(0.0112472380000033,6.93889390390723E-15,-100.));
#476=CARTESIAN_POINT('',(22.511247238,6.93889390390723E-15,-24.1));
#477=CARTESIAN_POINT('',(22.3294290561818,6.93889390390723E-15,-19.1033068786686));
#478=CARTESIAN_POINT('',(-22.488752762,6.93889390390723E-15,-24.1));
#479=CARTESIAN_POINT('',(0.0112472380000033,6.93889390390723E-15,-24.1));
#480=CARTESIAN_POINT('',(0.0112472380000033,6.93889390390723E-15,68.4));
#481=CARTESIAN_POINT('',(12.2613020649627,6.93889390390723E-15,68.4));
#482=CARTESIAN_POINT('',(-12.2388075889627,8.21762224152807E-15,68.4));
#483=CARTESIAN_POINT('',(-22.6804168636626,6.93889390390723E-15,-3.19999999999997));
#484=CARTESIAN_POINT('',(22.7029113396626,6.93889390390723E-15,-3.19999999999997));
#485=CARTESIAN_POINT('',(0.0112472380000033,6.93889390390723E-15,-3.19999999999997));
#486=CARTESIAN_POINT('',(0.0112472380000033,6.93889390390723E-15,68.4));
#487=CARTESIAN_POINT('',(0.0112472380000033,6.93889390390723E-15,-3.19999999999997));
#488=CARTESIAN_POINT('',(0.0112472380000033,6.93889390390723E-15,68.4));
#489=MECHANICAL_DESIGN_GEOMETRIC_PRESENTATION_REPRESENTATION('',(#269,#270,
#271,#272),#490);
#490=(
GEOMETRIC_REPRESENTATION_CONTEXT(3)
GLOBAL_UNCERTAINTY_ASSIGNED_CONTEXT((#491))
GLOBAL_UNIT_ASSIGNED_CONTEXT((#497,#493,#492))
REPRESENTATION_CONTEXT('69871.40ADB-W.10.100','TOP_LEVEL_ASSEMBLY_PART')
);
#491=UNCERTAINTY_MEASURE_WITH_UNIT(LENGTH_MEASURE(2.E-5),#497,
'DISTANCE_ACCURACY_VALUE','Maximum Tolerance applied to model');
#492=(
NAMED_UNIT(*)
SI_UNIT($,.STERADIAN.)
SOLID_ANGLE_UNIT()
);
#493=(
CONVERSION_BASED_UNIT('DEGREE',#495)
NAMED_UNIT(#494)
PLANE_ANGLE_UNIT()
);
#494=DIMENSIONAL_EXPONENTS(0.,0.,0.,0.,0.,0.,0.);
#495=PLANE_ANGLE_MEASURE_WITH_UNIT(PLANE_ANGLE_MEASURE(0.0174532925),#496);
#496=(
NAMED_UNIT(*)
PLANE_ANGLE_UNIT()
SI_UNIT($,.RADIAN.)
);
#497=(
LENGTH_UNIT()
NAMED_UNIT(*)
SI_UNIT(.MILLI.,.METRE.)
);
ENDSEC;
END-ISO-10303-21;
