ISO-10303-21;
HEADER;
/* Generated by software containing ST-Developer
 * from STEP Tools, Inc. (www.steptools.com) 
 */
/* OPTION: using custom schema-name function */

FILE_DESCRIPTION(
/* description */ (''),
/* implementation_level */ '2;1');

FILE_NAME(
/* name */ '69871.40ADB-W.06.100.C.stp',
/* time_stamp */ '2024-07-30T09:52:01+02:00',
/* author */ (''),
/* organization */ (''),
/* preprocessor_version */ 'ST-DEVELOPER v16.7',
/* originating_system */ 'SIEMENS PLM Software NX 12.0',
/* authorisation */ '');

FILE_SCHEMA (('AUTOMOTIVE_DESIGN { 1 0 10303 214 3 1 1 1 }'));
ENDSEC;

DATA;
#10=CONSTRUCTIVE_GEOMETRY_REPRESENTATION_RELATIONSHIP(
'supplemental geometry','',#32,#11);
#11=CONSTRUCTIVE_GEOMETRY_REPRESENTATION('supplemental geometry',(#294,
#295,#296),#506);
#12=PROPERTY_DEFINITION_REPRESENTATION(#16,#14);
#13=PROPERTY_DEFINITION_REPRESENTATION(#17,#15);
#14=REPRESENTATION('',(#18),#506);
#15=REPRESENTATION('',(#19),#506);
#16=PROPERTY_DEFINITION('pmi validation property','',#23);
#17=PROPERTY_DEFINITION('pmi validation property','',#23);
#18=VALUE_REPRESENTATION_ITEM('number of annotations',COUNT_MEASURE(0.));
#19=VALUE_REPRESENTATION_ITEM('number of views',COUNT_MEASURE(0.));
#20=SHAPE_REPRESENTATION_RELATIONSHIP('None',
'relationship between pf663AEC53C0f3k7-None and pf663AEC53C0f3k7-None',
#32,#21);
#21=ADVANCED_BREP_SHAPE_REPRESENTATION('pf663AEC53C0f3k7-None',(#38),#506);
#22=SHAPE_DEFINITION_REPRESENTATION(#23,#32);
#23=PRODUCT_DEFINITION_SHAPE('','',#24);
#24=PRODUCT_DEFINITION(' ','',#26,#25);
#25=PRODUCT_DEFINITION_CONTEXT('part definition',#31,'design');
#26=PRODUCT_DEFINITION_FORMATION_WITH_SPECIFIED_SOURCE(' ',' ',#28,
 .NOT_KNOWN.);
#27=PRODUCT_RELATED_PRODUCT_CATEGORY('part','',(#28));
#28=PRODUCT('pf663AEC53C0f3k7','pf663AEC53C0f3k7',' ',(#29));
#29=PRODUCT_CONTEXT(' ',#31,'mechanical');
#30=APPLICATION_PROTOCOL_DEFINITION('international standard',
'automotive_design',2010,#31);
#31=APPLICATION_CONTEXT(
'core data for automotive mechanical design processes');
#32=SHAPE_REPRESENTATION('pf663AEC53C0f3k7-None',(#293),#506);
#33=SURFACE_STYLE_USAGE(.BOTH.,#34);
#34=SURFACE_SIDE_STYLE('',(#35));
#35=SURFACE_STYLE_FILL_AREA(#36);
#36=FILL_AREA_STYLE('',(#37));
#37=FILL_AREA_STYLE_COLOUR('',#289);
#38=MANIFOLD_SOLID_BREP('\X\B0\X2\014100AE0106\X0\-\X\B1\X2\017000C20154\X0\1
5',#39);
#39=CLOSED_SHELL('',(#77,#78,#79,#80,#81,#82,#83,#84,#85,#86,#87,#88,#89,
#90,#91,#92,#93,#94,#95));
#40=CYLINDRICAL_SURFACE('',#310,12.5);
#41=CYLINDRICAL_SURFACE('',#314,12.5);
#42=CYLINDRICAL_SURFACE('',#322,31.775);
#43=CYLINDRICAL_SURFACE('',#329,28.125);
#44=CYLINDRICAL_SURFACE('',#330,31.775);
#45=CONICAL_SURFACE('',#308,7.5,24.9999999999999);
#46=CONICAL_SURFACE('',#323,31.775,60.0000000000003);
#47=CONICAL_SURFACE('',#325,28.8725952641916,59.9999999999999);
#48=CONICAL_SURFACE('',#331,7.5,24.9999999999999);
#49=CONICAL_SURFACE('',#336,22.6916641016626,8.29709999999964);
#50=CONICAL_SURFACE('',#337,22.6916641016626,8.29709999999964);
#51=LINE('',#457,#57);
#52=LINE('',#461,#58);
#53=LINE('',#463,#59);
#54=LINE('',#465,#60);
#55=LINE('',#501,#61);
#56=LINE('',#502,#62);
#57=VECTOR('',#366,1.);
#58=VECTOR('',#369,1.);
#59=VECTOR('',#372,1.);
#60=VECTOR('',#375,1.);
#61=VECTOR('',#428,1.);
#62=VECTOR('',#429,1.);
#63=TOROIDAL_SURFACE('',#305,17.5,5.);
#64=TOROIDAL_SURFACE('',#317,29.125,1.);
#65=TOROIDAL_SURFACE('',#320,29.125,1.);
#66=TOROIDAL_SURFACE('',#332,17.5,5.);
#67=FACE_OUTER_BOUND('',#120,.T.);
#68=FACE_OUTER_BOUND('',#121,.T.);
#69=FACE_OUTER_BOUND('',#122,.T.);
#70=FACE_OUTER_BOUND('',#123,.T.);
#71=FACE_OUTER_BOUND('',#124,.T.);
#72=FACE_OUTER_BOUND('',#141,.T.);
#73=FACE_OUTER_BOUND('',#142,.T.);
#74=FACE_OUTER_BOUND('',#143,.T.);
#75=FACE_OUTER_BOUND('',#144,.T.);
#76=FACE_OUTER_BOUND('',#145,.T.);
#77=ADVANCED_FACE('',(#100,#101),#96,.F.);
#78=ADVANCED_FACE('',(#67),#63,.F.);
#79=ADVANCED_FACE('',(#68),#45,.T.);
#80=ADVANCED_FACE('',(#69),#40,.T.);
#81=ADVANCED_FACE('',(#70),#97,.F.);
#82=ADVANCED_FACE('',(#71),#41,.T.);
#83=ADVANCED_FACE('',(#102,#103),#64,.F.);
#84=ADVANCED_FACE('',(#104,#105),#65,.F.);
#85=ADVANCED_FACE('',(#106,#107),#42,.T.);
#86=ADVANCED_FACE('',(#108,#109),#46,.T.);
#87=ADVANCED_FACE('',(#110,#111),#47,.T.);
#88=ADVANCED_FACE('',(#112,#113),#98,.F.);
#89=ADVANCED_FACE('',(#114,#115),#43,.T.);
#90=ADVANCED_FACE('',(#116,#117),#44,.T.);
#91=ADVANCED_FACE('',(#72),#48,.T.);
#92=ADVANCED_FACE('',(#73),#66,.F.);
#93=ADVANCED_FACE('',(#74),#99,.F.);
#94=ADVANCED_FACE('',(#75),#49,.T.);
#95=ADVANCED_FACE('',(#76),#50,.T.);
#96=PLANE('',#300);
#97=PLANE('',#312);
#98=PLANE('',#328);
#99=PLANE('',#335);
#100=FACE_BOUND('',#118,.T.);
#101=FACE_BOUND('',#119,.T.);
#102=FACE_BOUND('',#125,.T.);
#103=FACE_BOUND('',#126,.T.);
#104=FACE_BOUND('',#127,.T.);
#105=FACE_BOUND('',#128,.T.);
#106=FACE_BOUND('',#129,.T.);
#107=FACE_BOUND('',#130,.T.);
#108=FACE_BOUND('',#131,.T.);
#109=FACE_BOUND('',#132,.T.);
#110=FACE_BOUND('',#133,.T.);
#111=FACE_BOUND('',#134,.T.);
#112=FACE_BOUND('',#135,.T.);
#113=FACE_BOUND('',#136,.T.);
#114=FACE_BOUND('',#137,.T.);
#115=FACE_BOUND('',#138,.T.);
#116=FACE_BOUND('',#139,.T.);
#117=FACE_BOUND('',#140,.T.);
#118=EDGE_LOOP('',(#146));
#119=EDGE_LOOP('',(#147,#148));
#120=EDGE_LOOP('',(#149,#150,#151,#152));
#121=EDGE_LOOP('',(#153,#154,#155,#156));
#122=EDGE_LOOP('',(#157,#158,#159,#160));
#123=EDGE_LOOP('',(#161,#162));
#124=EDGE_LOOP('',(#163,#164,#165,#166));
#125=EDGE_LOOP('',(#167));
#126=EDGE_LOOP('',(#168));
#127=EDGE_LOOP('',(#169));
#128=EDGE_LOOP('',(#170));
#129=EDGE_LOOP('',(#171));
#130=EDGE_LOOP('',(#172));
#131=EDGE_LOOP('',(#173));
#132=EDGE_LOOP('',(#174));
#133=EDGE_LOOP('',(#175));
#134=EDGE_LOOP('',(#176));
#135=EDGE_LOOP('',(#177));
#136=EDGE_LOOP('',(#178,#179));
#137=EDGE_LOOP('',(#180));
#138=EDGE_LOOP('',(#181));
#139=EDGE_LOOP('',(#182));
#140=EDGE_LOOP('',(#183));
#141=EDGE_LOOP('',(#184,#185,#186,#187));
#142=EDGE_LOOP('',(#188,#189,#190,#191));
#143=EDGE_LOOP('',(#192,#193));
#144=EDGE_LOOP('',(#194,#195,#196,#197));
#145=EDGE_LOOP('',(#198,#199,#200,#201));
#146=ORIENTED_EDGE('',*,*,#222,.T.);
#147=ORIENTED_EDGE('',*,*,#223,.T.);
#148=ORIENTED_EDGE('',*,*,#224,.T.);
#149=ORIENTED_EDGE('',*,*,#225,.F.);
#150=ORIENTED_EDGE('',*,*,#226,.F.);
#151=ORIENTED_EDGE('',*,*,#227,.F.);
#152=ORIENTED_EDGE('',*,*,#228,.T.);
#153=ORIENTED_EDGE('',*,*,#229,.T.);
#154=ORIENTED_EDGE('',*,*,#230,.F.);
#155=ORIENTED_EDGE('',*,*,#231,.T.);
#156=ORIENTED_EDGE('',*,*,#232,.T.);
#157=ORIENTED_EDGE('',*,*,#231,.F.);
#158=ORIENTED_EDGE('',*,*,#233,.F.);
#159=ORIENTED_EDGE('',*,*,#234,.T.);
#160=ORIENTED_EDGE('',*,*,#235,.T.);
#161=ORIENTED_EDGE('',*,*,#236,.F.);
#162=ORIENTED_EDGE('',*,*,#229,.F.);
#163=ORIENTED_EDGE('',*,*,#233,.T.);
#164=ORIENTED_EDGE('',*,*,#237,.F.);
#165=ORIENTED_EDGE('',*,*,#235,.F.);
#166=ORIENTED_EDGE('',*,*,#227,.T.);
#167=ORIENTED_EDGE('',*,*,#238,.F.);
#168=ORIENTED_EDGE('',*,*,#239,.F.);
#169=ORIENTED_EDGE('',*,*,#240,.F.);
#170=ORIENTED_EDGE('',*,*,#241,.T.);
#171=ORIENTED_EDGE('',*,*,#242,.T.);
#172=ORIENTED_EDGE('',*,*,#222,.F.);
#173=ORIENTED_EDGE('',*,*,#239,.T.);
#174=ORIENTED_EDGE('',*,*,#242,.F.);
#175=ORIENTED_EDGE('',*,*,#243,.T.);
#176=ORIENTED_EDGE('',*,*,#241,.F.);
#177=ORIENTED_EDGE('',*,*,#244,.T.);
#178=ORIENTED_EDGE('',*,*,#245,.T.);
#179=ORIENTED_EDGE('',*,*,#225,.T.);
#180=ORIENTED_EDGE('',*,*,#238,.T.);
#181=ORIENTED_EDGE('',*,*,#240,.T.);
#182=ORIENTED_EDGE('',*,*,#244,.F.);
#183=ORIENTED_EDGE('',*,*,#243,.F.);
#184=ORIENTED_EDGE('',*,*,#230,.T.);
#185=ORIENTED_EDGE('',*,*,#236,.T.);
#186=ORIENTED_EDGE('',*,*,#232,.F.);
#187=ORIENTED_EDGE('',*,*,#237,.T.);
#188=ORIENTED_EDGE('',*,*,#226,.T.);
#189=ORIENTED_EDGE('',*,*,#245,.F.);
#190=ORIENTED_EDGE('',*,*,#228,.F.);
#191=ORIENTED_EDGE('',*,*,#234,.F.);
#192=ORIENTED_EDGE('',*,*,#246,.F.);
#193=ORIENTED_EDGE('',*,*,#247,.F.);
#194=ORIENTED_EDGE('',*,*,#248,.F.);
#195=ORIENTED_EDGE('',*,*,#246,.T.);
#196=ORIENTED_EDGE('',*,*,#249,.T.);
#197=ORIENTED_EDGE('',*,*,#223,.F.);
#198=ORIENTED_EDGE('',*,*,#247,.T.);
#199=ORIENTED_EDGE('',*,*,#248,.T.);
#200=ORIENTED_EDGE('',*,*,#224,.F.);
#201=ORIENTED_EDGE('',*,*,#249,.F.);
#202=VERTEX_POINT('',#439);
#203=VERTEX_POINT('',#441);
#204=VERTEX_POINT('',#442);
#205=VERTEX_POINT('',#446);
#206=VERTEX_POINT('',#447);
#207=VERTEX_POINT('',#449);
#208=VERTEX_POINT('',#451);
#209=VERTEX_POINT('',#455);
#210=VERTEX_POINT('',#456);
#211=VERTEX_POINT('',#458);
#212=VERTEX_POINT('',#460);
#213=VERTEX_POINT('',#472);
#214=VERTEX_POINT('',#474);
#215=VERTEX_POINT('',#477);
#216=VERTEX_POINT('',#479);
#217=VERTEX_POINT('',#482);
#218=VERTEX_POINT('',#486);
#219=VERTEX_POINT('',#489);
#220=VERTEX_POINT('',#497);
#221=VERTEX_POINT('',#498);
#222=EDGE_CURVE('',#202,#202,#250,.T.);
#223=EDGE_CURVE('',#203,#204,#251,.T.);
#224=EDGE_CURVE('',#204,#203,#252,.T.);
#225=EDGE_CURVE('',#205,#206,#253,.T.);
#226=EDGE_CURVE('',#207,#205,#254,.T.);
#227=EDGE_CURVE('',#208,#207,#255,.T.);
#228=EDGE_CURVE('',#208,#206,#256,.T.);
#229=EDGE_CURVE('',#209,#210,#257,.T.);
#230=EDGE_CURVE('',#211,#210,#51,.T.);
#231=EDGE_CURVE('',#211,#212,#258,.T.);
#232=EDGE_CURVE('',#212,#209,#52,.T.);
#233=EDGE_CURVE('',#207,#211,#53,.T.);
#234=EDGE_CURVE('',#207,#208,#259,.T.);
#235=EDGE_CURVE('',#208,#212,#54,.T.);
#236=EDGE_CURVE('',#210,#209,#260,.T.);
#237=EDGE_CURVE('',#212,#211,#261,.T.);
#238=EDGE_CURVE('',#213,#213,#262,.T.);
#239=EDGE_CURVE('',#214,#214,#263,.T.);
#240=EDGE_CURVE('',#215,#215,#264,.T.);
#241=EDGE_CURVE('',#216,#216,#265,.T.);
#242=EDGE_CURVE('',#217,#217,#266,.T.);
#243=EDGE_CURVE('',#218,#218,#267,.T.);
#244=EDGE_CURVE('',#219,#219,#268,.T.);
#245=EDGE_CURVE('',#206,#205,#269,.T.);
#246=EDGE_CURVE('',#220,#221,#270,.T.);
#247=EDGE_CURVE('',#221,#220,#271,.T.);
#248=EDGE_CURVE('',#220,#203,#55,.T.);
#249=EDGE_CURVE('',#221,#204,#56,.T.);
#250=CIRCLE('',#297,31.775);
#251=CIRCLE('',#298,22.6916641016626);
#252=CIRCLE('',#299,22.6916641016626);
#253=CIRCLE('',#301,17.5);
#254=CIRCLE('',#302,5.);
#255=CIRCLE('',#303,12.5);
#256=CIRCLE('',#304,5.);
#257=CIRCLE('',#306,7.5);
#258=CIRCLE('',#307,12.5);
#259=CIRCLE('',#309,12.5);
#260=CIRCLE('',#311,7.5);
#261=CIRCLE('',#313,12.5);
#262=CIRCLE('',#315,28.125);
#263=CIRCLE('',#316,28.8725952641916);
#264=CIRCLE('',#318,28.125);
#265=CIRCLE('',#319,28.8725952641916);
#266=CIRCLE('',#321,31.775);
#267=CIRCLE('',#324,31.775);
#268=CIRCLE('',#326,31.775);
#269=CIRCLE('',#327,17.5);
#270=CIRCLE('',#333,12.2500548269627);
#271=CIRCLE('',#334,12.2500548269627);
#272=INVISIBILITY((#273,#274,#275,#276));
#273=PRESENTATION_LAYER_ASSIGNMENT('100','Layer 100',(#294));
#274=PRESENTATION_LAYER_ASSIGNMENT('101','Layer 101',(#295));
#275=PRESENTATION_LAYER_ASSIGNMENT('102','Layer 102',(#296));
#276=PRESENTATION_LAYER_ASSIGNMENT('98','Layer 98',(#38));
#277=STYLED_ITEM('',(#281),#294);
#278=STYLED_ITEM('',(#282),#295);
#279=STYLED_ITEM('',(#283),#296);
#280=STYLED_ITEM('',(#284),#38);
#281=PRESENTATION_STYLE_ASSIGNMENT((#285));
#282=PRESENTATION_STYLE_ASSIGNMENT((#286));
#283=PRESENTATION_STYLE_ASSIGNMENT((#287));
#284=PRESENTATION_STYLE_ASSIGNMENT((#33));
#285=CURVE_STYLE('',#290,POSITIVE_LENGTH_MEASURE(0.7),#288);
#286=CURVE_STYLE('',#291,POSITIVE_LENGTH_MEASURE(0.7),#288);
#287=CURVE_STYLE('',#292,POSITIVE_LENGTH_MEASURE(0.7),#288);
#288=COLOUR_RGB('Medium Maroon',0.6,0.4,0.4);
#289=COLOUR_RGB('Medium Gray',0.490196078431373,0.490196078431373,0.490196078431373);
#290=DRAUGHTING_PRE_DEFINED_CURVE_FONT('continuous');
#291=DRAUGHTING_PRE_DEFINED_CURVE_FONT('continuous');
#292=DRAUGHTING_PRE_DEFINED_CURVE_FONT('continuous');
#293=AXIS2_PLACEMENT_3D('',#434,#338,#339);
#294=AXIS2_PLACEMENT_3D('PCS',#435,#340,#341);
#295=AXIS2_PLACEMENT_3D('CSW',#436,#342,#343);
#296=AXIS2_PLACEMENT_3D('MCS',#437,#344,#345);
#297=AXIS2_PLACEMENT_3D('',#438,#346,#347);
#298=AXIS2_PLACEMENT_3D('',#440,#348,#349);
#299=AXIS2_PLACEMENT_3D('',#443,#350,#351);
#300=AXIS2_PLACEMENT_3D('',#444,#352,#353);
#301=AXIS2_PLACEMENT_3D('',#445,#354,#355);
#302=AXIS2_PLACEMENT_3D('',#448,#356,#357);
#303=AXIS2_PLACEMENT_3D('',#450,#358,#359);
#304=AXIS2_PLACEMENT_3D('',#452,#360,#361);
#305=AXIS2_PLACEMENT_3D('',#453,#362,#363);
#306=AXIS2_PLACEMENT_3D('',#454,#364,#365);
#307=AXIS2_PLACEMENT_3D('',#459,#367,#368);
#308=AXIS2_PLACEMENT_3D('',#462,#370,#371);
#309=AXIS2_PLACEMENT_3D('',#464,#373,#374);
#310=AXIS2_PLACEMENT_3D('',#466,#376,#377);
#311=AXIS2_PLACEMENT_3D('',#467,#378,#379);
#312=AXIS2_PLACEMENT_3D('',#468,#380,#381);
#313=AXIS2_PLACEMENT_3D('',#469,#382,#383);
#314=AXIS2_PLACEMENT_3D('',#470,#384,#385);
#315=AXIS2_PLACEMENT_3D('',#471,#386,#387);
#316=AXIS2_PLACEMENT_3D('',#473,#388,#389);
#317=AXIS2_PLACEMENT_3D('',#475,#390,#391);
#318=AXIS2_PLACEMENT_3D('',#476,#392,#393);
#319=AXIS2_PLACEMENT_3D('',#478,#394,#395);
#320=AXIS2_PLACEMENT_3D('',#480,#396,#397);
#321=AXIS2_PLACEMENT_3D('',#481,#398,#399);
#322=AXIS2_PLACEMENT_3D('',#483,#400,#401);
#323=AXIS2_PLACEMENT_3D('',#484,#402,#403);
#324=AXIS2_PLACEMENT_3D('',#485,#404,#405);
#325=AXIS2_PLACEMENT_3D('',#487,#406,#407);
#326=AXIS2_PLACEMENT_3D('',#488,#408,#409);
#327=AXIS2_PLACEMENT_3D('',#490,#410,#411);
#328=AXIS2_PLACEMENT_3D('',#491,#412,#413);
#329=AXIS2_PLACEMENT_3D('',#492,#414,#415);
#330=AXIS2_PLACEMENT_3D('',#493,#416,#417);
#331=AXIS2_PLACEMENT_3D('',#494,#418,#419);
#332=AXIS2_PLACEMENT_3D('',#495,#420,#421);
#333=AXIS2_PLACEMENT_3D('',#496,#422,#423);
#334=AXIS2_PLACEMENT_3D('',#499,#424,#425);
#335=AXIS2_PLACEMENT_3D('',#500,#426,#427);
#336=AXIS2_PLACEMENT_3D('',#503,#430,#431);
#337=AXIS2_PLACEMENT_3D('',#504,#432,#433);
#338=DIRECTION('',(0.,0.,1.));
#339=DIRECTION('',(1.,0.,0.));
#340=DIRECTION('',(0.,0.,1.));
#341=DIRECTION('',(1.,0.,0.));
#342=DIRECTION('',(0.,0.,1.));
#343=DIRECTION('',(1.,0.,0.));
#344=DIRECTION('',(0.,0.,1.));
#345=DIRECTION('',(1.,0.,0.));
#346=DIRECTION('',(0.,0.,1.));
#347=DIRECTION('',(-1.,0.,0.));
#348=DIRECTION('',(0.,0.,-1.));
#349=DIRECTION('',(-1.,0.,0.));
#350=DIRECTION('',(0.,0.,-1.));
#351=DIRECTION('',(-1.,0.,0.));
#352=DIRECTION('',(0.,0.,-1.));
#353=DIRECTION('',(-1.,0.,0.));
#354=DIRECTION('',(0.,0.,1.));
#355=DIRECTION('',(-1.,0.,0.));
#356=DIRECTION('',(1.22464679914735E-16,1.,0.));
#357=DIRECTION('',(-1.,1.22464679914735E-16,0.));
#358=DIRECTION('',(0.,0.,-1.));
#359=DIRECTION('',(-1.,0.,0.));
#360=DIRECTION('',(0.,-1.,0.));
#361=DIRECTION('',(1.,0.,0.));
#362=DIRECTION('',(0.,0.,1.));
#363=DIRECTION('',(1.,0.,0.));
#364=DIRECTION('',(0.,0.,1.));
#365=DIRECTION('',(1.,0.,0.));
#366=DIRECTION('',(-0.422618261740698,5.17558101501964E-17,-0.906307787036651));
#367=DIRECTION('',(0.,0.,-1.));
#368=DIRECTION('',(1.,0.,0.));
#369=DIRECTION('',(0.422618261740698,0.,-0.906307787036651));
#370=DIRECTION('',(0.,0.,1.));
#371=DIRECTION('',(1.,0.,8.78697562330744E-17));
#372=DIRECTION('',(0.,0.,-1.));
#373=DIRECTION('',(0.,0.,-1.));
#374=DIRECTION('',(-1.,0.,0.));
#375=DIRECTION('',(0.,0.,-1.));
#376=DIRECTION('',(0.,0.,1.));
#377=DIRECTION('',(1.,0.,0.));
#378=DIRECTION('',(0.,0.,1.));
#379=DIRECTION('',(1.,0.,0.));
#380=DIRECTION('',(0.,0.,1.));
#381=DIRECTION('',(1.,0.,0.));
#382=DIRECTION('',(0.,0.,-1.));
#383=DIRECTION('',(1.,0.,0.));
#384=DIRECTION('',(0.,0.,1.));
#385=DIRECTION('',(1.,0.,0.));
#386=DIRECTION('',(0.,0.,-1.));
#387=DIRECTION('',(-1.,0.,0.));
#388=DIRECTION('',(0.,0.,1.));
#389=DIRECTION('',(-1.,0.,0.));
#390=DIRECTION('',(0.,0.,1.));
#391=DIRECTION('',(1.,0.,0.));
#392=DIRECTION('',(0.,0.,1.));
#393=DIRECTION('',(1.,-2.04281036531029E-14,0.));
#394=DIRECTION('',(0.,0.,1.));
#395=DIRECTION('',(-1.,0.,0.));
#396=DIRECTION('',(0.,0.,-1.));
#397=DIRECTION('',(-1.,0.,0.));
#398=DIRECTION('',(0.,0.,1.));
#399=DIRECTION('',(-1.,0.,0.));
#400=DIRECTION('',(0.,0.,1.));
#401=DIRECTION('',(1.,0.,0.));
#402=DIRECTION('',(0.,0.,1.));
#403=DIRECTION('',(1.,0.,-1.18020054034778E-17));
#404=DIRECTION('',(0.,0.,1.));
#405=DIRECTION('',(-1.,0.,0.));
#406=DIRECTION('',(0.,0.,-1.));
#407=DIRECTION('',(-1.,0.,2.36429156182839E-17));
#408=DIRECTION('',(0.,0.,-1.));
#409=DIRECTION('',(1.,0.,0.));
#410=DIRECTION('',(0.,0.,1.));
#411=DIRECTION('',(-1.,0.,0.));
#412=DIRECTION('',(0.,0.,1.));
#413=DIRECTION('',(1.,0.,0.));
#414=DIRECTION('',(0.,0.,1.));
#415=DIRECTION('',(1.,0.,0.));
#416=DIRECTION('',(0.,0.,1.));
#417=DIRECTION('',(1.,0.,0.));
#418=DIRECTION('',(0.,0.,1.));
#419=DIRECTION('',(1.,0.,8.78697562330744E-17));
#420=DIRECTION('',(0.,0.,1.));
#421=DIRECTION('',(1.,0.,0.));
#422=DIRECTION('',(0.,0.,-1.));
#423=DIRECTION('',(-1.,0.,0.));
#424=DIRECTION('',(0.,0.,-1.));
#425=DIRECTION('',(-1.,0.,0.));
#426=DIRECTION('',(0.,0.,-1.));
#427=DIRECTION('',(-1.,0.,0.));
#428=DIRECTION('',(-0.144306116415227,-1.76724023565294E-17,-0.989533094325377));
#429=DIRECTION('',(0.144306116415227,0.,-0.989533094325377));
#430=DIRECTION('',(0.,0.,-1.));
#431=DIRECTION('',(-1.,0.,-5.35268068092307E-16));
#432=DIRECTION('',(0.,0.,-1.));
#433=DIRECTION('',(-1.,0.,-5.35268068092307E-16));
#434=CARTESIAN_POINT('',(0.,0.,0.));
#435=CARTESIAN_POINT('',(0.,0.,0.));
#436=CARTESIAN_POINT('',(0.,0.,-100.));
#437=CARTESIAN_POINT('',(0.,0.,0.));
#438=CARTESIAN_POINT('',(0.01124723799997,1.38777878078145E-14,-3.19999999999999));
#439=CARTESIAN_POINT('',(-31.763752762,1.38777878078145E-14,-3.19999999999999));
#440=CARTESIAN_POINT('',(0.01124723799997,1.38777878078145E-14,-3.2));
#441=CARTESIAN_POINT('',(-22.6804168636626,1.38777878078145E-14,-3.2));
#442=CARTESIAN_POINT('',(22.7029113396625,1.66567151887573E-14,-3.2));
#443=CARTESIAN_POINT('',(0.01124723799997,1.38777878078145E-14,-3.2));
#444=CARTESIAN_POINT('',(0.01124723799997,-22.6916641016626,-3.2));
#445=CARTESIAN_POINT('',(0.01124723799997,1.38777878078145E-14,-19.1));
#446=CARTESIAN_POINT('',(17.511247238,1.38777878078145E-14,-19.1));
#447=CARTESIAN_POINT('',(-17.488752762,1.38777878078145E-14,-19.1));
#448=CARTESIAN_POINT('',(17.511247238,1.38777878078145E-14,-24.1));
#449=CARTESIAN_POINT('',(12.511247238,1.38777878078145E-14,-24.1));
#450=CARTESIAN_POINT('',(0.01124723799997,1.38777878078145E-14,-24.1));
#451=CARTESIAN_POINT('',(-12.488752762,1.38777878078145E-14,-24.1));
#452=CARTESIAN_POINT('',(-17.488752762,1.38777878078145E-14,-24.1));
#453=CARTESIAN_POINT('',(0.01124723799997,1.38777878078145E-14,-24.1));
#454=CARTESIAN_POINT('',(0.01124723799997,1.38777878078145E-14,-100.));
#455=CARTESIAN_POINT('',(-7.48875276200003,1.38777878078145E-14,-100.));
#456=CARTESIAN_POINT('',(7.51124723799997,1.38777878078145E-14,-100.));
#457=CARTESIAN_POINT('',(7.51124723799997,1.38777878078145E-14,-100.));
#458=CARTESIAN_POINT('',(12.511247238,1.35716261080276E-14,-89.2774653974521));
#459=CARTESIAN_POINT('',(0.01124723799997,1.38777878078145E-14,-89.2774653974522));
#460=CARTESIAN_POINT('',(-12.488752762,1.38777878078145E-14,-89.2774653974521));
#461=CARTESIAN_POINT('',(-7.48875276200003,1.38777878078145E-14,-100.));
#462=CARTESIAN_POINT('',(0.01124723799997,1.38777878078145E-14,-100.));
#463=CARTESIAN_POINT('',(12.511247238,1.38777878078145E-14,82.6493200682369));
#464=CARTESIAN_POINT('',(0.01124723799997,1.38777878078145E-14,-24.1));
#465=CARTESIAN_POINT('',(-12.488752762,1.38777878078145E-14,82.6493200682369));
#466=CARTESIAN_POINT('',(0.01124723799997,1.38777878078145E-14,82.6493200682369));
#467=CARTESIAN_POINT('',(0.01124723799997,1.38777878078145E-14,-100.));
#468=CARTESIAN_POINT('',(0.01124723799997,-7.49999999999999,-100.));
#469=CARTESIAN_POINT('',(0.01124723799997,1.38777878078145E-14,-89.2774653974522));
#470=CARTESIAN_POINT('',(0.01124723799997,1.38777878078145E-14,82.6493200682369));
#471=CARTESIAN_POINT('',(0.01124723799997,1.38777878078145E-14,-10.1926217491052));
#472=CARTESIAN_POINT('',(-28.113752762,1.38777878078145E-14,-10.1926217491052));
#473=CARTESIAN_POINT('',(0.01124723799997,1.38777878078145E-14,-9.225));
#474=CARTESIAN_POINT('',(-28.8613480261916,1.38777878078145E-14,-9.225));
#475=CARTESIAN_POINT('',(0.01124723799997,1.38777878078145E-14,-10.1926217491052));
#476=CARTESIAN_POINT('',(0.01124723799997,1.38777878078145E-14,-12.0073782508947));
#477=CARTESIAN_POINT('',(28.136247238,-5.60662627435704E-13,-12.0073782508947));
#478=CARTESIAN_POINT('',(0.01124723799997,1.38777878078145E-14,-12.975));
#479=CARTESIAN_POINT('',(-28.8613480261917,1.38777878078145E-14,-12.975));
#480=CARTESIAN_POINT('',(0.01124723799997,1.38777878078145E-14,-12.0073782508947));
#481=CARTESIAN_POINT('',(0.01124723799997,1.38777878078145E-14,-7.54929584448381));
#482=CARTESIAN_POINT('',(-31.763752762,1.38777878078145E-14,-7.54929584448381));
#483=CARTESIAN_POINT('',(0.01124723799997,1.38777878078145E-14,82.6493200682369));
#484=CARTESIAN_POINT('',(0.01124723799997,1.38777878078145E-14,-7.54929584448381));
#485=CARTESIAN_POINT('',(0.01124723799997,1.38777878078145E-14,-14.6507041555162));
#486=CARTESIAN_POINT('',(-31.763752762,1.38777878078145E-14,-14.6507041555162));
#487=CARTESIAN_POINT('',(0.01124723799997,1.38777878078145E-14,-12.975));
#488=CARTESIAN_POINT('',(0.01124723799997,1.38777878078145E-14,-19.1));
#489=CARTESIAN_POINT('',(31.786247238,1.38777878078145E-14,-19.1));
#490=CARTESIAN_POINT('',(0.01124723799997,1.38777878078145E-14,-19.1));
#491=CARTESIAN_POINT('',(0.01124723799997,-31.775,-19.1));
#492=CARTESIAN_POINT('',(0.01124723799997,1.38777878078145E-14,-3.2));
#493=CARTESIAN_POINT('',(0.01124723799997,1.38777878078145E-14,82.6493200682369));
#494=CARTESIAN_POINT('',(0.01124723799997,1.38777878078145E-14,-100.));
#495=CARTESIAN_POINT('',(0.01124723799997,1.38777878078145E-14,-24.1));
#496=CARTESIAN_POINT('',(0.01124723799997,1.38777878078145E-14,68.4));
#497=CARTESIAN_POINT('',(-12.2388075889628,1.51565161454353E-14,68.4));
#498=CARTESIAN_POINT('',(12.2613020649627,1.38777878078145E-14,68.4));
#499=CARTESIAN_POINT('',(0.01124723799997,1.38777878078145E-14,68.4));
#500=CARTESIAN_POINT('',(0.01124723799997,1.38777878078145E-14,68.4));
#501=CARTESIAN_POINT('',(-22.6804168636626,1.38777878078145E-14,-3.2));
#502=CARTESIAN_POINT('',(22.7029113396625,1.38777878078145E-14,-3.2));
#503=CARTESIAN_POINT('',(0.01124723799997,1.38777878078145E-14,-3.2));
#504=CARTESIAN_POINT('',(0.01124723799997,1.38777878078145E-14,-3.2));
#505=MECHANICAL_DESIGN_GEOMETRIC_PRESENTATION_REPRESENTATION('',(#277,#278,
#279,#280),#506);
#506=(
GEOMETRIC_REPRESENTATION_CONTEXT(3)
GLOBAL_UNCERTAINTY_ASSIGNED_CONTEXT((#507))
GLOBAL_UNIT_ASSIGNED_CONTEXT((#513,#509,#508))
REPRESENTATION_CONTEXT('69871.40ADB-W.06.100','TOP_LEVEL_ASSEMBLY_PART')
);
#507=UNCERTAINTY_MEASURE_WITH_UNIT(LENGTH_MEASURE(2.E-5),#513,
'DISTANCE_ACCURACY_VALUE','Maximum Tolerance applied to model');
#508=(
NAMED_UNIT(*)
SI_UNIT($,.STERADIAN.)
SOLID_ANGLE_UNIT()
);
#509=(
CONVERSION_BASED_UNIT('DEGREE',#511)
NAMED_UNIT(#510)
PLANE_ANGLE_UNIT()
);
#510=DIMENSIONAL_EXPONENTS(0.,0.,0.,0.,0.,0.,0.);
#511=PLANE_ANGLE_MEASURE_WITH_UNIT(PLANE_ANGLE_MEASURE(0.0174532925),#512);
#512=(
NAMED_UNIT(*)
PLANE_ANGLE_UNIT()
SI_UNIT($,.RADIAN.)
);
#513=(
LENGTH_UNIT()
NAMED_UNIT(*)
SI_UNIT(.MILLI.,.METRE.)
);
ENDSEC;
END-ISO-10303-21;
