ISO-10303-21;
HEADER;
/* Generated by software containing ST-Developer
 * from STEP Tools, Inc. (www.steptools.com) 
 */
/* OPTION: using custom schema-name function */

FILE_DESCRIPTION(
/* description */ (''),
/* implementation_level */ '2;1');

FILE_NAME(
/* name */ '69871.40ADB-SC.25.100.stp',
/* time_stamp */ '2024-06-28T08:56:47+02:00',
/* author */ (''),
/* organization */ (''),
/* preprocessor_version */ 'ST-DEVELOPER v16.7',
/* originating_system */ 'SIEMENS PLM Software NX 12.0',
/* authorisation */ '');

FILE_SCHEMA (('AUTOMOTIVE_DESIGN { 1 0 10303 214 3 1 1 1 }'));
ENDSEC;

DATA;
#10=CONSTRUCTIVE_GEOMETRY_REPRESENTATION_RELATIONSHIP(
'supplemental geometry','',#32,#11);
#11=CONSTRUCTIVE_GEOMETRY_REPRESENTATION('supplemental geometry',(#371,
#372,#373),#646);
#12=PROPERTY_DEFINITION_REPRESENTATION(#16,#14);
#13=PROPERTY_DEFINITION_REPRESENTATION(#17,#15);
#14=REPRESENTATION('',(#18),#646);
#15=REPRESENTATION('',(#19),#646);
#16=PROPERTY_DEFINITION('pmi validation property','',#23);
#17=PROPERTY_DEFINITION('pmi validation property','',#23);
#18=VALUE_REPRESENTATION_ITEM('number of annotations',COUNT_MEASURE(0.));
#19=VALUE_REPRESENTATION_ITEM('number of views',COUNT_MEASURE(0.));
#20=SHAPE_REPRESENTATION_RELATIONSHIP('None',
'relationship between pf661D7883C3rtb6-None and pf661D7883C3rtb6-None',
#32,#21);
#21=ADVANCED_BREP_SHAPE_REPRESENTATION('pf661D7883C3rtb6-None',(#38),#646);
#22=SHAPE_DEFINITION_REPRESENTATION(#23,#32);
#23=PRODUCT_DEFINITION_SHAPE('','',#24);
#24=PRODUCT_DEFINITION(' ','',#26,#25);
#25=PRODUCT_DEFINITION_CONTEXT('part definition',#31,'design');
#26=PRODUCT_DEFINITION_FORMATION_WITH_SPECIFIED_SOURCE(' ',' ',#28,
 .NOT_KNOWN.);
#27=PRODUCT_RELATED_PRODUCT_CATEGORY('part','',(#28));
#28=PRODUCT('pf661D7883C3rtb6','pf661D7883C3rtb6',' ',(#29));
#29=PRODUCT_CONTEXT(' ',#31,'mechanical');
#30=APPLICATION_PROTOCOL_DEFINITION('international standard',
'automotive_design',2010,#31);
#31=APPLICATION_CONTEXT(
'core data for automotive mechanical design processes');
#32=SHAPE_REPRESENTATION('pf661D7883C3rtb6-None',(#370),#646);
#33=SURFACE_STYLE_USAGE(.BOTH.,#34);
#34=SURFACE_SIDE_STYLE('',(#35));
#35=SURFACE_STYLE_FILL_AREA(#36);
#36=FILL_AREA_STYLE('',(#37));
#37=FILL_AREA_STYLE_COLOUR('',#366);
#38=MANIFOLD_SOLID_BREP('',#39);
#39=CLOSED_SHELL('',(#86,#87,#88,#89,#90,#91,#92,#93,#94,#95,#96,#97,#98,
#99,#100,#101,#102,#103,#104,#105,#106,#107,#108,#109,#110));
#40=CONICAL_SURFACE('',#402,24.28626342104,4.5);
#41=CONICAL_SURFACE('',#404,24.28626342104,4.5);
#42=CONICAL_SURFACE('',#409,30.3362976321,60.);
#43=CONICAL_SURFACE('',#421,30.3362976321,60.);
#44=CONICAL_SURFACE('',#424,17.39989973582,8.2971);
#45=CONICAL_SURFACE('',#426,17.39989973582,8.2971);
#46=CYLINDRICAL_SURFACE('',#385,24.);
#47=CYLINDRICAL_SURFACE('',#387,24.);
#48=CYLINDRICAL_SURFACE('',#398,26.5);
#49=CYLINDRICAL_SURFACE('',#400,26.5);
#50=CYLINDRICAL_SURFACE('',#407,31.775);
#51=CYLINDRICAL_SURFACE('',#415,28.);
#52=CYLINDRICAL_SURFACE('',#422,31.775);
#53=FACE_OUTER_BOUND('',#150,.T.);
#54=FACE_OUTER_BOUND('',#151,.T.);
#55=FACE_OUTER_BOUND('',#152,.T.);
#56=FACE_OUTER_BOUND('',#153,.T.);
#57=FACE_OUTER_BOUND('',#156,.T.);
#58=FACE_OUTER_BOUND('',#157,.T.);
#59=FACE_OUTER_BOUND('',#158,.T.);
#60=FACE_OUTER_BOUND('',#159,.T.);
#61=FACE_OUTER_BOUND('',#160,.T.);
#62=FACE_OUTER_BOUND('',#179,.T.);
#63=FACE_OUTER_BOUND('',#180,.T.);
#64=FACE_OUTER_BOUND('',#181,.T.);
#65=LINE('',#573,#73);
#66=LINE('',#575,#74);
#67=LINE('',#594,#75);
#68=LINE('',#598,#76);
#69=LINE('',#602,#77);
#70=LINE('',#604,#78);
#71=LINE('',#636,#79);
#72=LINE('',#638,#80);
#73=VECTOR('',#456,1.);
#74=VECTOR('',#457,1.);
#75=VECTOR('',#484,1.);
#76=VECTOR('',#487,1.);
#77=VECTOR('',#494,1.);
#78=VECTOR('',#495,1.);
#79=VECTOR('',#540,1.);
#80=VECTOR('',#541,1.);
#81=TOROIDAL_SURFACE('',#383,25.,1.);
#82=TOROIDAL_SURFACE('',#391,24.5,0.5);
#83=TOROIDAL_SURFACE('',#393,24.5,0.5);
#84=TOROIDAL_SURFACE('',#413,28.5,0.5);
#85=TOROIDAL_SURFACE('',#417,28.5,0.5);
#86=ADVANCED_FACE('',(#118,#119),#111,.F.);
#87=ADVANCED_FACE('',(#120,#121),#112,.T.);
#88=ADVANCED_FACE('',(#122,#123),#81,.F.);
#89=ADVANCED_FACE('',(#53),#46,.T.);
#90=ADVANCED_FACE('',(#54),#47,.T.);
#91=ADVANCED_FACE('',(#55),#82,.F.);
#92=ADVANCED_FACE('',(#56),#83,.F.);
#93=ADVANCED_FACE('',(#124,#125),#113,.F.);
#94=ADVANCED_FACE('',(#57),#48,.T.);
#95=ADVANCED_FACE('',(#58),#49,.T.);
#96=ADVANCED_FACE('',(#59),#40,.T.);
#97=ADVANCED_FACE('',(#60),#41,.T.);
#98=ADVANCED_FACE('',(#61),#114,.T.);
#99=ADVANCED_FACE('',(#126,#127),#50,.T.);
#100=ADVANCED_FACE('',(#128,#129),#42,.T.);
#101=ADVANCED_FACE('',(#130,#131),#115,.F.);
#102=ADVANCED_FACE('',(#132,#133),#84,.F.);
#103=ADVANCED_FACE('',(#134,#135),#51,.T.);
#104=ADVANCED_FACE('',(#136,#137),#85,.F.);
#105=ADVANCED_FACE('',(#138,#139),#116,.T.);
#106=ADVANCED_FACE('',(#140,#141),#43,.T.);
#107=ADVANCED_FACE('',(#142,#143),#52,.T.);
#108=ADVANCED_FACE('',(#62),#44,.T.);
#109=ADVANCED_FACE('',(#63),#45,.T.);
#110=ADVANCED_FACE('',(#64),#117,.F.);
#111=PLANE('',#377);
#112=PLANE('',#380);
#113=PLANE('',#396);
#114=PLANE('',#405);
#115=PLANE('',#411);
#116=PLANE('',#419);
#117=PLANE('',#427);
#118=FACE_BOUND('',#144,.T.);
#119=FACE_BOUND('',#145,.T.);
#120=FACE_BOUND('',#146,.T.);
#121=FACE_BOUND('',#147,.T.);
#122=FACE_BOUND('',#148,.T.);
#123=FACE_BOUND('',#149,.T.);
#124=FACE_BOUND('',#154,.T.);
#125=FACE_BOUND('',#155,.T.);
#126=FACE_BOUND('',#161,.T.);
#127=FACE_BOUND('',#162,.T.);
#128=FACE_BOUND('',#163,.T.);
#129=FACE_BOUND('',#164,.T.);
#130=FACE_BOUND('',#165,.T.);
#131=FACE_BOUND('',#166,.T.);
#132=FACE_BOUND('',#167,.T.);
#133=FACE_BOUND('',#168,.T.);
#134=FACE_BOUND('',#169,.T.);
#135=FACE_BOUND('',#170,.T.);
#136=FACE_BOUND('',#171,.T.);
#137=FACE_BOUND('',#172,.T.);
#138=FACE_BOUND('',#173,.T.);
#139=FACE_BOUND('',#174,.T.);
#140=FACE_BOUND('',#175,.T.);
#141=FACE_BOUND('',#176,.T.);
#142=FACE_BOUND('',#177,.T.);
#143=FACE_BOUND('',#178,.T.);
#144=EDGE_LOOP('',(#182));
#145=EDGE_LOOP('',(#183,#184));
#146=EDGE_LOOP('',(#185));
#147=EDGE_LOOP('',(#186));
#148=EDGE_LOOP('',(#187));
#149=EDGE_LOOP('',(#188,#189));
#150=EDGE_LOOP('',(#190,#191,#192,#193));
#151=EDGE_LOOP('',(#194,#195,#196,#197));
#152=EDGE_LOOP('',(#198,#199,#200,#201));
#153=EDGE_LOOP('',(#202,#203,#204,#205));
#154=EDGE_LOOP('',(#206,#207));
#155=EDGE_LOOP('',(#208,#209));
#156=EDGE_LOOP('',(#210,#211,#212,#213));
#157=EDGE_LOOP('',(#214,#215,#216,#217));
#158=EDGE_LOOP('',(#218,#219,#220,#221));
#159=EDGE_LOOP('',(#222,#223,#224,#225));
#160=EDGE_LOOP('',(#226,#227));
#161=EDGE_LOOP('',(#228));
#162=EDGE_LOOP('',(#229));
#163=EDGE_LOOP('',(#230));
#164=EDGE_LOOP('',(#231));
#165=EDGE_LOOP('',(#232));
#166=EDGE_LOOP('',(#233));
#167=EDGE_LOOP('',(#234));
#168=EDGE_LOOP('',(#235));
#169=EDGE_LOOP('',(#236));
#170=EDGE_LOOP('',(#237));
#171=EDGE_LOOP('',(#238));
#172=EDGE_LOOP('',(#239));
#173=EDGE_LOOP('',(#240));
#174=EDGE_LOOP('',(#241));
#175=EDGE_LOOP('',(#242));
#176=EDGE_LOOP('',(#243));
#177=EDGE_LOOP('',(#244));
#178=EDGE_LOOP('',(#245));
#179=EDGE_LOOP('',(#246,#247,#248,#249));
#180=EDGE_LOOP('',(#250,#251,#252,#253));
#181=EDGE_LOOP('',(#254,#255));
#182=ORIENTED_EDGE('',*,*,#283,.T.);
#183=ORIENTED_EDGE('',*,*,#284,.T.);
#184=ORIENTED_EDGE('',*,*,#285,.T.);
#185=ORIENTED_EDGE('',*,*,#286,.T.);
#186=ORIENTED_EDGE('',*,*,#287,.F.);
#187=ORIENTED_EDGE('',*,*,#286,.F.);
#188=ORIENTED_EDGE('',*,*,#288,.T.);
#189=ORIENTED_EDGE('',*,*,#289,.F.);
#190=ORIENTED_EDGE('',*,*,#290,.T.);
#191=ORIENTED_EDGE('',*,*,#288,.F.);
#192=ORIENTED_EDGE('',*,*,#291,.F.);
#193=ORIENTED_EDGE('',*,*,#292,.T.);
#194=ORIENTED_EDGE('',*,*,#289,.T.);
#195=ORIENTED_EDGE('',*,*,#290,.F.);
#196=ORIENTED_EDGE('',*,*,#293,.F.);
#197=ORIENTED_EDGE('',*,*,#291,.T.);
#198=ORIENTED_EDGE('',*,*,#293,.T.);
#199=ORIENTED_EDGE('',*,*,#294,.F.);
#200=ORIENTED_EDGE('',*,*,#295,.F.);
#201=ORIENTED_EDGE('',*,*,#296,.T.);
#202=ORIENTED_EDGE('',*,*,#297,.T.);
#203=ORIENTED_EDGE('',*,*,#294,.T.);
#204=ORIENTED_EDGE('',*,*,#292,.F.);
#205=ORIENTED_EDGE('',*,*,#296,.F.);
#206=ORIENTED_EDGE('',*,*,#298,.F.);
#207=ORIENTED_EDGE('',*,*,#299,.T.);
#208=ORIENTED_EDGE('',*,*,#297,.F.);
#209=ORIENTED_EDGE('',*,*,#295,.T.);
#210=ORIENTED_EDGE('',*,*,#298,.T.);
#211=ORIENTED_EDGE('',*,*,#300,.F.);
#212=ORIENTED_EDGE('',*,*,#301,.F.);
#213=ORIENTED_EDGE('',*,*,#302,.T.);
#214=ORIENTED_EDGE('',*,*,#303,.T.);
#215=ORIENTED_EDGE('',*,*,#300,.T.);
#216=ORIENTED_EDGE('',*,*,#299,.F.);
#217=ORIENTED_EDGE('',*,*,#302,.F.);
#218=ORIENTED_EDGE('',*,*,#304,.T.);
#219=ORIENTED_EDGE('',*,*,#303,.F.);
#220=ORIENTED_EDGE('',*,*,#305,.F.);
#221=ORIENTED_EDGE('',*,*,#306,.T.);
#222=ORIENTED_EDGE('',*,*,#305,.T.);
#223=ORIENTED_EDGE('',*,*,#301,.T.);
#224=ORIENTED_EDGE('',*,*,#304,.F.);
#225=ORIENTED_EDGE('',*,*,#307,.T.);
#226=ORIENTED_EDGE('',*,*,#307,.F.);
#227=ORIENTED_EDGE('',*,*,#306,.F.);
#228=ORIENTED_EDGE('',*,*,#287,.T.);
#229=ORIENTED_EDGE('',*,*,#308,.T.);
#230=ORIENTED_EDGE('',*,*,#308,.F.);
#231=ORIENTED_EDGE('',*,*,#309,.T.);
#232=ORIENTED_EDGE('',*,*,#309,.F.);
#233=ORIENTED_EDGE('',*,*,#310,.T.);
#234=ORIENTED_EDGE('',*,*,#310,.F.);
#235=ORIENTED_EDGE('',*,*,#311,.T.);
#236=ORIENTED_EDGE('',*,*,#311,.F.);
#237=ORIENTED_EDGE('',*,*,#312,.T.);
#238=ORIENTED_EDGE('',*,*,#312,.F.);
#239=ORIENTED_EDGE('',*,*,#313,.T.);
#240=ORIENTED_EDGE('',*,*,#313,.F.);
#241=ORIENTED_EDGE('',*,*,#314,.T.);
#242=ORIENTED_EDGE('',*,*,#314,.F.);
#243=ORIENTED_EDGE('',*,*,#315,.T.);
#244=ORIENTED_EDGE('',*,*,#315,.F.);
#245=ORIENTED_EDGE('',*,*,#283,.F.);
#246=ORIENTED_EDGE('',*,*,#316,.F.);
#247=ORIENTED_EDGE('',*,*,#285,.F.);
#248=ORIENTED_EDGE('',*,*,#317,.T.);
#249=ORIENTED_EDGE('',*,*,#318,.F.);
#250=ORIENTED_EDGE('',*,*,#317,.F.);
#251=ORIENTED_EDGE('',*,*,#284,.F.);
#252=ORIENTED_EDGE('',*,*,#316,.T.);
#253=ORIENTED_EDGE('',*,*,#319,.F.);
#254=ORIENTED_EDGE('',*,*,#319,.T.);
#255=ORIENTED_EDGE('',*,*,#318,.T.);
#256=VERTEX_POINT('',#557);
#257=VERTEX_POINT('',#559);
#258=VERTEX_POINT('',#560);
#259=VERTEX_POINT('',#564);
#260=VERTEX_POINT('',#566);
#261=VERTEX_POINT('',#569);
#262=VERTEX_POINT('',#570);
#263=VERTEX_POINT('',#574);
#264=VERTEX_POINT('',#576);
#265=VERTEX_POINT('',#582);
#266=VERTEX_POINT('',#584);
#267=VERTEX_POINT('',#590);
#268=VERTEX_POINT('',#591);
#269=VERTEX_POINT('',#595);
#270=VERTEX_POINT('',#597);
#271=VERTEX_POINT('',#603);
#272=VERTEX_POINT('',#605);
#273=VERTEX_POINT('',#612);
#274=VERTEX_POINT('',#615);
#275=VERTEX_POINT('',#618);
#276=VERTEX_POINT('',#621);
#277=VERTEX_POINT('',#624);
#278=VERTEX_POINT('',#627);
#279=VERTEX_POINT('',#630);
#280=VERTEX_POINT('',#633);
#281=VERTEX_POINT('',#637);
#282=VERTEX_POINT('',#639);
#283=EDGE_CURVE('',#256,#256,#320,.T.);
#284=EDGE_CURVE('',#257,#258,#321,.T.);
#285=EDGE_CURVE('',#258,#257,#322,.T.);
#286=EDGE_CURVE('',#259,#259,#323,.T.);
#287=EDGE_CURVE('',#260,#260,#324,.T.);
#288=EDGE_CURVE('',#261,#262,#325,.T.);
#289=EDGE_CURVE('',#261,#262,#326,.T.);
#290=EDGE_CURVE('',#263,#262,#65,.T.);
#291=EDGE_CURVE('',#264,#261,#66,.T.);
#292=EDGE_CURVE('',#264,#263,#327,.T.);
#293=EDGE_CURVE('',#264,#263,#328,.T.);
#294=EDGE_CURVE('',#265,#263,#329,.T.);
#295=EDGE_CURVE('',#266,#265,#330,.T.);
#296=EDGE_CURVE('',#266,#264,#331,.T.);
#297=EDGE_CURVE('',#266,#265,#332,.T.);
#298=EDGE_CURVE('',#267,#268,#333,.T.);
#299=EDGE_CURVE('',#267,#268,#334,.T.);
#300=EDGE_CURVE('',#269,#268,#67,.T.);
#301=EDGE_CURVE('',#270,#269,#335,.T.);
#302=EDGE_CURVE('',#270,#267,#68,.T.);
#303=EDGE_CURVE('',#270,#269,#336,.T.);
#304=EDGE_CURVE('',#271,#269,#69,.T.);
#305=EDGE_CURVE('',#272,#270,#70,.T.);
#306=EDGE_CURVE('',#272,#271,#337,.T.);
#307=EDGE_CURVE('',#271,#272,#338,.T.);
#308=EDGE_CURVE('',#273,#273,#339,.T.);
#309=EDGE_CURVE('',#274,#274,#340,.T.);
#310=EDGE_CURVE('',#275,#275,#341,.T.);
#311=EDGE_CURVE('',#276,#276,#342,.T.);
#312=EDGE_CURVE('',#277,#277,#343,.T.);
#313=EDGE_CURVE('',#278,#278,#344,.T.);
#314=EDGE_CURVE('',#279,#279,#345,.T.);
#315=EDGE_CURVE('',#280,#280,#346,.T.);
#316=EDGE_CURVE('',#257,#281,#71,.T.);
#317=EDGE_CURVE('',#258,#282,#72,.T.);
#318=EDGE_CURVE('',#281,#282,#347,.T.);
#319=EDGE_CURVE('',#282,#281,#348,.T.);
#320=CIRCLE('',#374,31.775);
#321=CIRCLE('',#375,22.6916641016621);
#322=CIRCLE('',#376,22.6916641016621);
#323=CIRCLE('',#378,25.);
#324=CIRCLE('',#379,31.775);
#325=CIRCLE('',#381,24.);
#326=CIRCLE('',#382,24.);
#327=CIRCLE('',#384,24.);
#328=CIRCLE('',#386,24.);
#329=CIRCLE('',#388,0.5);
#330=CIRCLE('',#389,24.5);
#331=CIRCLE('',#390,0.5);
#332=CIRCLE('',#392,24.5);
#333=CIRCLE('',#394,26.5);
#334=CIRCLE('',#395,26.5);
#335=CIRCLE('',#397,26.5);
#336=CIRCLE('',#399,26.5);
#337=CIRCLE('',#401,22.0000000000025);
#338=CIRCLE('',#403,22.0000000000025);
#339=CIRCLE('',#406,31.775);
#340=CIRCLE('',#408,28.89759526419);
#341=CIRCLE('',#410,28.5);
#342=CIRCLE('',#412,28.);
#343=CIRCLE('',#414,28.);
#344=CIRCLE('',#416,28.5);
#345=CIRCLE('',#418,28.89759526419);
#346=CIRCLE('',#420,31.775);
#347=CIRCLE('',#423,12.2500548269618);
#348=CIRCLE('',#425,12.2500548269618);
#349=INVISIBILITY((#350,#351,#352));
#350=PRESENTATION_LAYER_ASSIGNMENT('100','Layer 100',(#371));
#351=PRESENTATION_LAYER_ASSIGNMENT('101','Layer 101',(#372));
#352=PRESENTATION_LAYER_ASSIGNMENT('102','Layer 102',(#373));
#353=PRESENTATION_LAYER_ASSIGNMENT('98','Layer 98',(#38));
#354=STYLED_ITEM('',(#358),#371);
#355=STYLED_ITEM('',(#359),#372);
#356=STYLED_ITEM('',(#360),#373);
#357=STYLED_ITEM('',(#361),#38);
#358=PRESENTATION_STYLE_ASSIGNMENT((#362));
#359=PRESENTATION_STYLE_ASSIGNMENT((#363));
#360=PRESENTATION_STYLE_ASSIGNMENT((#364));
#361=PRESENTATION_STYLE_ASSIGNMENT((#33));
#362=CURVE_STYLE('',#367,POSITIVE_LENGTH_MEASURE(0.7),#365);
#363=CURVE_STYLE('',#368,POSITIVE_LENGTH_MEASURE(0.7),#365);
#364=CURVE_STYLE('',#369,POSITIVE_LENGTH_MEASURE(0.7),#365);
#365=COLOUR_RGB('Medium Maroon',0.6,0.4,0.4);
#366=COLOUR_RGB('Medium Gray',0.490196078431373,0.490196078431373,0.490196078431373);
#367=DRAUGHTING_PRE_DEFINED_CURVE_FONT('continuous');
#368=DRAUGHTING_PRE_DEFINED_CURVE_FONT('continuous');
#369=DRAUGHTING_PRE_DEFINED_CURVE_FONT('continuous');
#370=AXIS2_PLACEMENT_3D('',#552,#428,#429);
#371=AXIS2_PLACEMENT_3D('PCS',#553,#430,#431);
#372=AXIS2_PLACEMENT_3D('CSW',#554,#432,#433);
#373=AXIS2_PLACEMENT_3D('MCS',#555,#434,#435);
#374=AXIS2_PLACEMENT_3D('',#556,#436,#437);
#375=AXIS2_PLACEMENT_3D('',#558,#438,#439);
#376=AXIS2_PLACEMENT_3D('',#561,#440,#441);
#377=AXIS2_PLACEMENT_3D('',#562,#442,#443);
#378=AXIS2_PLACEMENT_3D('',#563,#444,#445);
#379=AXIS2_PLACEMENT_3D('',#565,#446,#447);
#380=AXIS2_PLACEMENT_3D('',#567,#448,#449);
#381=AXIS2_PLACEMENT_3D('',#568,#450,#451);
#382=AXIS2_PLACEMENT_3D('',#571,#452,#453);
#383=AXIS2_PLACEMENT_3D('',#572,#454,#455);
#384=AXIS2_PLACEMENT_3D('',#577,#458,#459);
#385=AXIS2_PLACEMENT_3D('',#578,#460,#461);
#386=AXIS2_PLACEMENT_3D('',#579,#462,#463);
#387=AXIS2_PLACEMENT_3D('',#580,#464,#465);
#388=AXIS2_PLACEMENT_3D('',#581,#466,#467);
#389=AXIS2_PLACEMENT_3D('',#583,#468,#469);
#390=AXIS2_PLACEMENT_3D('',#585,#470,#471);
#391=AXIS2_PLACEMENT_3D('',#586,#472,#473);
#392=AXIS2_PLACEMENT_3D('',#587,#474,#475);
#393=AXIS2_PLACEMENT_3D('',#588,#476,#477);
#394=AXIS2_PLACEMENT_3D('',#589,#478,#479);
#395=AXIS2_PLACEMENT_3D('',#592,#480,#481);
#396=AXIS2_PLACEMENT_3D('',#593,#482,#483);
#397=AXIS2_PLACEMENT_3D('',#596,#485,#486);
#398=AXIS2_PLACEMENT_3D('',#599,#488,#489);
#399=AXIS2_PLACEMENT_3D('',#600,#490,#491);
#400=AXIS2_PLACEMENT_3D('',#601,#492,#493);
#401=AXIS2_PLACEMENT_3D('',#606,#496,#497);
#402=AXIS2_PLACEMENT_3D('',#607,#498,#499);
#403=AXIS2_PLACEMENT_3D('',#608,#500,#501);
#404=AXIS2_PLACEMENT_3D('',#609,#502,#503);
#405=AXIS2_PLACEMENT_3D('',#610,#504,#505);
#406=AXIS2_PLACEMENT_3D('',#611,#506,#507);
#407=AXIS2_PLACEMENT_3D('',#613,#508,#509);
#408=AXIS2_PLACEMENT_3D('',#614,#510,#511);
#409=AXIS2_PLACEMENT_3D('',#616,#512,#513);
#410=AXIS2_PLACEMENT_3D('',#617,#514,#515);
#411=AXIS2_PLACEMENT_3D('',#619,#516,#517);
#412=AXIS2_PLACEMENT_3D('',#620,#518,#519);
#413=AXIS2_PLACEMENT_3D('',#622,#520,#521);
#414=AXIS2_PLACEMENT_3D('',#623,#522,#523);
#415=AXIS2_PLACEMENT_3D('',#625,#524,#525);
#416=AXIS2_PLACEMENT_3D('',#626,#526,#527);
#417=AXIS2_PLACEMENT_3D('',#628,#528,#529);
#418=AXIS2_PLACEMENT_3D('',#629,#530,#531);
#419=AXIS2_PLACEMENT_3D('',#631,#532,#533);
#420=AXIS2_PLACEMENT_3D('',#632,#534,#535);
#421=AXIS2_PLACEMENT_3D('',#634,#536,#537);
#422=AXIS2_PLACEMENT_3D('',#635,#538,#539);
#423=AXIS2_PLACEMENT_3D('',#640,#542,#543);
#424=AXIS2_PLACEMENT_3D('',#641,#544,#545);
#425=AXIS2_PLACEMENT_3D('',#642,#546,#547);
#426=AXIS2_PLACEMENT_3D('',#643,#548,#549);
#427=AXIS2_PLACEMENT_3D('',#644,#550,#551);
#428=DIRECTION('',(0.,0.,1.));
#429=DIRECTION('',(1.,0.,0.));
#430=DIRECTION('',(0.,0.,1.));
#431=DIRECTION('',(1.,0.,0.));
#432=DIRECTION('',(0.,0.,1.));
#433=DIRECTION('',(1.,0.,0.));
#434=DIRECTION('',(0.,0.,1.));
#435=DIRECTION('',(1.,0.,0.));
#436=DIRECTION('',(0.,0.,1.));
#437=DIRECTION('',(-1.,0.,0.));
#438=DIRECTION('',(0.,0.,-1.));
#439=DIRECTION('',(-1.,0.,0.));
#440=DIRECTION('',(0.,0.,-1.));
#441=DIRECTION('',(-1.,0.,0.));
#442=DIRECTION('',(0.,0.,-1.));
#443=DIRECTION('',(0.,1.,0.));
#444=DIRECTION('',(0.,0.,1.));
#445=DIRECTION('',(-0.94673966854674,-0.322000000000014,0.));
#446=DIRECTION('',(0.,0.,1.));
#447=DIRECTION('',(-1.,0.,0.));
#448=DIRECTION('',(0.,0.,-1.));
#449=DIRECTION('',(0.,1.,0.));
#450=DIRECTION('',(0.,0.,1.));
#451=DIRECTION('',(0.,1.,0.));
#452=DIRECTION('',(0.,0.,-1.));
#453=DIRECTION('',(0.,1.,0.));
#454=DIRECTION('',(0.,0.,-1.));
#455=DIRECTION('',(0.,1.,0.));
#456=DIRECTION('',(0.,0.,1.));
#457=DIRECTION('',(0.,0.,1.));
#458=DIRECTION('',(0.,0.,1.));
#459=DIRECTION('',(0.,1.,0.));
#460=DIRECTION('',(0.,0.,-1.));
#461=DIRECTION('',(0.,1.,0.));
#462=DIRECTION('',(0.,0.,-1.));
#463=DIRECTION('',(0.,1.,0.));
#464=DIRECTION('',(0.,0.,-1.));
#465=DIRECTION('',(0.,1.,0.));
#466=DIRECTION('',(1.,0.,0.));
#467=DIRECTION('',(0.,0.,-1.));
#468=DIRECTION('',(0.,0.,-1.));
#469=DIRECTION('',(0.,1.,0.));
#470=DIRECTION('',(-1.,0.,0.));
#471=DIRECTION('',(0.,0.,-1.));
#472=DIRECTION('',(0.,0.,-1.));
#473=DIRECTION('',(0.,1.,0.));
#474=DIRECTION('',(0.,0.,1.));
#475=DIRECTION('',(0.,1.,0.));
#476=DIRECTION('',(0.,0.,-1.));
#477=DIRECTION('',(0.,1.,0.));
#478=DIRECTION('',(0.,0.,-1.));
#479=DIRECTION('',(-1.,0.,0.));
#480=DIRECTION('',(0.,0.,1.));
#481=DIRECTION('',(-1.,0.,0.));
#482=DIRECTION('',(0.,0.,-1.));
#483=DIRECTION('',(0.,1.,0.));
#484=DIRECTION('',(0.,0.,1.));
#485=DIRECTION('',(0.,0.,-1.));
#486=DIRECTION('',(0.,1.,0.));
#487=DIRECTION('',(0.,0.,1.));
#488=DIRECTION('',(0.,0.,-1.));
#489=DIRECTION('',(0.,1.,0.));
#490=DIRECTION('',(0.,0.,1.));
#491=DIRECTION('',(0.,1.,0.));
#492=DIRECTION('',(0.,0.,-1.));
#493=DIRECTION('',(0.,1.,0.));
#494=DIRECTION('',(0.,-0.0784590957278522,0.996917333733127));
#495=DIRECTION('',(0.,0.0784590957278522,0.996917333733127));
#496=DIRECTION('',(0.,0.,1.));
#497=DIRECTION('',(-1.,0.,0.));
#498=DIRECTION('',(0.,0.,1.));
#499=DIRECTION('',(0.,-1.,-4.04254626284359E-16));
#500=DIRECTION('',(0.,0.,1.));
#501=DIRECTION('',(-1.,0.,0.));
#502=DIRECTION('',(0.,0.,1.));
#503=DIRECTION('',(0.,-1.,-4.04254626284359E-16));
#504=DIRECTION('',(0.,0.,-1.));
#505=DIRECTION('',(0.,1.,0.));
#506=DIRECTION('',(0.,0.,-1.));
#507=DIRECTION('',(0.967376300599849,-0.253343823760813,0.));
#508=DIRECTION('',(0.,0.,-1.));
#509=DIRECTION('',(0.,1.,0.));
#510=DIRECTION('',(0.,0.,-1.));
#511=DIRECTION('',(0.960415959422322,-0.278569892283607,0.));
#512=DIRECTION('',(0.,0.,-1.));
#513=DIRECTION('',(0.,1.,4.1340739373327E-17));
#514=DIRECTION('',(0.,0.,-1.));
#515=DIRECTION('',(0.959280213898982,-0.282456140350895,0.));
#516=DIRECTION('',(0.,0.,-1.));
#517=DIRECTION('',(0.,1.,0.));
#518=DIRECTION('',(0.,0.,-1.));
#519=DIRECTION('',(0.957780637724524,-0.287500000000007,0.));
#520=DIRECTION('',(0.,0.,-1.));
#521=DIRECTION('',(-0.00415426945299211,0.999991370985426,0.));
#522=DIRECTION('',(0.,0.,-1.));
#523=DIRECTION('',(0.957780637724524,-0.287500000000007,0.));
#524=DIRECTION('',(0.,0.,-1.));
#525=DIRECTION('',(0.,1.,0.));
#526=DIRECTION('',(0.,0.,-1.));
#527=DIRECTION('',(0.959280213898982,-0.282456140350895,0.));
#528=DIRECTION('',(0.,0.,-1.));
#529=DIRECTION('',(-0.0039631344949438,0.999992146751651,0.));
#530=DIRECTION('',(0.,0.,-1.));
#531=DIRECTION('',(0.960415959422322,-0.278569892283607,0.));
#532=DIRECTION('',(0.,0.,-1.));
#533=DIRECTION('',(0.,1.,0.));
#534=DIRECTION('',(0.,0.,-1.));
#535=DIRECTION('',(0.967376300599849,-0.253343823760813,0.));
#536=DIRECTION('',(0.,0.,1.));
#537=DIRECTION('',(0.,-1.,2.65761895971388E-17));
#538=DIRECTION('',(0.,0.,-1.));
#539=DIRECTION('',(0.,1.,0.));
#540=DIRECTION('',(1.33168609664097E-13,-0.144306116415197,0.989533094325381));
#541=DIRECTION('',(-1.33167879821197E-13,0.144306116415197,0.989533094325381));
#542=DIRECTION('',(0.,0.,1.));
#543=DIRECTION('',(-1.,0.,0.));
#544=DIRECTION('',(0.,0.,-1.));
#545=DIRECTION('',(0.,1.,-2.55055708228373E-16));
#546=DIRECTION('',(0.,0.,1.));
#547=DIRECTION('',(-1.,0.,0.));
#548=DIRECTION('',(0.,0.,-1.));
#549=DIRECTION('',(0.,1.,-2.55055708228373E-16));
#550=DIRECTION('',(0.,0.,-1.));
#551=DIRECTION('',(0.,1.,0.));
#552=CARTESIAN_POINT('',(0.,0.,0.));
#553=CARTESIAN_POINT('',(0.,0.,0.));
#554=CARTESIAN_POINT('',(0.,0.,-100.));
#555=CARTESIAN_POINT('',(0.,0.,0.));
#556=CARTESIAN_POINT('',(0.,0.,-3.19999999999999));
#557=CARTESIAN_POINT('',(-31.775,0.,-3.19999999999999));
#558=CARTESIAN_POINT('',(0.,0.,-3.2));
#559=CARTESIAN_POINT('',(0.,22.6916641016621,-3.2));
#560=CARTESIAN_POINT('',(-6.12411196672187E-12,-22.6916641016621,-3.2));
#561=CARTESIAN_POINT('',(0.,0.,-3.2));
#562=CARTESIAN_POINT('',(0.,0.,-3.2));
#563=CARTESIAN_POINT('',(0.,0.,-19.1));
#564=CARTESIAN_POINT('',(-23.6684917136685,-8.05000000000034,-19.1));
#565=CARTESIAN_POINT('',(0.,0.,-19.1));
#566=CARTESIAN_POINT('',(-31.775,0.,-19.1));
#567=CARTESIAN_POINT('',(0.,0.,-19.1));
#568=CARTESIAN_POINT('',(0.,0.,-20.1));
#569=CARTESIAN_POINT('',(0.,24.,-20.1));
#570=CARTESIAN_POINT('',(0.,-24.,-20.1));
#571=CARTESIAN_POINT('',(0.,0.,-20.1));
#572=CARTESIAN_POINT('',(0.,0.,-20.1));
#573=CARTESIAN_POINT('',(0.,-24.,-34.5));
#574=CARTESIAN_POINT('',(0.,-24.,-34.5));
#575=CARTESIAN_POINT('',(0.,24.,-34.5));
#576=CARTESIAN_POINT('',(0.,24.,-34.5));
#577=CARTESIAN_POINT('',(0.,0.,-34.5));
#578=CARTESIAN_POINT('',(0.,0.,-8.28626933041));
#579=CARTESIAN_POINT('',(0.,0.,-34.5));
#580=CARTESIAN_POINT('',(0.,0.,-8.28626933041));
#581=CARTESIAN_POINT('',(0.,-24.5,-34.5));
#582=CARTESIAN_POINT('',(0.,-24.5,-35.));
#583=CARTESIAN_POINT('',(0.,0.,-35.));
#584=CARTESIAN_POINT('',(0.,24.5,-35.));
#585=CARTESIAN_POINT('',(0.,24.5,-34.5));
#586=CARTESIAN_POINT('',(0.,0.,-34.5));
#587=CARTESIAN_POINT('',(0.,0.,-35.));
#588=CARTESIAN_POINT('',(0.,0.,-34.5));
#589=CARTESIAN_POINT('',(0.,0.,-35.));
#590=CARTESIAN_POINT('',(0.,26.5,-35.));
#591=CARTESIAN_POINT('',(0.,-26.5,-35.));
#592=CARTESIAN_POINT('',(0.,0.,-35.));
#593=CARTESIAN_POINT('',(0.,0.,-35.));
#594=CARTESIAN_POINT('',(0.,-26.5,-42.82207868721));
#595=CARTESIAN_POINT('',(0.,-26.5,-42.82207868721));
#596=CARTESIAN_POINT('',(0.,0.,-42.82207868721));
#597=CARTESIAN_POINT('',(0.,26.5,-42.82207868721));
#598=CARTESIAN_POINT('',(0.,26.5,-42.82207868721));
#599=CARTESIAN_POINT('',(0.,0.,-8.28626933041));
#600=CARTESIAN_POINT('',(0.,0.,-42.82207868721));
#601=CARTESIAN_POINT('',(0.,0.,-8.28626933041));
#602=CARTESIAN_POINT('',(4.913660549949E-14,-22.07252684207,-99.07845909573));
#603=CARTESIAN_POINT('',(4.913660549949E-14,-21.9999999999952,-100.));
#604=CARTESIAN_POINT('',(-4.491005319004E-14,22.07252684207,-99.07845909573));
#605=CARTESIAN_POINT('',(-4.491005319004E-14,21.9999999999952,-100.));
#606=CARTESIAN_POINT('',(0.,0.,-100.));
#607=CARTESIAN_POINT('',(0.,0.,-70.95026889147));
#608=CARTESIAN_POINT('',(0.,0.,-100.));
#609=CARTESIAN_POINT('',(0.,0.,-70.95026889147));
#610=CARTESIAN_POINT('',(0.,0.,-100.));
#611=CARTESIAN_POINT('',(0.,0.,-14.636270398786));
#612=CARTESIAN_POINT('',(30.7383819515602,-8.04999999999983,-14.636270398786));
#613=CARTESIAN_POINT('',(0.,0.,72.775));
#614=CARTESIAN_POINT('',(0.,0.,-12.975));
#615=CARTESIAN_POINT('',(27.753711680655,-8.05000000000067,-12.975));
#616=CARTESIAN_POINT('',(0.,0.,-13.805635199393));
#617=CARTESIAN_POINT('',(0.,0.,-12.975));
#618=CARTESIAN_POINT('',(27.339486096121,-8.0500000000005,-12.975));
#619=CARTESIAN_POINT('',(0.,0.,-12.975));
#620=CARTESIAN_POINT('',(0.,0.,-12.475));
#621=CARTESIAN_POINT('',(26.8178578562867,-8.0500000000002,-12.475));
#622=CARTESIAN_POINT('',(0.,0.,-12.475));
#623=CARTESIAN_POINT('',(0.,0.,-9.725));
#624=CARTESIAN_POINT('',(26.8178578562867,-8.0500000000002,-9.725));
#625=CARTESIAN_POINT('',(0.,0.,72.775));
#626=CARTESIAN_POINT('',(0.,0.,-9.225));
#627=CARTESIAN_POINT('',(27.339486096121,-8.0500000000005,-9.225));
#628=CARTESIAN_POINT('',(0.,0.,-9.725));
#629=CARTESIAN_POINT('',(0.,0.,-9.225));
#630=CARTESIAN_POINT('',(27.753711680655,-8.05000000000067,-9.225));
#631=CARTESIAN_POINT('',(0.,0.,-9.225));
#632=CARTESIAN_POINT('',(0.,0.,-7.56372960121));
#633=CARTESIAN_POINT('',(30.7383819515602,-8.04999999999983,-7.56372960121));
#634=CARTESIAN_POINT('',(0.,0.,-8.39436480061));
#635=CARTESIAN_POINT('',(0.,0.,72.775));
#636=CARTESIAN_POINT('',(0.,22.39999903812,-1.2));
#637=CARTESIAN_POINT('',(9.36657428212651E-12,12.2500548269614,68.4));
#638=CARTESIAN_POINT('',(0.,-22.39999903812,-1.2));
#639=CARTESIAN_POINT('',(-9.36652294774858E-12,-12.2500548269614,68.4));
#640=CARTESIAN_POINT('',(0.,0.,68.4));
#641=CARTESIAN_POINT('',(0.,0.,33.08658366985));
#642=CARTESIAN_POINT('',(0.,0.,68.4));
#643=CARTESIAN_POINT('',(0.,0.,33.08658366985));
#644=CARTESIAN_POINT('',(0.,0.,68.4));
#645=MECHANICAL_DESIGN_GEOMETRIC_PRESENTATION_REPRESENTATION('',(#354,#355,
#356,#357),#646);
#646=(
GEOMETRIC_REPRESENTATION_CONTEXT(3)
GLOBAL_UNCERTAINTY_ASSIGNED_CONTEXT((#647))
GLOBAL_UNIT_ASSIGNED_CONTEXT((#653,#649,#648))
REPRESENTATION_CONTEXT('69871.40ADB-SC.25','TOP_LEVEL_ASSEMBLY_PART')
);
#647=UNCERTAINTY_MEASURE_WITH_UNIT(LENGTH_MEASURE(2.E-5),#653,
'DISTANCE_ACCURACY_VALUE','Maximum Tolerance applied to model');
#648=(
NAMED_UNIT(*)
SI_UNIT($,.STERADIAN.)
SOLID_ANGLE_UNIT()
);
#649=(
CONVERSION_BASED_UNIT('DEGREE',#651)
NAMED_UNIT(#650)
PLANE_ANGLE_UNIT()
);
#650=DIMENSIONAL_EXPONENTS(0.,0.,0.,0.,0.,0.,0.);
#651=PLANE_ANGLE_MEASURE_WITH_UNIT(PLANE_ANGLE_MEASURE(0.0174532925),#652);
#652=(
NAMED_UNIT(*)
PLANE_ANGLE_UNIT()
SI_UNIT($,.RADIAN.)
);
#653=(
LENGTH_UNIT()
NAMED_UNIT(*)
SI_UNIT(.MILLI.,.METRE.)
);
ENDSEC;
END-ISO-10303-21;
