ISO-10303-21;
HEADER;
/* Generated by software containing ST-Developer
 * from STEP Tools, Inc. (www.steptools.com) 
 */
/* OPTION: using custom schema-name function */

FILE_DESCRIPTION(
/* description */ (''),
/* implementation_level */ '2;1');

FILE_NAME(
/* name */ '69871.40ADB-SC.18.160.stp',
/* time_stamp */ '2024-06-28T08:20:26+02:00',
/* author */ (''),
/* organization */ (''),
/* preprocessor_version */ 'ST-DEVELOPER v16.7',
/* originating_system */ 'SIEMENS PLM Software NX 12.0',
/* authorisation */ '');

FILE_SCHEMA (('AUTOMOTIVE_DESIGN { 1 0 10303 214 3 1 1 1 }'));
ENDSEC;

DATA;
#10=CONSTRUCTIVE_GEOMETRY_REPRESENTATION_RELATIONSHIP(
'supplemental geometry','',#32,#11);
#11=CONSTRUCTIVE_GEOMETRY_REPRESENTATION('supplemental geometry',(#316,
#317,#318),#546);
#12=PROPERTY_DEFINITION_REPRESENTATION(#16,#14);
#13=PROPERTY_DEFINITION_REPRESENTATION(#17,#15);
#14=REPRESENTATION('',(#18),#546);
#15=REPRESENTATION('',(#19),#546);
#16=PROPERTY_DEFINITION('pmi validation property','',#23);
#17=PROPERTY_DEFINITION('pmi validation property','',#23);
#18=VALUE_REPRESENTATION_ITEM('number of annotations',COUNT_MEASURE(0.));
#19=VALUE_REPRESENTATION_ITEM('number of views',COUNT_MEASURE(0.));
#20=SHAPE_REPRESENTATION_RELATIONSHIP('None',
'relationship between pf661D7883C3rt9z-None and pf661D7883C3rt9z-None',
#32,#21);
#21=ADVANCED_BREP_SHAPE_REPRESENTATION('pf661D7883C3rt9z-None',(#38),#546);
#22=SHAPE_DEFINITION_REPRESENTATION(#23,#32);
#23=PRODUCT_DEFINITION_SHAPE('','',#24);
#24=PRODUCT_DEFINITION(' ','',#26,#25);
#25=PRODUCT_DEFINITION_CONTEXT('part definition',#31,'design');
#26=PRODUCT_DEFINITION_FORMATION_WITH_SPECIFIED_SOURCE(' ',' ',#28,
 .NOT_KNOWN.);
#27=PRODUCT_RELATED_PRODUCT_CATEGORY('part','',(#28));
#28=PRODUCT('pf661D7883C3rt9z','pf661D7883C3rt9z',' ',(#29));
#29=PRODUCT_CONTEXT(' ',#31,'mechanical');
#30=APPLICATION_PROTOCOL_DEFINITION('international standard',
'automotive_design',2010,#31);
#31=APPLICATION_CONTEXT(
'core data for automotive mechanical design processes');
#32=SHAPE_REPRESENTATION('pf661D7883C3rt9z-None',(#315),#546);
#33=SURFACE_STYLE_USAGE(.BOTH.,#34);
#34=SURFACE_SIDE_STYLE('',(#35));
#35=SURFACE_STYLE_FILL_AREA(#36);
#36=FILL_AREA_STYLE('',(#37));
#37=FILL_AREA_STYLE_COLOUR('',#311);
#38=MANIFOLD_SOLID_BREP('',#39);
#39=CLOSED_SHELL('',(#77,#78,#79,#80,#81,#82,#83,#84,#85,#86,#87,#88,#89,
#90,#91,#92,#93,#94,#95,#96,#97));
#40=CONICAL_SURFACE('',#338,18.78626342104,4.5);
#41=CONICAL_SURFACE('',#340,18.78626342104,4.5);
#42=CONICAL_SURFACE('',#345,30.3362976321,60.);
#43=CONICAL_SURFACE('',#351,30.3362976321,60.);
#44=CONICAL_SURFACE('',#362,17.39989973582,8.2971);
#45=CONICAL_SURFACE('',#363,17.39989973582,8.2971);
#46=CYLINDRICAL_SURFACE('',#332,21.);
#47=CYLINDRICAL_SURFACE('',#335,21.);
#48=CYLINDRICAL_SURFACE('',#343,31.775);
#49=CYLINDRICAL_SURFACE('',#349,31.775);
#50=CYLINDRICAL_SURFACE('',#357,28.);
#51=LINE('',#492,#57);
#52=LINE('',#496,#58);
#53=LINE('',#502,#59);
#54=LINE('',#504,#60);
#55=LINE('',#541,#61);
#56=LINE('',#542,#62);
#57=VECTOR('',#396,1.);
#58=VECTOR('',#399,1.);
#59=VECTOR('',#410,1.);
#60=VECTOR('',#411,1.);
#61=VECTOR('',#462,1.);
#62=VECTOR('',#463,1.);
#63=TOROIDAL_SURFACE('',#330,23.,2.);
#64=TOROIDAL_SURFACE('',#336,23.,2.);
#65=TOROIDAL_SURFACE('',#355,28.5,0.5);
#66=TOROIDAL_SURFACE('',#358,28.5,0.5);
#67=FACE_OUTER_BOUND('',#130,.T.);
#68=FACE_OUTER_BOUND('',#131,.T.);
#69=FACE_OUTER_BOUND('',#132,.T.);
#70=FACE_OUTER_BOUND('',#133,.T.);
#71=FACE_OUTER_BOUND('',#134,.T.);
#72=FACE_OUTER_BOUND('',#135,.T.);
#73=FACE_OUTER_BOUND('',#136,.T.);
#74=FACE_OUTER_BOUND('',#155,.T.);
#75=FACE_OUTER_BOUND('',#156,.T.);
#76=FACE_OUTER_BOUND('',#157,.T.);
#77=ADVANCED_FACE('',(#104,#105),#98,.F.);
#78=ADVANCED_FACE('',(#106,#107),#99,.T.);
#79=ADVANCED_FACE('',(#67),#63,.F.);
#80=ADVANCED_FACE('',(#68),#46,.T.);
#81=ADVANCED_FACE('',(#69),#47,.T.);
#82=ADVANCED_FACE('',(#70),#64,.F.);
#83=ADVANCED_FACE('',(#71),#40,.T.);
#84=ADVANCED_FACE('',(#72),#41,.T.);
#85=ADVANCED_FACE('',(#73),#100,.T.);
#86=ADVANCED_FACE('',(#108,#109),#48,.T.);
#87=ADVANCED_FACE('',(#110,#111),#42,.T.);
#88=ADVANCED_FACE('',(#112,#113),#101,.F.);
#89=ADVANCED_FACE('',(#114,#115),#49,.T.);
#90=ADVANCED_FACE('',(#116,#117),#43,.T.);
#91=ADVANCED_FACE('',(#118,#119),#102,.T.);
#92=ADVANCED_FACE('',(#120,#121),#65,.F.);
#93=ADVANCED_FACE('',(#122,#123),#50,.T.);
#94=ADVANCED_FACE('',(#124,#125),#66,.F.);
#95=ADVANCED_FACE('',(#74),#103,.F.);
#96=ADVANCED_FACE('',(#75),#44,.T.);
#97=ADVANCED_FACE('',(#76),#45,.T.);
#98=PLANE('',#322);
#99=PLANE('',#326);
#100=PLANE('',#341);
#101=PLANE('',#347);
#102=PLANE('',#353);
#103=PLANE('',#361);
#104=FACE_BOUND('',#126,.T.);
#105=FACE_BOUND('',#127,.T.);
#106=FACE_BOUND('',#128,.T.);
#107=FACE_BOUND('',#129,.T.);
#108=FACE_BOUND('',#137,.T.);
#109=FACE_BOUND('',#138,.T.);
#110=FACE_BOUND('',#139,.T.);
#111=FACE_BOUND('',#140,.T.);
#112=FACE_BOUND('',#141,.T.);
#113=FACE_BOUND('',#142,.T.);
#114=FACE_BOUND('',#143,.T.);
#115=FACE_BOUND('',#144,.T.);
#116=FACE_BOUND('',#145,.T.);
#117=FACE_BOUND('',#146,.T.);
#118=FACE_BOUND('',#147,.T.);
#119=FACE_BOUND('',#148,.T.);
#120=FACE_BOUND('',#149,.T.);
#121=FACE_BOUND('',#150,.T.);
#122=FACE_BOUND('',#151,.T.);
#123=FACE_BOUND('',#152,.T.);
#124=FACE_BOUND('',#153,.T.);
#125=FACE_BOUND('',#154,.T.);
#126=EDGE_LOOP('',(#158));
#127=EDGE_LOOP('',(#159,#160));
#128=EDGE_LOOP('',(#161));
#129=EDGE_LOOP('',(#162,#163));
#130=EDGE_LOOP('',(#164,#165,#166,#167));
#131=EDGE_LOOP('',(#168,#169,#170,#171));
#132=EDGE_LOOP('',(#172,#173,#174,#175));
#133=EDGE_LOOP('',(#176,#177,#178,#179));
#134=EDGE_LOOP('',(#180,#181,#182,#183));
#135=EDGE_LOOP('',(#184,#185,#186,#187));
#136=EDGE_LOOP('',(#188,#189));
#137=EDGE_LOOP('',(#190));
#138=EDGE_LOOP('',(#191));
#139=EDGE_LOOP('',(#192));
#140=EDGE_LOOP('',(#193));
#141=EDGE_LOOP('',(#194));
#142=EDGE_LOOP('',(#195));
#143=EDGE_LOOP('',(#196));
#144=EDGE_LOOP('',(#197));
#145=EDGE_LOOP('',(#198));
#146=EDGE_LOOP('',(#199));
#147=EDGE_LOOP('',(#200));
#148=EDGE_LOOP('',(#201));
#149=EDGE_LOOP('',(#202));
#150=EDGE_LOOP('',(#203));
#151=EDGE_LOOP('',(#204));
#152=EDGE_LOOP('',(#205));
#153=EDGE_LOOP('',(#206));
#154=EDGE_LOOP('',(#207));
#155=EDGE_LOOP('',(#208,#209));
#156=EDGE_LOOP('',(#210,#211,#212,#213));
#157=EDGE_LOOP('',(#214,#215,#216,#217));
#158=ORIENTED_EDGE('',*,*,#240,.T.);
#159=ORIENTED_EDGE('',*,*,#241,.T.);
#160=ORIENTED_EDGE('',*,*,#242,.T.);
#161=ORIENTED_EDGE('',*,*,#243,.F.);
#162=ORIENTED_EDGE('',*,*,#244,.F.);
#163=ORIENTED_EDGE('',*,*,#245,.F.);
#164=ORIENTED_EDGE('',*,*,#246,.F.);
#165=ORIENTED_EDGE('',*,*,#244,.T.);
#166=ORIENTED_EDGE('',*,*,#247,.T.);
#167=ORIENTED_EDGE('',*,*,#248,.F.);
#168=ORIENTED_EDGE('',*,*,#249,.F.);
#169=ORIENTED_EDGE('',*,*,#250,.T.);
#170=ORIENTED_EDGE('',*,*,#251,.T.);
#171=ORIENTED_EDGE('',*,*,#248,.T.);
#172=ORIENTED_EDGE('',*,*,#251,.F.);
#173=ORIENTED_EDGE('',*,*,#252,.F.);
#174=ORIENTED_EDGE('',*,*,#249,.T.);
#175=ORIENTED_EDGE('',*,*,#253,.T.);
#176=ORIENTED_EDGE('',*,*,#246,.T.);
#177=ORIENTED_EDGE('',*,*,#253,.F.);
#178=ORIENTED_EDGE('',*,*,#247,.F.);
#179=ORIENTED_EDGE('',*,*,#245,.T.);
#180=ORIENTED_EDGE('',*,*,#254,.T.);
#181=ORIENTED_EDGE('',*,*,#252,.T.);
#182=ORIENTED_EDGE('',*,*,#255,.F.);
#183=ORIENTED_EDGE('',*,*,#256,.T.);
#184=ORIENTED_EDGE('',*,*,#255,.T.);
#185=ORIENTED_EDGE('',*,*,#250,.F.);
#186=ORIENTED_EDGE('',*,*,#254,.F.);
#187=ORIENTED_EDGE('',*,*,#257,.T.);
#188=ORIENTED_EDGE('',*,*,#256,.F.);
#189=ORIENTED_EDGE('',*,*,#257,.F.);
#190=ORIENTED_EDGE('',*,*,#243,.T.);
#191=ORIENTED_EDGE('',*,*,#258,.T.);
#192=ORIENTED_EDGE('',*,*,#258,.F.);
#193=ORIENTED_EDGE('',*,*,#259,.T.);
#194=ORIENTED_EDGE('',*,*,#259,.F.);
#195=ORIENTED_EDGE('',*,*,#260,.T.);
#196=ORIENTED_EDGE('',*,*,#261,.F.);
#197=ORIENTED_EDGE('',*,*,#240,.F.);
#198=ORIENTED_EDGE('',*,*,#262,.F.);
#199=ORIENTED_EDGE('',*,*,#261,.T.);
#200=ORIENTED_EDGE('',*,*,#263,.F.);
#201=ORIENTED_EDGE('',*,*,#262,.T.);
#202=ORIENTED_EDGE('',*,*,#264,.F.);
#203=ORIENTED_EDGE('',*,*,#263,.T.);
#204=ORIENTED_EDGE('',*,*,#265,.F.);
#205=ORIENTED_EDGE('',*,*,#264,.T.);
#206=ORIENTED_EDGE('',*,*,#260,.F.);
#207=ORIENTED_EDGE('',*,*,#265,.T.);
#208=ORIENTED_EDGE('',*,*,#266,.T.);
#209=ORIENTED_EDGE('',*,*,#267,.T.);
#210=ORIENTED_EDGE('',*,*,#268,.F.);
#211=ORIENTED_EDGE('',*,*,#242,.F.);
#212=ORIENTED_EDGE('',*,*,#269,.T.);
#213=ORIENTED_EDGE('',*,*,#267,.F.);
#214=ORIENTED_EDGE('',*,*,#269,.F.);
#215=ORIENTED_EDGE('',*,*,#241,.F.);
#216=ORIENTED_EDGE('',*,*,#268,.T.);
#217=ORIENTED_EDGE('',*,*,#266,.F.);
#218=VERTEX_POINT('',#473);
#219=VERTEX_POINT('',#475);
#220=VERTEX_POINT('',#476);
#221=VERTEX_POINT('',#480);
#222=VERTEX_POINT('',#482);
#223=VERTEX_POINT('',#483);
#224=VERTEX_POINT('',#487);
#225=VERTEX_POINT('',#489);
#226=VERTEX_POINT('',#493);
#227=VERTEX_POINT('',#495);
#228=VERTEX_POINT('',#503);
#229=VERTEX_POINT('',#505);
#230=VERTEX_POINT('',#512);
#231=VERTEX_POINT('',#515);
#232=VERTEX_POINT('',#518);
#233=VERTEX_POINT('',#521);
#234=VERTEX_POINT('',#524);
#235=VERTEX_POINT('',#527);
#236=VERTEX_POINT('',#530);
#237=VERTEX_POINT('',#533);
#238=VERTEX_POINT('',#537);
#239=VERTEX_POINT('',#538);
#240=EDGE_CURVE('',#218,#218,#270,.T.);
#241=EDGE_CURVE('',#219,#220,#271,.T.);
#242=EDGE_CURVE('',#220,#219,#272,.T.);
#243=EDGE_CURVE('',#221,#221,#273,.T.);
#244=EDGE_CURVE('',#222,#223,#274,.T.);
#245=EDGE_CURVE('',#223,#222,#275,.T.);
#246=EDGE_CURVE('',#222,#224,#276,.T.);
#247=EDGE_CURVE('',#223,#225,#277,.T.);
#248=EDGE_CURVE('',#224,#225,#278,.T.);
#249=EDGE_CURVE('',#226,#225,#51,.T.);
#250=EDGE_CURVE('',#226,#227,#279,.T.);
#251=EDGE_CURVE('',#227,#224,#52,.T.);
#252=EDGE_CURVE('',#226,#227,#280,.T.);
#253=EDGE_CURVE('',#225,#224,#281,.T.);
#254=EDGE_CURVE('',#228,#226,#53,.T.);
#255=EDGE_CURVE('',#229,#227,#54,.T.);
#256=EDGE_CURVE('',#229,#228,#282,.T.);
#257=EDGE_CURVE('',#228,#229,#283,.T.);
#258=EDGE_CURVE('',#230,#230,#284,.T.);
#259=EDGE_CURVE('',#231,#231,#285,.T.);
#260=EDGE_CURVE('',#232,#232,#286,.T.);
#261=EDGE_CURVE('',#233,#233,#287,.T.);
#262=EDGE_CURVE('',#234,#234,#288,.T.);
#263=EDGE_CURVE('',#235,#235,#289,.T.);
#264=EDGE_CURVE('',#236,#236,#290,.T.);
#265=EDGE_CURVE('',#237,#237,#291,.T.);
#266=EDGE_CURVE('',#238,#239,#292,.T.);
#267=EDGE_CURVE('',#239,#238,#293,.T.);
#268=EDGE_CURVE('',#219,#239,#55,.T.);
#269=EDGE_CURVE('',#220,#238,#56,.T.);
#270=CIRCLE('',#319,31.775);
#271=CIRCLE('',#320,22.6916641016621);
#272=CIRCLE('',#321,22.6916641016621);
#273=CIRCLE('',#323,31.775);
#274=CIRCLE('',#324,23.);
#275=CIRCLE('',#325,23.);
#276=CIRCLE('',#327,2.);
#277=CIRCLE('',#328,2.);
#278=CIRCLE('',#329,21.);
#279=CIRCLE('',#331,21.);
#280=CIRCLE('',#333,21.);
#281=CIRCLE('',#334,21.);
#282=CIRCLE('',#337,16.5000000000048);
#283=CIRCLE('',#339,16.5000000000048);
#284=CIRCLE('',#342,31.775);
#285=CIRCLE('',#344,28.89759526419);
#286=CIRCLE('',#346,28.5);
#287=CIRCLE('',#348,31.775);
#288=CIRCLE('',#350,28.89759526419);
#289=CIRCLE('',#352,28.5);
#290=CIRCLE('',#354,28.);
#291=CIRCLE('',#356,28.);
#292=CIRCLE('',#359,12.2500548269618);
#293=CIRCLE('',#360,12.2500548269618);
#294=INVISIBILITY((#295,#296,#297));
#295=PRESENTATION_LAYER_ASSIGNMENT('100','Layer 100',(#316));
#296=PRESENTATION_LAYER_ASSIGNMENT('101','Layer 101',(#317));
#297=PRESENTATION_LAYER_ASSIGNMENT('102','Layer 102',(#318));
#298=PRESENTATION_LAYER_ASSIGNMENT('98','Layer 98',(#38));
#299=STYLED_ITEM('',(#303),#316);
#300=STYLED_ITEM('',(#304),#317);
#301=STYLED_ITEM('',(#305),#318);
#302=STYLED_ITEM('',(#306),#38);
#303=PRESENTATION_STYLE_ASSIGNMENT((#307));
#304=PRESENTATION_STYLE_ASSIGNMENT((#308));
#305=PRESENTATION_STYLE_ASSIGNMENT((#309));
#306=PRESENTATION_STYLE_ASSIGNMENT((#33));
#307=CURVE_STYLE('',#312,POSITIVE_LENGTH_MEASURE(0.7),#310);
#308=CURVE_STYLE('',#313,POSITIVE_LENGTH_MEASURE(0.7),#310);
#309=CURVE_STYLE('',#314,POSITIVE_LENGTH_MEASURE(0.7),#310);
#310=COLOUR_RGB('Medium Maroon',0.6,0.4,0.4);
#311=COLOUR_RGB('Medium Gray',0.490196078431373,0.490196078431373,0.490196078431373);
#312=DRAUGHTING_PRE_DEFINED_CURVE_FONT('continuous');
#313=DRAUGHTING_PRE_DEFINED_CURVE_FONT('continuous');
#314=DRAUGHTING_PRE_DEFINED_CURVE_FONT('continuous');
#315=AXIS2_PLACEMENT_3D('',#468,#364,#365);
#316=AXIS2_PLACEMENT_3D('PCS',#469,#366,#367);
#317=AXIS2_PLACEMENT_3D('CSW',#470,#368,#369);
#318=AXIS2_PLACEMENT_3D('MCS',#471,#370,#371);
#319=AXIS2_PLACEMENT_3D('',#472,#372,#373);
#320=AXIS2_PLACEMENT_3D('',#474,#374,#375);
#321=AXIS2_PLACEMENT_3D('',#477,#376,#377);
#322=AXIS2_PLACEMENT_3D('',#478,#378,#379);
#323=AXIS2_PLACEMENT_3D('',#479,#380,#381);
#324=AXIS2_PLACEMENT_3D('',#481,#382,#383);
#325=AXIS2_PLACEMENT_3D('',#484,#384,#385);
#326=AXIS2_PLACEMENT_3D('',#485,#386,#387);
#327=AXIS2_PLACEMENT_3D('',#486,#388,#389);
#328=AXIS2_PLACEMENT_3D('',#488,#390,#391);
#329=AXIS2_PLACEMENT_3D('',#490,#392,#393);
#330=AXIS2_PLACEMENT_3D('',#491,#394,#395);
#331=AXIS2_PLACEMENT_3D('',#494,#397,#398);
#332=AXIS2_PLACEMENT_3D('',#497,#400,#401);
#333=AXIS2_PLACEMENT_3D('',#498,#402,#403);
#334=AXIS2_PLACEMENT_3D('',#499,#404,#405);
#335=AXIS2_PLACEMENT_3D('',#500,#406,#407);
#336=AXIS2_PLACEMENT_3D('',#501,#408,#409);
#337=AXIS2_PLACEMENT_3D('',#506,#412,#413);
#338=AXIS2_PLACEMENT_3D('',#507,#414,#415);
#339=AXIS2_PLACEMENT_3D('',#508,#416,#417);
#340=AXIS2_PLACEMENT_3D('',#509,#418,#419);
#341=AXIS2_PLACEMENT_3D('',#510,#420,#421);
#342=AXIS2_PLACEMENT_3D('',#511,#422,#423);
#343=AXIS2_PLACEMENT_3D('',#513,#424,#425);
#344=AXIS2_PLACEMENT_3D('',#514,#426,#427);
#345=AXIS2_PLACEMENT_3D('',#516,#428,#429);
#346=AXIS2_PLACEMENT_3D('',#517,#430,#431);
#347=AXIS2_PLACEMENT_3D('',#519,#432,#433);
#348=AXIS2_PLACEMENT_3D('',#520,#434,#435);
#349=AXIS2_PLACEMENT_3D('',#522,#436,#437);
#350=AXIS2_PLACEMENT_3D('',#523,#438,#439);
#351=AXIS2_PLACEMENT_3D('',#525,#440,#441);
#352=AXIS2_PLACEMENT_3D('',#526,#442,#443);
#353=AXIS2_PLACEMENT_3D('',#528,#444,#445);
#354=AXIS2_PLACEMENT_3D('',#529,#446,#447);
#355=AXIS2_PLACEMENT_3D('',#531,#448,#449);
#356=AXIS2_PLACEMENT_3D('',#532,#450,#451);
#357=AXIS2_PLACEMENT_3D('',#534,#452,#453);
#358=AXIS2_PLACEMENT_3D('',#535,#454,#455);
#359=AXIS2_PLACEMENT_3D('',#536,#456,#457);
#360=AXIS2_PLACEMENT_3D('',#539,#458,#459);
#361=AXIS2_PLACEMENT_3D('',#540,#460,#461);
#362=AXIS2_PLACEMENT_3D('',#543,#464,#465);
#363=AXIS2_PLACEMENT_3D('',#544,#466,#467);
#364=DIRECTION('',(0.,0.,1.));
#365=DIRECTION('',(1.,0.,0.));
#366=DIRECTION('',(0.,0.,1.));
#367=DIRECTION('',(1.,0.,0.));
#368=DIRECTION('',(0.,0.,1.));
#369=DIRECTION('',(1.,0.,0.));
#370=DIRECTION('',(0.,0.,1.));
#371=DIRECTION('',(1.,0.,0.));
#372=DIRECTION('',(0.,0.,1.));
#373=DIRECTION('',(-1.,0.,0.));
#374=DIRECTION('',(0.,0.,-1.));
#375=DIRECTION('',(-1.,0.,0.));
#376=DIRECTION('',(0.,0.,-1.));
#377=DIRECTION('',(-1.,0.,0.));
#378=DIRECTION('',(0.,0.,-1.));
#379=DIRECTION('',(0.,1.,0.));
#380=DIRECTION('',(0.,0.,1.));
#381=DIRECTION('',(-1.,0.,0.));
#382=DIRECTION('',(0.,0.,-1.));
#383=DIRECTION('',(-0.986957375757152,0.160981795363809,0.));
#384=DIRECTION('',(0.,0.,-1.));
#385=DIRECTION('',(0.,1.,0.));
#386=DIRECTION('',(0.,0.,-1.));
#387=DIRECTION('',(0.,1.,0.));
#388=DIRECTION('',(-1.,0.,0.));
#389=DIRECTION('',(0.,3.12250225675825E-14,1.));
#390=DIRECTION('',(1.,0.,0.));
#391=DIRECTION('',(0.,-3.12250225675825E-14,1.));
#392=DIRECTION('',(0.,0.,-1.));
#393=DIRECTION('',(0.,-1.,0.));
#394=DIRECTION('',(0.,0.,-1.));
#395=DIRECTION('',(-0.00528416856784108,0.999986038683814,0.));
#396=DIRECTION('',(4.338368402648E-14,0.,1.));
#397=DIRECTION('',(0.,0.,1.));
#398=DIRECTION('',(0.,1.,0.));
#399=DIRECTION('',(-1.609578524296E-13,0.,1.));
#400=DIRECTION('',(0.,0.,-1.));
#401=DIRECTION('',(0.,1.,0.));
#402=DIRECTION('',(0.,0.,-1.));
#403=DIRECTION('',(0.,1.,0.));
#404=DIRECTION('',(0.,0.,-1.));
#405=DIRECTION('',(0.,1.,0.));
#406=DIRECTION('',(0.,0.,-1.));
#407=DIRECTION('',(0.,1.,0.));
#408=DIRECTION('',(0.,0.,-1.));
#409=DIRECTION('',(0.00528416856784108,-0.999986038683814,0.));
#410=DIRECTION('',(2.32234387765807E-14,0.0784590957278422,0.996917333733128));
#411=DIRECTION('',(-2.32144473841507E-14,-0.0784590957278422,0.996917333733128));
#412=DIRECTION('',(0.,0.,1.));
#413=DIRECTION('',(-1.,0.,0.));
#414=DIRECTION('',(0.,0.,1.));
#415=DIRECTION('',(0.,-1.,2.8470769824921E-16));
#416=DIRECTION('',(0.,0.,1.));
#417=DIRECTION('',(-1.,0.,0.));
#418=DIRECTION('',(0.,0.,1.));
#419=DIRECTION('',(0.,-1.,2.8470769824921E-16));
#420=DIRECTION('',(0.,0.,-1.));
#421=DIRECTION('',(0.,1.,0.));
#422=DIRECTION('',(0.,0.,-1.));
#423=DIRECTION('',(0.967376300599849,-0.253343823760813,0.));
#424=DIRECTION('',(0.,0.,-1.));
#425=DIRECTION('',(0.,1.,0.));
#426=DIRECTION('',(0.,0.,-1.));
#427=DIRECTION('',(0.960415959422322,-0.278569892283607,0.));
#428=DIRECTION('',(0.,0.,-1.));
#429=DIRECTION('',(0.,1.,4.1340739373327E-17));
#430=DIRECTION('',(0.,0.,-1.));
#431=DIRECTION('',(0.959280213898982,-0.282456140350895,0.));
#432=DIRECTION('',(0.,0.,-1.));
#433=DIRECTION('',(0.,1.,0.));
#434=DIRECTION('',(0.,0.,-1.));
#435=DIRECTION('',(0.967376300599849,-0.253343823760813,0.));
#436=DIRECTION('',(0.,0.,-1.));
#437=DIRECTION('',(0.,1.,0.));
#438=DIRECTION('',(0.,0.,-1.));
#439=DIRECTION('',(0.960415959422322,-0.278569892283607,0.));
#440=DIRECTION('',(0.,0.,1.));
#441=DIRECTION('',(0.,-1.,2.65761895971388E-17));
#442=DIRECTION('',(0.,0.,-1.));
#443=DIRECTION('',(0.959280213898982,-0.282456140350895,0.));
#444=DIRECTION('',(0.,0.,-1.));
#445=DIRECTION('',(0.,1.,0.));
#446=DIRECTION('',(0.,0.,-1.));
#447=DIRECTION('',(0.957780637724524,-0.287500000000007,0.));
#448=DIRECTION('',(0.,0.,-1.));
#449=DIRECTION('',(-0.0039631344949438,0.999992146751651,0.));
#450=DIRECTION('',(0.,0.,-1.));
#451=DIRECTION('',(0.957780637724524,-0.287500000000007,0.));
#452=DIRECTION('',(0.,0.,-1.));
#453=DIRECTION('',(0.,1.,0.));
#454=DIRECTION('',(0.,0.,-1.));
#455=DIRECTION('',(-0.00415426945299211,0.999991370985426,0.));
#456=DIRECTION('',(0.,0.,1.));
#457=DIRECTION('',(-1.,0.,0.));
#458=DIRECTION('',(0.,0.,1.));
#459=DIRECTION('',(-1.,0.,0.));
#460=DIRECTION('',(0.,0.,-1.));
#461=DIRECTION('',(0.,1.,0.));
#462=DIRECTION('',(1.33168609664097E-13,-0.144306116415197,0.989533094325381));
#463=DIRECTION('',(-1.33167879821197E-13,0.144306116415197,0.989533094325381));
#464=DIRECTION('',(0.,0.,-1.));
#465=DIRECTION('',(0.,1.,-2.55055708228373E-16));
#466=DIRECTION('',(0.,0.,-1.));
#467=DIRECTION('',(0.,1.,-2.55055708228373E-16));
#468=CARTESIAN_POINT('',(0.,0.,0.));
#469=CARTESIAN_POINT('',(0.,0.,0.));
#470=CARTESIAN_POINT('',(0.,0.,-160.));
#471=CARTESIAN_POINT('',(0.,0.,0.));
#472=CARTESIAN_POINT('',(0.,0.,-3.19999999999999));
#473=CARTESIAN_POINT('',(-31.775,0.,-3.19999999999999));
#474=CARTESIAN_POINT('',(0.,0.,-3.2));
#475=CARTESIAN_POINT('',(0.,22.6916641016621,-3.2));
#476=CARTESIAN_POINT('',(-6.12411196672187E-12,-22.6916641016621,-3.2));
#477=CARTESIAN_POINT('',(0.,0.,-3.2));
#478=CARTESIAN_POINT('',(0.,0.,-3.2));
#479=CARTESIAN_POINT('',(0.,0.,-19.1));
#480=CARTESIAN_POINT('',(-31.775,0.,-19.1));
#481=CARTESIAN_POINT('',(0.,0.,-19.1));
#482=CARTESIAN_POINT('',(0.,-23.,-19.1));
#483=CARTESIAN_POINT('',(0.,23.,-19.1));
#484=CARTESIAN_POINT('',(0.,0.,-19.1));
#485=CARTESIAN_POINT('',(0.,0.,-19.1));
#486=CARTESIAN_POINT('',(1.712519015484E-13,-23.,-21.1));
#487=CARTESIAN_POINT('',(0.,-21.,-21.1));
#488=CARTESIAN_POINT('',(-1.627309398344E-13,23.,-21.1));
#489=CARTESIAN_POINT('',(0.,21.,-21.1));
#490=CARTESIAN_POINT('',(0.,0.,-21.1));
#491=CARTESIAN_POINT('',(0.,0.,-21.1));
#492=CARTESIAN_POINT('',(0.,21.,-102.82207868721));
#493=CARTESIAN_POINT('',(0.,21.,-102.82207868721));
#494=CARTESIAN_POINT('',(0.,0.,-102.82207868721));
#495=CARTESIAN_POINT('',(0.,-21.,-102.82207868721));
#496=CARTESIAN_POINT('',(0.,-21.,-102.82207868721));
#497=CARTESIAN_POINT('',(0.,0.,-12.055));
#498=CARTESIAN_POINT('',(0.,0.,-102.82207868721));
#499=CARTESIAN_POINT('',(0.,0.,-21.1));
#500=CARTESIAN_POINT('',(0.,0.,-12.055));
#501=CARTESIAN_POINT('',(0.,0.,-21.1));
#502=CARTESIAN_POINT('',(-1.307934701989E-12,16.57252684207,-159.0784590957));
#503=CARTESIAN_POINT('',(-1.32940222797833E-12,16.4999999999929,-160.));
#504=CARTESIAN_POINT('',(1.30742731469E-12,-16.57252684207,-159.0784590957));
#505=CARTESIAN_POINT('',(1.32888652912166E-12,-16.4999999999929,-160.));
#506=CARTESIAN_POINT('',(0.,0.,-160.));
#507=CARTESIAN_POINT('',(0.,0.,-130.9502688915));
#508=CARTESIAN_POINT('',(0.,0.,-160.));
#509=CARTESIAN_POINT('',(0.,0.,-130.9502688915));
#510=CARTESIAN_POINT('',(0.,0.,-160.));
#511=CARTESIAN_POINT('',(0.,0.,-14.636270398786));
#512=CARTESIAN_POINT('',(30.7383819515602,-8.04999999999983,-14.636270398786));
#513=CARTESIAN_POINT('',(0.,0.,72.775));
#514=CARTESIAN_POINT('',(0.,0.,-12.975));
#515=CARTESIAN_POINT('',(27.753711680655,-8.05000000000067,-12.975));
#516=CARTESIAN_POINT('',(0.,0.,-13.805635199393));
#517=CARTESIAN_POINT('',(0.,0.,-12.975));
#518=CARTESIAN_POINT('',(27.339486096121,-8.0500000000005,-12.975));
#519=CARTESIAN_POINT('',(0.,0.,-12.975));
#520=CARTESIAN_POINT('',(0.,0.,-7.56372960121));
#521=CARTESIAN_POINT('',(30.7383819515602,-8.04999999999983,-7.56372960121));
#522=CARTESIAN_POINT('',(0.,0.,72.775));
#523=CARTESIAN_POINT('',(0.,0.,-9.225));
#524=CARTESIAN_POINT('',(27.753711680655,-8.05000000000067,-9.225));
#525=CARTESIAN_POINT('',(0.,0.,-8.39436480061));
#526=CARTESIAN_POINT('',(0.,0.,-9.225));
#527=CARTESIAN_POINT('',(27.339486096121,-8.0500000000005,-9.225));
#528=CARTESIAN_POINT('',(0.,0.,-9.225));
#529=CARTESIAN_POINT('',(0.,0.,-9.725));
#530=CARTESIAN_POINT('',(26.8178578562867,-8.0500000000002,-9.725));
#531=CARTESIAN_POINT('',(0.,0.,-9.725));
#532=CARTESIAN_POINT('',(0.,0.,-12.475));
#533=CARTESIAN_POINT('',(26.8178578562867,-8.0500000000002,-12.475));
#534=CARTESIAN_POINT('',(0.,0.,72.775));
#535=CARTESIAN_POINT('',(0.,0.,-12.475));
#536=CARTESIAN_POINT('',(0.,0.,68.4));
#537=CARTESIAN_POINT('',(-9.36652294774858E-12,-12.2500548269614,68.4));
#538=CARTESIAN_POINT('',(9.36657428212651E-12,12.2500548269614,68.4));
#539=CARTESIAN_POINT('',(0.,0.,68.4));
#540=CARTESIAN_POINT('',(0.,0.,68.4));
#541=CARTESIAN_POINT('',(0.,22.39999903812,-1.2));
#542=CARTESIAN_POINT('',(0.,-22.39999903812,-1.2));
#543=CARTESIAN_POINT('',(0.,0.,33.08658366985));
#544=CARTESIAN_POINT('',(0.,0.,33.08658366985));
#545=MECHANICAL_DESIGN_GEOMETRIC_PRESENTATION_REPRESENTATION('',(#299,#300,
#301,#302),#546);
#546=(
GEOMETRIC_REPRESENTATION_CONTEXT(3)
GLOBAL_UNCERTAINTY_ASSIGNED_CONTEXT((#547))
GLOBAL_UNIT_ASSIGNED_CONTEXT((#553,#549,#548))
REPRESENTATION_CONTEXT('69871.40ADB-SC.18','TOP_LEVEL_ASSEMBLY_PART')
);
#547=UNCERTAINTY_MEASURE_WITH_UNIT(LENGTH_MEASURE(2.E-5),#553,
'DISTANCE_ACCURACY_VALUE','Maximum Tolerance applied to model');
#548=(
NAMED_UNIT(*)
SI_UNIT($,.STERADIAN.)
SOLID_ANGLE_UNIT()
);
#549=(
CONVERSION_BASED_UNIT('DEGREE',#551)
NAMED_UNIT(#550)
PLANE_ANGLE_UNIT()
);
#550=DIMENSIONAL_EXPONENTS(0.,0.,0.,0.,0.,0.,0.);
#551=PLANE_ANGLE_MEASURE_WITH_UNIT(PLANE_ANGLE_MEASURE(0.0174532925),#552);
#552=(
NAMED_UNIT(*)
PLANE_ANGLE_UNIT()
SI_UNIT($,.RADIAN.)
);
#553=(
LENGTH_UNIT()
NAMED_UNIT(*)
SI_UNIT(.MILLI.,.METRE.)
);
ENDSEC;
END-ISO-10303-21;
