ISO-10303-21;
HEADER;
/* Generated by software containing ST-Developer
 * from STEP Tools, Inc. (www.steptools.com) 
 */
/* OPTION: using custom schema-name function */

FILE_DESCRIPTION(
/* description */ (''),
/* implementation_level */ '2;1');

FILE_NAME(
/* name */ '69871.40ADB-SC.10.120.stp',
/* time_stamp */ '2024-06-28T07:20:19+02:00',
/* author */ (''),
/* organization */ (''),
/* preprocessor_version */ 'ST-DEVELOPER v16.7',
/* originating_system */ 'SIEMENS PLM Software NX 12.0',
/* authorisation */ '');

FILE_SCHEMA (('AUTOMOTIVE_DESIGN { 1 0 10303 214 3 1 1 1 }'));
ENDSEC;

DATA;
#10=CONSTRUCTIVE_GEOMETRY_REPRESENTATION_RELATIONSHIP(
'supplemental geometry','',#32,#11);
#11=CONSTRUCTIVE_GEOMETRY_REPRESENTATION('supplemental geometry',(#262,
#263,#264),#444);
#12=PROPERTY_DEFINITION_REPRESENTATION(#16,#14);
#13=PROPERTY_DEFINITION_REPRESENTATION(#17,#15);
#14=REPRESENTATION('',(#18),#444);
#15=REPRESENTATION('',(#19),#444);
#16=PROPERTY_DEFINITION('pmi validation property','',#23);
#17=PROPERTY_DEFINITION('pmi validation property','',#23);
#18=VALUE_REPRESENTATION_ITEM('number of annotations',COUNT_MEASURE(0.));
#19=VALUE_REPRESENTATION_ITEM('number of views',COUNT_MEASURE(0.));
#20=SHAPE_REPRESENTATION_RELATIONSHIP('None',
'relationship between pf661D7883C3rt5l-None and pf661D7883C3rt5l-None',
#32,#21);
#21=ADVANCED_BREP_SHAPE_REPRESENTATION('pf661D7883C3rt5l-None',(#38),#444);
#22=SHAPE_DEFINITION_REPRESENTATION(#23,#32);
#23=PRODUCT_DEFINITION_SHAPE('','',#24);
#24=PRODUCT_DEFINITION(' ','',#26,#25);
#25=PRODUCT_DEFINITION_CONTEXT('part definition',#31,'design');
#26=PRODUCT_DEFINITION_FORMATION_WITH_SPECIFIED_SOURCE(' ',' ',#28,
 .NOT_KNOWN.);
#27=PRODUCT_RELATED_PRODUCT_CATEGORY('part','',(#28));
#28=PRODUCT('pf661D7883C3rt5l','pf661D7883C3rt5l',' ',(#29));
#29=PRODUCT_CONTEXT(' ',#31,'mechanical');
#30=APPLICATION_PROTOCOL_DEFINITION('international standard',
'automotive_design',2010,#31);
#31=APPLICATION_CONTEXT(
'core data for automotive mechanical design processes');
#32=SHAPE_REPRESENTATION('pf661D7883C3rt5l-None',(#261),#444);
#33=SURFACE_STYLE_USAGE(.BOTH.,#34);
#34=SURFACE_SIDE_STYLE('',(#35));
#35=SURFACE_STYLE_FILL_AREA(#36);
#36=FILL_AREA_STYLE('',(#37));
#37=FILL_AREA_STYLE_COLOUR('',#257);
#38=MANIFOLD_SOLID_BREP('',#39);
#39=CLOSED_SHELL('',(#61,#62,#63,#64,#65,#66,#67,#68,#69,#70,#71,#72,#73,
#74,#75,#76,#77,#78));
#40=FACE_OUTER_BOUND('',#140,.T.);
#41=FACE_OUTER_BOUND('',#141,.T.);
#42=FACE_OUTER_BOUND('',#142,.T.);
#43=FACE_OUTER_BOUND('',#143,.T.);
#44=LINE('',#433,#46);
#45=LINE('',#435,#47);
#46=VECTOR('',#369,1.);
#47=VECTOR('',#370,1.);
#48=CYLINDRICAL_SURFACE('',#277,31.775);
#49=CYLINDRICAL_SURFACE('',#286,28.);
#50=CYLINDRICAL_SURFACE('',#293,31.775);
#51=CYLINDRICAL_SURFACE('',#294,16.);
#52=TOROIDAL_SURFACE('',#274,19.,3.);
#53=TOROIDAL_SURFACE('',#284,28.5,0.5);
#54=TOROIDAL_SURFACE('',#288,28.5,0.5);
#55=PLANE('',#271);
#56=PLANE('',#278);
#57=PLANE('',#282);
#58=PLANE('',#290);
#59=PLANE('',#299);
#60=PLANE('',#300);
#61=ADVANCED_FACE('',(#84,#85),#79,.T.);
#62=ADVANCED_FACE('',(#86,#87),#55,.F.);
#63=ADVANCED_FACE('',(#88,#89),#52,.F.);
#64=ADVANCED_FACE('',(#90,#91),#48,.T.);
#65=ADVANCED_FACE('',(#92,#93),#56,.T.);
#66=ADVANCED_FACE('',(#94,#95),#80,.T.);
#67=ADVANCED_FACE('',(#96,#97),#57,.F.);
#68=ADVANCED_FACE('',(#98,#99),#53,.F.);
#69=ADVANCED_FACE('',(#100,#101),#49,.T.);
#70=ADVANCED_FACE('',(#102,#103),#54,.F.);
#71=ADVANCED_FACE('',(#104,#105),#58,.T.);
#72=ADVANCED_FACE('',(#106,#107),#81,.T.);
#73=ADVANCED_FACE('',(#108,#109),#50,.T.);
#74=ADVANCED_FACE('',(#110,#111),#51,.T.);
#75=ADVANCED_FACE('',(#40),#82,.T.);
#76=ADVANCED_FACE('',(#41),#83,.T.);
#77=ADVANCED_FACE('',(#42),#59,.F.);
#78=ADVANCED_FACE('',(#43),#60,.T.);
#79=CONICAL_SURFACE('',#267,14.03626342104,4.5);
#80=CONICAL_SURFACE('',#280,30.3362976321,60.);
#81=CONICAL_SURFACE('',#292,30.3362976321,60.);
#82=CONICAL_SURFACE('',#296,17.39989973582,8.2971);
#83=CONICAL_SURFACE('',#298,17.39989973582,8.2971);
#84=FACE_BOUND('',#112,.T.);
#85=FACE_BOUND('',#113,.T.);
#86=FACE_BOUND('',#114,.T.);
#87=FACE_BOUND('',#115,.T.);
#88=FACE_BOUND('',#116,.T.);
#89=FACE_BOUND('',#117,.T.);
#90=FACE_BOUND('',#118,.T.);
#91=FACE_BOUND('',#119,.T.);
#92=FACE_BOUND('',#120,.T.);
#93=FACE_BOUND('',#121,.T.);
#94=FACE_BOUND('',#122,.T.);
#95=FACE_BOUND('',#123,.T.);
#96=FACE_BOUND('',#124,.T.);
#97=FACE_BOUND('',#125,.T.);
#98=FACE_BOUND('',#126,.T.);
#99=FACE_BOUND('',#127,.T.);
#100=FACE_BOUND('',#128,.T.);
#101=FACE_BOUND('',#129,.T.);
#102=FACE_BOUND('',#130,.T.);
#103=FACE_BOUND('',#131,.T.);
#104=FACE_BOUND('',#132,.T.);
#105=FACE_BOUND('',#133,.T.);
#106=FACE_BOUND('',#134,.T.);
#107=FACE_BOUND('',#135,.T.);
#108=FACE_BOUND('',#136,.T.);
#109=FACE_BOUND('',#137,.T.);
#110=FACE_BOUND('',#138,.T.);
#111=FACE_BOUND('',#139,.T.);
#112=EDGE_LOOP('',(#144));
#113=EDGE_LOOP('',(#145));
#114=EDGE_LOOP('',(#146));
#115=EDGE_LOOP('',(#147,#148));
#116=EDGE_LOOP('',(#149));
#117=EDGE_LOOP('',(#150));
#118=EDGE_LOOP('',(#151));
#119=EDGE_LOOP('',(#152));
#120=EDGE_LOOP('',(#153));
#121=EDGE_LOOP('',(#154));
#122=EDGE_LOOP('',(#155));
#123=EDGE_LOOP('',(#156));
#124=EDGE_LOOP('',(#157));
#125=EDGE_LOOP('',(#158));
#126=EDGE_LOOP('',(#159));
#127=EDGE_LOOP('',(#160));
#128=EDGE_LOOP('',(#161));
#129=EDGE_LOOP('',(#162));
#130=EDGE_LOOP('',(#163));
#131=EDGE_LOOP('',(#164));
#132=EDGE_LOOP('',(#165));
#133=EDGE_LOOP('',(#166));
#134=EDGE_LOOP('',(#167));
#135=EDGE_LOOP('',(#168));
#136=EDGE_LOOP('',(#169));
#137=EDGE_LOOP('',(#170));
#138=EDGE_LOOP('',(#171));
#139=EDGE_LOOP('',(#172));
#140=EDGE_LOOP('',(#173,#174,#175,#176));
#141=EDGE_LOOP('',(#177,#178,#179,#180));
#142=EDGE_LOOP('',(#181,#182));
#143=EDGE_LOOP('',(#183));
#144=ORIENTED_EDGE('',*,*,#202,.T.);
#145=ORIENTED_EDGE('',*,*,#203,.T.);
#146=ORIENTED_EDGE('',*,*,#204,.T.);
#147=ORIENTED_EDGE('',*,*,#205,.T.);
#148=ORIENTED_EDGE('',*,*,#206,.T.);
#149=ORIENTED_EDGE('',*,*,#207,.F.);
#150=ORIENTED_EDGE('',*,*,#208,.T.);
#151=ORIENTED_EDGE('',*,*,#209,.T.);
#152=ORIENTED_EDGE('',*,*,#210,.T.);
#153=ORIENTED_EDGE('',*,*,#209,.F.);
#154=ORIENTED_EDGE('',*,*,#208,.F.);
#155=ORIENTED_EDGE('',*,*,#210,.F.);
#156=ORIENTED_EDGE('',*,*,#211,.T.);
#157=ORIENTED_EDGE('',*,*,#211,.F.);
#158=ORIENTED_EDGE('',*,*,#212,.T.);
#159=ORIENTED_EDGE('',*,*,#212,.F.);
#160=ORIENTED_EDGE('',*,*,#213,.T.);
#161=ORIENTED_EDGE('',*,*,#213,.F.);
#162=ORIENTED_EDGE('',*,*,#214,.T.);
#163=ORIENTED_EDGE('',*,*,#214,.F.);
#164=ORIENTED_EDGE('',*,*,#215,.T.);
#165=ORIENTED_EDGE('',*,*,#215,.F.);
#166=ORIENTED_EDGE('',*,*,#216,.T.);
#167=ORIENTED_EDGE('',*,*,#216,.F.);
#168=ORIENTED_EDGE('',*,*,#217,.T.);
#169=ORIENTED_EDGE('',*,*,#217,.F.);
#170=ORIENTED_EDGE('',*,*,#204,.F.);
#171=ORIENTED_EDGE('',*,*,#207,.T.);
#172=ORIENTED_EDGE('',*,*,#202,.F.);
#173=ORIENTED_EDGE('',*,*,#218,.F.);
#174=ORIENTED_EDGE('',*,*,#206,.F.);
#175=ORIENTED_EDGE('',*,*,#219,.T.);
#176=ORIENTED_EDGE('',*,*,#220,.F.);
#177=ORIENTED_EDGE('',*,*,#219,.F.);
#178=ORIENTED_EDGE('',*,*,#205,.F.);
#179=ORIENTED_EDGE('',*,*,#218,.T.);
#180=ORIENTED_EDGE('',*,*,#221,.F.);
#181=ORIENTED_EDGE('',*,*,#221,.T.);
#182=ORIENTED_EDGE('',*,*,#220,.T.);
#183=ORIENTED_EDGE('',*,*,#203,.F.);
#184=VERTEX_POINT('',#388);
#185=VERTEX_POINT('',#390);
#186=VERTEX_POINT('',#393);
#187=VERTEX_POINT('',#395);
#188=VERTEX_POINT('',#396);
#189=VERTEX_POINT('',#400);
#190=VERTEX_POINT('',#402);
#191=VERTEX_POINT('',#405);
#192=VERTEX_POINT('',#407);
#193=VERTEX_POINT('',#411);
#194=VERTEX_POINT('',#414);
#195=VERTEX_POINT('',#417);
#196=VERTEX_POINT('',#420);
#197=VERTEX_POINT('',#423);
#198=VERTEX_POINT('',#426);
#199=VERTEX_POINT('',#429);
#200=VERTEX_POINT('',#434);
#201=VERTEX_POINT('',#436);
#202=EDGE_CURVE('',#184,#184,#222,.T.);
#203=EDGE_CURVE('',#185,#185,#223,.T.);
#204=EDGE_CURVE('',#186,#186,#224,.T.);
#205=EDGE_CURVE('',#187,#188,#225,.T.);
#206=EDGE_CURVE('',#188,#187,#226,.T.);
#207=EDGE_CURVE('',#189,#189,#227,.T.);
#208=EDGE_CURVE('',#190,#190,#228,.T.);
#209=EDGE_CURVE('',#191,#191,#229,.T.);
#210=EDGE_CURVE('',#192,#192,#230,.T.);
#211=EDGE_CURVE('',#193,#193,#231,.T.);
#212=EDGE_CURVE('',#194,#194,#232,.T.);
#213=EDGE_CURVE('',#195,#195,#233,.T.);
#214=EDGE_CURVE('',#196,#196,#234,.T.);
#215=EDGE_CURVE('',#197,#197,#235,.T.);
#216=EDGE_CURVE('',#198,#198,#236,.T.);
#217=EDGE_CURVE('',#199,#199,#237,.T.);
#218=EDGE_CURVE('',#187,#200,#44,.T.);
#219=EDGE_CURVE('',#188,#201,#45,.T.);
#220=EDGE_CURVE('',#200,#201,#238,.T.);
#221=EDGE_CURVE('',#201,#200,#239,.T.);
#222=CIRCLE('',#265,16.);
#223=CIRCLE('',#266,12.0000000000022);
#224=CIRCLE('',#268,31.775);
#225=CIRCLE('',#269,22.6916641016621);
#226=CIRCLE('',#270,22.6916641016621);
#227=CIRCLE('',#272,16.);
#228=CIRCLE('',#273,19.);
#229=CIRCLE('',#275,31.775);
#230=CIRCLE('',#276,31.775);
#231=CIRCLE('',#279,28.89759526419);
#232=CIRCLE('',#281,28.5);
#233=CIRCLE('',#283,28.);
#234=CIRCLE('',#285,28.);
#235=CIRCLE('',#287,28.5);
#236=CIRCLE('',#289,28.89759526419);
#237=CIRCLE('',#291,31.775);
#238=CIRCLE('',#295,12.2500548269618);
#239=CIRCLE('',#297,12.2500548269618);
#240=INVISIBILITY((#241,#242,#243));
#241=PRESENTATION_LAYER_ASSIGNMENT('100','Layer 100',(#262));
#242=PRESENTATION_LAYER_ASSIGNMENT('101','Layer 101',(#263));
#243=PRESENTATION_LAYER_ASSIGNMENT('102','Layer 102',(#264));
#244=PRESENTATION_LAYER_ASSIGNMENT('98','Layer 98',(#38));
#245=STYLED_ITEM('',(#249),#262);
#246=STYLED_ITEM('',(#250),#263);
#247=STYLED_ITEM('',(#251),#264);
#248=STYLED_ITEM('',(#252),#38);
#249=PRESENTATION_STYLE_ASSIGNMENT((#253));
#250=PRESENTATION_STYLE_ASSIGNMENT((#254));
#251=PRESENTATION_STYLE_ASSIGNMENT((#255));
#252=PRESENTATION_STYLE_ASSIGNMENT((#33));
#253=CURVE_STYLE('',#258,POSITIVE_LENGTH_MEASURE(0.7),#256);
#254=CURVE_STYLE('',#259,POSITIVE_LENGTH_MEASURE(0.7),#256);
#255=CURVE_STYLE('',#260,POSITIVE_LENGTH_MEASURE(0.7),#256);
#256=COLOUR_RGB('Medium Maroon',0.6,0.4,0.4);
#257=COLOUR_RGB('Medium Gray',0.490196078431373,0.490196078431373,0.490196078431373);
#258=DRAUGHTING_PRE_DEFINED_CURVE_FONT('continuous');
#259=DRAUGHTING_PRE_DEFINED_CURVE_FONT('continuous');
#260=DRAUGHTING_PRE_DEFINED_CURVE_FONT('continuous');
#261=AXIS2_PLACEMENT_3D('',#383,#301,#302);
#262=AXIS2_PLACEMENT_3D('PCS',#384,#303,#304);
#263=AXIS2_PLACEMENT_3D('CSW',#385,#305,#306);
#264=AXIS2_PLACEMENT_3D('MCS',#386,#307,#308);
#265=AXIS2_PLACEMENT_3D('',#387,#309,#310);
#266=AXIS2_PLACEMENT_3D('',#389,#311,#312);
#267=AXIS2_PLACEMENT_3D('',#391,#313,#314);
#268=AXIS2_PLACEMENT_3D('',#392,#315,#316);
#269=AXIS2_PLACEMENT_3D('',#394,#317,#318);
#270=AXIS2_PLACEMENT_3D('',#397,#319,#320);
#271=AXIS2_PLACEMENT_3D('',#398,#321,#322);
#272=AXIS2_PLACEMENT_3D('',#399,#323,#324);
#273=AXIS2_PLACEMENT_3D('',#401,#325,#326);
#274=AXIS2_PLACEMENT_3D('',#403,#327,#328);
#275=AXIS2_PLACEMENT_3D('',#404,#329,#330);
#276=AXIS2_PLACEMENT_3D('',#406,#331,#332);
#277=AXIS2_PLACEMENT_3D('',#408,#333,#334);
#278=AXIS2_PLACEMENT_3D('',#409,#335,#336);
#279=AXIS2_PLACEMENT_3D('',#410,#337,#338);
#280=AXIS2_PLACEMENT_3D('',#412,#339,#340);
#281=AXIS2_PLACEMENT_3D('',#413,#341,#342);
#282=AXIS2_PLACEMENT_3D('',#415,#343,#344);
#283=AXIS2_PLACEMENT_3D('',#416,#345,#346);
#284=AXIS2_PLACEMENT_3D('',#418,#347,#348);
#285=AXIS2_PLACEMENT_3D('',#419,#349,#350);
#286=AXIS2_PLACEMENT_3D('',#421,#351,#352);
#287=AXIS2_PLACEMENT_3D('',#422,#353,#354);
#288=AXIS2_PLACEMENT_3D('',#424,#355,#356);
#289=AXIS2_PLACEMENT_3D('',#425,#357,#358);
#290=AXIS2_PLACEMENT_3D('',#427,#359,#360);
#291=AXIS2_PLACEMENT_3D('',#428,#361,#362);
#292=AXIS2_PLACEMENT_3D('',#430,#363,#364);
#293=AXIS2_PLACEMENT_3D('',#431,#365,#366);
#294=AXIS2_PLACEMENT_3D('',#432,#367,#368);
#295=AXIS2_PLACEMENT_3D('',#437,#371,#372);
#296=AXIS2_PLACEMENT_3D('',#438,#373,#374);
#297=AXIS2_PLACEMENT_3D('',#439,#375,#376);
#298=AXIS2_PLACEMENT_3D('',#440,#377,#378);
#299=AXIS2_PLACEMENT_3D('',#441,#379,#380);
#300=AXIS2_PLACEMENT_3D('',#442,#381,#382);
#301=DIRECTION('',(0.,0.,1.));
#302=DIRECTION('',(1.,0.,0.));
#303=DIRECTION('',(0.,0.,1.));
#304=DIRECTION('',(1.,0.,0.));
#305=DIRECTION('',(0.,0.,1.));
#306=DIRECTION('',(1.,0.,0.));
#307=DIRECTION('',(0.,0.,1.));
#308=DIRECTION('',(1.,0.,0.));
#309=DIRECTION('',(0.,0.,-1.));
#310=DIRECTION('',(0.,1.,0.));
#311=DIRECTION('',(0.,0.,1.));
#312=DIRECTION('',(-1.,0.,0.));
#313=DIRECTION('',(0.,0.,1.));
#314=DIRECTION('',(0.,-1.,2.99290307326176E-16));
#315=DIRECTION('',(0.,0.,1.));
#316=DIRECTION('',(-1.,0.,0.));
#317=DIRECTION('',(0.,0.,-1.));
#318=DIRECTION('',(-1.,0.,0.));
#319=DIRECTION('',(0.,0.,-1.));
#320=DIRECTION('',(-1.,0.,0.));
#321=DIRECTION('',(0.,0.,-1.));
#322=DIRECTION('',(0.,1.,0.));
#323=DIRECTION('',(0.,0.,-1.));
#324=DIRECTION('',(0.,1.,0.));
#325=DIRECTION('',(0.,0.,-1.));
#326=DIRECTION('',(0.,1.,0.));
#327=DIRECTION('',(0.,0.,-1.));
#328=DIRECTION('',(0.0069354479206907,-0.999975949491856,0.));
#329=DIRECTION('',(0.,0.,1.));
#330=DIRECTION('',(-1.,0.,0.));
#331=DIRECTION('',(0.,0.,-1.));
#332=DIRECTION('',(0.967376300599849,-0.253343823760813,0.));
#333=DIRECTION('',(0.,0.,-1.));
#334=DIRECTION('',(0.,1.,0.));
#335=DIRECTION('',(0.,0.,-1.));
#336=DIRECTION('',(0.,1.,0.));
#337=DIRECTION('',(0.,0.,-1.));
#338=DIRECTION('',(0.960415959422322,-0.278569892283607,0.));
#339=DIRECTION('',(0.,0.,-1.));
#340=DIRECTION('',(0.,1.,4.1340739373327E-17));
#341=DIRECTION('',(0.,0.,-1.));
#342=DIRECTION('',(0.959280213898982,-0.282456140350895,0.));
#343=DIRECTION('',(0.,0.,-1.));
#344=DIRECTION('',(0.,1.,0.));
#345=DIRECTION('',(0.,0.,-1.));
#346=DIRECTION('',(0.957780637724524,-0.287500000000007,0.));
#347=DIRECTION('',(0.,0.,-1.));
#348=DIRECTION('',(-0.00415426945299211,0.999991370985426,0.));
#349=DIRECTION('',(0.,0.,-1.));
#350=DIRECTION('',(0.957780637724524,-0.287500000000007,0.));
#351=DIRECTION('',(0.,0.,-1.));
#352=DIRECTION('',(0.,1.,0.));
#353=DIRECTION('',(0.,0.,-1.));
#354=DIRECTION('',(0.959280213898982,-0.282456140350895,0.));
#355=DIRECTION('',(0.,0.,-1.));
#356=DIRECTION('',(-0.0039631344949438,0.999992146751651,0.));
#357=DIRECTION('',(0.,0.,-1.));
#358=DIRECTION('',(0.960415959422322,-0.278569892283607,0.));
#359=DIRECTION('',(0.,0.,-1.));
#360=DIRECTION('',(0.,1.,0.));
#361=DIRECTION('',(0.,0.,-1.));
#362=DIRECTION('',(0.967376300599849,-0.253343823760813,0.));
#363=DIRECTION('',(0.,0.,1.));
#364=DIRECTION('',(0.,-1.,2.65761895971388E-17));
#365=DIRECTION('',(0.,0.,-1.));
#366=DIRECTION('',(0.,1.,0.));
#367=DIRECTION('',(0.,0.,-1.));
#368=DIRECTION('',(0.,1.,0.));
#369=DIRECTION('',(1.33168609664097E-13,-0.144306116415197,0.989533094325381));
#370=DIRECTION('',(-1.33167879821197E-13,0.144306116415197,0.989533094325381));
#371=DIRECTION('',(0.,0.,1.));
#372=DIRECTION('',(-1.,0.,0.));
#373=DIRECTION('',(0.,0.,-1.));
#374=DIRECTION('',(0.,1.,-2.55055708228373E-16));
#375=DIRECTION('',(0.,0.,1.));
#376=DIRECTION('',(-1.,0.,0.));
#377=DIRECTION('',(0.,0.,-1.));
#378=DIRECTION('',(0.,1.,-2.55055708228373E-16));
#379=DIRECTION('',(0.,0.,-1.));
#380=DIRECTION('',(0.,1.,0.));
#381=DIRECTION('',(0.,0.,-1.));
#382=DIRECTION('',(0.,1.,0.));
#383=CARTESIAN_POINT('',(0.,0.,0.));
#384=CARTESIAN_POINT('',(0.,0.,0.));
#385=CARTESIAN_POINT('',(0.,0.,-120.));
#386=CARTESIAN_POINT('',(0.,0.,0.));
#387=CARTESIAN_POINT('',(0.,0.,-69.1751810553));
#388=CARTESIAN_POINT('',(0.,16.,-69.1751810553));
#389=CARTESIAN_POINT('',(0.,0.,-120.));
#390=CARTESIAN_POINT('',(-12.0000000000022,0.,-120.));
#391=CARTESIAN_POINT('',(0.,0.,-94.12682007551));
#392=CARTESIAN_POINT('',(0.,0.,-3.19999999999999));
#393=CARTESIAN_POINT('',(-31.775,0.,-3.19999999999999));
#394=CARTESIAN_POINT('',(0.,0.,-3.2));
#395=CARTESIAN_POINT('',(0.,22.6916641016621,-3.2));
#396=CARTESIAN_POINT('',(-6.12411196672187E-12,-22.6916641016621,-3.2));
#397=CARTESIAN_POINT('',(0.,0.,-3.2));
#398=CARTESIAN_POINT('',(0.,0.,-3.2));
#399=CARTESIAN_POINT('',(0.,0.,-22.1));
#400=CARTESIAN_POINT('',(0.,16.,-22.1));
#401=CARTESIAN_POINT('',(0.,0.,-19.1));
#402=CARTESIAN_POINT('',(0.,19.,-19.1));
#403=CARTESIAN_POINT('',(0.,0.,-22.1));
#404=CARTESIAN_POINT('',(0.,0.,-19.1));
#405=CARTESIAN_POINT('',(-31.775,0.,-19.1));
#406=CARTESIAN_POINT('',(0.,0.,-14.636270398786));
#407=CARTESIAN_POINT('',(30.7383819515602,-8.04999999999983,-14.636270398786));
#408=CARTESIAN_POINT('',(0.,0.,72.775));
#409=CARTESIAN_POINT('',(0.,0.,-19.1));
#410=CARTESIAN_POINT('',(0.,0.,-12.975));
#411=CARTESIAN_POINT('',(27.753711680655,-8.05000000000067,-12.975));
#412=CARTESIAN_POINT('',(0.,0.,-13.805635199393));
#413=CARTESIAN_POINT('',(0.,0.,-12.975));
#414=CARTESIAN_POINT('',(27.339486096121,-8.0500000000005,-12.975));
#415=CARTESIAN_POINT('',(0.,0.,-12.975));
#416=CARTESIAN_POINT('',(0.,0.,-12.475));
#417=CARTESIAN_POINT('',(26.8178578562867,-8.0500000000002,-12.475));
#418=CARTESIAN_POINT('',(0.,0.,-12.475));
#419=CARTESIAN_POINT('',(0.,0.,-9.725));
#420=CARTESIAN_POINT('',(26.8178578562867,-8.0500000000002,-9.725));
#421=CARTESIAN_POINT('',(0.,0.,72.775));
#422=CARTESIAN_POINT('',(0.,0.,-9.225));
#423=CARTESIAN_POINT('',(27.339486096121,-8.0500000000005,-9.225));
#424=CARTESIAN_POINT('',(0.,0.,-9.725));
#425=CARTESIAN_POINT('',(0.,0.,-9.225));
#426=CARTESIAN_POINT('',(27.753711680655,-8.05000000000067,-9.225));
#427=CARTESIAN_POINT('',(0.,0.,-9.225));
#428=CARTESIAN_POINT('',(0.,0.,-7.56372960121));
#429=CARTESIAN_POINT('',(30.7383819515602,-8.04999999999983,-7.56372960121));
#430=CARTESIAN_POINT('',(0.,0.,-8.39436480061));
#431=CARTESIAN_POINT('',(0.,0.,72.775));
#432=CARTESIAN_POINT('',(0.,0.,-14.055));
#433=CARTESIAN_POINT('',(0.,22.39999903812,-1.2));
#434=CARTESIAN_POINT('',(9.36657428212651E-12,12.2500548269614,68.4));
#435=CARTESIAN_POINT('',(0.,-22.39999903812,-1.2));
#436=CARTESIAN_POINT('',(-9.36652294774858E-12,-12.2500548269614,68.4));
#437=CARTESIAN_POINT('',(0.,0.,68.4));
#438=CARTESIAN_POINT('',(0.,0.,33.08658366985));
#439=CARTESIAN_POINT('',(0.,0.,68.4));
#440=CARTESIAN_POINT('',(0.,0.,33.08658366985));
#441=CARTESIAN_POINT('',(0.,0.,68.4));
#442=CARTESIAN_POINT('',(0.,0.,-120.));
#443=MECHANICAL_DESIGN_GEOMETRIC_PRESENTATION_REPRESENTATION('',(#245,#246,
#247,#248),#444);
#444=(
GEOMETRIC_REPRESENTATION_CONTEXT(3)
GLOBAL_UNCERTAINTY_ASSIGNED_CONTEXT((#445))
GLOBAL_UNIT_ASSIGNED_CONTEXT((#451,#447,#446))
REPRESENTATION_CONTEXT('69871.40ADB-SC.10','TOP_LEVEL_ASSEMBLY_PART')
);
#445=UNCERTAINTY_MEASURE_WITH_UNIT(LENGTH_MEASURE(2.E-5),#451,
'DISTANCE_ACCURACY_VALUE','Maximum Tolerance applied to model');
#446=(
NAMED_UNIT(*)
SI_UNIT($,.STERADIAN.)
SOLID_ANGLE_UNIT()
);
#447=(
CONVERSION_BASED_UNIT('DEGREE',#449)
NAMED_UNIT(#448)
PLANE_ANGLE_UNIT()
);
#448=DIMENSIONAL_EXPONENTS(0.,0.,0.,0.,0.,0.,0.);
#449=PLANE_ANGLE_MEASURE_WITH_UNIT(PLANE_ANGLE_MEASURE(0.0174532925),#450);
#450=(
NAMED_UNIT(*)
PLANE_ANGLE_UNIT()
SI_UNIT($,.RADIAN.)
);
#451=(
LENGTH_UNIT()
NAMED_UNIT(*)
SI_UNIT(.MILLI.,.METRE.)
);
ENDSEC;
END-ISO-10303-21;
