ISO-10303-21;
HEADER;
/* Generated by software containing ST-Developer
 * from STEP Tools, Inc. (www.steptools.com) 
 */
/* OPTION: using custom schema-name function */

FILE_DESCRIPTION(
/* description */ (''),
/* implementation_level */ '2;1');

FILE_NAME(
/* name */ '69871.40ADB-IHA.M16.150.stp',
/* time_stamp */ '2024-07-28T12:18:48+02:00',
/* author */ (''),
/* organization */ (''),
/* preprocessor_version */ 'ST-DEVELOPER v16.7',
/* originating_system */ 'SIEMENS PLM Software NX 12.0',
/* authorisation */ '');

FILE_SCHEMA (('AUTOMOTIVE_DESIGN { 1 0 10303 214 3 1 1 1 }'));
ENDSEC;

DATA;
#10=CONSTRUCTIVE_GEOMETRY_REPRESENTATION_RELATIONSHIP(
'supplemental geometry','',#32,#11);
#11=CONSTRUCTIVE_GEOMETRY_REPRESENTATION('supplemental geometry',(#294,
#295,#296),#506);
#12=PROPERTY_DEFINITION_REPRESENTATION(#16,#14);
#13=PROPERTY_DEFINITION_REPRESENTATION(#17,#15);
#14=REPRESENTATION('',(#18),#506);
#15=REPRESENTATION('',(#19),#506);
#16=PROPERTY_DEFINITION('pmi validation property','',#23);
#17=PROPERTY_DEFINITION('pmi validation property','',#23);
#18=VALUE_REPRESENTATION_ITEM('number of annotations',COUNT_MEASURE(0.));
#19=VALUE_REPRESENTATION_ITEM('number of views',COUNT_MEASURE(0.));
#20=SHAPE_REPRESENTATION_RELATIONSHIP('None',
'relationship between pf661B4C06BB9xrd-None and pf661B4C06BB9xrd-None',
#32,#21);
#21=ADVANCED_BREP_SHAPE_REPRESENTATION('pf661B4C06BB9xrd-None',(#38),#506);
#22=SHAPE_DEFINITION_REPRESENTATION(#23,#32);
#23=PRODUCT_DEFINITION_SHAPE('','',#24);
#24=PRODUCT_DEFINITION(' ','',#26,#25);
#25=PRODUCT_DEFINITION_CONTEXT('part definition',#31,'design');
#26=PRODUCT_DEFINITION_FORMATION_WITH_SPECIFIED_SOURCE(' ',' ',#28,
 .NOT_KNOWN.);
#27=PRODUCT_RELATED_PRODUCT_CATEGORY('part','',(#28));
#28=PRODUCT('pf661B4C06BB9xrd','pf661B4C06BB9xrd',' ',(#29));
#29=PRODUCT_CONTEXT(' ',#31,'mechanical');
#30=APPLICATION_PROTOCOL_DEFINITION('international standard',
'automotive_design',2010,#31);
#31=APPLICATION_CONTEXT(
'core data for automotive mechanical design processes');
#32=SHAPE_REPRESENTATION('pf661B4C06BB9xrd-None',(#293),#506);
#33=SURFACE_STYLE_USAGE(.BOTH.,#34);
#34=SURFACE_SIDE_STYLE('',(#35));
#35=SURFACE_STYLE_FILL_AREA(#36);
#36=FILL_AREA_STYLE('',(#37));
#37=FILL_AREA_STYLE_COLOUR('',#289);
#38=MANIFOLD_SOLID_BREP('\X\B6\X2\011800A800A4\X0\12',#39);
#39=CLOSED_SHELL('',(#77,#78,#79,#80,#81,#82,#83,#84,#85,#86,#87,#88,#89,
#90,#91,#92,#93,#94,#95));
#40=CYLINDRICAL_SURFACE('',#310,14.5);
#41=CYLINDRICAL_SURFACE('',#315,31.775);
#42=CYLINDRICAL_SURFACE('',#323,28.125);
#43=CYLINDRICAL_SURFACE('',#326,31.775);
#44=CYLINDRICAL_SURFACE('',#330,14.5);
#45=CONICAL_SURFACE('',#308,14.5,2.762307522578);
#46=CONICAL_SURFACE('',#317,31.775,60.0000000000003);
#47=CONICAL_SURFACE('',#325,28.8725952641916,59.9999999999999);
#48=CONICAL_SURFACE('',#331,14.5,2.762307522578);
#49=CONICAL_SURFACE('',#336,22.6916641016626,8.29709999999964);
#50=CONICAL_SURFACE('',#337,22.6916641016626,8.29709999999964);
#51=LINE('',#457,#57);
#52=LINE('',#459,#58);
#53=LINE('',#464,#59);
#54=LINE('',#465,#60);
#55=LINE('',#501,#61);
#56=LINE('',#502,#62);
#57=VECTOR('',#366,1.);
#58=VECTOR('',#369,1.);
#59=VECTOR('',#374,1.);
#60=VECTOR('',#375,1.);
#61=VECTOR('',#428,1.);
#62=VECTOR('',#429,1.);
#63=TOROIDAL_SURFACE('',#305,22.2029145451619,1.);
#64=TOROIDAL_SURFACE('',#313,29.125,1.);
#65=TOROIDAL_SURFACE('',#322,29.125,1.);
#66=TOROIDAL_SURFACE('',#332,22.2029145451619,1.);
#67=FACE_OUTER_BOUND('',#120,.T.);
#68=FACE_OUTER_BOUND('',#121,.T.);
#69=FACE_OUTER_BOUND('',#122,.T.);
#70=FACE_OUTER_BOUND('',#139,.T.);
#71=FACE_OUTER_BOUND('',#140,.T.);
#72=FACE_OUTER_BOUND('',#141,.T.);
#73=FACE_OUTER_BOUND('',#142,.T.);
#74=FACE_OUTER_BOUND('',#143,.T.);
#75=FACE_OUTER_BOUND('',#144,.T.);
#76=FACE_OUTER_BOUND('',#145,.T.);
#77=ADVANCED_FACE('',(#100,#101),#96,.F.);
#78=ADVANCED_FACE('',(#67),#63,.F.);
#79=ADVANCED_FACE('',(#68),#45,.T.);
#80=ADVANCED_FACE('',(#69),#40,.T.);
#81=ADVANCED_FACE('',(#102,#103),#64,.F.);
#82=ADVANCED_FACE('',(#104,#105),#41,.T.);
#83=ADVANCED_FACE('',(#106,#107),#46,.T.);
#84=ADVANCED_FACE('',(#108,#109),#97,.F.);
#85=ADVANCED_FACE('',(#110,#111),#65,.F.);
#86=ADVANCED_FACE('',(#112,#113),#42,.T.);
#87=ADVANCED_FACE('',(#114,#115),#47,.T.);
#88=ADVANCED_FACE('',(#116,#117),#43,.T.);
#89=ADVANCED_FACE('',(#70),#98,.F.);
#90=ADVANCED_FACE('',(#71),#44,.T.);
#91=ADVANCED_FACE('',(#72),#48,.T.);
#92=ADVANCED_FACE('',(#73),#66,.F.);
#93=ADVANCED_FACE('',(#74),#99,.F.);
#94=ADVANCED_FACE('',(#75),#49,.T.);
#95=ADVANCED_FACE('',(#76),#50,.T.);
#96=PLANE('',#300);
#97=PLANE('',#320);
#98=PLANE('',#328);
#99=PLANE('',#335);
#100=FACE_BOUND('',#118,.T.);
#101=FACE_BOUND('',#119,.T.);
#102=FACE_BOUND('',#123,.T.);
#103=FACE_BOUND('',#124,.T.);
#104=FACE_BOUND('',#125,.T.);
#105=FACE_BOUND('',#126,.T.);
#106=FACE_BOUND('',#127,.T.);
#107=FACE_BOUND('',#128,.T.);
#108=FACE_BOUND('',#129,.T.);
#109=FACE_BOUND('',#130,.T.);
#110=FACE_BOUND('',#131,.T.);
#111=FACE_BOUND('',#132,.T.);
#112=FACE_BOUND('',#133,.T.);
#113=FACE_BOUND('',#134,.T.);
#114=FACE_BOUND('',#135,.T.);
#115=FACE_BOUND('',#136,.T.);
#116=FACE_BOUND('',#137,.T.);
#117=FACE_BOUND('',#138,.T.);
#118=EDGE_LOOP('',(#146));
#119=EDGE_LOOP('',(#147,#148));
#120=EDGE_LOOP('',(#149,#150,#151,#152));
#121=EDGE_LOOP('',(#153,#154,#155,#156));
#122=EDGE_LOOP('',(#157,#158,#159,#160));
#123=EDGE_LOOP('',(#161));
#124=EDGE_LOOP('',(#162));
#125=EDGE_LOOP('',(#163));
#126=EDGE_LOOP('',(#164));
#127=EDGE_LOOP('',(#165));
#128=EDGE_LOOP('',(#166));
#129=EDGE_LOOP('',(#167));
#130=EDGE_LOOP('',(#168,#169));
#131=EDGE_LOOP('',(#170));
#132=EDGE_LOOP('',(#171));
#133=EDGE_LOOP('',(#172));
#134=EDGE_LOOP('',(#173));
#135=EDGE_LOOP('',(#174));
#136=EDGE_LOOP('',(#175));
#137=EDGE_LOOP('',(#176));
#138=EDGE_LOOP('',(#177));
#139=EDGE_LOOP('',(#178,#179));
#140=EDGE_LOOP('',(#180,#181,#182,#183));
#141=EDGE_LOOP('',(#184,#185,#186,#187));
#142=EDGE_LOOP('',(#188,#189,#190,#191));
#143=EDGE_LOOP('',(#192,#193));
#144=EDGE_LOOP('',(#194,#195,#196,#197));
#145=EDGE_LOOP('',(#198,#199,#200,#201));
#146=ORIENTED_EDGE('',*,*,#222,.T.);
#147=ORIENTED_EDGE('',*,*,#223,.T.);
#148=ORIENTED_EDGE('',*,*,#224,.T.);
#149=ORIENTED_EDGE('',*,*,#225,.F.);
#150=ORIENTED_EDGE('',*,*,#226,.F.);
#151=ORIENTED_EDGE('',*,*,#227,.F.);
#152=ORIENTED_EDGE('',*,*,#228,.T.);
#153=ORIENTED_EDGE('',*,*,#229,.F.);
#154=ORIENTED_EDGE('',*,*,#230,.F.);
#155=ORIENTED_EDGE('',*,*,#231,.T.);
#156=ORIENTED_EDGE('',*,*,#232,.T.);
#157=ORIENTED_EDGE('',*,*,#233,.T.);
#158=ORIENTED_EDGE('',*,*,#234,.F.);
#159=ORIENTED_EDGE('',*,*,#229,.T.);
#160=ORIENTED_EDGE('',*,*,#235,.T.);
#161=ORIENTED_EDGE('',*,*,#236,.T.);
#162=ORIENTED_EDGE('',*,*,#237,.F.);
#163=ORIENTED_EDGE('',*,*,#238,.T.);
#164=ORIENTED_EDGE('',*,*,#222,.F.);
#165=ORIENTED_EDGE('',*,*,#239,.T.);
#166=ORIENTED_EDGE('',*,*,#238,.F.);
#167=ORIENTED_EDGE('',*,*,#240,.T.);
#168=ORIENTED_EDGE('',*,*,#241,.T.);
#169=ORIENTED_EDGE('',*,*,#225,.T.);
#170=ORIENTED_EDGE('',*,*,#242,.F.);
#171=ORIENTED_EDGE('',*,*,#239,.F.);
#172=ORIENTED_EDGE('',*,*,#237,.T.);
#173=ORIENTED_EDGE('',*,*,#242,.T.);
#174=ORIENTED_EDGE('',*,*,#243,.T.);
#175=ORIENTED_EDGE('',*,*,#236,.F.);
#176=ORIENTED_EDGE('',*,*,#240,.F.);
#177=ORIENTED_EDGE('',*,*,#243,.F.);
#178=ORIENTED_EDGE('',*,*,#244,.F.);
#179=ORIENTED_EDGE('',*,*,#233,.F.);
#180=ORIENTED_EDGE('',*,*,#234,.T.);
#181=ORIENTED_EDGE('',*,*,#244,.T.);
#182=ORIENTED_EDGE('',*,*,#235,.F.);
#183=ORIENTED_EDGE('',*,*,#245,.T.);
#184=ORIENTED_EDGE('',*,*,#230,.T.);
#185=ORIENTED_EDGE('',*,*,#245,.F.);
#186=ORIENTED_EDGE('',*,*,#232,.F.);
#187=ORIENTED_EDGE('',*,*,#227,.T.);
#188=ORIENTED_EDGE('',*,*,#226,.T.);
#189=ORIENTED_EDGE('',*,*,#241,.F.);
#190=ORIENTED_EDGE('',*,*,#228,.F.);
#191=ORIENTED_EDGE('',*,*,#231,.F.);
#192=ORIENTED_EDGE('',*,*,#246,.F.);
#193=ORIENTED_EDGE('',*,*,#247,.F.);
#194=ORIENTED_EDGE('',*,*,#248,.T.);
#195=ORIENTED_EDGE('',*,*,#246,.T.);
#196=ORIENTED_EDGE('',*,*,#249,.F.);
#197=ORIENTED_EDGE('',*,*,#223,.F.);
#198=ORIENTED_EDGE('',*,*,#247,.T.);
#199=ORIENTED_EDGE('',*,*,#248,.F.);
#200=ORIENTED_EDGE('',*,*,#224,.F.);
#201=ORIENTED_EDGE('',*,*,#249,.T.);
#202=VERTEX_POINT('',#439);
#203=VERTEX_POINT('',#441);
#204=VERTEX_POINT('',#442);
#205=VERTEX_POINT('',#446);
#206=VERTEX_POINT('',#447);
#207=VERTEX_POINT('',#449);
#208=VERTEX_POINT('',#451);
#209=VERTEX_POINT('',#455);
#210=VERTEX_POINT('',#456);
#211=VERTEX_POINT('',#462);
#212=VERTEX_POINT('',#463);
#213=VERTEX_POINT('',#468);
#214=VERTEX_POINT('',#470);
#215=VERTEX_POINT('',#473);
#216=VERTEX_POINT('',#476);
#217=VERTEX_POINT('',#479);
#218=VERTEX_POINT('',#483);
#219=VERTEX_POINT('',#487);
#220=VERTEX_POINT('',#497);
#221=VERTEX_POINT('',#498);
#222=EDGE_CURVE('',#202,#202,#250,.T.);
#223=EDGE_CURVE('',#203,#204,#251,.T.);
#224=EDGE_CURVE('',#204,#203,#252,.T.);
#225=EDGE_CURVE('',#205,#206,#253,.T.);
#226=EDGE_CURVE('',#207,#205,#254,.T.);
#227=EDGE_CURVE('',#208,#207,#255,.T.);
#228=EDGE_CURVE('',#208,#206,#256,.T.);
#229=EDGE_CURVE('',#209,#210,#257,.T.);
#230=EDGE_CURVE('',#207,#209,#51,.T.);
#231=EDGE_CURVE('',#207,#208,#258,.T.);
#232=EDGE_CURVE('',#208,#210,#52,.T.);
#233=EDGE_CURVE('',#211,#212,#259,.T.);
#234=EDGE_CURVE('',#209,#212,#53,.T.);
#235=EDGE_CURVE('',#210,#211,#54,.T.);
#236=EDGE_CURVE('',#213,#213,#260,.T.);
#237=EDGE_CURVE('',#214,#214,#261,.T.);
#238=EDGE_CURVE('',#215,#215,#262,.T.);
#239=EDGE_CURVE('',#216,#216,#263,.T.);
#240=EDGE_CURVE('',#217,#217,#264,.T.);
#241=EDGE_CURVE('',#206,#205,#265,.T.);
#242=EDGE_CURVE('',#218,#218,#266,.T.);
#243=EDGE_CURVE('',#219,#219,#267,.T.);
#244=EDGE_CURVE('',#212,#211,#268,.T.);
#245=EDGE_CURVE('',#210,#209,#269,.T.);
#246=EDGE_CURVE('',#220,#221,#270,.T.);
#247=EDGE_CURVE('',#221,#220,#271,.T.);
#248=EDGE_CURVE('',#203,#220,#55,.T.);
#249=EDGE_CURVE('',#204,#221,#56,.T.);
#250=CIRCLE('',#297,31.775);
#251=CIRCLE('',#298,22.6916641016626);
#252=CIRCLE('',#299,22.6916641016626);
#253=CIRCLE('',#301,22.2029145451619);
#254=CIRCLE('',#302,1.);
#255=CIRCLE('',#303,21.2040764877491);
#256=CIRCLE('',#304,1.);
#257=CIRCLE('',#306,14.5);
#258=CIRCLE('',#307,21.2040764877491);
#259=CIRCLE('',#309,14.5);
#260=CIRCLE('',#311,28.8725952641916);
#261=CIRCLE('',#312,28.125);
#262=CIRCLE('',#314,31.775);
#263=CIRCLE('',#316,28.8725952641916);
#264=CIRCLE('',#318,31.775);
#265=CIRCLE('',#319,22.2029145451619);
#266=CIRCLE('',#321,28.125);
#267=CIRCLE('',#324,31.775);
#268=CIRCLE('',#327,14.5);
#269=CIRCLE('',#329,14.5);
#270=CIRCLE('',#333,12.2500548269627);
#271=CIRCLE('',#334,12.2500548269627);
#272=INVISIBILITY((#273,#274,#275,#276));
#273=PRESENTATION_LAYER_ASSIGNMENT('100','Layer 100',(#294));
#274=PRESENTATION_LAYER_ASSIGNMENT('101','Layer 101',(#295));
#275=PRESENTATION_LAYER_ASSIGNMENT('102','Layer 102',(#296));
#276=PRESENTATION_LAYER_ASSIGNMENT('98','Layer 98',(#38));
#277=STYLED_ITEM('',(#281),#294);
#278=STYLED_ITEM('',(#282),#295);
#279=STYLED_ITEM('',(#283),#296);
#280=STYLED_ITEM('',(#284),#38);
#281=PRESENTATION_STYLE_ASSIGNMENT((#285));
#282=PRESENTATION_STYLE_ASSIGNMENT((#286));
#283=PRESENTATION_STYLE_ASSIGNMENT((#287));
#284=PRESENTATION_STYLE_ASSIGNMENT((#33));
#285=CURVE_STYLE('',#290,POSITIVE_LENGTH_MEASURE(0.7),#288);
#286=CURVE_STYLE('',#291,POSITIVE_LENGTH_MEASURE(0.7),#288);
#287=CURVE_STYLE('',#292,POSITIVE_LENGTH_MEASURE(0.7),#288);
#288=COLOUR_RGB('Medium Maroon',0.6,0.4,0.4);
#289=COLOUR_RGB('Medium Gray',0.490196078431373,0.490196078431373,0.490196078431373);
#290=DRAUGHTING_PRE_DEFINED_CURVE_FONT('continuous');
#291=DRAUGHTING_PRE_DEFINED_CURVE_FONT('continuous');
#292=DRAUGHTING_PRE_DEFINED_CURVE_FONT('continuous');
#293=AXIS2_PLACEMENT_3D('',#434,#338,#339);
#294=AXIS2_PLACEMENT_3D('PCS',#435,#340,#341);
#295=AXIS2_PLACEMENT_3D('CSW',#436,#342,#343);
#296=AXIS2_PLACEMENT_3D('MCS',#437,#344,#345);
#297=AXIS2_PLACEMENT_3D('',#438,#346,#347);
#298=AXIS2_PLACEMENT_3D('',#440,#348,#349);
#299=AXIS2_PLACEMENT_3D('',#443,#350,#351);
#300=AXIS2_PLACEMENT_3D('',#444,#352,#353);
#301=AXIS2_PLACEMENT_3D('',#445,#354,#355);
#302=AXIS2_PLACEMENT_3D('',#448,#356,#357);
#303=AXIS2_PLACEMENT_3D('',#450,#358,#359);
#304=AXIS2_PLACEMENT_3D('',#452,#360,#361);
#305=AXIS2_PLACEMENT_3D('',#453,#362,#363);
#306=AXIS2_PLACEMENT_3D('',#454,#364,#365);
#307=AXIS2_PLACEMENT_3D('',#458,#367,#368);
#308=AXIS2_PLACEMENT_3D('',#460,#370,#371);
#309=AXIS2_PLACEMENT_3D('',#461,#372,#373);
#310=AXIS2_PLACEMENT_3D('',#466,#376,#377);
#311=AXIS2_PLACEMENT_3D('',#467,#378,#379);
#312=AXIS2_PLACEMENT_3D('',#469,#380,#381);
#313=AXIS2_PLACEMENT_3D('',#471,#382,#383);
#314=AXIS2_PLACEMENT_3D('',#472,#384,#385);
#315=AXIS2_PLACEMENT_3D('',#474,#386,#387);
#316=AXIS2_PLACEMENT_3D('',#475,#388,#389);
#317=AXIS2_PLACEMENT_3D('',#477,#390,#391);
#318=AXIS2_PLACEMENT_3D('',#478,#392,#393);
#319=AXIS2_PLACEMENT_3D('',#480,#394,#395);
#320=AXIS2_PLACEMENT_3D('',#481,#396,#397);
#321=AXIS2_PLACEMENT_3D('',#482,#398,#399);
#322=AXIS2_PLACEMENT_3D('',#484,#400,#401);
#323=AXIS2_PLACEMENT_3D('',#485,#402,#403);
#324=AXIS2_PLACEMENT_3D('',#486,#404,#405);
#325=AXIS2_PLACEMENT_3D('',#488,#406,#407);
#326=AXIS2_PLACEMENT_3D('',#489,#408,#409);
#327=AXIS2_PLACEMENT_3D('',#490,#410,#411);
#328=AXIS2_PLACEMENT_3D('',#491,#412,#413);
#329=AXIS2_PLACEMENT_3D('',#492,#414,#415);
#330=AXIS2_PLACEMENT_3D('',#493,#416,#417);
#331=AXIS2_PLACEMENT_3D('',#494,#418,#419);
#332=AXIS2_PLACEMENT_3D('',#495,#420,#421);
#333=AXIS2_PLACEMENT_3D('',#496,#422,#423);
#334=AXIS2_PLACEMENT_3D('',#499,#424,#425);
#335=AXIS2_PLACEMENT_3D('',#500,#426,#427);
#336=AXIS2_PLACEMENT_3D('',#503,#430,#431);
#337=AXIS2_PLACEMENT_3D('',#504,#432,#433);
#338=DIRECTION('',(0.,0.,1.));
#339=DIRECTION('',(1.,0.,0.));
#340=DIRECTION('',(0.,0.,1.));
#341=DIRECTION('',(1.,0.,0.));
#342=DIRECTION('',(0.,0.,1.));
#343=DIRECTION('',(1.,0.,0.));
#344=DIRECTION('',(0.,0.,1.));
#345=DIRECTION('',(1.,0.,0.));
#346=DIRECTION('',(0.,0.,1.));
#347=DIRECTION('',(-1.,0.,0.));
#348=DIRECTION('',(0.,0.,-1.));
#349=DIRECTION('',(-1.,0.,0.));
#350=DIRECTION('',(0.,0.,-1.));
#351=DIRECTION('',(-1.,0.,0.));
#352=DIRECTION('',(0.,0.,-1.));
#353=DIRECTION('',(-1.,0.,0.));
#354=DIRECTION('',(0.,0.,1.));
#355=DIRECTION('',(-1.,0.,0.));
#356=DIRECTION('',(1.22464679914735E-16,1.,0.));
#357=DIRECTION('',(-1.,1.22464679914735E-16,0.));
#358=DIRECTION('',(0.,0.,-1.));
#359=DIRECTION('',(-1.,0.,0.));
#360=DIRECTION('',(0.,-1.,0.));
#361=DIRECTION('',(1.,0.,0.));
#362=DIRECTION('',(0.,0.,1.));
#363=DIRECTION('',(1.,0.,0.));
#364=DIRECTION('',(0.,0.,-1.));
#365=DIRECTION('',(1.,0.,0.));
#366=DIRECTION('',(-0.0481926868301366,5.90190196688376E-18,-0.998838057412758));
#367=DIRECTION('',(0.,0.,-1.));
#368=DIRECTION('',(-1.,0.,0.));
#369=DIRECTION('',(0.0481926868301366,0.,-0.998838057412758));
#370=DIRECTION('',(0.,0.,1.));
#371=DIRECTION('',(1.,0.,-8.84657495514974E-16));
#372=DIRECTION('',(0.,0.,1.));
#373=DIRECTION('',(1.,0.,0.));
#374=DIRECTION('',(0.,0.,-1.));
#375=DIRECTION('',(0.,0.,-1.));
#376=DIRECTION('',(0.,0.,1.));
#377=DIRECTION('',(1.,0.,0.));
#378=DIRECTION('',(0.,0.,1.));
#379=DIRECTION('',(-1.,0.,0.));
#380=DIRECTION('',(0.,0.,1.));
#381=DIRECTION('',(1.,-2.04281036531029E-14,0.));
#382=DIRECTION('',(0.,0.,-1.));
#383=DIRECTION('',(-1.,0.,0.));
#384=DIRECTION('',(0.,0.,1.));
#385=DIRECTION('',(-1.,0.,0.));
#386=DIRECTION('',(0.,0.,1.));
#387=DIRECTION('',(1.,0.,0.));
#388=DIRECTION('',(0.,0.,1.));
#389=DIRECTION('',(-1.,0.,0.));
#390=DIRECTION('',(0.,0.,1.));
#391=DIRECTION('',(1.,0.,-1.5736007204637E-17));
#392=DIRECTION('',(0.,0.,-1.));
#393=DIRECTION('',(1.,0.,0.));
#394=DIRECTION('',(0.,0.,1.));
#395=DIRECTION('',(-1.,0.,0.));
#396=DIRECTION('',(0.,0.,1.));
#397=DIRECTION('',(1.,0.,0.));
#398=DIRECTION('',(0.,0.,-1.));
#399=DIRECTION('',(-1.,0.,0.));
#400=DIRECTION('',(0.,0.,1.));
#401=DIRECTION('',(1.,0.,0.));
#402=DIRECTION('',(0.,0.,1.));
#403=DIRECTION('',(1.,0.,0.));
#404=DIRECTION('',(0.,0.,1.));
#405=DIRECTION('',(-1.,0.,0.));
#406=DIRECTION('',(0.,0.,-1.));
#407=DIRECTION('',(-1.,0.,1.97024296819032E-17));
#408=DIRECTION('',(0.,0.,1.));
#409=DIRECTION('',(1.,0.,0.));
#410=DIRECTION('',(0.,0.,1.));
#411=DIRECTION('',(1.,0.,0.));
#412=DIRECTION('',(0.,0.,1.));
#413=DIRECTION('',(1.,0.,0.));
#414=DIRECTION('',(0.,0.,-1.));
#415=DIRECTION('',(1.,0.,0.));
#416=DIRECTION('',(0.,0.,1.));
#417=DIRECTION('',(1.,0.,0.));
#418=DIRECTION('',(0.,0.,1.));
#419=DIRECTION('',(1.,0.,-8.84657495514974E-16));
#420=DIRECTION('',(0.,0.,1.));
#421=DIRECTION('',(1.,0.,0.));
#422=DIRECTION('',(0.,0.,-1.));
#423=DIRECTION('',(-1.,0.,0.));
#424=DIRECTION('',(0.,0.,-1.));
#425=DIRECTION('',(-1.,0.,0.));
#426=DIRECTION('',(0.,0.,-1.));
#427=DIRECTION('',(-1.,0.,0.));
#428=DIRECTION('',(0.144306116415227,1.76724023565294E-17,0.989533094325377));
#429=DIRECTION('',(-0.144306116415227,0.,0.989533094325377));
#430=DIRECTION('',(0.,0.,-1.));
#431=DIRECTION('',(-1.,0.,-5.76442534868639E-16));
#432=DIRECTION('',(0.,0.,-1.));
#433=DIRECTION('',(-1.,0.,-5.76442534868639E-16));
#434=CARTESIAN_POINT('',(0.,0.,0.));
#435=CARTESIAN_POINT('',(0.,0.,0.));
#436=CARTESIAN_POINT('',(0.,0.,-169.));
#437=CARTESIAN_POINT('',(0.,0.,0.));
#438=CARTESIAN_POINT('',(0.0112472380000282,2.80798855372848E-17,-3.19999999999999));
#439=CARTESIAN_POINT('',(-31.763752762,2.80798855372848E-17,-3.19999999999999));
#440=CARTESIAN_POINT('',(0.0112472380000282,2.80798855372848E-17,-3.19999999999999));
#441=CARTESIAN_POINT('',(-22.6804168636625,2.80798855372848E-17,-3.19999999999999));
#442=CARTESIAN_POINT('',(22.7029113396626,2.80700726648008E-15,-3.19999999999999));
#443=CARTESIAN_POINT('',(0.0112472380000282,2.80798855372848E-17,-3.19999999999999));
#444=CARTESIAN_POINT('',(0.0112472380000282,-22.6916641016626,-3.19999999999999));
#445=CARTESIAN_POINT('',(0.0112472380000282,2.80798855372848E-17,-19.1));
#446=CARTESIAN_POINT('',(22.2141617831619,-2.69099293741019E-15,-19.1));
#447=CARTESIAN_POINT('',(-22.1916673071619,2.80798855372848E-17,-19.1));
#448=CARTESIAN_POINT('',(22.2141617831619,-2.69099293741019E-15,-20.1));
#449=CARTESIAN_POINT('',(21.2153237257492,-2.56867055442248E-15,-20.0518073131699));
#450=CARTESIAN_POINT('',(0.0112472380000282,2.80798855372848E-17,-20.0518073131699));
#451=CARTESIAN_POINT('',(-21.1928292497491,2.80798855372848E-17,-20.0518073131699));
#452=CARTESIAN_POINT('',(-22.1916673071619,2.80798855372848E-17,-20.1));
#453=CARTESIAN_POINT('',(0.0112472380000282,2.80798855372848E-17,-20.1));
#454=CARTESIAN_POINT('',(0.0112472380000282,2.80798855372848E-17,-159.));
#455=CARTESIAN_POINT('',(14.5112472379999,-1.85024075671553E-15,-159.000000000002));
#456=CARTESIAN_POINT('',(-14.4887527619999,2.80798855372848E-17,-159.000000000002));
#457=CARTESIAN_POINT('',(14.511247238,-1.74765797322638E-15,-159.));
#458=CARTESIAN_POINT('',(0.0112472380000282,2.80798855372848E-17,-20.0518073131699));
#459=CARTESIAN_POINT('',(-14.488752762,2.80798855372848E-17,-159.));
#460=CARTESIAN_POINT('',(0.0112472380000282,2.80798855372848E-17,-159.));
#461=CARTESIAN_POINT('',(0.0112472380000282,2.80798855372848E-17,-169.));
#462=CARTESIAN_POINT('',(-14.488752762,2.80798855372848E-17,-169.));
#463=CARTESIAN_POINT('',(14.511247238,-1.74765797322638E-15,-169.));
#464=CARTESIAN_POINT('',(14.511247238,-1.74765797322638E-15,82.6493200682369));
#465=CARTESIAN_POINT('',(-14.488752762,2.80798855372848E-17,82.6493200682369));
#466=CARTESIAN_POINT('',(0.0112472380000282,2.80798855372848E-17,82.6493200682369));
#467=CARTESIAN_POINT('',(0.0112472380000282,2.80798855372848E-17,-12.975));
#468=CARTESIAN_POINT('',(-28.8613480261916,2.80798855372848E-17,-12.975));
#469=CARTESIAN_POINT('',(0.0112472380000282,2.80798855372848E-17,-12.0073782508947));
#470=CARTESIAN_POINT('',(28.136247238,-5.74512335357981E-13,-12.0073782508947));
#471=CARTESIAN_POINT('',(0.0112472380000282,2.80798855372848E-17,-12.0073782508947));
#472=CARTESIAN_POINT('',(0.0112472380000282,2.80798855372848E-17,-7.5492958444838));
#473=CARTESIAN_POINT('',(-31.763752762,2.80798855372848E-17,-7.5492958444838));
#474=CARTESIAN_POINT('',(0.0112472380000282,2.80798855372848E-17,82.6493200682369));
#475=CARTESIAN_POINT('',(0.0112472380000282,2.80798855372848E-17,-9.225));
#476=CARTESIAN_POINT('',(-28.8613480261916,2.80798855372848E-17,-9.225));
#477=CARTESIAN_POINT('',(0.0112472380000282,2.80798855372848E-17,-7.5492958444838));
#478=CARTESIAN_POINT('',(0.0112472380000282,2.80798855372848E-17,-19.1));
#479=CARTESIAN_POINT('',(31.786247238,2.80798855372848E-17,-19.1));
#480=CARTESIAN_POINT('',(0.0112472380000282,2.80798855372848E-17,-19.1));
#481=CARTESIAN_POINT('',(0.0112472380000282,-31.775,-19.1));
#482=CARTESIAN_POINT('',(0.0112472380000282,2.80798855372848E-17,-10.1926217491052));
#483=CARTESIAN_POINT('',(-28.113752762,2.80798855372848E-17,-10.1926217491052));
#484=CARTESIAN_POINT('',(0.0112472380000282,2.80798855372848E-17,-10.1926217491052));
#485=CARTESIAN_POINT('',(0.0112472380000282,2.80798855372848E-17,-3.19999999999999));
#486=CARTESIAN_POINT('',(0.0112472380000282,2.80798855372848E-17,-14.6507041555162));
#487=CARTESIAN_POINT('',(-31.763752762,2.80798855372848E-17,-14.6507041555162));
#488=CARTESIAN_POINT('',(0.0112472380000282,2.80798855372848E-17,-12.975));
#489=CARTESIAN_POINT('',(0.0112472380000282,2.80798855372848E-17,82.6493200682369));
#490=CARTESIAN_POINT('',(0.0112472380000282,2.80798855372848E-17,-169.));
#491=CARTESIAN_POINT('',(0.0112472380000282,-14.5,-169.));
#492=CARTESIAN_POINT('',(0.0112472380000282,2.80798855372848E-17,-159.));
#493=CARTESIAN_POINT('',(0.0112472380000282,2.80798855372848E-17,82.6493200682369));
#494=CARTESIAN_POINT('',(0.0112472380000282,2.80798855372848E-17,-159.));
#495=CARTESIAN_POINT('',(0.0112472380000282,2.80798855372848E-17,-20.1));
#496=CARTESIAN_POINT('',(0.0112472380000282,2.80798855372848E-17,68.4));
#497=CARTESIAN_POINT('',(-12.2388075889627,-1.47211915778466E-15,68.4));
#498=CARTESIAN_POINT('',(12.2613020649628,2.80798855372848E-17,68.4));
#499=CARTESIAN_POINT('',(0.0112472380000282,2.80798855372848E-17,68.4));
#500=CARTESIAN_POINT('',(0.0112472380000282,2.80798855372848E-17,68.4));
#501=CARTESIAN_POINT('',(-22.6804168636625,-2.75084749540551E-15,-3.19999999999999));
#502=CARTESIAN_POINT('',(22.7029113396626,2.80798855372848E-17,-3.19999999999999));
#503=CARTESIAN_POINT('',(0.0112472380000282,2.80798855372848E-17,-3.19999999999999));
#504=CARTESIAN_POINT('',(0.0112472380000282,2.80798855372848E-17,-3.19999999999999));
#505=MECHANICAL_DESIGN_GEOMETRIC_PRESENTATION_REPRESENTATION('',(#277,#278,
#279,#280),#506);
#506=(
GEOMETRIC_REPRESENTATION_CONTEXT(3)
GLOBAL_UNCERTAINTY_ASSIGNED_CONTEXT((#507))
GLOBAL_UNIT_ASSIGNED_CONTEXT((#513,#509,#508))
REPRESENTATION_CONTEXT('69871.40ADB-IHA.M16','TOP_LEVEL_ASSEMBLY_PART')
);
#507=UNCERTAINTY_MEASURE_WITH_UNIT(LENGTH_MEASURE(2.E-5),#513,
'DISTANCE_ACCURACY_VALUE','Maximum Tolerance applied to model');
#508=(
NAMED_UNIT(*)
SI_UNIT($,.STERADIAN.)
SOLID_ANGLE_UNIT()
);
#509=(
CONVERSION_BASED_UNIT('DEGREE',#511)
NAMED_UNIT(#510)
PLANE_ANGLE_UNIT()
);
#510=DIMENSIONAL_EXPONENTS(0.,0.,0.,0.,0.,0.,0.);
#511=PLANE_ANGLE_MEASURE_WITH_UNIT(PLANE_ANGLE_MEASURE(0.0174532925),#512);
#512=(
NAMED_UNIT(*)
PLANE_ANGLE_UNIT()
SI_UNIT($,.RADIAN.)
);
#513=(
LENGTH_UNIT()
NAMED_UNIT(*)
SI_UNIT(.MILLI.,.METRE.)
);
ENDSEC;
END-ISO-10303-21;
