ISO-10303-21;
HEADER;
/* Generated by software containing ST-Developer
 * from STEP Tools, Inc. (www.steptools.com) 
 */
/* OPTION: using custom schema-name function */

FILE_DESCRIPTION(
/* description */ (''),
/* implementation_level */ '2;1');

FILE_NAME(
/* name */ '69871.40ADB-IHA.M10.005.stp',
/* time_stamp */ '2024-07-28T11:30:16+02:00',
/* author */ (''),
/* organization */ (''),
/* preprocessor_version */ 'ST-DEVELOPER v16.7',
/* originating_system */ 'SIEMENS PLM Software NX 12.0',
/* authorisation */ '');

FILE_SCHEMA (('AUTOMOTIVE_DESIGN { 1 0 10303 214 3 1 1 1 }'));
ENDSEC;

DATA;
#10=CONSTRUCTIVE_GEOMETRY_REPRESENTATION_RELATIONSHIP(
'supplemental geometry','',#32,#11);
#11=CONSTRUCTIVE_GEOMETRY_REPRESENTATION('supplemental geometry',(#266,
#267,#268),#456);
#12=PROPERTY_DEFINITION_REPRESENTATION(#16,#14);
#13=PROPERTY_DEFINITION_REPRESENTATION(#17,#15);
#14=REPRESENTATION('',(#18),#456);
#15=REPRESENTATION('',(#19),#456);
#16=PROPERTY_DEFINITION('pmi validation property','',#23);
#17=PROPERTY_DEFINITION('pmi validation property','',#23);
#18=VALUE_REPRESENTATION_ITEM('number of annotations',COUNT_MEASURE(0.));
#19=VALUE_REPRESENTATION_ITEM('number of views',COUNT_MEASURE(0.));
#20=SHAPE_REPRESENTATION_RELATIONSHIP('None',
'relationship between pf661B4C06BB9xmp-None and pf661B4C06BB9xmp-None',
#32,#21);
#21=ADVANCED_BREP_SHAPE_REPRESENTATION('pf661B4C06BB9xmp-None',(#38),#456);
#22=SHAPE_DEFINITION_REPRESENTATION(#23,#32);
#23=PRODUCT_DEFINITION_SHAPE('','',#24);
#24=PRODUCT_DEFINITION(' ','',#26,#25);
#25=PRODUCT_DEFINITION_CONTEXT('part definition',#31,'design');
#26=PRODUCT_DEFINITION_FORMATION_WITH_SPECIFIED_SOURCE(' ',' ',#28,
 .NOT_KNOWN.);
#27=PRODUCT_RELATED_PRODUCT_CATEGORY('part','',(#28));
#28=PRODUCT('pf661B4C06BB9xmp','pf661B4C06BB9xmp',' ',(#29));
#29=PRODUCT_CONTEXT(' ',#31,'mechanical');
#30=APPLICATION_PROTOCOL_DEFINITION('international standard',
'automotive_design',2010,#31);
#31=APPLICATION_CONTEXT(
'core data for automotive mechanical design processes');
#32=SHAPE_REPRESENTATION('pf661B4C06BB9xmp-None',(#265),#456);
#33=SURFACE_STYLE_USAGE(.BOTH.,#34);
#34=SURFACE_SIDE_STYLE('',(#35));
#35=SURFACE_STYLE_FILL_AREA(#36);
#36=FILL_AREA_STYLE('',(#37));
#37=FILL_AREA_STYLE_COLOUR('',#261);
#38=MANIFOLD_SOLID_BREP('\X\B0\X2\014100AE0106\X0\-\X\B1\X2\02DD0104\X0\X
5',#39);
#39=CLOSED_SHELL('',(#69,#70,#71,#72,#73,#74,#75,#76,#77,#78,#79,#80,#81,
#82,#83,#84,#85));
#40=CONICAL_SURFACE('',#282,22.6916641016626,8.29709999999964);
#41=CONICAL_SURFACE('',#292,31.775,60.0000000000003);
#42=CONICAL_SURFACE('',#295,28.8725952641916,59.9999999999999);
#43=CONICAL_SURFACE('',#303,22.6916641016626,8.29709999999964);
#44=CYLINDRICAL_SURFACE('',#280,9.);
#45=CYLINDRICAL_SURFACE('',#285,28.125);
#46=CYLINDRICAL_SURFACE('',#290,31.775);
#47=CYLINDRICAL_SURFACE('',#296,31.775);
#48=CYLINDRICAL_SURFACE('',#304,9.);
#49=LINE('',#415,#53);
#50=LINE('',#417,#54);
#51=LINE('',#422,#55);
#52=LINE('',#423,#56);
#53=VECTOR('',#334,1.);
#54=VECTOR('',#337,1.);
#55=VECTOR('',#342,1.);
#56=VECTOR('',#343,1.);
#57=TOROIDAL_SURFACE('',#277,10.,1.);
#58=TOROIDAL_SURFACE('',#297,29.125,1.);
#59=TOROIDAL_SURFACE('',#298,29.125,1.);
#60=TOROIDAL_SURFACE('',#305,10.,1.);
#61=FACE_OUTER_BOUND('',#110,.T.);
#62=FACE_OUTER_BOUND('',#111,.T.);
#63=FACE_OUTER_BOUND('',#112,.T.);
#64=FACE_OUTER_BOUND('',#129,.T.);
#65=FACE_OUTER_BOUND('',#130,.T.);
#66=FACE_OUTER_BOUND('',#131,.T.);
#67=FACE_OUTER_BOUND('',#132,.T.);
#68=FACE_OUTER_BOUND('',#133,.T.);
#69=ADVANCED_FACE('',(#90,#91),#86,.F.);
#70=ADVANCED_FACE('',(#61),#57,.F.);
#71=ADVANCED_FACE('',(#62),#44,.T.);
#72=ADVANCED_FACE('',(#63),#40,.T.);
#73=ADVANCED_FACE('',(#92,#93),#45,.T.);
#74=ADVANCED_FACE('',(#94,#95),#87,.F.);
#75=ADVANCED_FACE('',(#96,#97),#46,.T.);
#76=ADVANCED_FACE('',(#98,#99),#41,.T.);
#77=ADVANCED_FACE('',(#100,#101),#42,.T.);
#78=ADVANCED_FACE('',(#102,#103),#47,.T.);
#79=ADVANCED_FACE('',(#104,#105),#58,.F.);
#80=ADVANCED_FACE('',(#106,#107),#59,.F.);
#81=ADVANCED_FACE('',(#64),#88,.F.);
#82=ADVANCED_FACE('',(#65),#89,.F.);
#83=ADVANCED_FACE('',(#66),#43,.T.);
#84=ADVANCED_FACE('',(#67),#48,.T.);
#85=ADVANCED_FACE('',(#68),#60,.F.);
#86=PLANE('',#272);
#87=PLANE('',#288);
#88=PLANE('',#300);
#89=PLANE('',#302);
#90=FACE_BOUND('',#108,.T.);
#91=FACE_BOUND('',#109,.T.);
#92=FACE_BOUND('',#113,.T.);
#93=FACE_BOUND('',#114,.T.);
#94=FACE_BOUND('',#115,.T.);
#95=FACE_BOUND('',#116,.T.);
#96=FACE_BOUND('',#117,.T.);
#97=FACE_BOUND('',#118,.T.);
#98=FACE_BOUND('',#119,.T.);
#99=FACE_BOUND('',#120,.T.);
#100=FACE_BOUND('',#121,.T.);
#101=FACE_BOUND('',#122,.T.);
#102=FACE_BOUND('',#123,.T.);
#103=FACE_BOUND('',#124,.T.);
#104=FACE_BOUND('',#125,.T.);
#105=FACE_BOUND('',#126,.T.);
#106=FACE_BOUND('',#127,.T.);
#107=FACE_BOUND('',#128,.T.);
#108=EDGE_LOOP('',(#134));
#109=EDGE_LOOP('',(#135,#136));
#110=EDGE_LOOP('',(#137,#138,#139,#140));
#111=EDGE_LOOP('',(#141,#142,#143,#144));
#112=EDGE_LOOP('',(#145,#146,#147,#148));
#113=EDGE_LOOP('',(#149));
#114=EDGE_LOOP('',(#150));
#115=EDGE_LOOP('',(#151));
#116=EDGE_LOOP('',(#152,#153));
#117=EDGE_LOOP('',(#154));
#118=EDGE_LOOP('',(#155));
#119=EDGE_LOOP('',(#156));
#120=EDGE_LOOP('',(#157));
#121=EDGE_LOOP('',(#158));
#122=EDGE_LOOP('',(#159));
#123=EDGE_LOOP('',(#160));
#124=EDGE_LOOP('',(#161));
#125=EDGE_LOOP('',(#162));
#126=EDGE_LOOP('',(#163));
#127=EDGE_LOOP('',(#164));
#128=EDGE_LOOP('',(#165));
#129=EDGE_LOOP('',(#166,#167));
#130=EDGE_LOOP('',(#168,#169));
#131=EDGE_LOOP('',(#170,#171,#172,#173));
#132=EDGE_LOOP('',(#174,#175,#176,#177));
#133=EDGE_LOOP('',(#178,#179,#180,#181));
#134=ORIENTED_EDGE('',*,*,#200,.T.);
#135=ORIENTED_EDGE('',*,*,#201,.T.);
#136=ORIENTED_EDGE('',*,*,#202,.T.);
#137=ORIENTED_EDGE('',*,*,#203,.F.);
#138=ORIENTED_EDGE('',*,*,#204,.F.);
#139=ORIENTED_EDGE('',*,*,#205,.F.);
#140=ORIENTED_EDGE('',*,*,#206,.T.);
#141=ORIENTED_EDGE('',*,*,#207,.T.);
#142=ORIENTED_EDGE('',*,*,#208,.F.);
#143=ORIENTED_EDGE('',*,*,#209,.T.);
#144=ORIENTED_EDGE('',*,*,#210,.T.);
#145=ORIENTED_EDGE('',*,*,#211,.T.);
#146=ORIENTED_EDGE('',*,*,#212,.F.);
#147=ORIENTED_EDGE('',*,*,#201,.F.);
#148=ORIENTED_EDGE('',*,*,#213,.T.);
#149=ORIENTED_EDGE('',*,*,#214,.T.);
#150=ORIENTED_EDGE('',*,*,#215,.T.);
#151=ORIENTED_EDGE('',*,*,#216,.T.);
#152=ORIENTED_EDGE('',*,*,#217,.T.);
#153=ORIENTED_EDGE('',*,*,#203,.T.);
#154=ORIENTED_EDGE('',*,*,#200,.F.);
#155=ORIENTED_EDGE('',*,*,#218,.T.);
#156=ORIENTED_EDGE('',*,*,#218,.F.);
#157=ORIENTED_EDGE('',*,*,#219,.T.);
#158=ORIENTED_EDGE('',*,*,#220,.F.);
#159=ORIENTED_EDGE('',*,*,#221,.T.);
#160=ORIENTED_EDGE('',*,*,#221,.F.);
#161=ORIENTED_EDGE('',*,*,#216,.F.);
#162=ORIENTED_EDGE('',*,*,#219,.F.);
#163=ORIENTED_EDGE('',*,*,#214,.F.);
#164=ORIENTED_EDGE('',*,*,#215,.F.);
#165=ORIENTED_EDGE('',*,*,#220,.T.);
#166=ORIENTED_EDGE('',*,*,#222,.F.);
#167=ORIENTED_EDGE('',*,*,#211,.F.);
#168=ORIENTED_EDGE('',*,*,#223,.F.);
#169=ORIENTED_EDGE('',*,*,#207,.F.);
#170=ORIENTED_EDGE('',*,*,#212,.T.);
#171=ORIENTED_EDGE('',*,*,#222,.T.);
#172=ORIENTED_EDGE('',*,*,#213,.F.);
#173=ORIENTED_EDGE('',*,*,#202,.F.);
#174=ORIENTED_EDGE('',*,*,#208,.T.);
#175=ORIENTED_EDGE('',*,*,#223,.T.);
#176=ORIENTED_EDGE('',*,*,#210,.F.);
#177=ORIENTED_EDGE('',*,*,#205,.T.);
#178=ORIENTED_EDGE('',*,*,#204,.T.);
#179=ORIENTED_EDGE('',*,*,#217,.F.);
#180=ORIENTED_EDGE('',*,*,#206,.F.);
#181=ORIENTED_EDGE('',*,*,#209,.F.);
#182=VERTEX_POINT('',#397);
#183=VERTEX_POINT('',#399);
#184=VERTEX_POINT('',#400);
#185=VERTEX_POINT('',#404);
#186=VERTEX_POINT('',#405);
#187=VERTEX_POINT('',#407);
#188=VERTEX_POINT('',#409);
#189=VERTEX_POINT('',#413);
#190=VERTEX_POINT('',#414);
#191=VERTEX_POINT('',#420);
#192=VERTEX_POINT('',#421);
#193=VERTEX_POINT('',#426);
#194=VERTEX_POINT('',#428);
#195=VERTEX_POINT('',#431);
#196=VERTEX_POINT('',#435);
#197=VERTEX_POINT('',#438);
#198=VERTEX_POINT('',#441);
#199=VERTEX_POINT('',#443);
#200=EDGE_CURVE('',#182,#182,#224,.T.);
#201=EDGE_CURVE('',#183,#184,#225,.T.);
#202=EDGE_CURVE('',#184,#183,#226,.T.);
#203=EDGE_CURVE('',#185,#186,#227,.T.);
#204=EDGE_CURVE('',#187,#185,#228,.T.);
#205=EDGE_CURVE('',#188,#187,#229,.T.);
#206=EDGE_CURVE('',#188,#186,#230,.T.);
#207=EDGE_CURVE('',#189,#190,#231,.T.);
#208=EDGE_CURVE('',#187,#190,#49,.T.);
#209=EDGE_CURVE('',#187,#188,#232,.T.);
#210=EDGE_CURVE('',#188,#189,#50,.T.);
#211=EDGE_CURVE('',#191,#192,#233,.T.);
#212=EDGE_CURVE('',#184,#192,#51,.T.);
#213=EDGE_CURVE('',#183,#191,#52,.T.);
#214=EDGE_CURVE('',#193,#193,#234,.T.);
#215=EDGE_CURVE('',#194,#194,#235,.T.);
#216=EDGE_CURVE('',#195,#195,#236,.T.);
#217=EDGE_CURVE('',#186,#185,#237,.T.);
#218=EDGE_CURVE('',#196,#196,#238,.T.);
#219=EDGE_CURVE('',#197,#197,#239,.T.);
#220=EDGE_CURVE('',#198,#198,#240,.T.);
#221=EDGE_CURVE('',#199,#199,#241,.T.);
#222=EDGE_CURVE('',#192,#191,#242,.T.);
#223=EDGE_CURVE('',#190,#189,#243,.T.);
#224=CIRCLE('',#269,31.775);
#225=CIRCLE('',#270,22.6916641016626);
#226=CIRCLE('',#271,22.6916641016626);
#227=CIRCLE('',#273,10.);
#228=CIRCLE('',#274,1.);
#229=CIRCLE('',#275,9.);
#230=CIRCLE('',#276,1.);
#231=CIRCLE('',#278,9.);
#232=CIRCLE('',#279,9.);
#233=CIRCLE('',#281,12.2500548269627);
#234=CIRCLE('',#283,28.125);
#235=CIRCLE('',#284,28.125);
#236=CIRCLE('',#286,31.775);
#237=CIRCLE('',#287,10.);
#238=CIRCLE('',#289,31.775);
#239=CIRCLE('',#291,28.8725952641916);
#240=CIRCLE('',#293,28.8725952641916);
#241=CIRCLE('',#294,31.775);
#242=CIRCLE('',#299,12.2500548269627);
#243=CIRCLE('',#301,9.);
#244=INVISIBILITY((#245,#246,#247,#248));
#245=PRESENTATION_LAYER_ASSIGNMENT('100','Layer 100',(#266));
#246=PRESENTATION_LAYER_ASSIGNMENT('101','Layer 101',(#267));
#247=PRESENTATION_LAYER_ASSIGNMENT('102','Layer 102',(#268));
#248=PRESENTATION_LAYER_ASSIGNMENT('98','Layer 98',(#38));
#249=STYLED_ITEM('',(#253),#266);
#250=STYLED_ITEM('',(#254),#267);
#251=STYLED_ITEM('',(#255),#268);
#252=STYLED_ITEM('',(#256),#38);
#253=PRESENTATION_STYLE_ASSIGNMENT((#257));
#254=PRESENTATION_STYLE_ASSIGNMENT((#258));
#255=PRESENTATION_STYLE_ASSIGNMENT((#259));
#256=PRESENTATION_STYLE_ASSIGNMENT((#33));
#257=CURVE_STYLE('',#262,POSITIVE_LENGTH_MEASURE(0.7),#260);
#258=CURVE_STYLE('',#263,POSITIVE_LENGTH_MEASURE(0.7),#260);
#259=CURVE_STYLE('',#264,POSITIVE_LENGTH_MEASURE(0.7),#260);
#260=COLOUR_RGB('Medium Maroon',0.6,0.4,0.4);
#261=COLOUR_RGB('Medium Gray',0.490196078431373,0.490196078431373,0.490196078431373);
#262=DRAUGHTING_PRE_DEFINED_CURVE_FONT('continuous');
#263=DRAUGHTING_PRE_DEFINED_CURVE_FONT('continuous');
#264=DRAUGHTING_PRE_DEFINED_CURVE_FONT('continuous');
#265=AXIS2_PLACEMENT_3D('',#392,#306,#307);
#266=AXIS2_PLACEMENT_3D('PCS',#393,#308,#309);
#267=AXIS2_PLACEMENT_3D('CSW',#394,#310,#311);
#268=AXIS2_PLACEMENT_3D('MCS',#395,#312,#313);
#269=AXIS2_PLACEMENT_3D('',#396,#314,#315);
#270=AXIS2_PLACEMENT_3D('',#398,#316,#317);
#271=AXIS2_PLACEMENT_3D('',#401,#318,#319);
#272=AXIS2_PLACEMENT_3D('',#402,#320,#321);
#273=AXIS2_PLACEMENT_3D('',#403,#322,#323);
#274=AXIS2_PLACEMENT_3D('',#406,#324,#325);
#275=AXIS2_PLACEMENT_3D('',#408,#326,#327);
#276=AXIS2_PLACEMENT_3D('',#410,#328,#329);
#277=AXIS2_PLACEMENT_3D('',#411,#330,#331);
#278=AXIS2_PLACEMENT_3D('',#412,#332,#333);
#279=AXIS2_PLACEMENT_3D('',#416,#335,#336);
#280=AXIS2_PLACEMENT_3D('',#418,#338,#339);
#281=AXIS2_PLACEMENT_3D('',#419,#340,#341);
#282=AXIS2_PLACEMENT_3D('',#424,#344,#345);
#283=AXIS2_PLACEMENT_3D('',#425,#346,#347);
#284=AXIS2_PLACEMENT_3D('',#427,#348,#349);
#285=AXIS2_PLACEMENT_3D('',#429,#350,#351);
#286=AXIS2_PLACEMENT_3D('',#430,#352,#353);
#287=AXIS2_PLACEMENT_3D('',#432,#354,#355);
#288=AXIS2_PLACEMENT_3D('',#433,#356,#357);
#289=AXIS2_PLACEMENT_3D('',#434,#358,#359);
#290=AXIS2_PLACEMENT_3D('',#436,#360,#361);
#291=AXIS2_PLACEMENT_3D('',#437,#362,#363);
#292=AXIS2_PLACEMENT_3D('',#439,#364,#365);
#293=AXIS2_PLACEMENT_3D('',#440,#366,#367);
#294=AXIS2_PLACEMENT_3D('',#442,#368,#369);
#295=AXIS2_PLACEMENT_3D('',#444,#370,#371);
#296=AXIS2_PLACEMENT_3D('',#445,#372,#373);
#297=AXIS2_PLACEMENT_3D('',#446,#374,#375);
#298=AXIS2_PLACEMENT_3D('',#447,#376,#377);
#299=AXIS2_PLACEMENT_3D('',#448,#378,#379);
#300=AXIS2_PLACEMENT_3D('',#449,#380,#381);
#301=AXIS2_PLACEMENT_3D('',#450,#382,#383);
#302=AXIS2_PLACEMENT_3D('',#451,#384,#385);
#303=AXIS2_PLACEMENT_3D('',#452,#386,#387);
#304=AXIS2_PLACEMENT_3D('',#453,#388,#389);
#305=AXIS2_PLACEMENT_3D('',#454,#390,#391);
#306=DIRECTION('',(0.,0.,1.));
#307=DIRECTION('',(1.,0.,0.));
#308=DIRECTION('',(0.,0.,1.));
#309=DIRECTION('',(1.,0.,0.));
#310=DIRECTION('',(0.,0.,1.));
#311=DIRECTION('',(1.,0.,0.));
#312=DIRECTION('',(0.,0.,1.));
#313=DIRECTION('',(1.,0.,0.));
#314=DIRECTION('',(0.,0.,1.));
#315=DIRECTION('',(-1.,0.,0.));
#316=DIRECTION('',(0.,0.,-1.));
#317=DIRECTION('',(-1.,0.,0.));
#318=DIRECTION('',(0.,0.,-1.));
#319=DIRECTION('',(-1.,0.,0.));
#320=DIRECTION('',(0.,0.,-1.));
#321=DIRECTION('',(-1.,0.,0.));
#322=DIRECTION('',(0.,0.,1.));
#323=DIRECTION('',(-1.,0.,0.));
#324=DIRECTION('',(1.22464679914735E-16,1.,0.));
#325=DIRECTION('',(-1.,1.22464679914735E-16,0.));
#326=DIRECTION('',(0.,0.,-1.));
#327=DIRECTION('',(-1.,0.,0.));
#328=DIRECTION('',(0.,-1.,0.));
#329=DIRECTION('',(1.,0.,0.));
#330=DIRECTION('',(0.,0.,1.));
#331=DIRECTION('',(1.,0.,0.));
#332=DIRECTION('',(0.,0.,1.));
#333=DIRECTION('',(1.,0.,0.));
#334=DIRECTION('',(0.,0.,-1.));
#335=DIRECTION('',(0.,0.,-1.));
#336=DIRECTION('',(-1.,0.,0.));
#337=DIRECTION('',(0.,0.,-1.));
#338=DIRECTION('',(0.,0.,1.));
#339=DIRECTION('',(1.,0.,0.));
#340=DIRECTION('',(0.,0.,-1.));
#341=DIRECTION('',(-1.,0.,0.));
#342=DIRECTION('',(0.144306116415227,1.76724023565294E-17,0.989533094325377));
#343=DIRECTION('',(-0.144306116415227,0.,0.989533094325377));
#344=DIRECTION('',(0.,0.,-1.));
#345=DIRECTION('',(-1.,0.,-5.97029768256804E-16));
#346=DIRECTION('',(0.,0.,-1.));
#347=DIRECTION('',(-1.,0.,0.));
#348=DIRECTION('',(0.,0.,1.));
#349=DIRECTION('',(1.,-7.105427357601E-15,0.));
#350=DIRECTION('',(0.,0.,1.));
#351=DIRECTION('',(1.,0.,0.));
#352=DIRECTION('',(0.,0.,-1.));
#353=DIRECTION('',(1.,0.,0.));
#354=DIRECTION('',(0.,0.,1.));
#355=DIRECTION('',(-1.,0.,0.));
#356=DIRECTION('',(0.,0.,1.));
#357=DIRECTION('',(1.,0.,0.));
#358=DIRECTION('',(0.,0.,1.));
#359=DIRECTION('',(-1.,0.,0.));
#360=DIRECTION('',(0.,0.,1.));
#361=DIRECTION('',(1.,0.,0.));
#362=DIRECTION('',(0.,0.,1.));
#363=DIRECTION('',(-1.,0.,0.));
#364=DIRECTION('',(0.,0.,1.));
#365=DIRECTION('',(1.,0.,-1.77030081052166E-17));
#366=DIRECTION('',(0.,0.,1.));
#367=DIRECTION('',(-1.,0.,0.));
#368=DIRECTION('',(0.,0.,1.));
#369=DIRECTION('',(-1.,0.,0.));
#370=DIRECTION('',(0.,0.,-1.));
#371=DIRECTION('',(-1.,0.,1.97024296819032E-17));
#372=DIRECTION('',(0.,0.,1.));
#373=DIRECTION('',(1.,0.,0.));
#374=DIRECTION('',(0.,0.,1.));
#375=DIRECTION('',(1.,0.,0.));
#376=DIRECTION('',(0.,0.,-1.));
#377=DIRECTION('',(-1.,0.,0.));
#378=DIRECTION('',(0.,0.,-1.));
#379=DIRECTION('',(-1.,0.,0.));
#380=DIRECTION('',(0.,0.,-1.));
#381=DIRECTION('',(-1.,0.,0.));
#382=DIRECTION('',(0.,0.,1.));
#383=DIRECTION('',(1.,0.,0.));
#384=DIRECTION('',(0.,0.,1.));
#385=DIRECTION('',(1.,0.,0.));
#386=DIRECTION('',(0.,0.,-1.));
#387=DIRECTION('',(-1.,0.,-5.97029768256804E-16));
#388=DIRECTION('',(0.,0.,1.));
#389=DIRECTION('',(1.,0.,0.));
#390=DIRECTION('',(0.,0.,1.));
#391=DIRECTION('',(1.,0.,0.));
#392=CARTESIAN_POINT('',(0.,0.,0.));
#393=CARTESIAN_POINT('',(0.,0.,0.));
#394=CARTESIAN_POINT('',(0.,0.,-24.));
#395=CARTESIAN_POINT('',(0.,0.,0.));
#396=CARTESIAN_POINT('',(0.0112472380001297,3.38565252236266E-17,-3.19999999999999));
#397=CARTESIAN_POINT('',(-31.7637527619999,3.38565252236266E-17,-3.19999999999999));
#398=CARTESIAN_POINT('',(0.0112472380001297,3.38565252236266E-17,-3.19999999999999));
#399=CARTESIAN_POINT('',(22.7029113396627,2.81278390616642E-15,-3.19999999999999));
#400=CARTESIAN_POINT('',(-22.6804168636624,3.38565252236266E-17,-3.19999999999999));
#401=CARTESIAN_POINT('',(0.0112472380001297,3.38565252236266E-17,-3.19999999999999));
#402=CARTESIAN_POINT('',(0.0112472380001297,-22.6916641016626,-3.19999999999999));
#403=CARTESIAN_POINT('',(0.0112472380001297,3.38565252236266E-17,-19.1));
#404=CARTESIAN_POINT('',(10.0112472380001,-1.19079027392373E-15,-19.1));
#405=CARTESIAN_POINT('',(-9.98875276199987,3.38565252236266E-17,-19.1));
#406=CARTESIAN_POINT('',(10.0112472380001,-1.19079027392373E-15,-20.1));
#407=CARTESIAN_POINT('',(9.01124723800013,-1.06832559400899E-15,-20.1));
#408=CARTESIAN_POINT('',(0.0112472380001297,3.38565252236266E-17,-20.1));
#409=CARTESIAN_POINT('',(-8.98875276199987,3.38565252236266E-17,-20.1));
#410=CARTESIAN_POINT('',(-9.98875276199987,3.38565252236266E-17,-20.1));
#411=CARTESIAN_POINT('',(0.0112472380001297,3.38565252236266E-17,-20.1));
#412=CARTESIAN_POINT('',(0.0112472380001297,3.38565252236266E-17,-24.));
#413=CARTESIAN_POINT('',(-8.98875276199987,3.38565252236266E-17,-24.));
#414=CARTESIAN_POINT('',(9.01124723800013,-1.06832559400899E-15,-24.));
#415=CARTESIAN_POINT('',(9.01124723800013,-1.06832559400899E-15,82.6493200682369));
#416=CARTESIAN_POINT('',(0.0112472380001297,3.38565252236266E-17,-20.1));
#417=CARTESIAN_POINT('',(-8.98875276199987,3.38565252236266E-17,82.6493200682369));
#418=CARTESIAN_POINT('',(0.0112472380001297,3.38565252236266E-17,82.6493200682369));
#419=CARTESIAN_POINT('',(0.0112472380001297,3.38565252236266E-17,68.4));
#420=CARTESIAN_POINT('',(12.2613020649629,3.38565252236266E-17,68.4));
#421=CARTESIAN_POINT('',(-12.2388075889626,-1.46634251809832E-15,68.4));
#422=CARTESIAN_POINT('',(-22.6804168636624,-2.74507085571917E-15,-3.19999999999999));
#423=CARTESIAN_POINT('',(22.7029113396627,3.38565252236266E-17,-3.19999999999999));
#424=CARTESIAN_POINT('',(0.0112472380001297,3.38565252236266E-17,-3.19999999999999));
#425=CARTESIAN_POINT('',(0.0112472380001297,3.38565252236266E-17,-10.1926217491052));
#426=CARTESIAN_POINT('',(-28.1137527619999,3.38565252236266E-17,-10.1926217491052));
#427=CARTESIAN_POINT('',(0.0112472380001297,3.38565252236266E-17,-12.0073782508947));
#428=CARTESIAN_POINT('',(28.1362472380001,-1.99806287907305E-13,-12.0073782508947));
#429=CARTESIAN_POINT('',(0.0112472380001297,3.38565252236266E-17,-3.19999999999999));
#430=CARTESIAN_POINT('',(0.0112472380001297,3.38565252236266E-17,-19.1));
#431=CARTESIAN_POINT('',(31.7862472380001,3.38565252236266E-17,-19.1));
#432=CARTESIAN_POINT('',(0.0112472380001297,3.38565252236266E-17,-19.1));
#433=CARTESIAN_POINT('',(0.0112472380001297,-31.775,-19.1));
#434=CARTESIAN_POINT('',(0.0112472380001297,3.38565252236266E-17,-7.5492958444838));
#435=CARTESIAN_POINT('',(-31.7637527619999,3.38565252236266E-17,-7.5492958444838));
#436=CARTESIAN_POINT('',(0.0112472380001297,3.38565252236266E-17,82.6493200682369));
#437=CARTESIAN_POINT('',(0.0112472380001297,3.38565252236266E-17,-9.22499999999999));
#438=CARTESIAN_POINT('',(-28.8613480261915,3.38565252236266E-17,-9.22499999999999));
#439=CARTESIAN_POINT('',(0.0112472380001297,3.38565252236266E-17,-7.5492958444838));
#440=CARTESIAN_POINT('',(0.0112472380001297,3.38565252236266E-17,-12.975));
#441=CARTESIAN_POINT('',(-28.8613480261915,3.38565252236266E-17,-12.975));
#442=CARTESIAN_POINT('',(0.0112472380001297,3.38565252236266E-17,-14.6507041555162));
#443=CARTESIAN_POINT('',(-31.7637527619999,3.38565252236266E-17,-14.6507041555162));
#444=CARTESIAN_POINT('',(0.0112472380001297,3.38565252236266E-17,-12.975));
#445=CARTESIAN_POINT('',(0.0112472380001297,3.38565252236266E-17,82.6493200682369));
#446=CARTESIAN_POINT('',(0.0112472380001297,3.38565252236266E-17,-10.1926217491052));
#447=CARTESIAN_POINT('',(0.0112472380001297,3.38565252236266E-17,-12.0073782508947));
#448=CARTESIAN_POINT('',(0.0112472380001297,3.38565252236266E-17,68.4));
#449=CARTESIAN_POINT('',(0.0112472380001297,3.38565252236266E-17,68.4));
#450=CARTESIAN_POINT('',(0.0112472380001297,3.38565252236266E-17,-24.));
#451=CARTESIAN_POINT('',(0.0112472380001297,-9.,-24.));
#452=CARTESIAN_POINT('',(0.0112472380001297,3.38565252236266E-17,-3.19999999999999));
#453=CARTESIAN_POINT('',(0.0112472380001297,3.38565252236266E-17,82.6493200682369));
#454=CARTESIAN_POINT('',(0.0112472380001297,3.38565252236266E-17,-20.1));
#455=MECHANICAL_DESIGN_GEOMETRIC_PRESENTATION_REPRESENTATION('',(#249,#250,
#251,#252),#456);
#456=(
GEOMETRIC_REPRESENTATION_CONTEXT(3)
GLOBAL_UNCERTAINTY_ASSIGNED_CONTEXT((#457))
GLOBAL_UNIT_ASSIGNED_CONTEXT((#463,#459,#458))
REPRESENTATION_CONTEXT('69871.40ADB-IHA.M10','TOP_LEVEL_ASSEMBLY_PART')
);
#457=UNCERTAINTY_MEASURE_WITH_UNIT(LENGTH_MEASURE(2.E-5),#463,
'DISTANCE_ACCURACY_VALUE','Maximum Tolerance applied to model');
#458=(
NAMED_UNIT(*)
SI_UNIT($,.STERADIAN.)
SOLID_ANGLE_UNIT()
);
#459=(
CONVERSION_BASED_UNIT('DEGREE',#461)
NAMED_UNIT(#460)
PLANE_ANGLE_UNIT()
);
#460=DIMENSIONAL_EXPONENTS(0.,0.,0.,0.,0.,0.,0.);
#461=PLANE_ANGLE_MEASURE_WITH_UNIT(PLANE_ANGLE_MEASURE(0.0174532925),#462);
#462=(
NAMED_UNIT(*)
PLANE_ANGLE_UNIT()
SI_UNIT($,.RADIAN.)
);
#463=(
LENGTH_UNIT()
NAMED_UNIT(*)
SI_UNIT(.MILLI.,.METRE.)
);
ENDSEC;
END-ISO-10303-21;
