ISO-10303-21;
HEADER;
/* Generated by software containing ST-Developer
 * from STEP Tools, Inc. (www.steptools.com) 
 */
/* OPTION: using custom schema-name function */

FILE_DESCRIPTION(
/* description */ (''),
/* implementation_level */ '2;1');

FILE_NAME(
/* name */ 'oznaceni_DOCUMENTNUMBERndi000_00_SIM.stp',
/* time_stamp */ '2023-08-03T09:46:26+02:00',
/* author */ (''),
/* organization */ (''),
/* preprocessor_version */ 'ST-DEVELOPER v16.7',
/* originating_system */ 'SIEMENS PLM Software NX 12.0',
/* authorisation */ '');

FILE_SCHEMA (('AUTOMOTIVE_DESIGN { 1 0 10303 214 3 1 1 1 }'));
ENDSEC;

DATA;
#10=CONSTRUCTIVE_GEOMETRY_REPRESENTATION_RELATIONSHIP(
'supplemental geometry','',#24,#11);
#11=CONSTRUCTIVE_GEOMETRY_REPRESENTATION('supplemental geometry',(#254,
#255,#256),#436);
#12=SHAPE_REPRESENTATION_RELATIONSHIP('None',
'relationship between 204860018ndi000_00-None and 204860018ndi000_00-N
one',#24,#13);
#13=ADVANCED_BREP_SHAPE_REPRESENTATION('204860018ndi000_00-None',(#30),
#436);
#14=SHAPE_DEFINITION_REPRESENTATION(#15,#24);
#15=PRODUCT_DEFINITION_SHAPE('','',#16);
#16=PRODUCT_DEFINITION(' ','',#18,#17);
#17=PRODUCT_DEFINITION_CONTEXT('part definition',#23,'design');
#18=PRODUCT_DEFINITION_FORMATION_WITH_SPECIFIED_SOURCE(' ',' ',#20,
 .NOT_KNOWN.);
#19=PRODUCT_RELATED_PRODUCT_CATEGORY('part','',(#20));
#20=PRODUCT('204860018ndi000_00','204860018ndi000_00',' ',(#21));
#21=PRODUCT_CONTEXT(' ',#23,'mechanical');
#22=APPLICATION_PROTOCOL_DEFINITION('international standard',
'automotive_design',2010,#23);
#23=APPLICATION_CONTEXT(
'core data for automotive mechanical design processes');
#24=SHAPE_REPRESENTATION('204860018ndi000_00-None',(#253),#436);
#25=SURFACE_STYLE_USAGE(.BOTH.,#26);
#26=SURFACE_SIDE_STYLE('',(#27));
#27=SURFACE_STYLE_FILL_AREA(#28);
#28=FILL_AREA_STYLE('',(#29));
#29=FILL_AREA_STYLE_COLOUR('',#249);
#30=MANIFOLD_SOLID_BREP('',#31);
#31=CLOSED_SHELL('',(#46,#47,#48,#49,#50,#51,#52,#53,#54,#55,#56,#57,#58,
#59,#60,#61,#62,#63,#64));
#32=FACE_OUTER_BOUND('',#122,.T.);
#33=FACE_OUTER_BOUND('',#141,.T.);
#34=CONICAL_SURFACE('',#274,27.83205080757,60.);
#35=CONICAL_SURFACE('',#277,30.3362976321,60.);
#36=CONICAL_SURFACE('',#285,30.3362976321,60.);
#37=CONICAL_SURFACE('',#290,22.31022129024,15.);
#38=CONICAL_SURFACE('',#292,17.39989973582,8.2971);
#39=TOROIDAL_SURFACE('',#270,25.8,0.8);
#40=CYLINDRICAL_SURFACE('',#265,31.775);
#41=CYLINDRICAL_SURFACE('',#269,25.);
#42=CYLINDRICAL_SURFACE('',#272,31.45);
#43=CYLINDRICAL_SURFACE('',#281,28.);
#44=CYLINDRICAL_SURFACE('',#286,31.775);
#45=CYLINDRICAL_SURFACE('',#288,22.19999903812);
#46=ADVANCED_FACE('',(#72,#73),#65,.F.);
#47=ADVANCED_FACE('',(#74,#75),#66,.T.);
#48=ADVANCED_FACE('',(#76,#77),#40,.T.);
#49=ADVANCED_FACE('',(#78,#79),#67,.T.);
#50=ADVANCED_FACE('',(#80,#81),#41,.T.);
#51=ADVANCED_FACE('',(#82,#83),#39,.F.);
#52=ADVANCED_FACE('',(#84,#85),#42,.T.);
#53=ADVANCED_FACE('',(#86,#87),#34,.T.);
#54=ADVANCED_FACE('',(#32),#68,.F.);
#55=ADVANCED_FACE('',(#88,#89),#35,.T.);
#56=ADVANCED_FACE('',(#90,#91),#69,.F.);
#57=ADVANCED_FACE('',(#92,#93),#43,.T.);
#58=ADVANCED_FACE('',(#94,#95),#70,.T.);
#59=ADVANCED_FACE('',(#96,#97),#36,.T.);
#60=ADVANCED_FACE('',(#98,#99),#44,.T.);
#61=ADVANCED_FACE('',(#100,#101),#45,.T.);
#62=ADVANCED_FACE('',(#102,#103),#37,.T.);
#63=ADVANCED_FACE('',(#104,#105),#38,.T.);
#64=ADVANCED_FACE('',(#33),#71,.F.);
#65=PLANE('',#259);
#66=PLANE('',#262);
#67=PLANE('',#267);
#68=PLANE('',#275);
#69=PLANE('',#279);
#70=PLANE('',#283);
#71=PLANE('',#293);
#72=FACE_BOUND('',#106,.T.);
#73=FACE_BOUND('',#107,.T.);
#74=FACE_BOUND('',#108,.T.);
#75=FACE_BOUND('',#109,.T.);
#76=FACE_BOUND('',#110,.T.);
#77=FACE_BOUND('',#111,.T.);
#78=FACE_BOUND('',#112,.T.);
#79=FACE_BOUND('',#113,.T.);
#80=FACE_BOUND('',#114,.T.);
#81=FACE_BOUND('',#115,.T.);
#82=FACE_BOUND('',#116,.T.);
#83=FACE_BOUND('',#117,.T.);
#84=FACE_BOUND('',#118,.T.);
#85=FACE_BOUND('',#119,.T.);
#86=FACE_BOUND('',#120,.T.);
#87=FACE_BOUND('',#121,.T.);
#88=FACE_BOUND('',#123,.T.);
#89=FACE_BOUND('',#124,.T.);
#90=FACE_BOUND('',#125,.T.);
#91=FACE_BOUND('',#126,.T.);
#92=FACE_BOUND('',#127,.T.);
#93=FACE_BOUND('',#128,.T.);
#94=FACE_BOUND('',#129,.T.);
#95=FACE_BOUND('',#130,.T.);
#96=FACE_BOUND('',#131,.T.);
#97=FACE_BOUND('',#132,.T.);
#98=FACE_BOUND('',#133,.T.);
#99=FACE_BOUND('',#134,.T.);
#100=FACE_BOUND('',#135,.T.);
#101=FACE_BOUND('',#136,.T.);
#102=FACE_BOUND('',#137,.T.);
#103=FACE_BOUND('',#138,.T.);
#104=FACE_BOUND('',#139,.T.);
#105=FACE_BOUND('',#140,.T.);
#106=EDGE_LOOP('',(#142));
#107=EDGE_LOOP('',(#143));
#108=EDGE_LOOP('',(#144));
#109=EDGE_LOOP('',(#145));
#110=EDGE_LOOP('',(#146));
#111=EDGE_LOOP('',(#147));
#112=EDGE_LOOP('',(#148));
#113=EDGE_LOOP('',(#149));
#114=EDGE_LOOP('',(#150));
#115=EDGE_LOOP('',(#151));
#116=EDGE_LOOP('',(#152));
#117=EDGE_LOOP('',(#153));
#118=EDGE_LOOP('',(#154));
#119=EDGE_LOOP('',(#155));
#120=EDGE_LOOP('',(#156));
#121=EDGE_LOOP('',(#157));
#122=EDGE_LOOP('',(#158));
#123=EDGE_LOOP('',(#159));
#124=EDGE_LOOP('',(#160));
#125=EDGE_LOOP('',(#161));
#126=EDGE_LOOP('',(#162));
#127=EDGE_LOOP('',(#163));
#128=EDGE_LOOP('',(#164));
#129=EDGE_LOOP('',(#165));
#130=EDGE_LOOP('',(#166));
#131=EDGE_LOOP('',(#167));
#132=EDGE_LOOP('',(#168));
#133=EDGE_LOOP('',(#169));
#134=EDGE_LOOP('',(#170));
#135=EDGE_LOOP('',(#171));
#136=EDGE_LOOP('',(#172));
#137=EDGE_LOOP('',(#173));
#138=EDGE_LOOP('',(#174));
#139=EDGE_LOOP('',(#175));
#140=EDGE_LOOP('',(#176));
#141=EDGE_LOOP('',(#177));
#142=ORIENTED_EDGE('',*,*,#196,.T.);
#143=ORIENTED_EDGE('',*,*,#197,.T.);
#144=ORIENTED_EDGE('',*,*,#198,.T.);
#145=ORIENTED_EDGE('',*,*,#199,.T.);
#146=ORIENTED_EDGE('',*,*,#200,.T.);
#147=ORIENTED_EDGE('',*,*,#201,.T.);
#148=ORIENTED_EDGE('',*,*,#202,.T.);
#149=ORIENTED_EDGE('',*,*,#200,.F.);
#150=ORIENTED_EDGE('',*,*,#199,.F.);
#151=ORIENTED_EDGE('',*,*,#203,.T.);
#152=ORIENTED_EDGE('',*,*,#202,.F.);
#153=ORIENTED_EDGE('',*,*,#203,.F.);
#154=ORIENTED_EDGE('',*,*,#204,.F.);
#155=ORIENTED_EDGE('',*,*,#198,.F.);
#156=ORIENTED_EDGE('',*,*,#204,.T.);
#157=ORIENTED_EDGE('',*,*,#205,.F.);
#158=ORIENTED_EDGE('',*,*,#205,.T.);
#159=ORIENTED_EDGE('',*,*,#201,.F.);
#160=ORIENTED_EDGE('',*,*,#206,.T.);
#161=ORIENTED_EDGE('',*,*,#207,.T.);
#162=ORIENTED_EDGE('',*,*,#206,.F.);
#163=ORIENTED_EDGE('',*,*,#207,.F.);
#164=ORIENTED_EDGE('',*,*,#208,.T.);
#165=ORIENTED_EDGE('',*,*,#208,.F.);
#166=ORIENTED_EDGE('',*,*,#209,.T.);
#167=ORIENTED_EDGE('',*,*,#209,.F.);
#168=ORIENTED_EDGE('',*,*,#210,.T.);
#169=ORIENTED_EDGE('',*,*,#210,.F.);
#170=ORIENTED_EDGE('',*,*,#196,.F.);
#171=ORIENTED_EDGE('',*,*,#211,.T.);
#172=ORIENTED_EDGE('',*,*,#197,.F.);
#173=ORIENTED_EDGE('',*,*,#212,.T.);
#174=ORIENTED_EDGE('',*,*,#211,.F.);
#175=ORIENTED_EDGE('',*,*,#213,.F.);
#176=ORIENTED_EDGE('',*,*,#212,.F.);
#177=ORIENTED_EDGE('',*,*,#213,.T.);
#178=VERTEX_POINT('',#381);
#179=VERTEX_POINT('',#383);
#180=VERTEX_POINT('',#386);
#181=VERTEX_POINT('',#388);
#182=VERTEX_POINT('',#391);
#183=VERTEX_POINT('',#393);
#184=VERTEX_POINT('',#396);
#185=VERTEX_POINT('',#399);
#186=VERTEX_POINT('',#403);
#187=VERTEX_POINT('',#406);
#188=VERTEX_POINT('',#410);
#189=VERTEX_POINT('',#413);
#190=VERTEX_POINT('',#416);
#191=VERTEX_POINT('',#419);
#192=VERTEX_POINT('',#422);
#193=VERTEX_POINT('',#426);
#194=VERTEX_POINT('',#429);
#195=VERTEX_POINT('',#432);
#196=EDGE_CURVE('',#178,#178,#214,.T.);
#197=EDGE_CURVE('',#179,#179,#215,.T.);
#198=EDGE_CURVE('',#180,#180,#216,.T.);
#199=EDGE_CURVE('',#181,#181,#217,.T.);
#200=EDGE_CURVE('',#182,#182,#218,.T.);
#201=EDGE_CURVE('',#183,#183,#219,.T.);
#202=EDGE_CURVE('',#184,#184,#220,.T.);
#203=EDGE_CURVE('',#185,#185,#221,.T.);
#204=EDGE_CURVE('',#186,#186,#222,.T.);
#205=EDGE_CURVE('',#187,#187,#223,.T.);
#206=EDGE_CURVE('',#188,#188,#224,.T.);
#207=EDGE_CURVE('',#189,#189,#225,.T.);
#208=EDGE_CURVE('',#190,#190,#226,.T.);
#209=EDGE_CURVE('',#191,#191,#227,.T.);
#210=EDGE_CURVE('',#192,#192,#228,.T.);
#211=EDGE_CURVE('',#193,#193,#229,.T.);
#212=EDGE_CURVE('',#194,#194,#230,.T.);
#213=EDGE_CURVE('',#195,#195,#231,.T.);
#214=CIRCLE('',#257,31.775);
#215=CIRCLE('',#258,22.19999903812);
#216=CIRCLE('',#260,31.45);
#217=CIRCLE('',#261,25.);
#218=CIRCLE('',#263,31.775);
#219=CIRCLE('',#264,31.775);
#220=CIRCLE('',#266,25.8);
#221=CIRCLE('',#268,25.);
#222=CIRCLE('',#271,31.45);
#223=CIRCLE('',#273,24.7500000000115);
#224=CIRCLE('',#276,28.89759526419);
#225=CIRCLE('',#278,28.);
#226=CIRCLE('',#280,28.);
#227=CIRCLE('',#282,28.89759526419);
#228=CIRCLE('',#284,31.775);
#229=CIRCLE('',#287,22.19999903812);
#230=CIRCLE('',#289,22.39999903812);
#231=CIRCLE('',#291,12.2500548269618);
#232=INVISIBILITY((#233,#234,#235));
#233=PRESENTATION_LAYER_ASSIGNMENT('100','Layer 100',(#254));
#234=PRESENTATION_LAYER_ASSIGNMENT('101','Layer 101',(#255));
#235=PRESENTATION_LAYER_ASSIGNMENT('102','Layer 102',(#256));
#236=PRESENTATION_LAYER_ASSIGNMENT('98','Layer 98',(#30));
#237=STYLED_ITEM('',(#241),#254);
#238=STYLED_ITEM('',(#242),#255);
#239=STYLED_ITEM('',(#243),#256);
#240=STYLED_ITEM('',(#244),#30);
#241=PRESENTATION_STYLE_ASSIGNMENT((#245));
#242=PRESENTATION_STYLE_ASSIGNMENT((#246));
#243=PRESENTATION_STYLE_ASSIGNMENT((#247));
#244=PRESENTATION_STYLE_ASSIGNMENT((#25));
#245=CURVE_STYLE('',#250,POSITIVE_LENGTH_MEASURE(0.7),#248);
#246=CURVE_STYLE('',#251,POSITIVE_LENGTH_MEASURE(0.7),#248);
#247=CURVE_STYLE('',#252,POSITIVE_LENGTH_MEASURE(0.7),#248);
#248=COLOUR_RGB('Medium Maroon',0.6,0.4,0.4);
#249=COLOUR_RGB('Medium Gray',0.490196078431373,0.490196078431373,0.490196078431373);
#250=DRAUGHTING_PRE_DEFINED_CURVE_FONT('continuous');
#251=DRAUGHTING_PRE_DEFINED_CURVE_FONT('continuous');
#252=DRAUGHTING_PRE_DEFINED_CURVE_FONT('continuous');
#253=AXIS2_PLACEMENT_3D('',#376,#294,#295);
#254=AXIS2_PLACEMENT_3D('PCS',#377,#296,#297);
#255=AXIS2_PLACEMENT_3D('CSW',#378,#298,#299);
#256=AXIS2_PLACEMENT_3D('MCS',#379,#300,#301);
#257=AXIS2_PLACEMENT_3D('',#380,#302,#303);
#258=AXIS2_PLACEMENT_3D('',#382,#304,#305);
#259=AXIS2_PLACEMENT_3D('',#384,#306,#307);
#260=AXIS2_PLACEMENT_3D('',#385,#308,#309);
#261=AXIS2_PLACEMENT_3D('',#387,#310,#311);
#262=AXIS2_PLACEMENT_3D('',#389,#312,#313);
#263=AXIS2_PLACEMENT_3D('',#390,#314,#315);
#264=AXIS2_PLACEMENT_3D('',#392,#316,#317);
#265=AXIS2_PLACEMENT_3D('',#394,#318,#319);
#266=AXIS2_PLACEMENT_3D('',#395,#320,#321);
#267=AXIS2_PLACEMENT_3D('',#397,#322,#323);
#268=AXIS2_PLACEMENT_3D('',#398,#324,#325);
#269=AXIS2_PLACEMENT_3D('',#400,#326,#327);
#270=AXIS2_PLACEMENT_3D('',#401,#328,#329);
#271=AXIS2_PLACEMENT_3D('',#402,#330,#331);
#272=AXIS2_PLACEMENT_3D('',#404,#332,#333);
#273=AXIS2_PLACEMENT_3D('',#405,#334,#335);
#274=AXIS2_PLACEMENT_3D('',#407,#336,#337);
#275=AXIS2_PLACEMENT_3D('',#408,#338,#339);
#276=AXIS2_PLACEMENT_3D('',#409,#340,#341);
#277=AXIS2_PLACEMENT_3D('',#411,#342,#343);
#278=AXIS2_PLACEMENT_3D('',#412,#344,#345);
#279=AXIS2_PLACEMENT_3D('',#414,#346,#347);
#280=AXIS2_PLACEMENT_3D('',#415,#348,#349);
#281=AXIS2_PLACEMENT_3D('',#417,#350,#351);
#282=AXIS2_PLACEMENT_3D('',#418,#352,#353);
#283=AXIS2_PLACEMENT_3D('',#420,#354,#355);
#284=AXIS2_PLACEMENT_3D('',#421,#356,#357);
#285=AXIS2_PLACEMENT_3D('',#423,#358,#359);
#286=AXIS2_PLACEMENT_3D('',#424,#360,#361);
#287=AXIS2_PLACEMENT_3D('',#425,#362,#363);
#288=AXIS2_PLACEMENT_3D('',#427,#364,#365);
#289=AXIS2_PLACEMENT_3D('',#428,#366,#367);
#290=AXIS2_PLACEMENT_3D('',#430,#368,#369);
#291=AXIS2_PLACEMENT_3D('',#431,#370,#371);
#292=AXIS2_PLACEMENT_3D('',#433,#372,#373);
#293=AXIS2_PLACEMENT_3D('',#434,#374,#375);
#294=DIRECTION('',(0.,0.,1.));
#295=DIRECTION('',(1.,0.,0.));
#296=DIRECTION('',(0.,0.,1.));
#297=DIRECTION('',(1.,0.,0.));
#298=DIRECTION('',(0.,0.,1.));
#299=DIRECTION('',(1.,0.,0.));
#300=DIRECTION('',(0.,0.,1.));
#301=DIRECTION('',(1.,0.,0.));
#302=DIRECTION('',(0.,0.,1.));
#303=DIRECTION('',(-1.,0.,0.));
#304=DIRECTION('',(0.,0.,-1.));
#305=DIRECTION('',(-1.,0.,0.));
#306=DIRECTION('',(0.,0.,-1.));
#307=DIRECTION('',(0.,-1.,0.));
#308=DIRECTION('',(0.,0.,1.));
#309=DIRECTION('',(1.,0.,0.));
#310=DIRECTION('',(0.,0.,-1.));
#311=DIRECTION('',(1.,0.,0.));
#312=DIRECTION('',(0.,0.,1.));
#313=DIRECTION('',(0.,-1.,0.));
#314=DIRECTION('',(0.,0.,1.));
#315=DIRECTION('',(-1.,0.,0.));
#316=DIRECTION('',(0.,0.,-1.));
#317=DIRECTION('',(-0.967376300599849,0.253343823760813,0.));
#318=DIRECTION('',(0.,0.,-1.));
#319=DIRECTION('',(0.,-1.,0.));
#320=DIRECTION('',(0.,0.,1.));
#321=DIRECTION('',(0.950077010216016,0.312015503876005,0.));
#322=DIRECTION('',(0.,0.,-1.));
#323=DIRECTION('',(0.,-1.,0.));
#324=DIRECTION('',(0.,0.,-1.));
#325=DIRECTION('',(-0.999999999998942,-1.45450927696006E-6,0.));
#326=DIRECTION('',(0.,0.,-1.));
#327=DIRECTION('',(0.,-1.,0.));
#328=DIRECTION('',(0.,0.,-1.));
#329=DIRECTION('',(0.99999889596136,-0.00148595964285994,0.));
#330=DIRECTION('',(0.,0.,-1.));
#331=DIRECTION('',(1.,0.,0.));
#332=DIRECTION('',(0.,0.,1.));
#333=DIRECTION('',(0.,-1.,0.));
#334=DIRECTION('',(0.,0.,-1.));
#335=DIRECTION('',(1.,0.,0.));
#336=DIRECTION('',(0.,0.,1.));
#337=DIRECTION('',(0.,-1.,-3.15425262352227E-17));
#338=DIRECTION('',(0.,0.,1.));
#339=DIRECTION('',(0.,-1.,0.));
#340=DIRECTION('',(0.,0.,-1.));
#341=DIRECTION('',(-0.960415959422322,0.278569892283607,0.));
#342=DIRECTION('',(0.,0.,-1.));
#343=DIRECTION('',(0.,-1.,4.1340739373327E-17));
#344=DIRECTION('',(0.,0.,-1.));
#345=DIRECTION('',(-1.,0.,0.));
#346=DIRECTION('',(0.,0.,-1.));
#347=DIRECTION('',(0.,-1.,0.));
#348=DIRECTION('',(0.,0.,-1.));
#349=DIRECTION('',(-1.,0.,0.));
#350=DIRECTION('',(0.,0.,-1.));
#351=DIRECTION('',(0.,-1.,0.));
#352=DIRECTION('',(0.,0.,-1.));
#353=DIRECTION('',(-0.960415959422322,0.278569892283607,0.));
#354=DIRECTION('',(0.,0.,-1.));
#355=DIRECTION('',(0.,-1.,0.));
#356=DIRECTION('',(0.,0.,-1.));
#357=DIRECTION('',(-0.967376300599849,0.253343823760813,0.));
#358=DIRECTION('',(0.,0.,1.));
#359=DIRECTION('',(0.,1.,2.65761895971388E-17));
#360=DIRECTION('',(0.,0.,-1.));
#361=DIRECTION('',(0.,-1.,0.));
#362=DIRECTION('',(0.,0.,-1.));
#363=DIRECTION('',(1.,0.,0.));
#364=DIRECTION('',(0.,0.,-1.));
#365=DIRECTION('',(0.,-1.,0.));
#366=DIRECTION('',(0.,0.,-1.));
#367=DIRECTION('',(0.,-1.,0.));
#368=DIRECTION('',(0.,0.,1.));
#369=DIRECTION('',(0.,1.,5.97645896729493E-17));
#370=DIRECTION('',(0.,0.,1.));
#371=DIRECTION('',(-1.,0.,0.));
#372=DIRECTION('',(0.,0.,-1.));
#373=DIRECTION('',(0.,-1.,-2.55055708228373E-16));
#374=DIRECTION('',(0.,0.,-1.));
#375=DIRECTION('',(0.,-1.,0.));
#376=CARTESIAN_POINT('',(0.,0.,0.));
#377=CARTESIAN_POINT('',(0.,0.,0.));
#378=CARTESIAN_POINT('',(0.,0.,-115.));
#379=CARTESIAN_POINT('',(0.,0.,0.));
#380=CARTESIAN_POINT('',(0.,0.,-3.19999999999999));
#381=CARTESIAN_POINT('',(-31.775,0.,-3.19999999999999));
#382=CARTESIAN_POINT('',(0.,0.,-3.19999999999999));
#383=CARTESIAN_POINT('',(-22.19999903812,0.,-3.19999999999999));
#384=CARTESIAN_POINT('',(0.,0.,-3.2));
#385=CARTESIAN_POINT('',(0.,0.,-104.1));
#386=CARTESIAN_POINT('',(31.45,0.,-104.1));
#387=CARTESIAN_POINT('',(0.,0.,-104.1));
#388=CARTESIAN_POINT('',(25.,0.,-104.1));
#389=CARTESIAN_POINT('',(0.,0.,-104.1));
#390=CARTESIAN_POINT('',(0.,0.,-19.1));
#391=CARTESIAN_POINT('',(-31.775,0.,-19.1));
#392=CARTESIAN_POINT('',(0.,0.,-14.636270398786));
#393=CARTESIAN_POINT('',(-30.7383819515602,8.04999999999983,-14.636270398786));
#394=CARTESIAN_POINT('',(0.,0.,72.775));
#395=CARTESIAN_POINT('',(0.,0.,-19.1));
#396=CARTESIAN_POINT('',(24.5119868635732,8.05000000000093,-19.1));
#397=CARTESIAN_POINT('',(0.,0.,-19.1));
#398=CARTESIAN_POINT('',(0.,0.,-19.9));
#399=CARTESIAN_POINT('',(-24.9999999999736,-3.63627319240015E-5,-19.9));
#400=CARTESIAN_POINT('',(0.,0.,-9.055));
#401=CARTESIAN_POINT('',(0.,0.,-19.9));
#402=CARTESIAN_POINT('',(0.,0.,-126.131753196436));
#403=CARTESIAN_POINT('',(31.45,0.,-126.131753196436));
#404=CARTESIAN_POINT('',(0.,0.,-138.12));
#405=CARTESIAN_POINT('',(0.,0.,-130.));
#406=CARTESIAN_POINT('',(24.7500000000115,0.,-130.));
#407=CARTESIAN_POINT('',(0.,0.,-128.2205771366));
#408=CARTESIAN_POINT('',(0.,0.,-130.));
#409=CARTESIAN_POINT('',(0.,0.,-12.975));
#410=CARTESIAN_POINT('',(-27.753711680655,8.05000000000067,-12.975));
#411=CARTESIAN_POINT('',(0.,0.,-13.805635199393));
#412=CARTESIAN_POINT('',(0.,0.,-12.975));
#413=CARTESIAN_POINT('',(-28.,0.,-12.975));
#414=CARTESIAN_POINT('',(0.,0.,-12.975));
#415=CARTESIAN_POINT('',(0.,0.,-9.225));
#416=CARTESIAN_POINT('',(-28.,0.,-9.225));
#417=CARTESIAN_POINT('',(0.,0.,72.775));
#418=CARTESIAN_POINT('',(0.,0.,-9.225));
#419=CARTESIAN_POINT('',(-27.753711680655,8.05000000000067,-9.225));
#420=CARTESIAN_POINT('',(0.,0.,-9.225));
#421=CARTESIAN_POINT('',(0.,0.,-7.56372960121));
#422=CARTESIAN_POINT('',(-30.7383819515602,8.04999999999983,-7.56372960121));
#423=CARTESIAN_POINT('',(0.,0.,-8.39436480061));
#424=CARTESIAN_POINT('',(0.,0.,72.775));
#425=CARTESIAN_POINT('',(0.,0.,-1.9464101615365));
#426=CARTESIAN_POINT('',(22.19999903812,0.,-1.9464101615365));
#427=CARTESIAN_POINT('',(0.,0.,72.775));
#428=CARTESIAN_POINT('',(0.,0.,-1.2));
#429=CARTESIAN_POINT('',(0.,-22.39999903812,-1.2));
#430=CARTESIAN_POINT('',(0.,0.,-1.5350551165));
#431=CARTESIAN_POINT('',(0.,0.,68.4));
#432=CARTESIAN_POINT('',(-12.2500548269618,0.,68.4));
#433=CARTESIAN_POINT('',(0.,0.,33.08658366985));
#434=CARTESIAN_POINT('',(0.,0.,68.4));
#435=MECHANICAL_DESIGN_GEOMETRIC_PRESENTATION_REPRESENTATION('',(#237,#238,
#239,#240),#436);
#436=(
GEOMETRIC_REPRESENTATION_CONTEXT(3)
GLOBAL_UNCERTAINTY_ASSIGNED_CONTEXT((#437))
GLOBAL_UNIT_ASSIGNED_CONTEXT((#443,#439,#438))
REPRESENTATION_CONTEXT('oznaceni_DOCUMENTNUMBERndi000_00_SIM',
'TOP_LEVEL_ASSEMBLY_PART')
);
#437=UNCERTAINTY_MEASURE_WITH_UNIT(LENGTH_MEASURE(2.E-5),#443,
'DISTANCE_ACCURACY_VALUE','Maximum Tolerance applied to model');
#438=(
NAMED_UNIT(*)
SI_UNIT($,.STERADIAN.)
SOLID_ANGLE_UNIT()
);
#439=(
CONVERSION_BASED_UNIT('DEGREE',#441)
NAMED_UNIT(#440)
PLANE_ANGLE_UNIT()
);
#440=DIMENSIONAL_EXPONENTS(0.,0.,0.,0.,0.,0.,0.);
#441=PLANE_ANGLE_MEASURE_WITH_UNIT(PLANE_ANGLE_MEASURE(0.0174532925),#442);
#442=(
NAMED_UNIT(*)
PLANE_ANGLE_UNIT()
SI_UNIT($,.RADIAN.)
);
#443=(
LENGTH_UNIT()
NAMED_UNIT(*)
SI_UNIT(.MILLI.,.METRE.)
);
ENDSEC;
END-ISO-10303-21;
