ISO-10303-21;
HEADER;
/* Generated by software containing ST-Developer
 * from STEP Tools, Inc. (www.steptools.com) 
 */
/* OPTION: using custom schema-name function */

FILE_DESCRIPTION(
/* description */ (''),
/* implementation_level */ '2;1');

FILE_NAME(
/* name */ '69871.40ADB-CC.ER40.080.stp',
/* time_stamp */ '2024-07-27T17:20:05+02:00',
/* author */ (''),
/* organization */ (''),
/* preprocessor_version */ 'ST-DEVELOPER v16.7',
/* originating_system */ 'SIEMENS PLM Software NX 12.0',
/* authorisation */ '');

FILE_SCHEMA (('AUTOMOTIVE_DESIGN { 1 0 10303 214 3 1 1 1 }'));
ENDSEC;

DATA;
#10=CONSTRUCTIVE_GEOMETRY_REPRESENTATION_RELATIONSHIP(
'supplemental geometry','',#32,#11);
#11=CONSTRUCTIVE_GEOMETRY_REPRESENTATION('supplemental geometry',(#316,
#317,#318),#536);
#12=PROPERTY_DEFINITION_REPRESENTATION(#16,#14);
#13=PROPERTY_DEFINITION_REPRESENTATION(#17,#15);
#14=REPRESENTATION('',(#18),#536);
#15=REPRESENTATION('',(#19),#536);
#16=PROPERTY_DEFINITION('pmi validation property','',#23);
#17=PROPERTY_DEFINITION('pmi validation property','',#23);
#18=VALUE_REPRESENTATION_ITEM('number of annotations',COUNT_MEASURE(0.));
#19=VALUE_REPRESENTATION_ITEM('number of views',COUNT_MEASURE(0.));
#20=SHAPE_REPRESENTATION_RELATIONSHIP('None',
'relationship between pf661B4C06BB9x75-None and pf661B4C06BB9x75-None',
#32,#21);
#21=ADVANCED_BREP_SHAPE_REPRESENTATION('pf661B4C06BB9x75-None',(#38),#536);
#22=SHAPE_DEFINITION_REPRESENTATION(#23,#32);
#23=PRODUCT_DEFINITION_SHAPE('','',#24);
#24=PRODUCT_DEFINITION(' ','',#26,#25);
#25=PRODUCT_DEFINITION_CONTEXT('part definition',#31,'design');
#26=PRODUCT_DEFINITION_FORMATION_WITH_SPECIFIED_SOURCE(' ',' ',#28,
 .NOT_KNOWN.);
#27=PRODUCT_RELATED_PRODUCT_CATEGORY('part','',(#28));
#28=PRODUCT('pf661B4C06BB9x75','pf661B4C06BB9x75',' ',(#29));
#29=PRODUCT_CONTEXT(' ',#31,'mechanical');
#30=APPLICATION_PROTOCOL_DEFINITION('international standard',
'automotive_design',2010,#31);
#31=APPLICATION_CONTEXT(
'core data for automotive mechanical design processes');
#32=SHAPE_REPRESENTATION('pf661B4C06BB9x75-None',(#315),#536);
#33=SURFACE_STYLE_USAGE(.BOTH.,#34);
#34=SURFACE_SIDE_STYLE('',(#35));
#35=SURFACE_STYLE_FILL_AREA(#36);
#36=FILL_AREA_STYLE('',(#37));
#37=FILL_AREA_STYLE_COLOUR('',#311);
#38=MANIFOLD_SOLID_BREP('\X\B0\X2\014100AE0106\X0\-\X\B1\X2\017000C20154\X0\1
1',#39);
#39=CLOSED_SHELL('',(#79,#80,#81,#82,#83,#84,#85,#86,#87,#88,#89,#90,#91,
#92,#93,#94,#95,#96,#97,#98));
#40=TOROIDAL_SURFACE('',#340,29.125,1.);
#41=TOROIDAL_SURFACE('',#341,29.125,1.);
#42=TOROIDAL_SURFACE('',#344,25.8,0.799999999999999);
#43=CONICAL_SURFACE('',#327,22.6916641016626,8.29709999999963);
#44=CONICAL_SURFACE('',#334,31.775,60.0000000000003);
#45=CONICAL_SURFACE('',#337,28.8725952641916,59.9999999999999);
#46=CONICAL_SURFACE('',#347,22.6916641016626,8.29709999999963);
#47=CONICAL_SURFACE('',#352,30.5,60.0000000000004);
#48=CONICAL_SURFACE('',#355,30.5,60.0000000000004);
#49=FACE_OUTER_BOUND('',#134,.T.);
#50=FACE_OUTER_BOUND('',#153,.T.);
#51=FACE_OUTER_BOUND('',#154,.T.);
#52=FACE_OUTER_BOUND('',#155,.T.);
#53=FACE_OUTER_BOUND('',#156,.T.);
#54=FACE_OUTER_BOUND('',#157,.T.);
#55=FACE_OUTER_BOUND('',#158,.T.);
#56=FACE_OUTER_BOUND('',#159,.T.);
#57=CYLINDRICAL_SURFACE('',#325,25.);
#58=CYLINDRICAL_SURFACE('',#330,28.125);
#59=CYLINDRICAL_SURFACE('',#332,31.775);
#60=CYLINDRICAL_SURFACE('',#339,31.775);
#61=CYLINDRICAL_SURFACE('',#350,31.5);
#62=CYLINDRICAL_SURFACE('',#357,31.5);
#63=LINE('',#469,#71);
#64=LINE('',#472,#72);
#65=LINE('',#482,#73);
#66=LINE('',#483,#74);
#67=LINE('',#516,#75);
#68=LINE('',#520,#76);
#69=LINE('',#522,#77);
#70=LINE('',#526,#78);
#71=VECTOR('',#376,1.);
#72=VECTOR('',#377,1.);
#73=VECTOR('',#386,1.);
#74=VECTOR('',#387,1.);
#75=VECTOR('',#432,1.);
#76=VECTOR('',#435,1.);
#77=VECTOR('',#438,1.);
#78=VECTOR('',#441,1.);
#79=ADVANCED_FACE('',(#104,#105),#99,.F.);
#80=ADVANCED_FACE('',(#106,#107,#108),#57,.T.);
#81=ADVANCED_FACE('',(#49),#43,.T.);
#82=ADVANCED_FACE('',(#109,#110),#58,.T.);
#83=ADVANCED_FACE('',(#111,#112),#59,.T.);
#84=ADVANCED_FACE('',(#113,#114),#44,.T.);
#85=ADVANCED_FACE('',(#115,#116),#45,.T.);
#86=ADVANCED_FACE('',(#117,#118),#60,.T.);
#87=ADVANCED_FACE('',(#119,#120),#40,.F.);
#88=ADVANCED_FACE('',(#121,#122),#41,.F.);
#89=ADVANCED_FACE('',(#123,#124),#100,.F.);
#90=ADVANCED_FACE('',(#125,#126),#42,.F.);
#91=ADVANCED_FACE('',(#50),#101,.F.);
#92=ADVANCED_FACE('',(#51),#46,.T.);
#93=ADVANCED_FACE('',(#52),#61,.T.);
#94=ADVANCED_FACE('',(#53),#47,.T.);
#95=ADVANCED_FACE('',(#54),#48,.T.);
#96=ADVANCED_FACE('',(#55),#62,.T.);
#97=ADVANCED_FACE('',(#56),#102,.F.);
#98=ADVANCED_FACE('',(#127,#128),#103,.F.);
#99=PLANE('',#322);
#100=PLANE('',#343);
#101=PLANE('',#346);
#102=PLANE('',#358);
#103=PLANE('',#359);
#104=FACE_BOUND('',#129,.T.);
#105=FACE_BOUND('',#130,.T.);
#106=FACE_BOUND('',#131,.T.);
#107=FACE_BOUND('',#132,.T.);
#108=FACE_BOUND('',#133,.T.);
#109=FACE_BOUND('',#135,.T.);
#110=FACE_BOUND('',#136,.T.);
#111=FACE_BOUND('',#137,.T.);
#112=FACE_BOUND('',#138,.T.);
#113=FACE_BOUND('',#139,.T.);
#114=FACE_BOUND('',#140,.T.);
#115=FACE_BOUND('',#141,.T.);
#116=FACE_BOUND('',#142,.T.);
#117=FACE_BOUND('',#143,.T.);
#118=FACE_BOUND('',#144,.T.);
#119=FACE_BOUND('',#145,.T.);
#120=FACE_BOUND('',#146,.T.);
#121=FACE_BOUND('',#147,.T.);
#122=FACE_BOUND('',#148,.T.);
#123=FACE_BOUND('',#149,.T.);
#124=FACE_BOUND('',#150,.T.);
#125=FACE_BOUND('',#151,.T.);
#126=FACE_BOUND('',#152,.T.);
#127=FACE_BOUND('',#160,.T.);
#128=FACE_BOUND('',#161,.T.);
#129=EDGE_LOOP('',(#162));
#130=EDGE_LOOP('',(#163,#164));
#131=EDGE_LOOP('',(#165,#166));
#132=EDGE_LOOP('',(#167,#168,#169));
#133=EDGE_LOOP('',(#170));
#134=EDGE_LOOP('',(#171,#172,#173,#174));
#135=EDGE_LOOP('',(#175));
#136=EDGE_LOOP('',(#176));
#137=EDGE_LOOP('',(#177));
#138=EDGE_LOOP('',(#178));
#139=EDGE_LOOP('',(#179));
#140=EDGE_LOOP('',(#180));
#141=EDGE_LOOP('',(#181));
#142=EDGE_LOOP('',(#182));
#143=EDGE_LOOP('',(#183));
#144=EDGE_LOOP('',(#184));
#145=EDGE_LOOP('',(#185));
#146=EDGE_LOOP('',(#186));
#147=EDGE_LOOP('',(#187));
#148=EDGE_LOOP('',(#188));
#149=EDGE_LOOP('',(#189));
#150=EDGE_LOOP('',(#190));
#151=EDGE_LOOP('',(#191));
#152=EDGE_LOOP('',(#192));
#153=EDGE_LOOP('',(#193,#194));
#154=EDGE_LOOP('',(#195,#196,#197,#198));
#155=EDGE_LOOP('',(#199,#200,#201,#202));
#156=EDGE_LOOP('',(#203,#204,#205,#206));
#157=EDGE_LOOP('',(#207,#208,#209,#210));
#158=EDGE_LOOP('',(#211,#212,#213,#214));
#159=EDGE_LOOP('',(#215,#216));
#160=EDGE_LOOP('',(#217));
#161=EDGE_LOOP('',(#218,#219));
#162=ORIENTED_EDGE('',*,*,#244,.T.);
#163=ORIENTED_EDGE('',*,*,#245,.T.);
#164=ORIENTED_EDGE('',*,*,#246,.T.);
#165=ORIENTED_EDGE('',*,*,#247,.T.);
#166=ORIENTED_EDGE('',*,*,#247,.F.);
#167=ORIENTED_EDGE('',*,*,#248,.T.);
#168=ORIENTED_EDGE('',*,*,#249,.F.);
#169=ORIENTED_EDGE('',*,*,#248,.F.);
#170=ORIENTED_EDGE('',*,*,#250,.T.);
#171=ORIENTED_EDGE('',*,*,#251,.T.);
#172=ORIENTED_EDGE('',*,*,#252,.T.);
#173=ORIENTED_EDGE('',*,*,#246,.F.);
#174=ORIENTED_EDGE('',*,*,#253,.F.);
#175=ORIENTED_EDGE('',*,*,#254,.T.);
#176=ORIENTED_EDGE('',*,*,#255,.T.);
#177=ORIENTED_EDGE('',*,*,#256,.T.);
#178=ORIENTED_EDGE('',*,*,#244,.F.);
#179=ORIENTED_EDGE('',*,*,#257,.T.);
#180=ORIENTED_EDGE('',*,*,#256,.F.);
#181=ORIENTED_EDGE('',*,*,#258,.T.);
#182=ORIENTED_EDGE('',*,*,#259,.F.);
#183=ORIENTED_EDGE('',*,*,#260,.T.);
#184=ORIENTED_EDGE('',*,*,#258,.F.);
#185=ORIENTED_EDGE('',*,*,#255,.F.);
#186=ORIENTED_EDGE('',*,*,#257,.F.);
#187=ORIENTED_EDGE('',*,*,#259,.T.);
#188=ORIENTED_EDGE('',*,*,#254,.F.);
#189=ORIENTED_EDGE('',*,*,#261,.T.);
#190=ORIENTED_EDGE('',*,*,#260,.F.);
#191=ORIENTED_EDGE('',*,*,#261,.F.);
#192=ORIENTED_EDGE('',*,*,#249,.T.);
#193=ORIENTED_EDGE('',*,*,#262,.F.);
#194=ORIENTED_EDGE('',*,*,#251,.F.);
#195=ORIENTED_EDGE('',*,*,#252,.F.);
#196=ORIENTED_EDGE('',*,*,#262,.T.);
#197=ORIENTED_EDGE('',*,*,#253,.T.);
#198=ORIENTED_EDGE('',*,*,#245,.F.);
#199=ORIENTED_EDGE('',*,*,#263,.F.);
#200=ORIENTED_EDGE('',*,*,#264,.F.);
#201=ORIENTED_EDGE('',*,*,#265,.T.);
#202=ORIENTED_EDGE('',*,*,#266,.T.);
#203=ORIENTED_EDGE('',*,*,#263,.T.);
#204=ORIENTED_EDGE('',*,*,#267,.T.);
#205=ORIENTED_EDGE('',*,*,#268,.F.);
#206=ORIENTED_EDGE('',*,*,#269,.F.);
#207=ORIENTED_EDGE('',*,*,#267,.F.);
#208=ORIENTED_EDGE('',*,*,#270,.T.);
#209=ORIENTED_EDGE('',*,*,#269,.T.);
#210=ORIENTED_EDGE('',*,*,#271,.F.);
#211=ORIENTED_EDGE('',*,*,#270,.F.);
#212=ORIENTED_EDGE('',*,*,#266,.F.);
#213=ORIENTED_EDGE('',*,*,#272,.T.);
#214=ORIENTED_EDGE('',*,*,#264,.T.);
#215=ORIENTED_EDGE('',*,*,#268,.T.);
#216=ORIENTED_EDGE('',*,*,#271,.T.);
#217=ORIENTED_EDGE('',*,*,#250,.F.);
#218=ORIENTED_EDGE('',*,*,#265,.F.);
#219=ORIENTED_EDGE('',*,*,#272,.F.);
#220=VERTEX_POINT('',#463);
#221=VERTEX_POINT('',#465);
#222=VERTEX_POINT('',#466);
#223=VERTEX_POINT('',#470);
#224=VERTEX_POINT('',#471);
#225=VERTEX_POINT('',#473);
#226=VERTEX_POINT('',#474);
#227=VERTEX_POINT('',#477);
#228=VERTEX_POINT('',#480);
#229=VERTEX_POINT('',#481);
#230=VERTEX_POINT('',#486);
#231=VERTEX_POINT('',#488);
#232=VERTEX_POINT('',#491);
#233=VERTEX_POINT('',#494);
#234=VERTEX_POINT('',#497);
#235=VERTEX_POINT('',#499);
#236=VERTEX_POINT('',#502);
#237=VERTEX_POINT('',#507);
#238=VERTEX_POINT('',#514);
#239=VERTEX_POINT('',#515);
#240=VERTEX_POINT('',#517);
#241=VERTEX_POINT('',#519);
#242=VERTEX_POINT('',#523);
#243=VERTEX_POINT('',#525);
#244=EDGE_CURVE('',#220,#220,#273,.T.);
#245=EDGE_CURVE('',#221,#222,#274,.T.);
#246=EDGE_CURVE('',#222,#221,#275,.T.);
#247=EDGE_CURVE('',#223,#224,#63,.T.);
#248=EDGE_CURVE('',#225,#226,#64,.T.);
#249=EDGE_CURVE('',#226,#226,#276,.T.);
#250=EDGE_CURVE('',#227,#227,#277,.T.);
#251=EDGE_CURVE('',#228,#229,#278,.T.);
#252=EDGE_CURVE('',#229,#221,#65,.T.);
#253=EDGE_CURVE('',#228,#222,#66,.T.);
#254=EDGE_CURVE('',#230,#230,#279,.T.);
#255=EDGE_CURVE('',#231,#231,#280,.T.);
#256=EDGE_CURVE('',#232,#232,#281,.T.);
#257=EDGE_CURVE('',#233,#233,#282,.T.);
#258=EDGE_CURVE('',#234,#234,#283,.T.);
#259=EDGE_CURVE('',#235,#235,#284,.T.);
#260=EDGE_CURVE('',#236,#236,#285,.T.);
#261=EDGE_CURVE('',#237,#237,#286,.T.);
#262=EDGE_CURVE('',#229,#228,#287,.T.);
#263=EDGE_CURVE('',#238,#239,#288,.T.);
#264=EDGE_CURVE('',#240,#238,#67,.T.);
#265=EDGE_CURVE('',#240,#241,#289,.T.);
#266=EDGE_CURVE('',#241,#239,#68,.T.);
#267=EDGE_CURVE('',#239,#242,#69,.T.);
#268=EDGE_CURVE('',#243,#242,#290,.T.);
#269=EDGE_CURVE('',#238,#243,#70,.T.);
#270=EDGE_CURVE('',#239,#238,#291,.T.);
#271=EDGE_CURVE('',#242,#243,#292,.T.);
#272=EDGE_CURVE('',#241,#240,#293,.T.);
#273=CIRCLE('',#319,31.775);
#274=CIRCLE('',#320,22.6916641016626);
#275=CIRCLE('',#321,22.6916641016626);
#276=CIRCLE('',#323,25.);
#277=CIRCLE('',#324,25.);
#278=CIRCLE('',#326,12.2500548269627);
#279=CIRCLE('',#328,28.125);
#280=CIRCLE('',#329,28.125);
#281=CIRCLE('',#331,31.775);
#282=CIRCLE('',#333,28.8725952641916);
#283=CIRCLE('',#335,31.775);
#284=CIRCLE('',#336,28.8725952641916);
#285=CIRCLE('',#338,31.775);
#286=CIRCLE('',#342,25.8);
#287=CIRCLE('',#345,12.2500548269627);
#288=CIRCLE('',#348,31.5);
#289=CIRCLE('',#349,31.5);
#290=CIRCLE('',#351,24.75);
#291=CIRCLE('',#353,31.5);
#292=CIRCLE('',#354,24.75);
#293=CIRCLE('',#356,31.5);
#294=INVISIBILITY((#295,#296,#297,#298));
#295=PRESENTATION_LAYER_ASSIGNMENT('100','Layer 100',(#316));
#296=PRESENTATION_LAYER_ASSIGNMENT('101','Layer 101',(#317));
#297=PRESENTATION_LAYER_ASSIGNMENT('102','Layer 102',(#318));
#298=PRESENTATION_LAYER_ASSIGNMENT('98','Layer 98',(#38));
#299=STYLED_ITEM('',(#303),#316);
#300=STYLED_ITEM('',(#304),#317);
#301=STYLED_ITEM('',(#305),#318);
#302=STYLED_ITEM('',(#306),#38);
#303=PRESENTATION_STYLE_ASSIGNMENT((#307));
#304=PRESENTATION_STYLE_ASSIGNMENT((#308));
#305=PRESENTATION_STYLE_ASSIGNMENT((#309));
#306=PRESENTATION_STYLE_ASSIGNMENT((#33));
#307=CURVE_STYLE('',#312,POSITIVE_LENGTH_MEASURE(0.7),#310);
#308=CURVE_STYLE('',#313,POSITIVE_LENGTH_MEASURE(0.7),#310);
#309=CURVE_STYLE('',#314,POSITIVE_LENGTH_MEASURE(0.7),#310);
#310=COLOUR_RGB('Medium Maroon',0.6,0.4,0.4);
#311=COLOUR_RGB('Medium Gray',0.490196078431373,0.490196078431373,0.490196078431373);
#312=DRAUGHTING_PRE_DEFINED_CURVE_FONT('continuous');
#313=DRAUGHTING_PRE_DEFINED_CURVE_FONT('continuous');
#314=DRAUGHTING_PRE_DEFINED_CURVE_FONT('continuous');
#315=AXIS2_PLACEMENT_3D('',#458,#360,#361);
#316=AXIS2_PLACEMENT_3D('PCS',#459,#362,#363);
#317=AXIS2_PLACEMENT_3D('CSW',#460,#364,#365);
#318=AXIS2_PLACEMENT_3D('MCS',#461,#366,#367);
#319=AXIS2_PLACEMENT_3D('',#462,#368,#369);
#320=AXIS2_PLACEMENT_3D('',#464,#370,#371);
#321=AXIS2_PLACEMENT_3D('',#467,#372,#373);
#322=AXIS2_PLACEMENT_3D('',#468,#374,#375);
#323=AXIS2_PLACEMENT_3D('',#475,#378,#379);
#324=AXIS2_PLACEMENT_3D('',#476,#380,#381);
#325=AXIS2_PLACEMENT_3D('',#478,#382,#383);
#326=AXIS2_PLACEMENT_3D('',#479,#384,#385);
#327=AXIS2_PLACEMENT_3D('',#484,#388,#389);
#328=AXIS2_PLACEMENT_3D('',#485,#390,#391);
#329=AXIS2_PLACEMENT_3D('',#487,#392,#393);
#330=AXIS2_PLACEMENT_3D('',#489,#394,#395);
#331=AXIS2_PLACEMENT_3D('',#490,#396,#397);
#332=AXIS2_PLACEMENT_3D('',#492,#398,#399);
#333=AXIS2_PLACEMENT_3D('',#493,#400,#401);
#334=AXIS2_PLACEMENT_3D('',#495,#402,#403);
#335=AXIS2_PLACEMENT_3D('',#496,#404,#405);
#336=AXIS2_PLACEMENT_3D('',#498,#406,#407);
#337=AXIS2_PLACEMENT_3D('',#500,#408,#409);
#338=AXIS2_PLACEMENT_3D('',#501,#410,#411);
#339=AXIS2_PLACEMENT_3D('',#503,#412,#413);
#340=AXIS2_PLACEMENT_3D('',#504,#414,#415);
#341=AXIS2_PLACEMENT_3D('',#505,#416,#417);
#342=AXIS2_PLACEMENT_3D('',#506,#418,#419);
#343=AXIS2_PLACEMENT_3D('',#508,#420,#421);
#344=AXIS2_PLACEMENT_3D('',#509,#422,#423);
#345=AXIS2_PLACEMENT_3D('',#510,#424,#425);
#346=AXIS2_PLACEMENT_3D('',#511,#426,#427);
#347=AXIS2_PLACEMENT_3D('',#512,#428,#429);
#348=AXIS2_PLACEMENT_3D('',#513,#430,#431);
#349=AXIS2_PLACEMENT_3D('',#518,#433,#434);
#350=AXIS2_PLACEMENT_3D('',#521,#436,#437);
#351=AXIS2_PLACEMENT_3D('',#524,#439,#440);
#352=AXIS2_PLACEMENT_3D('',#527,#442,#443);
#353=AXIS2_PLACEMENT_3D('',#528,#444,#445);
#354=AXIS2_PLACEMENT_3D('',#529,#446,#447);
#355=AXIS2_PLACEMENT_3D('',#530,#448,#449);
#356=AXIS2_PLACEMENT_3D('',#531,#450,#451);
#357=AXIS2_PLACEMENT_3D('',#532,#452,#453);
#358=AXIS2_PLACEMENT_3D('',#533,#454,#455);
#359=AXIS2_PLACEMENT_3D('',#534,#456,#457);
#360=DIRECTION('',(0.,0.,1.));
#361=DIRECTION('',(1.,0.,0.));
#362=DIRECTION('',(0.,0.,1.));
#363=DIRECTION('',(1.,0.,0.));
#364=DIRECTION('',(0.,0.,1.));
#365=DIRECTION('',(1.,0.,0.));
#366=DIRECTION('',(0.,0.,1.));
#367=DIRECTION('',(1.,0.,0.));
#368=DIRECTION('',(0.,0.,1.));
#369=DIRECTION('',(-1.,0.,0.));
#370=DIRECTION('',(0.,0.,-1.));
#371=DIRECTION('',(-1.,0.,0.));
#372=DIRECTION('',(0.,0.,-1.));
#373=DIRECTION('',(-1.,0.,0.));
#374=DIRECTION('',(0.,0.,-1.));
#375=DIRECTION('',(-1.,0.,0.));
#376=DIRECTION('',(0.,0.,1.));
#377=DIRECTION('',(0.,0.,1.));
#378=DIRECTION('',(0.,0.,1.));
#379=DIRECTION('',(-1.,0.,0.));
#380=DIRECTION('',(0.,0.,1.));
#381=DIRECTION('',(-1.,0.,0.));
#382=DIRECTION('',(0.,0.,1.));
#383=DIRECTION('',(1.,0.,0.));
#384=DIRECTION('',(0.,0.,-1.));
#385=DIRECTION('',(-1.,0.,0.));
#386=DIRECTION('',(-0.144306116415227,-1.76724023565293E-17,-0.989533094325377));
#387=DIRECTION('',(0.144306116415227,0.,-0.989533094325377));
#388=DIRECTION('',(0.,0.,-1.));
#389=DIRECTION('',(-1.,0.,-5.76442534868639E-16));
#390=DIRECTION('',(0.,0.,1.));
#391=DIRECTION('',(1.,-2.04281036531029E-14,0.));
#392=DIRECTION('',(0.,0.,-1.));
#393=DIRECTION('',(-1.,-1.06581410364015E-14,0.));
#394=DIRECTION('',(0.,0.,1.));
#395=DIRECTION('',(1.,0.,0.));
#396=DIRECTION('',(0.,0.,1.));
#397=DIRECTION('',(-1.,0.,0.));
#398=DIRECTION('',(0.,0.,1.));
#399=DIRECTION('',(1.,0.,0.));
#400=DIRECTION('',(0.,0.,1.));
#401=DIRECTION('',(-1.,0.,0.));
#402=DIRECTION('',(0.,0.,1.));
#403=DIRECTION('',(1.,0.,-1.96700090057963E-18));
#404=DIRECTION('',(0.,0.,1.));
#405=DIRECTION('',(-1.,0.,0.));
#406=DIRECTION('',(0.,0.,1.));
#407=DIRECTION('',(-1.,0.,0.));
#408=DIRECTION('',(0.,0.,-1.));
#409=DIRECTION('',(-1.,0.,2.06875511659984E-17));
#410=DIRECTION('',(0.,0.,1.));
#411=DIRECTION('',(1.,0.,0.));
#412=DIRECTION('',(0.,0.,1.));
#413=DIRECTION('',(1.,0.,0.));
#414=DIRECTION('',(0.,0.,1.));
#415=DIRECTION('',(1.,0.,0.));
#416=DIRECTION('',(0.,0.,-1.));
#417=DIRECTION('',(-1.,0.,0.));
#418=DIRECTION('',(0.,0.,1.));
#419=DIRECTION('',(-1.,0.,0.));
#420=DIRECTION('',(0.,0.,1.));
#421=DIRECTION('',(1.,0.,0.));
#422=DIRECTION('',(0.,0.,1.));
#423=DIRECTION('',(1.,0.,0.));
#424=DIRECTION('',(0.,0.,-1.));
#425=DIRECTION('',(-1.,0.,0.));
#426=DIRECTION('',(0.,0.,-1.));
#427=DIRECTION('',(-1.,0.,0.));
#428=DIRECTION('',(0.,0.,-1.));
#429=DIRECTION('',(-1.,0.,-5.76442534868639E-16));
#430=DIRECTION('',(0.,0.,-1.));
#431=DIRECTION('',(1.,0.,0.));
#432=DIRECTION('',(0.,0.,-1.));
#433=DIRECTION('',(0.,0.,-1.));
#434=DIRECTION('',(-1.,0.,0.));
#435=DIRECTION('',(0.,0.,-1.));
#436=DIRECTION('',(0.,0.,-1.));
#437=DIRECTION('',(-0.675175188303916,-0.737657417165158,0.));
#438=DIRECTION('',(0.584718865076135,0.638830062555045,-0.499999999999995));
#439=DIRECTION('',(0.,0.,-1.));
#440=DIRECTION('',(1.,0.,0.));
#441=DIRECTION('',(-0.584718865076135,-0.638830062555045,-0.499999999999995));
#442=DIRECTION('',(0.,0.,1.));
#443=DIRECTION('',(0.675175188303916,0.737657417165158,0.));
#444=DIRECTION('',(0.,0.,-1.));
#445=DIRECTION('',(1.,0.,0.));
#446=DIRECTION('',(0.,0.,-1.));
#447=DIRECTION('',(1.,0.,0.));
#448=DIRECTION('',(0.,0.,1.));
#449=DIRECTION('',(0.675175188303916,0.737657417165158,0.));
#450=DIRECTION('',(0.,0.,-1.));
#451=DIRECTION('',(-1.,0.,0.));
#452=DIRECTION('',(0.,0.,-1.));
#453=DIRECTION('',(-0.675175188303916,-0.737657417165158,0.));
#454=DIRECTION('',(0.,0.,1.));
#455=DIRECTION('',(0.675175188303916,0.737657417165158,0.));
#456=DIRECTION('',(0.,0.,-1.));
#457=DIRECTION('',(-0.675175188303916,-0.737657417165158,0.));
#458=CARTESIAN_POINT('',(0.,0.,0.));
#459=CARTESIAN_POINT('',(0.,0.,0.));
#460=CARTESIAN_POINT('',(0.,0.,-70.));
#461=CARTESIAN_POINT('',(0.,0.,0.));
#462=CARTESIAN_POINT('',(0.0112472380001037,3.37661942654178E-17,-3.19999999999999));
#463=CARTESIAN_POINT('',(-31.7637527619999,3.37661942654178E-17,-3.19999999999999));
#464=CARTESIAN_POINT('',(0.0112472380001037,3.37661942654178E-17,-3.19999999999999));
#465=CARTESIAN_POINT('',(-22.6804168636625,3.37661942654178E-17,-3.19999999999999));
#466=CARTESIAN_POINT('',(22.7029113396627,2.81269357520821E-15,-3.19999999999999));
#467=CARTESIAN_POINT('',(0.0112472380001037,3.37661942654178E-17,-3.19999999999999));
#468=CARTESIAN_POINT('',(0.0112472380001037,-22.6916641016626,-3.19999999999999));
#469=CARTESIAN_POINT('',(25.0112472380001,-3.02785080360297E-15,82.6493200682369));
#470=CARTESIAN_POINT('',(25.0112472380001,-1.49704230466877E-15,-48.125));
#471=CARTESIAN_POINT('',(25.0112472380001,-6.1240656581638E-15,-27.6008961748356));
#472=CARTESIAN_POINT('',(-24.9887527619999,3.37661942654178E-17,82.6493200682369));
#473=CARTESIAN_POINT('',(-24.9887527619999,4.62619169106799E-15,-48.875));
#474=CARTESIAN_POINT('',(-24.9887527619999,3.37661942654178E-17,-19.9));
#475=CARTESIAN_POINT('',(0.0112472380001037,3.37661942654178E-17,-19.9));
#476=CARTESIAN_POINT('',(0.0112472380001037,3.37661942654178E-17,-49.2));
#477=CARTESIAN_POINT('',(-24.9887527619999,3.37661942654178E-17,-49.2));
#478=CARTESIAN_POINT('',(0.0112472380001037,3.37661942654178E-17,82.6493200682369));
#479=CARTESIAN_POINT('',(0.0112472380001037,3.37661942654178E-17,68.4));
#480=CARTESIAN_POINT('',(12.2613020649628,3.37661942654178E-17,68.4));
#481=CARTESIAN_POINT('',(-12.2388075889626,-1.46643284905653E-15,68.4));
#482=CARTESIAN_POINT('',(-22.6804168636625,-2.74516118667738E-15,-3.19999999999999));
#483=CARTESIAN_POINT('',(22.7029113396627,3.37661942654178E-17,-3.19999999999999));
#484=CARTESIAN_POINT('',(0.0112472380001037,3.37661942654178E-17,-3.19999999999999));
#485=CARTESIAN_POINT('',(0.0112472380001037,3.37661942654178E-17,-12.0073782508947));
#486=CARTESIAN_POINT('',(28.1362472380001,-5.74506649049253E-13,-12.0073782508947));
#487=CARTESIAN_POINT('',(0.0112472380001037,3.37661942654178E-17,-10.1926217491053));
#488=CARTESIAN_POINT('',(-28.1137527619999,-2.99726450454527E-13,-10.1926217491053));
#489=CARTESIAN_POINT('',(0.0112472380001037,3.37661942654178E-17,-3.19999999999999));
#490=CARTESIAN_POINT('',(0.0112472380001037,3.37661942654178E-17,-7.54929584448382));
#491=CARTESIAN_POINT('',(-31.7637527619999,3.37661942654178E-17,-7.54929584448382));
#492=CARTESIAN_POINT('',(0.0112472380001037,3.37661942654178E-17,82.6493200682369));
#493=CARTESIAN_POINT('',(0.0112472380001037,3.37661942654178E-17,-9.22500000000002));
#494=CARTESIAN_POINT('',(-28.8613480261915,3.37661942654178E-17,-9.22500000000002));
#495=CARTESIAN_POINT('',(0.0112472380001037,3.37661942654178E-17,-7.54929584448382));
#496=CARTESIAN_POINT('',(0.0112472380001037,3.37661942654178E-17,-14.6507041555162));
#497=CARTESIAN_POINT('',(-31.7637527619999,3.37661942654178E-17,-14.6507041555162));
#498=CARTESIAN_POINT('',(0.0112472380001037,3.37661942654178E-17,-12.975));
#499=CARTESIAN_POINT('',(-28.8613480261915,3.37661942654178E-17,-12.975));
#500=CARTESIAN_POINT('',(0.0112472380001037,3.37661942654178E-17,-12.975));
#501=CARTESIAN_POINT('',(0.0112472380001037,3.37661942654178E-17,-19.1));
#502=CARTESIAN_POINT('',(31.7862472380001,3.37661942654178E-17,-19.1));
#503=CARTESIAN_POINT('',(0.0112472380001037,3.37661942654178E-17,82.6493200682369));
#504=CARTESIAN_POINT('',(0.0112472380001037,3.37661942654178E-17,-10.1926217491053));
#505=CARTESIAN_POINT('',(0.0112472380001037,3.37661942654178E-17,-12.0073782508947));
#506=CARTESIAN_POINT('',(0.0112472380001037,3.37661942654178E-17,-19.1));
#507=CARTESIAN_POINT('',(-25.7887527619999,3.37661942654178E-17,-19.1));
#508=CARTESIAN_POINT('',(0.0112472380001037,-31.775,-19.1));
#509=CARTESIAN_POINT('',(0.0112472380001037,3.37661942654178E-17,-19.9));
#510=CARTESIAN_POINT('',(0.0112472380001037,3.37661942654178E-17,68.4));
#511=CARTESIAN_POINT('',(0.0112472380001037,3.37661942654178E-17,68.4));
#512=CARTESIAN_POINT('',(0.0112472380001037,3.37661942654178E-17,-3.19999999999999));
#513=CARTESIAN_POINT('',(0.0112472380001037,3.37661942654178E-17,-70.8028856829701));
#514=CARTESIAN_POINT('',(21.2792656695734,23.2362086407025,-70.8028856829701));
#515=CARTESIAN_POINT('',(-21.2567711935732,-23.2362086407025,-70.8028856829701));
#516=CARTESIAN_POINT('',(21.2792656695734,23.2362086407025,-74.7));
#517=CARTESIAN_POINT('',(21.2792656695734,23.2362086407025,-49.2));
#518=CARTESIAN_POINT('',(0.0112472380001037,3.37661942654178E-17,-49.2));
#519=CARTESIAN_POINT('',(-21.2567711935732,-23.2362086407025,-49.2));
#520=CARTESIAN_POINT('',(-21.2567711935732,-23.2362086407025,-74.7));
#521=CARTESIAN_POINT('',(0.0112472380001037,3.37661942654178E-17,-74.7));
#522=CARTESIAN_POINT('',(-20.5815960052693,-22.4985512235373,-71.3802359521597));
#523=CARTESIAN_POINT('',(-16.6993386725218,-18.2570210748377,-74.7));
#524=CARTESIAN_POINT('',(0.0112472380001037,3.37661942654178E-17,-74.7));
#525=CARTESIAN_POINT('',(16.721833148522,18.2570210748377,-74.7));
#526=CARTESIAN_POINT('',(20.6040904812695,22.4985512235373,-71.3802359521597));
#527=CARTESIAN_POINT('',(0.0112472380001037,3.37661942654178E-17,-71.3802359521597));
#528=CARTESIAN_POINT('',(0.0112472380001037,3.37661942654178E-17,-70.8028856829701));
#529=CARTESIAN_POINT('',(0.0112472380001037,3.37661942654178E-17,-74.7));
#530=CARTESIAN_POINT('',(0.0112472380001037,3.37661942654178E-17,-71.3802359521597));
#531=CARTESIAN_POINT('',(0.0112472380001037,3.37661942654178E-17,-49.2));
#532=CARTESIAN_POINT('',(0.0112472380001037,3.37661942654178E-17,-74.7));
#533=CARTESIAN_POINT('',(12.2821783725425,-11.2315392574356,-74.7));
#534=CARTESIAN_POINT('',(21.7721410443723,-19.9176680549655,-49.2));
#535=MECHANICAL_DESIGN_GEOMETRIC_PRESENTATION_REPRESENTATION('',(#299,#300,
#301,#302),#536);
#536=(
GEOMETRIC_REPRESENTATION_CONTEXT(3)
GLOBAL_UNCERTAINTY_ASSIGNED_CONTEXT((#537))
GLOBAL_UNIT_ASSIGNED_CONTEXT((#543,#539,#538))
REPRESENTATION_CONTEXT('69871.40ADB-CC.ER40','TOP_LEVEL_ASSEMBLY_PART')
);
#537=UNCERTAINTY_MEASURE_WITH_UNIT(LENGTH_MEASURE(2.E-5),#543,
'DISTANCE_ACCURACY_VALUE','Maximum Tolerance applied to model');
#538=(
NAMED_UNIT(*)
SI_UNIT($,.STERADIAN.)
SOLID_ANGLE_UNIT()
);
#539=(
CONVERSION_BASED_UNIT('DEGREE',#541)
NAMED_UNIT(#540)
PLANE_ANGLE_UNIT()
);
#540=DIMENSIONAL_EXPONENTS(0.,0.,0.,0.,0.,0.,0.);
#541=PLANE_ANGLE_MEASURE_WITH_UNIT(PLANE_ANGLE_MEASURE(0.0174532925),#542);
#542=(
NAMED_UNIT(*)
PLANE_ANGLE_UNIT()
SI_UNIT($,.RADIAN.)
);
#543=(
LENGTH_UNIT()
NAMED_UNIT(*)
SI_UNIT(.MILLI.,.METRE.)
);
ENDSEC;
END-ISO-10303-21;
