ISO-10303-21;
HEADER;
/* Generated by software containing ST-Developer
 * from STEP Tools, Inc. (www.steptools.com) 
 */
/* OPTION: using custom schema-name function */

FILE_DESCRIPTION(
/* description */ (''),
/* implementation_level */ '2;1');

FILE_NAME(
/* name */ '69871.40AD-W.16.063.stp',
/* time_stamp */ '2024-07-22T13:26:57+02:00',
/* author */ (''),
/* organization */ (''),
/* preprocessor_version */ 'ST-DEVELOPER v16.7',
/* originating_system */ 'SIEMENS PLM Software NX 12.0',
/* authorisation */ '');

FILE_SCHEMA (('AUTOMOTIVE_DESIGN { 1 0 10303 214 3 1 1 1 }'));
ENDSEC;

DATA;
#10=CONSTRUCTIVE_GEOMETRY_REPRESENTATION_RELATIONSHIP(
'supplemental geometry','',#32,#11);
#11=CONSTRUCTIVE_GEOMETRY_REPRESENTATION('supplemental geometry',(#313,
#314,#315),#530);
#12=PROPERTY_DEFINITION_REPRESENTATION(#16,#14);
#13=PROPERTY_DEFINITION_REPRESENTATION(#17,#15);
#14=REPRESENTATION('',(#18),#530);
#15=REPRESENTATION('',(#19),#530);
#16=PROPERTY_DEFINITION('pmi validation property','',#23);
#17=PROPERTY_DEFINITION('pmi validation property','',#23);
#18=VALUE_REPRESENTATION_ITEM('number of annotations',COUNT_MEASURE(0.));
#19=VALUE_REPRESENTATION_ITEM('number of views',COUNT_MEASURE(0.));
#20=SHAPE_REPRESENTATION_RELATIONSHIP('None',
'relationship between pf6612088076yv60-None and pf6612088076yv60-None',
#32,#21);
#21=ADVANCED_BREP_SHAPE_REPRESENTATION('pf6612088076yv60-None',(#38),#530);
#22=SHAPE_DEFINITION_REPRESENTATION(#23,#32);
#23=PRODUCT_DEFINITION_SHAPE('','',#24);
#24=PRODUCT_DEFINITION(' ','',#26,#25);
#25=PRODUCT_DEFINITION_CONTEXT('part definition',#31,'design');
#26=PRODUCT_DEFINITION_FORMATION_WITH_SPECIFIED_SOURCE(' ',' ',#28,
 .NOT_KNOWN.);
#27=PRODUCT_RELATED_PRODUCT_CATEGORY('part','',(#28));
#28=PRODUCT('pf6612088076yv60','pf6612088076yv60',' ',(#29));
#29=PRODUCT_CONTEXT(' ',#31,'mechanical');
#30=APPLICATION_PROTOCOL_DEFINITION('international standard',
'automotive_design',2010,#31);
#31=APPLICATION_CONTEXT(
'core data for automotive mechanical design processes');
#32=SHAPE_REPRESENTATION('pf6612088076yv60-None',(#312),#530);
#33=SURFACE_STYLE_USAGE(.BOTH.,#34);
#34=SURFACE_SIDE_STYLE('',(#35));
#35=SURFACE_STYLE_FILL_AREA(#36);
#36=FILL_AREA_STYLE('',(#37));
#37=FILL_AREA_STYLE_COLOUR('',#308);
#38=MANIFOLD_SOLID_BREP('',#39);
#39=CLOSED_SHELL('',(#75,#76,#77,#78,#79,#80,#81,#82,#83,#84,#85,#86,#87,
#88,#89,#90,#91,#92,#93));
#40=CONICAL_SURFACE('',#330,21.17554531327,25.);
#41=CONICAL_SURFACE('',#332,21.17554531327,25.);
#42=CONICAL_SURFACE('',#337,17.39989973582,8.2971);
#43=CONICAL_SURFACE('',#338,17.39989973582,8.2971);
#44=CONICAL_SURFACE('',#342,30.3362976321,60.);
#45=CONICAL_SURFACE('',#354,30.3362976321,60.);
#46=FACE_OUTER_BOUND('',#134,.T.);
#47=FACE_OUTER_BOUND('',#135,.T.);
#48=FACE_OUTER_BOUND('',#136,.T.);
#49=FACE_OUTER_BOUND('',#137,.T.);
#50=FACE_OUTER_BOUND('',#138,.T.);
#51=FACE_OUTER_BOUND('',#139,.T.);
#52=CYLINDRICAL_SURFACE('',#328,24.);
#53=CYLINDRICAL_SURFACE('',#340,31.775);
#54=CYLINDRICAL_SURFACE('',#348,28.);
#55=CYLINDRICAL_SURFACE('',#355,31.775);
#56=LINE('',#473,#64);
#57=LINE('',#475,#65);
#58=LINE('',#477,#66);
#59=LINE('',#482,#67);
#60=LINE('',#486,#68);
#61=LINE('',#490,#69);
#62=LINE('',#500,#70);
#63=LINE('',#501,#71);
#64=VECTOR('',#384,1.);
#65=VECTOR('',#385,1.);
#66=VECTOR('',#386,1.);
#67=VECTOR('',#389,1.);
#68=VECTOR('',#394,1.);
#69=VECTOR('',#397,1.);
#70=VECTOR('',#412,1.);
#71=VECTOR('',#413,1.);
#72=TOROIDAL_SURFACE('',#325,24.8,0.8);
#73=TOROIDAL_SURFACE('',#346,28.5,0.5);
#74=TOROIDAL_SURFACE('',#350,28.5,0.5);
#75=ADVANCED_FACE('',(#100,#101),#94,.F.);
#76=ADVANCED_FACE('',(#102,#103),#95,.T.);
#77=ADVANCED_FACE('',(#104,#105),#72,.F.);
#78=ADVANCED_FACE('',(#106,#107),#52,.T.);
#79=ADVANCED_FACE('',(#46),#40,.T.);
#80=ADVANCED_FACE('',(#47),#41,.T.);
#81=ADVANCED_FACE('',(#48),#96,.F.);
#82=ADVANCED_FACE('',(#49),#97,.F.);
#83=ADVANCED_FACE('',(#50),#42,.T.);
#84=ADVANCED_FACE('',(#51),#43,.T.);
#85=ADVANCED_FACE('',(#108,#109),#53,.T.);
#86=ADVANCED_FACE('',(#110,#111),#44,.T.);
#87=ADVANCED_FACE('',(#112,#113),#98,.F.);
#88=ADVANCED_FACE('',(#114,#115),#73,.F.);
#89=ADVANCED_FACE('',(#116,#117),#54,.T.);
#90=ADVANCED_FACE('',(#118,#119),#74,.F.);
#91=ADVANCED_FACE('',(#120,#121),#99,.T.);
#92=ADVANCED_FACE('',(#122,#123),#45,.T.);
#93=ADVANCED_FACE('',(#124,#125),#55,.T.);
#94=PLANE('',#319);
#95=PLANE('',#322);
#96=PLANE('',#333);
#97=PLANE('',#336);
#98=PLANE('',#344);
#99=PLANE('',#352);
#100=FACE_BOUND('',#126,.T.);
#101=FACE_BOUND('',#127,.T.);
#102=FACE_BOUND('',#128,.T.);
#103=FACE_BOUND('',#129,.T.);
#104=FACE_BOUND('',#130,.T.);
#105=FACE_BOUND('',#131,.T.);
#106=FACE_BOUND('',#132,.T.);
#107=FACE_BOUND('',#133,.T.);
#108=FACE_BOUND('',#140,.T.);
#109=FACE_BOUND('',#141,.T.);
#110=FACE_BOUND('',#142,.T.);
#111=FACE_BOUND('',#143,.T.);
#112=FACE_BOUND('',#144,.T.);
#113=FACE_BOUND('',#145,.T.);
#114=FACE_BOUND('',#146,.T.);
#115=FACE_BOUND('',#147,.T.);
#116=FACE_BOUND('',#148,.T.);
#117=FACE_BOUND('',#149,.T.);
#118=FACE_BOUND('',#150,.T.);
#119=FACE_BOUND('',#151,.T.);
#120=FACE_BOUND('',#152,.T.);
#121=FACE_BOUND('',#153,.T.);
#122=FACE_BOUND('',#154,.T.);
#123=FACE_BOUND('',#155,.T.);
#124=FACE_BOUND('',#156,.T.);
#125=FACE_BOUND('',#157,.T.);
#126=EDGE_LOOP('',(#158));
#127=EDGE_LOOP('',(#159,#160));
#128=EDGE_LOOP('',(#161));
#129=EDGE_LOOP('',(#162));
#130=EDGE_LOOP('',(#163));
#131=EDGE_LOOP('',(#164,#165));
#132=EDGE_LOOP('',(#166,#167,#168,#169,#170,#171));
#133=EDGE_LOOP('',(#172,#173,#174,#175,#176,#177));
#134=EDGE_LOOP('',(#178,#179,#180,#181));
#135=EDGE_LOOP('',(#182,#183,#184,#185));
#136=EDGE_LOOP('',(#186,#187));
#137=EDGE_LOOP('',(#188,#189));
#138=EDGE_LOOP('',(#190,#191,#192,#193));
#139=EDGE_LOOP('',(#194,#195,#196,#197));
#140=EDGE_LOOP('',(#198));
#141=EDGE_LOOP('',(#199));
#142=EDGE_LOOP('',(#200));
#143=EDGE_LOOP('',(#201));
#144=EDGE_LOOP('',(#202));
#145=EDGE_LOOP('',(#203));
#146=EDGE_LOOP('',(#204));
#147=EDGE_LOOP('',(#205));
#148=EDGE_LOOP('',(#206));
#149=EDGE_LOOP('',(#207));
#150=EDGE_LOOP('',(#208));
#151=EDGE_LOOP('',(#209));
#152=EDGE_LOOP('',(#210));
#153=EDGE_LOOP('',(#211));
#154=EDGE_LOOP('',(#212));
#155=EDGE_LOOP('',(#213));
#156=EDGE_LOOP('',(#214));
#157=EDGE_LOOP('',(#215));
#158=ORIENTED_EDGE('',*,*,#241,.T.);
#159=ORIENTED_EDGE('',*,*,#242,.T.);
#160=ORIENTED_EDGE('',*,*,#243,.T.);
#161=ORIENTED_EDGE('',*,*,#244,.F.);
#162=ORIENTED_EDGE('',*,*,#245,.T.);
#163=ORIENTED_EDGE('',*,*,#245,.F.);
#164=ORIENTED_EDGE('',*,*,#246,.F.);
#165=ORIENTED_EDGE('',*,*,#247,.F.);
#166=ORIENTED_EDGE('',*,*,#248,.T.);
#167=ORIENTED_EDGE('',*,*,#248,.F.);
#168=ORIENTED_EDGE('',*,*,#246,.T.);
#169=ORIENTED_EDGE('',*,*,#249,.T.);
#170=ORIENTED_EDGE('',*,*,#249,.F.);
#171=ORIENTED_EDGE('',*,*,#247,.T.);
#172=ORIENTED_EDGE('',*,*,#250,.F.);
#173=ORIENTED_EDGE('',*,*,#250,.T.);
#174=ORIENTED_EDGE('',*,*,#251,.T.);
#175=ORIENTED_EDGE('',*,*,#252,.F.);
#176=ORIENTED_EDGE('',*,*,#252,.T.);
#177=ORIENTED_EDGE('',*,*,#253,.F.);
#178=ORIENTED_EDGE('',*,*,#253,.T.);
#179=ORIENTED_EDGE('',*,*,#254,.T.);
#180=ORIENTED_EDGE('',*,*,#255,.F.);
#181=ORIENTED_EDGE('',*,*,#256,.F.);
#182=ORIENTED_EDGE('',*,*,#257,.T.);
#183=ORIENTED_EDGE('',*,*,#254,.F.);
#184=ORIENTED_EDGE('',*,*,#251,.F.);
#185=ORIENTED_EDGE('',*,*,#256,.T.);
#186=ORIENTED_EDGE('',*,*,#257,.F.);
#187=ORIENTED_EDGE('',*,*,#255,.T.);
#188=ORIENTED_EDGE('',*,*,#258,.T.);
#189=ORIENTED_EDGE('',*,*,#259,.T.);
#190=ORIENTED_EDGE('',*,*,#260,.T.);
#191=ORIENTED_EDGE('',*,*,#242,.F.);
#192=ORIENTED_EDGE('',*,*,#261,.F.);
#193=ORIENTED_EDGE('',*,*,#258,.F.);
#194=ORIENTED_EDGE('',*,*,#261,.T.);
#195=ORIENTED_EDGE('',*,*,#243,.F.);
#196=ORIENTED_EDGE('',*,*,#260,.F.);
#197=ORIENTED_EDGE('',*,*,#259,.F.);
#198=ORIENTED_EDGE('',*,*,#262,.T.);
#199=ORIENTED_EDGE('',*,*,#244,.T.);
#200=ORIENTED_EDGE('',*,*,#263,.T.);
#201=ORIENTED_EDGE('',*,*,#262,.F.);
#202=ORIENTED_EDGE('',*,*,#264,.T.);
#203=ORIENTED_EDGE('',*,*,#263,.F.);
#204=ORIENTED_EDGE('',*,*,#265,.T.);
#205=ORIENTED_EDGE('',*,*,#264,.F.);
#206=ORIENTED_EDGE('',*,*,#266,.T.);
#207=ORIENTED_EDGE('',*,*,#265,.F.);
#208=ORIENTED_EDGE('',*,*,#267,.T.);
#209=ORIENTED_EDGE('',*,*,#266,.F.);
#210=ORIENTED_EDGE('',*,*,#268,.T.);
#211=ORIENTED_EDGE('',*,*,#267,.F.);
#212=ORIENTED_EDGE('',*,*,#269,.T.);
#213=ORIENTED_EDGE('',*,*,#268,.F.);
#214=ORIENTED_EDGE('',*,*,#241,.F.);
#215=ORIENTED_EDGE('',*,*,#269,.F.);
#216=VERTEX_POINT('',#457);
#217=VERTEX_POINT('',#459);
#218=VERTEX_POINT('',#460);
#219=VERTEX_POINT('',#464);
#220=VERTEX_POINT('',#466);
#221=VERTEX_POINT('',#469);
#222=VERTEX_POINT('',#470);
#223=VERTEX_POINT('',#474);
#224=VERTEX_POINT('',#476);
#225=VERTEX_POINT('',#478);
#226=VERTEX_POINT('',#479);
#227=VERTEX_POINT('',#481);
#228=VERTEX_POINT('',#483);
#229=VERTEX_POINT('',#487);
#230=VERTEX_POINT('',#489);
#231=VERTEX_POINT('',#496);
#232=VERTEX_POINT('',#497);
#233=VERTEX_POINT('',#505);
#234=VERTEX_POINT('',#508);
#235=VERTEX_POINT('',#511);
#236=VERTEX_POINT('',#514);
#237=VERTEX_POINT('',#517);
#238=VERTEX_POINT('',#520);
#239=VERTEX_POINT('',#523);
#240=VERTEX_POINT('',#526);
#241=EDGE_CURVE('',#216,#216,#270,.T.);
#242=EDGE_CURVE('',#217,#218,#271,.T.);
#243=EDGE_CURVE('',#218,#217,#272,.T.);
#244=EDGE_CURVE('',#219,#219,#273,.T.);
#245=EDGE_CURVE('',#220,#220,#274,.T.);
#246=EDGE_CURVE('',#221,#222,#275,.T.);
#247=EDGE_CURVE('',#222,#221,#276,.T.);
#248=EDGE_CURVE('',#221,#223,#56,.T.);
#249=EDGE_CURVE('',#222,#224,#57,.T.);
#250=EDGE_CURVE('',#225,#226,#58,.T.);
#251=EDGE_CURVE('',#226,#227,#277,.T.);
#252=EDGE_CURVE('',#228,#227,#59,.T.);
#253=EDGE_CURVE('',#226,#227,#278,.T.);
#254=EDGE_CURVE('',#227,#229,#60,.T.);
#255=EDGE_CURVE('',#230,#229,#279,.T.);
#256=EDGE_CURVE('',#226,#230,#61,.T.);
#257=EDGE_CURVE('',#230,#229,#280,.T.);
#258=EDGE_CURVE('',#231,#232,#281,.T.);
#259=EDGE_CURVE('',#232,#231,#282,.T.);
#260=EDGE_CURVE('',#231,#218,#62,.T.);
#261=EDGE_CURVE('',#232,#217,#63,.T.);
#262=EDGE_CURVE('',#233,#233,#283,.T.);
#263=EDGE_CURVE('',#234,#234,#284,.T.);
#264=EDGE_CURVE('',#235,#235,#285,.T.);
#265=EDGE_CURVE('',#236,#236,#286,.T.);
#266=EDGE_CURVE('',#237,#237,#287,.T.);
#267=EDGE_CURVE('',#238,#238,#288,.T.);
#268=EDGE_CURVE('',#239,#239,#289,.T.);
#269=EDGE_CURVE('',#240,#240,#290,.T.);
#270=CIRCLE('',#316,31.775);
#271=CIRCLE('',#317,22.6916641016621);
#272=CIRCLE('',#318,22.6916641016621);
#273=CIRCLE('',#320,31.775);
#274=CIRCLE('',#321,24.8);
#275=CIRCLE('',#323,24.);
#276=CIRCLE('',#324,24.);
#277=CIRCLE('',#326,24.);
#278=CIRCLE('',#327,24.);
#279=CIRCLE('',#329,18.0000000000043);
#280=CIRCLE('',#331,18.0000000000043);
#281=CIRCLE('',#334,12.2500548269618);
#282=CIRCLE('',#335,12.2500548269618);
#283=CIRCLE('',#339,31.775);
#284=CIRCLE('',#341,28.89759526419);
#285=CIRCLE('',#343,28.5);
#286=CIRCLE('',#345,28.);
#287=CIRCLE('',#347,28.);
#288=CIRCLE('',#349,28.5);
#289=CIRCLE('',#351,28.89759526419);
#290=CIRCLE('',#353,31.775);
#291=INVISIBILITY((#292,#293,#294,#295));
#292=PRESENTATION_LAYER_ASSIGNMENT('100','Layer 100',(#313));
#293=PRESENTATION_LAYER_ASSIGNMENT('101','Layer 101',(#314));
#294=PRESENTATION_LAYER_ASSIGNMENT('102','Layer 102',(#315));
#295=PRESENTATION_LAYER_ASSIGNMENT('98','Layer 98',(#38));
#296=STYLED_ITEM('',(#300),#313);
#297=STYLED_ITEM('',(#301),#314);
#298=STYLED_ITEM('',(#302),#315);
#299=STYLED_ITEM('',(#303),#38);
#300=PRESENTATION_STYLE_ASSIGNMENT((#304));
#301=PRESENTATION_STYLE_ASSIGNMENT((#305));
#302=PRESENTATION_STYLE_ASSIGNMENT((#306));
#303=PRESENTATION_STYLE_ASSIGNMENT((#33));
#304=CURVE_STYLE('',#309,POSITIVE_LENGTH_MEASURE(0.7),#307);
#305=CURVE_STYLE('',#310,POSITIVE_LENGTH_MEASURE(0.7),#307);
#306=CURVE_STYLE('',#311,POSITIVE_LENGTH_MEASURE(0.7),#307);
#307=COLOUR_RGB('Medium Maroon',0.6,0.4,0.4);
#308=COLOUR_RGB('Medium Gray',0.490196078431373,0.490196078431373,0.490196078431373);
#309=DRAUGHTING_PRE_DEFINED_CURVE_FONT('continuous');
#310=DRAUGHTING_PRE_DEFINED_CURVE_FONT('continuous');
#311=DRAUGHTING_PRE_DEFINED_CURVE_FONT('continuous');
#312=AXIS2_PLACEMENT_3D('',#452,#356,#357);
#313=AXIS2_PLACEMENT_3D('PCS',#453,#358,#359);
#314=AXIS2_PLACEMENT_3D('CSW',#454,#360,#361);
#315=AXIS2_PLACEMENT_3D('MCS',#455,#362,#363);
#316=AXIS2_PLACEMENT_3D('',#456,#364,#365);
#317=AXIS2_PLACEMENT_3D('',#458,#366,#367);
#318=AXIS2_PLACEMENT_3D('',#461,#368,#369);
#319=AXIS2_PLACEMENT_3D('',#462,#370,#371);
#320=AXIS2_PLACEMENT_3D('',#463,#372,#373);
#321=AXIS2_PLACEMENT_3D('',#465,#374,#375);
#322=AXIS2_PLACEMENT_3D('',#467,#376,#377);
#323=AXIS2_PLACEMENT_3D('',#468,#378,#379);
#324=AXIS2_PLACEMENT_3D('',#471,#380,#381);
#325=AXIS2_PLACEMENT_3D('',#472,#382,#383);
#326=AXIS2_PLACEMENT_3D('',#480,#387,#388);
#327=AXIS2_PLACEMENT_3D('',#484,#390,#391);
#328=AXIS2_PLACEMENT_3D('',#485,#392,#393);
#329=AXIS2_PLACEMENT_3D('',#488,#395,#396);
#330=AXIS2_PLACEMENT_3D('',#491,#398,#399);
#331=AXIS2_PLACEMENT_3D('',#492,#400,#401);
#332=AXIS2_PLACEMENT_3D('',#493,#402,#403);
#333=AXIS2_PLACEMENT_3D('',#494,#404,#405);
#334=AXIS2_PLACEMENT_3D('',#495,#406,#407);
#335=AXIS2_PLACEMENT_3D('',#498,#408,#409);
#336=AXIS2_PLACEMENT_3D('',#499,#410,#411);
#337=AXIS2_PLACEMENT_3D('',#502,#414,#415);
#338=AXIS2_PLACEMENT_3D('',#503,#416,#417);
#339=AXIS2_PLACEMENT_3D('',#504,#418,#419);
#340=AXIS2_PLACEMENT_3D('',#506,#420,#421);
#341=AXIS2_PLACEMENT_3D('',#507,#422,#423);
#342=AXIS2_PLACEMENT_3D('',#509,#424,#425);
#343=AXIS2_PLACEMENT_3D('',#510,#426,#427);
#344=AXIS2_PLACEMENT_3D('',#512,#428,#429);
#345=AXIS2_PLACEMENT_3D('',#513,#430,#431);
#346=AXIS2_PLACEMENT_3D('',#515,#432,#433);
#347=AXIS2_PLACEMENT_3D('',#516,#434,#435);
#348=AXIS2_PLACEMENT_3D('',#518,#436,#437);
#349=AXIS2_PLACEMENT_3D('',#519,#438,#439);
#350=AXIS2_PLACEMENT_3D('',#521,#440,#441);
#351=AXIS2_PLACEMENT_3D('',#522,#442,#443);
#352=AXIS2_PLACEMENT_3D('',#524,#444,#445);
#353=AXIS2_PLACEMENT_3D('',#525,#446,#447);
#354=AXIS2_PLACEMENT_3D('',#527,#448,#449);
#355=AXIS2_PLACEMENT_3D('',#528,#450,#451);
#356=DIRECTION('',(0.,0.,1.));
#357=DIRECTION('',(1.,0.,0.));
#358=DIRECTION('',(0.,0.,1.));
#359=DIRECTION('',(1.,0.,0.));
#360=DIRECTION('',(0.,0.,1.));
#361=DIRECTION('',(1.,0.,0.));
#362=DIRECTION('',(0.,0.,1.));
#363=DIRECTION('',(1.,0.,0.));
#364=DIRECTION('',(0.,0.,1.));
#365=DIRECTION('',(-1.,0.,0.));
#366=DIRECTION('',(0.,0.,-1.));
#367=DIRECTION('',(-1.,0.,0.));
#368=DIRECTION('',(0.,0.,-1.));
#369=DIRECTION('',(-1.,0.,0.));
#370=DIRECTION('',(0.,0.,-1.));
#371=DIRECTION('',(0.,-1.,0.));
#372=DIRECTION('',(0.,0.,1.));
#373=DIRECTION('',(-1.,0.,0.));
#374=DIRECTION('',(0.,0.,1.));
#375=DIRECTION('',(0.94585249071045,0.324596774193517,0.));
#376=DIRECTION('',(0.,0.,-1.));
#377=DIRECTION('',(0.,-1.,0.));
#378=DIRECTION('',(0.,0.,-1.));
#379=DIRECTION('',(0.,-1.,0.));
#380=DIRECTION('',(0.,0.,-1.));
#381=DIRECTION('',(0.,1.,0.));
#382=DIRECTION('',(0.,0.,1.));
#383=DIRECTION('',(0.00656813188017775,-0.999978429589161,0.));
#384=DIRECTION('',(-2.262153329032E-13,0.,-1.));
#385=DIRECTION('',(-4.045170497044E-13,0.,-1.));
#386=DIRECTION('',(0.,0.,-1.));
#387=DIRECTION('',(0.,0.,1.));
#388=DIRECTION('',(1.,0.,0.));
#389=DIRECTION('',(0.,0.,-1.));
#390=DIRECTION('',(0.,0.,-1.));
#391=DIRECTION('',(1.,0.,0.));
#392=DIRECTION('',(0.,0.,1.));
#393=DIRECTION('',(0.,1.,0.));
#394=DIRECTION('',(0.,-0.422618261740719,-0.906307787036641));
#395=DIRECTION('',(0.,0.,-1.));
#396=DIRECTION('',(1.,0.,0.));
#397=DIRECTION('',(0.,0.422618261740719,-0.906307787036641));
#398=DIRECTION('',(0.,0.,1.));
#399=DIRECTION('',(0.,1.,-8.54047136952348E-17));
#400=DIRECTION('',(0.,0.,1.));
#401=DIRECTION('',(1.,0.,0.));
#402=DIRECTION('',(0.,0.,1.));
#403=DIRECTION('',(0.,1.,-8.54047136952348E-17));
#404=DIRECTION('',(0.,0.,1.));
#405=DIRECTION('',(0.,1.,0.));
#406=DIRECTION('',(0.,0.,1.));
#407=DIRECTION('',(-1.,0.,0.));
#408=DIRECTION('',(0.,0.,1.));
#409=DIRECTION('',(-1.,0.,0.));
#410=DIRECTION('',(0.,0.,-1.));
#411=DIRECTION('',(0.,-1.,0.));
#412=DIRECTION('',(-1.33167879821197E-13,0.144306116415197,-0.989533094325381));
#413=DIRECTION('',(1.33168609664097E-13,-0.144306116415197,-0.989533094325381));
#414=DIRECTION('',(0.,0.,-1.));
#415=DIRECTION('',(0.,-1.,-2.55055708228373E-16));
#416=DIRECTION('',(0.,0.,-1.));
#417=DIRECTION('',(0.,-1.,-2.55055708228373E-16));
#418=DIRECTION('',(0.,0.,-1.));
#419=DIRECTION('',(-0.967376300599849,0.253343823760813,0.));
#420=DIRECTION('',(0.,0.,-1.));
#421=DIRECTION('',(0.,-1.,0.));
#422=DIRECTION('',(0.,0.,-1.));
#423=DIRECTION('',(-0.960415959422322,0.278569892283607,0.));
#424=DIRECTION('',(0.,0.,-1.));
#425=DIRECTION('',(0.,-1.,4.1340739373327E-17));
#426=DIRECTION('',(0.,0.,-1.));
#427=DIRECTION('',(-0.959280213898982,0.282456140350895,0.));
#428=DIRECTION('',(0.,0.,-1.));
#429=DIRECTION('',(0.,-1.,0.));
#430=DIRECTION('',(0.,0.,-1.));
#431=DIRECTION('',(-0.957780637724524,0.287500000000007,0.));
#432=DIRECTION('',(0.,0.,-1.));
#433=DIRECTION('',(0.00415426945299211,-0.999991370985426,0.));
#434=DIRECTION('',(0.,0.,-1.));
#435=DIRECTION('',(-0.957780637724524,0.287500000000007,0.));
#436=DIRECTION('',(0.,0.,-1.));
#437=DIRECTION('',(0.,-1.,0.));
#438=DIRECTION('',(0.,0.,-1.));
#439=DIRECTION('',(-0.959280213898982,0.282456140350895,0.));
#440=DIRECTION('',(0.,0.,-1.));
#441=DIRECTION('',(0.0039631344949438,-0.999992146751651,0.));
#442=DIRECTION('',(0.,0.,-1.));
#443=DIRECTION('',(-0.960415959422322,0.278569892283607,0.));
#444=DIRECTION('',(0.,0.,-1.));
#445=DIRECTION('',(0.,-1.,0.));
#446=DIRECTION('',(0.,0.,-1.));
#447=DIRECTION('',(-0.967376300599849,0.253343823760813,0.));
#448=DIRECTION('',(0.,0.,1.));
#449=DIRECTION('',(0.,1.,2.65761895971388E-17));
#450=DIRECTION('',(0.,0.,-1.));
#451=DIRECTION('',(0.,-1.,0.));
#452=CARTESIAN_POINT('',(0.,0.,0.));
#453=CARTESIAN_POINT('',(0.,0.,0.));
#454=CARTESIAN_POINT('',(0.,0.,-63.));
#455=CARTESIAN_POINT('',(0.,0.,0.));
#456=CARTESIAN_POINT('',(0.,0.,-3.19999999999999));
#457=CARTESIAN_POINT('',(-31.775,0.,-3.19999999999999));
#458=CARTESIAN_POINT('',(0.,0.,-3.2));
#459=CARTESIAN_POINT('',(0.,-22.6916641016621,-3.2));
#460=CARTESIAN_POINT('',(6.12411196672187E-12,22.6916641016621,-3.2));
#461=CARTESIAN_POINT('',(0.,0.,-3.2));
#462=CARTESIAN_POINT('',(0.,0.,-3.2));
#463=CARTESIAN_POINT('',(0.,0.,-19.1));
#464=CARTESIAN_POINT('',(-31.775,0.,-19.1));
#465=CARTESIAN_POINT('',(0.,0.,-19.1));
#466=CARTESIAN_POINT('',(23.4571417696192,8.04999999999923,-19.1));
#467=CARTESIAN_POINT('',(0.,0.,-19.1));
#468=CARTESIAN_POINT('',(0.,0.,-19.9));
#469=CARTESIAN_POINT('',(0.,-24.,-19.9));
#470=CARTESIAN_POINT('',(0.,24.,-19.9));
#471=CARTESIAN_POINT('',(0.,0.,-19.9));
#472=CARTESIAN_POINT('',(0.,0.,-19.9));
#473=CARTESIAN_POINT('',(0.,-24.,-30.04535355908));
#474=CARTESIAN_POINT('',(8.99731496379693E-13,-24.,-30.0453535590813));
#475=CARTESIAN_POINT('',(0.,24.,-31.));
#476=CARTESIAN_POINT('',(1.3148648370606E-27,24.,-31.));
#477=CARTESIAN_POINT('',(0.,-24.,-49.68956915166));
#478=CARTESIAN_POINT('',(-5.47382212626882E-45,-24.,-45.9546464409174));
#479=CARTESIAN_POINT('',(0.,-24.,-50.1329584769447));
#480=CARTESIAN_POINT('',(0.,0.,-50.1329584769519));
#481=CARTESIAN_POINT('',(0.,24.,-50.1329584769447));
#482=CARTESIAN_POINT('',(0.,24.,-49.68956915166));
#483=CARTESIAN_POINT('',(0.,24.,-47.));
#484=CARTESIAN_POINT('',(0.,0.,-50.1329584769519));
#485=CARTESIAN_POINT('',(0.,0.,-65.65));
#486=CARTESIAN_POINT('',(0.,18.53847505246,-61.84523652348));
#487=CARTESIAN_POINT('',(0.,18.000000000001,-63.));
#488=CARTESIAN_POINT('',(0.,0.,-63.));
#489=CARTESIAN_POINT('',(0.,-18.000000000001,-63.));
#490=CARTESIAN_POINT('',(0.,-18.53847505246,-61.84523652348));
#491=CARTESIAN_POINT('',(0.,0.,-56.19002109931));
#492=CARTESIAN_POINT('',(0.,0.,-63.));
#493=CARTESIAN_POINT('',(0.,0.,-56.19002109931));
#494=CARTESIAN_POINT('',(0.,0.,-63.));
#495=CARTESIAN_POINT('',(0.,0.,68.4));
#496=CARTESIAN_POINT('',(9.36652294774858E-12,12.2500548269614,68.4));
#497=CARTESIAN_POINT('',(-9.36657428212651E-12,-12.2500548269614,68.4));
#498=CARTESIAN_POINT('',(0.,0.,68.4));
#499=CARTESIAN_POINT('',(0.,0.,68.4));
#500=CARTESIAN_POINT('',(0.,22.39999903812,-1.2));
#501=CARTESIAN_POINT('',(0.,-22.39999903812,-1.2));
#502=CARTESIAN_POINT('',(0.,0.,33.08658366985));
#503=CARTESIAN_POINT('',(0.,0.,33.08658366985));
#504=CARTESIAN_POINT('',(0.,0.,-14.636270398786));
#505=CARTESIAN_POINT('',(-30.7383819515602,8.04999999999983,-14.636270398786));
#506=CARTESIAN_POINT('',(0.,0.,72.775));
#507=CARTESIAN_POINT('',(0.,0.,-12.975));
#508=CARTESIAN_POINT('',(-27.753711680655,8.05000000000067,-12.975));
#509=CARTESIAN_POINT('',(0.,0.,-13.805635199393));
#510=CARTESIAN_POINT('',(0.,0.,-12.975));
#511=CARTESIAN_POINT('',(-27.339486096121,8.0500000000005,-12.975));
#512=CARTESIAN_POINT('',(0.,0.,-12.975));
#513=CARTESIAN_POINT('',(0.,0.,-12.475));
#514=CARTESIAN_POINT('',(-26.8178578562867,8.0500000000002,-12.475));
#515=CARTESIAN_POINT('',(0.,0.,-12.475));
#516=CARTESIAN_POINT('',(0.,0.,-9.725));
#517=CARTESIAN_POINT('',(-26.8178578562867,8.0500000000002,-9.725));
#518=CARTESIAN_POINT('',(0.,0.,72.775));
#519=CARTESIAN_POINT('',(0.,0.,-9.225));
#520=CARTESIAN_POINT('',(-27.339486096121,8.0500000000005,-9.225));
#521=CARTESIAN_POINT('',(0.,0.,-9.725));
#522=CARTESIAN_POINT('',(0.,0.,-9.225));
#523=CARTESIAN_POINT('',(-27.753711680655,8.05000000000067,-9.225));
#524=CARTESIAN_POINT('',(0.,0.,-9.225));
#525=CARTESIAN_POINT('',(0.,0.,-7.56372960121));
#526=CARTESIAN_POINT('',(-30.7383819515602,8.04999999999983,-7.56372960121));
#527=CARTESIAN_POINT('',(0.,0.,-8.39436480061));
#528=CARTESIAN_POINT('',(0.,0.,72.775));
#529=MECHANICAL_DESIGN_GEOMETRIC_PRESENTATION_REPRESENTATION('',(#296,#297,
#298,#299),#530);
#530=(
GEOMETRIC_REPRESENTATION_CONTEXT(3)
GLOBAL_UNCERTAINTY_ASSIGNED_CONTEXT((#531))
GLOBAL_UNIT_ASSIGNED_CONTEXT((#537,#533,#532))
REPRESENTATION_CONTEXT('69871.40AD-W.16','TOP_LEVEL_ASSEMBLY_PART')
);
#531=UNCERTAINTY_MEASURE_WITH_UNIT(LENGTH_MEASURE(2.E-5),#537,
'DISTANCE_ACCURACY_VALUE','Maximum Tolerance applied to model');
#532=(
NAMED_UNIT(*)
SI_UNIT($,.STERADIAN.)
SOLID_ANGLE_UNIT()
);
#533=(
CONVERSION_BASED_UNIT('DEGREE',#535)
NAMED_UNIT(#534)
PLANE_ANGLE_UNIT()
);
#534=DIMENSIONAL_EXPONENTS(0.,0.,0.,0.,0.,0.,0.);
#535=PLANE_ANGLE_MEASURE_WITH_UNIT(PLANE_ANGLE_MEASURE(0.0174532925),#536);
#536=(
NAMED_UNIT(*)
PLANE_ANGLE_UNIT()
SI_UNIT($,.RADIAN.)
);
#537=(
LENGTH_UNIT()
NAMED_UNIT(*)
SI_UNIT(.MILLI.,.METRE.)
);
ENDSEC;
END-ISO-10303-21;
