ISO-10303-21;
HEADER;
/* Generated by software containing ST-Developer
 * from STEP Tools, Inc. (www.steptools.com) 
 */
/* OPTION: using custom schema-name function */

FILE_DESCRIPTION(
/* description */ (''),
/* implementation_level */ '2;1');

FILE_NAME(
/* name */ '69871.40AD-QTCW.M5.M22.stp',
/* time_stamp */ '2024-07-22T12:29:34+02:00',
/* author */ (''),
/* organization */ (''),
/* preprocessor_version */ 'ST-DEVELOPER v16.7',
/* originating_system */ 'SIEMENS PLM Software NX 12.0',
/* authorisation */ '');

FILE_SCHEMA (('AUTOMOTIVE_DESIGN { 1 0 10303 214 3 1 1 1 }'));
ENDSEC;

DATA;
#10=CONSTRUCTIVE_GEOMETRY_REPRESENTATION_RELATIONSHIP(
'supplemental geometry','',#32,#11);
#11=CONSTRUCTIVE_GEOMETRY_REPRESENTATION('supplemental geometry',(#371,
#372,#373),#646);
#12=PROPERTY_DEFINITION_REPRESENTATION(#16,#14);
#13=PROPERTY_DEFINITION_REPRESENTATION(#17,#15);
#14=REPRESENTATION('',(#18),#646);
#15=REPRESENTATION('',(#19),#646);
#16=PROPERTY_DEFINITION('pmi validation property','',#23);
#17=PROPERTY_DEFINITION('pmi validation property','',#23);
#18=VALUE_REPRESENTATION_ITEM('number of annotations',COUNT_MEASURE(0.));
#19=VALUE_REPRESENTATION_ITEM('number of views',COUNT_MEASURE(0.));
#20=SHAPE_REPRESENTATION_RELATIONSHIP('None',
'relationship between pf6612088076yv3i-None and pf6612088076yv3i-None',
#32,#21);
#21=ADVANCED_BREP_SHAPE_REPRESENTATION('pf6612088076yv3i-None',(#38),#646);
#22=SHAPE_DEFINITION_REPRESENTATION(#23,#32);
#23=PRODUCT_DEFINITION_SHAPE('','',#24);
#24=PRODUCT_DEFINITION(' ','',#26,#25);
#25=PRODUCT_DEFINITION_CONTEXT('part definition',#31,'design');
#26=PRODUCT_DEFINITION_FORMATION_WITH_SPECIFIED_SOURCE(' ',' ',#28,
 .NOT_KNOWN.);
#27=PRODUCT_RELATED_PRODUCT_CATEGORY('part','',(#28));
#28=PRODUCT('pf6612088076yv3i','pf6612088076yv3i',' ',(#29));
#29=PRODUCT_CONTEXT(' ',#31,'mechanical');
#30=APPLICATION_PROTOCOL_DEFINITION('international standard',
'automotive_design',2010,#31);
#31=APPLICATION_CONTEXT(
'core data for automotive mechanical design processes');
#32=SHAPE_REPRESENTATION('pf6612088076yv3i-None',(#370),#646);
#33=SURFACE_STYLE_USAGE(.BOTH.,#34);
#34=SURFACE_SIDE_STYLE('',(#35));
#35=SURFACE_STYLE_FILL_AREA(#36);
#36=FILL_AREA_STYLE('',(#37));
#37=FILL_AREA_STYLE_COLOUR('',#366);
#38=MANIFOLD_SOLID_BREP('',#39);
#39=CLOSED_SHELL('',(#100,#101,#102,#103,#104,#105,#106,#107,#108,#109,
#110,#111,#112,#113,#114,#115,#116,#117,#118,#119,#120,#121,#122,#123,#124));
#40=CONICAL_SURFACE('',#406,30.3362976321,60.);
#41=CONICAL_SURFACE('',#418,30.3362976321,60.);
#42=CONICAL_SURFACE('',#425,17.39989973582,8.2971);
#43=CONICAL_SURFACE('',#426,17.39989973582,8.2971);
#44=TOROIDAL_SURFACE('',#395,24.375,0.125);
#45=TOROIDAL_SURFACE('',#397,24.375,0.125);
#46=TOROIDAL_SURFACE('',#410,28.5,0.5);
#47=TOROIDAL_SURFACE('',#414,28.5,0.5);
#48=TOROIDAL_SURFACE('',#427,25.15,3.);
#49=CYLINDRICAL_SURFACE('',#383,22.15);
#50=CYLINDRICAL_SURFACE('',#389,24.5);
#51=CYLINDRICAL_SURFACE('',#391,24.5);
#52=CYLINDRICAL_SURFACE('',#398,24.25);
#53=CYLINDRICAL_SURFACE('',#399,24.25);
#54=CYLINDRICAL_SURFACE('',#404,31.775);
#55=CYLINDRICAL_SURFACE('',#412,28.);
#56=CYLINDRICAL_SURFACE('',#419,31.775);
#57=CYLINDRICAL_SURFACE('',#421,22.15);
#58=LINE('',#568,#66);
#59=LINE('',#573,#67);
#60=LINE('',#583,#68);
#61=LINE('',#585,#69);
#62=LINE('',#599,#70);
#63=LINE('',#600,#71);
#64=LINE('',#640,#72);
#65=LINE('',#641,#73);
#66=VECTOR('',#450,1.);
#67=VECTOR('',#453,1.);
#68=VECTOR('',#466,1.);
#69=VECTOR('',#467,1.);
#70=VECTOR('',#488,1.);
#71=VECTOR('',#489,1.);
#72=VECTOR('',#544,1.);
#73=VECTOR('',#545,1.);
#74=FACE_BOUND('',#145,.T.);
#75=FACE_BOUND('',#146,.T.);
#76=FACE_BOUND('',#148,.T.);
#77=FACE_BOUND('',#149,.T.);
#78=FACE_BOUND('',#156,.T.);
#79=FACE_BOUND('',#157,.T.);
#80=FACE_BOUND('',#158,.T.);
#81=FACE_BOUND('',#159,.T.);
#82=FACE_BOUND('',#160,.T.);
#83=FACE_BOUND('',#161,.T.);
#84=FACE_BOUND('',#162,.T.);
#85=FACE_BOUND('',#163,.T.);
#86=FACE_BOUND('',#164,.T.);
#87=FACE_BOUND('',#165,.T.);
#88=FACE_BOUND('',#166,.T.);
#89=FACE_BOUND('',#167,.T.);
#90=FACE_BOUND('',#168,.T.);
#91=FACE_BOUND('',#169,.T.);
#92=FACE_BOUND('',#170,.T.);
#93=FACE_BOUND('',#171,.T.);
#94=FACE_BOUND('',#172,.T.);
#95=FACE_BOUND('',#173,.T.);
#96=FACE_BOUND('',#174,.T.);
#97=FACE_BOUND('',#175,.T.);
#98=FACE_BOUND('',#180,.T.);
#99=FACE_BOUND('',#181,.T.);
#100=ADVANCED_FACE('',(#132),#125,.T.);
#101=ADVANCED_FACE('',(#74,#75),#126,.F.);
#102=ADVANCED_FACE('',(#133),#49,.T.);
#103=ADVANCED_FACE('',(#76,#77),#127,.F.);
#104=ADVANCED_FACE('',(#134),#50,.T.);
#105=ADVANCED_FACE('',(#135),#51,.T.);
#106=ADVANCED_FACE('',(#136),#44,.F.);
#107=ADVANCED_FACE('',(#137),#45,.F.);
#108=ADVANCED_FACE('',(#138),#52,.T.);
#109=ADVANCED_FACE('',(#139),#53,.T.);
#110=ADVANCED_FACE('',(#78,#79),#128,.T.);
#111=ADVANCED_FACE('',(#80,#81),#54,.T.);
#112=ADVANCED_FACE('',(#82,#83),#40,.T.);
#113=ADVANCED_FACE('',(#84,#85),#129,.F.);
#114=ADVANCED_FACE('',(#86,#87),#46,.F.);
#115=ADVANCED_FACE('',(#88,#89),#55,.T.);
#116=ADVANCED_FACE('',(#90,#91),#47,.F.);
#117=ADVANCED_FACE('',(#92,#93),#130,.T.);
#118=ADVANCED_FACE('',(#94,#95),#41,.T.);
#119=ADVANCED_FACE('',(#96,#97),#56,.T.);
#120=ADVANCED_FACE('',(#140),#57,.T.);
#121=ADVANCED_FACE('',(#141),#131,.F.);
#122=ADVANCED_FACE('',(#142),#42,.T.);
#123=ADVANCED_FACE('',(#143),#43,.T.);
#124=ADVANCED_FACE('',(#98,#99),#48,.F.);
#125=PLANE('',#376);
#126=PLANE('',#380);
#127=PLANE('',#387);
#128=PLANE('',#402);
#129=PLANE('',#408);
#130=PLANE('',#416);
#131=PLANE('',#424);
#132=FACE_OUTER_BOUND('',#144,.T.);
#133=FACE_OUTER_BOUND('',#147,.T.);
#134=FACE_OUTER_BOUND('',#150,.T.);
#135=FACE_OUTER_BOUND('',#151,.T.);
#136=FACE_OUTER_BOUND('',#152,.T.);
#137=FACE_OUTER_BOUND('',#153,.T.);
#138=FACE_OUTER_BOUND('',#154,.T.);
#139=FACE_OUTER_BOUND('',#155,.T.);
#140=FACE_OUTER_BOUND('',#176,.T.);
#141=FACE_OUTER_BOUND('',#177,.T.);
#142=FACE_OUTER_BOUND('',#178,.T.);
#143=FACE_OUTER_BOUND('',#179,.T.);
#144=EDGE_LOOP('',(#182,#183));
#145=EDGE_LOOP('',(#184));
#146=EDGE_LOOP('',(#185,#186));
#147=EDGE_LOOP('',(#187,#188,#189,#190));
#148=EDGE_LOOP('',(#191,#192));
#149=EDGE_LOOP('',(#193,#194));
#150=EDGE_LOOP('',(#195,#196,#197,#198));
#151=EDGE_LOOP('',(#199,#200,#201,#202));
#152=EDGE_LOOP('',(#203,#204,#205,#206));
#153=EDGE_LOOP('',(#207,#208,#209,#210));
#154=EDGE_LOOP('',(#211,#212,#213,#214));
#155=EDGE_LOOP('',(#215,#216,#217,#218));
#156=EDGE_LOOP('',(#219));
#157=EDGE_LOOP('',(#220));
#158=EDGE_LOOP('',(#221));
#159=EDGE_LOOP('',(#222));
#160=EDGE_LOOP('',(#223));
#161=EDGE_LOOP('',(#224));
#162=EDGE_LOOP('',(#225));
#163=EDGE_LOOP('',(#226));
#164=EDGE_LOOP('',(#227));
#165=EDGE_LOOP('',(#228));
#166=EDGE_LOOP('',(#229));
#167=EDGE_LOOP('',(#230));
#168=EDGE_LOOP('',(#231));
#169=EDGE_LOOP('',(#232));
#170=EDGE_LOOP('',(#233));
#171=EDGE_LOOP('',(#234));
#172=EDGE_LOOP('',(#235));
#173=EDGE_LOOP('',(#236));
#174=EDGE_LOOP('',(#237));
#175=EDGE_LOOP('',(#238));
#176=EDGE_LOOP('',(#239,#240,#241,#242));
#177=EDGE_LOOP('',(#243,#244));
#178=EDGE_LOOP('',(#245,#246,#247,#248));
#179=EDGE_LOOP('',(#249,#250,#251,#252));
#180=EDGE_LOOP('',(#253));
#181=EDGE_LOOP('',(#254,#255));
#182=ORIENTED_EDGE('',*,*,#283,.T.);
#183=ORIENTED_EDGE('',*,*,#284,.T.);
#184=ORIENTED_EDGE('',*,*,#285,.T.);
#185=ORIENTED_EDGE('',*,*,#286,.T.);
#186=ORIENTED_EDGE('',*,*,#287,.T.);
#187=ORIENTED_EDGE('',*,*,#288,.F.);
#188=ORIENTED_EDGE('',*,*,#289,.F.);
#189=ORIENTED_EDGE('',*,*,#290,.T.);
#190=ORIENTED_EDGE('',*,*,#291,.F.);
#191=ORIENTED_EDGE('',*,*,#292,.T.);
#192=ORIENTED_EDGE('',*,*,#293,.T.);
#193=ORIENTED_EDGE('',*,*,#291,.T.);
#194=ORIENTED_EDGE('',*,*,#294,.T.);
#195=ORIENTED_EDGE('',*,*,#295,.F.);
#196=ORIENTED_EDGE('',*,*,#292,.F.);
#197=ORIENTED_EDGE('',*,*,#296,.T.);
#198=ORIENTED_EDGE('',*,*,#297,.T.);
#199=ORIENTED_EDGE('',*,*,#296,.F.);
#200=ORIENTED_EDGE('',*,*,#293,.F.);
#201=ORIENTED_EDGE('',*,*,#295,.T.);
#202=ORIENTED_EDGE('',*,*,#298,.T.);
#203=ORIENTED_EDGE('',*,*,#299,.F.);
#204=ORIENTED_EDGE('',*,*,#300,.F.);
#205=ORIENTED_EDGE('',*,*,#301,.T.);
#206=ORIENTED_EDGE('',*,*,#298,.F.);
#207=ORIENTED_EDGE('',*,*,#301,.F.);
#208=ORIENTED_EDGE('',*,*,#302,.F.);
#209=ORIENTED_EDGE('',*,*,#299,.T.);
#210=ORIENTED_EDGE('',*,*,#297,.F.);
#211=ORIENTED_EDGE('',*,*,#283,.F.);
#212=ORIENTED_EDGE('',*,*,#303,.F.);
#213=ORIENTED_EDGE('',*,*,#302,.T.);
#214=ORIENTED_EDGE('',*,*,#304,.T.);
#215=ORIENTED_EDGE('',*,*,#284,.F.);
#216=ORIENTED_EDGE('',*,*,#304,.F.);
#217=ORIENTED_EDGE('',*,*,#300,.T.);
#218=ORIENTED_EDGE('',*,*,#303,.T.);
#219=ORIENTED_EDGE('',*,*,#305,.F.);
#220=ORIENTED_EDGE('',*,*,#306,.F.);
#221=ORIENTED_EDGE('',*,*,#307,.T.);
#222=ORIENTED_EDGE('',*,*,#306,.T.);
#223=ORIENTED_EDGE('',*,*,#308,.T.);
#224=ORIENTED_EDGE('',*,*,#307,.F.);
#225=ORIENTED_EDGE('',*,*,#309,.T.);
#226=ORIENTED_EDGE('',*,*,#308,.F.);
#227=ORIENTED_EDGE('',*,*,#310,.T.);
#228=ORIENTED_EDGE('',*,*,#309,.F.);
#229=ORIENTED_EDGE('',*,*,#311,.T.);
#230=ORIENTED_EDGE('',*,*,#310,.F.);
#231=ORIENTED_EDGE('',*,*,#312,.T.);
#232=ORIENTED_EDGE('',*,*,#311,.F.);
#233=ORIENTED_EDGE('',*,*,#313,.T.);
#234=ORIENTED_EDGE('',*,*,#312,.F.);
#235=ORIENTED_EDGE('',*,*,#314,.T.);
#236=ORIENTED_EDGE('',*,*,#313,.F.);
#237=ORIENTED_EDGE('',*,*,#285,.F.);
#238=ORIENTED_EDGE('',*,*,#314,.F.);
#239=ORIENTED_EDGE('',*,*,#290,.F.);
#240=ORIENTED_EDGE('',*,*,#315,.T.);
#241=ORIENTED_EDGE('',*,*,#288,.T.);
#242=ORIENTED_EDGE('',*,*,#294,.F.);
#243=ORIENTED_EDGE('',*,*,#316,.T.);
#244=ORIENTED_EDGE('',*,*,#317,.T.);
#245=ORIENTED_EDGE('',*,*,#318,.T.);
#246=ORIENTED_EDGE('',*,*,#287,.F.);
#247=ORIENTED_EDGE('',*,*,#319,.F.);
#248=ORIENTED_EDGE('',*,*,#317,.F.);
#249=ORIENTED_EDGE('',*,*,#319,.T.);
#250=ORIENTED_EDGE('',*,*,#286,.F.);
#251=ORIENTED_EDGE('',*,*,#318,.F.);
#252=ORIENTED_EDGE('',*,*,#316,.F.);
#253=ORIENTED_EDGE('',*,*,#305,.T.);
#254=ORIENTED_EDGE('',*,*,#315,.F.);
#255=ORIENTED_EDGE('',*,*,#289,.T.);
#256=VERTEX_POINT('',#557);
#257=VERTEX_POINT('',#558);
#258=VERTEX_POINT('',#562);
#259=VERTEX_POINT('',#564);
#260=VERTEX_POINT('',#565);
#261=VERTEX_POINT('',#569);
#262=VERTEX_POINT('',#570);
#263=VERTEX_POINT('',#572);
#264=VERTEX_POINT('',#574);
#265=VERTEX_POINT('',#578);
#266=VERTEX_POINT('',#579);
#267=VERTEX_POINT('',#584);
#268=VERTEX_POINT('',#586);
#269=VERTEX_POINT('',#592);
#270=VERTEX_POINT('',#594);
#271=VERTEX_POINT('',#604);
#272=VERTEX_POINT('',#606);
#273=VERTEX_POINT('',#609);
#274=VERTEX_POINT('',#612);
#275=VERTEX_POINT('',#615);
#276=VERTEX_POINT('',#618);
#277=VERTEX_POINT('',#621);
#278=VERTEX_POINT('',#624);
#279=VERTEX_POINT('',#627);
#280=VERTEX_POINT('',#630);
#281=VERTEX_POINT('',#636);
#282=VERTEX_POINT('',#637);
#283=EDGE_CURVE('',#256,#257,#320,.T.);
#284=EDGE_CURVE('',#257,#256,#321,.T.);
#285=EDGE_CURVE('',#258,#258,#322,.T.);
#286=EDGE_CURVE('',#259,#260,#323,.T.);
#287=EDGE_CURVE('',#260,#259,#324,.T.);
#288=EDGE_CURVE('',#261,#262,#58,.T.);
#289=EDGE_CURVE('',#263,#261,#325,.T.);
#290=EDGE_CURVE('',#263,#264,#59,.T.);
#291=EDGE_CURVE('',#262,#264,#326,.T.);
#292=EDGE_CURVE('',#265,#266,#327,.T.);
#293=EDGE_CURVE('',#266,#265,#328,.T.);
#294=EDGE_CURVE('',#264,#262,#329,.T.);
#295=EDGE_CURVE('',#266,#267,#60,.T.);
#296=EDGE_CURVE('',#265,#268,#61,.T.);
#297=EDGE_CURVE('',#268,#267,#330,.T.);
#298=EDGE_CURVE('',#267,#268,#331,.T.);
#299=EDGE_CURVE('',#269,#267,#332,.T.);
#300=EDGE_CURVE('',#270,#269,#333,.T.);
#301=EDGE_CURVE('',#270,#268,#334,.T.);
#302=EDGE_CURVE('',#269,#270,#335,.T.);
#303=EDGE_CURVE('',#269,#256,#62,.T.);
#304=EDGE_CURVE('',#270,#257,#63,.T.);
#305=EDGE_CURVE('',#271,#271,#336,.T.);
#306=EDGE_CURVE('',#272,#272,#337,.T.);
#307=EDGE_CURVE('',#273,#273,#338,.T.);
#308=EDGE_CURVE('',#274,#274,#339,.T.);
#309=EDGE_CURVE('',#275,#275,#340,.T.);
#310=EDGE_CURVE('',#276,#276,#341,.T.);
#311=EDGE_CURVE('',#277,#277,#342,.T.);
#312=EDGE_CURVE('',#278,#278,#343,.T.);
#313=EDGE_CURVE('',#279,#279,#344,.T.);
#314=EDGE_CURVE('',#280,#280,#345,.T.);
#315=EDGE_CURVE('',#263,#261,#346,.T.);
#316=EDGE_CURVE('',#281,#282,#347,.T.);
#317=EDGE_CURVE('',#282,#281,#348,.T.);
#318=EDGE_CURVE('',#282,#259,#64,.T.);
#319=EDGE_CURVE('',#281,#260,#65,.T.);
#320=CIRCLE('',#374,24.25);
#321=CIRCLE('',#375,24.25);
#322=CIRCLE('',#377,31.775);
#323=CIRCLE('',#378,22.6916641016621);
#324=CIRCLE('',#379,22.6916641016621);
#325=CIRCLE('',#381,22.15);
#326=CIRCLE('',#382,22.15);
#327=CIRCLE('',#384,24.5);
#328=CIRCLE('',#385,24.5);
#329=CIRCLE('',#386,22.15);
#330=CIRCLE('',#388,24.5);
#331=CIRCLE('',#390,24.5);
#332=CIRCLE('',#392,0.125);
#333=CIRCLE('',#393,24.25);
#334=CIRCLE('',#394,0.125);
#335=CIRCLE('',#396,24.25);
#336=CIRCLE('',#400,25.15);
#337=CIRCLE('',#401,31.775);
#338=CIRCLE('',#403,31.775);
#339=CIRCLE('',#405,28.89759526419);
#340=CIRCLE('',#407,28.5);
#341=CIRCLE('',#409,28.);
#342=CIRCLE('',#411,28.);
#343=CIRCLE('',#413,28.5);
#344=CIRCLE('',#415,28.89759526419);
#345=CIRCLE('',#417,31.775);
#346=CIRCLE('',#420,22.15);
#347=CIRCLE('',#422,12.2500548269618);
#348=CIRCLE('',#423,12.2500548269618);
#349=INVISIBILITY((#350,#351,#352,#353));
#350=PRESENTATION_LAYER_ASSIGNMENT('100','Layer 100',(#371));
#351=PRESENTATION_LAYER_ASSIGNMENT('101','Layer 101',(#372));
#352=PRESENTATION_LAYER_ASSIGNMENT('102','Layer 102',(#373));
#353=PRESENTATION_LAYER_ASSIGNMENT('98','Layer 98',(#38));
#354=STYLED_ITEM('',(#358),#371);
#355=STYLED_ITEM('',(#359),#372);
#356=STYLED_ITEM('',(#360),#373);
#357=STYLED_ITEM('',(#361),#38);
#358=PRESENTATION_STYLE_ASSIGNMENT((#362));
#359=PRESENTATION_STYLE_ASSIGNMENT((#363));
#360=PRESENTATION_STYLE_ASSIGNMENT((#364));
#361=PRESENTATION_STYLE_ASSIGNMENT((#33));
#362=CURVE_STYLE('',#367,POSITIVE_LENGTH_MEASURE(0.7),#365);
#363=CURVE_STYLE('',#368,POSITIVE_LENGTH_MEASURE(0.7),#365);
#364=CURVE_STYLE('',#369,POSITIVE_LENGTH_MEASURE(0.7),#365);
#365=COLOUR_RGB('Medium Maroon',0.6,0.4,0.4);
#366=COLOUR_RGB('Medium Gray',0.490196078431373,0.490196078431373,0.490196078431373);
#367=DRAUGHTING_PRE_DEFINED_CURVE_FONT('continuous');
#368=DRAUGHTING_PRE_DEFINED_CURVE_FONT('continuous');
#369=DRAUGHTING_PRE_DEFINED_CURVE_FONT('continuous');
#370=AXIS2_PLACEMENT_3D('',#552,#428,#429);
#371=AXIS2_PLACEMENT_3D('PCS',#553,#430,#431);
#372=AXIS2_PLACEMENT_3D('CSW',#554,#432,#433);
#373=AXIS2_PLACEMENT_3D('MCS',#555,#434,#435);
#374=AXIS2_PLACEMENT_3D('',#556,#436,#437);
#375=AXIS2_PLACEMENT_3D('',#559,#438,#439);
#376=AXIS2_PLACEMENT_3D('',#560,#440,#441);
#377=AXIS2_PLACEMENT_3D('',#561,#442,#443);
#378=AXIS2_PLACEMENT_3D('',#563,#444,#445);
#379=AXIS2_PLACEMENT_3D('',#566,#446,#447);
#380=AXIS2_PLACEMENT_3D('',#567,#448,#449);
#381=AXIS2_PLACEMENT_3D('',#571,#451,#452);
#382=AXIS2_PLACEMENT_3D('',#575,#454,#455);
#383=AXIS2_PLACEMENT_3D('',#576,#456,#457);
#384=AXIS2_PLACEMENT_3D('',#577,#458,#459);
#385=AXIS2_PLACEMENT_3D('',#580,#460,#461);
#386=AXIS2_PLACEMENT_3D('',#581,#462,#463);
#387=AXIS2_PLACEMENT_3D('',#582,#464,#465);
#388=AXIS2_PLACEMENT_3D('',#587,#468,#469);
#389=AXIS2_PLACEMENT_3D('',#588,#470,#471);
#390=AXIS2_PLACEMENT_3D('',#589,#472,#473);
#391=AXIS2_PLACEMENT_3D('',#590,#474,#475);
#392=AXIS2_PLACEMENT_3D('',#591,#476,#477);
#393=AXIS2_PLACEMENT_3D('',#593,#478,#479);
#394=AXIS2_PLACEMENT_3D('',#595,#480,#481);
#395=AXIS2_PLACEMENT_3D('',#596,#482,#483);
#396=AXIS2_PLACEMENT_3D('',#597,#484,#485);
#397=AXIS2_PLACEMENT_3D('',#598,#486,#487);
#398=AXIS2_PLACEMENT_3D('',#601,#490,#491);
#399=AXIS2_PLACEMENT_3D('',#602,#492,#493);
#400=AXIS2_PLACEMENT_3D('',#603,#494,#495);
#401=AXIS2_PLACEMENT_3D('',#605,#496,#497);
#402=AXIS2_PLACEMENT_3D('',#607,#498,#499);
#403=AXIS2_PLACEMENT_3D('',#608,#500,#501);
#404=AXIS2_PLACEMENT_3D('',#610,#502,#503);
#405=AXIS2_PLACEMENT_3D('',#611,#504,#505);
#406=AXIS2_PLACEMENT_3D('',#613,#506,#507);
#407=AXIS2_PLACEMENT_3D('',#614,#508,#509);
#408=AXIS2_PLACEMENT_3D('',#616,#510,#511);
#409=AXIS2_PLACEMENT_3D('',#617,#512,#513);
#410=AXIS2_PLACEMENT_3D('',#619,#514,#515);
#411=AXIS2_PLACEMENT_3D('',#620,#516,#517);
#412=AXIS2_PLACEMENT_3D('',#622,#518,#519);
#413=AXIS2_PLACEMENT_3D('',#623,#520,#521);
#414=AXIS2_PLACEMENT_3D('',#625,#522,#523);
#415=AXIS2_PLACEMENT_3D('',#626,#524,#525);
#416=AXIS2_PLACEMENT_3D('',#628,#526,#527);
#417=AXIS2_PLACEMENT_3D('',#629,#528,#529);
#418=AXIS2_PLACEMENT_3D('',#631,#530,#531);
#419=AXIS2_PLACEMENT_3D('',#632,#532,#533);
#420=AXIS2_PLACEMENT_3D('',#633,#534,#535);
#421=AXIS2_PLACEMENT_3D('',#634,#536,#537);
#422=AXIS2_PLACEMENT_3D('',#635,#538,#539);
#423=AXIS2_PLACEMENT_3D('',#638,#540,#541);
#424=AXIS2_PLACEMENT_3D('',#639,#542,#543);
#425=AXIS2_PLACEMENT_3D('',#642,#546,#547);
#426=AXIS2_PLACEMENT_3D('',#643,#548,#549);
#427=AXIS2_PLACEMENT_3D('',#644,#550,#551);
#428=DIRECTION('',(0.,0.,1.));
#429=DIRECTION('',(1.,0.,0.));
#430=DIRECTION('',(0.,0.,1.));
#431=DIRECTION('',(1.,0.,0.));
#432=DIRECTION('',(0.,0.,1.));
#433=DIRECTION('',(1.,0.,0.));
#434=DIRECTION('',(0.,0.,1.));
#435=DIRECTION('',(1.,0.,0.));
#436=DIRECTION('',(0.,0.,-1.));
#437=DIRECTION('',(-1.,0.,0.));
#438=DIRECTION('',(0.,0.,-1.));
#439=DIRECTION('',(-1.,0.,0.));
#440=DIRECTION('',(0.,0.,-1.));
#441=DIRECTION('',(0.,-1.,0.));
#442=DIRECTION('',(0.,0.,1.));
#443=DIRECTION('',(-1.,0.,0.));
#444=DIRECTION('',(0.,0.,-1.));
#445=DIRECTION('',(-1.,0.,0.));
#446=DIRECTION('',(0.,0.,-1.));
#447=DIRECTION('',(-1.,0.,0.));
#448=DIRECTION('',(0.,0.,-1.));
#449=DIRECTION('',(0.,-1.,0.));
#450=DIRECTION('',(0.,0.,-1.));
#451=DIRECTION('',(0.,0.,1.));
#452=DIRECTION('',(-1.,0.,0.));
#453=DIRECTION('',(0.,0.,-1.));
#454=DIRECTION('',(0.,0.,-1.));
#455=DIRECTION('',(0.,1.,0.));
#456=DIRECTION('',(0.,0.,-1.));
#457=DIRECTION('',(0.,-1.,0.));
#458=DIRECTION('',(0.,0.,1.));
#459=DIRECTION('',(-1.,0.,0.));
#460=DIRECTION('',(0.,0.,1.));
#461=DIRECTION('',(-1.,0.,0.));
#462=DIRECTION('',(0.,0.,-1.));
#463=DIRECTION('',(0.,-1.,0.));
#464=DIRECTION('',(0.,0.,-1.));
#465=DIRECTION('',(0.,-1.,0.));
#466=DIRECTION('',(9.861102863978E-14,0.,-1.));
#467=DIRECTION('',(-9.834404643624E-14,0.,-1.));
#468=DIRECTION('',(0.,0.,1.));
#469=DIRECTION('',(-1.,0.,0.));
#470=DIRECTION('',(0.,0.,-1.));
#471=DIRECTION('',(0.,-1.,0.));
#472=DIRECTION('',(0.,0.,1.));
#473=DIRECTION('',(-1.,0.,0.));
#474=DIRECTION('',(0.,0.,-1.));
#475=DIRECTION('',(0.,-1.,0.));
#476=DIRECTION('',(1.,0.,0.));
#477=DIRECTION('',(0.,0.,1.));
#478=DIRECTION('',(0.,0.,-1.));
#479=DIRECTION('',(0.,1.,0.));
#480=DIRECTION('',(-1.,0.,0.));
#481=DIRECTION('',(0.,0.,1.));
#482=DIRECTION('',(0.,0.,-1.));
#483=DIRECTION('',(0.00457598635343617,-0.999989530119637,0.));
#484=DIRECTION('',(0.,0.,-1.));
#485=DIRECTION('',(0.,-1.,0.));
#486=DIRECTION('',(0.,0.,-1.));
#487=DIRECTION('',(-0.00457598635343617,0.999989530119637,0.));
#488=DIRECTION('',(1.237309536862E-11,8.961874274145E-13,-1.));
#489=DIRECTION('',(-1.237282366965E-11,-8.961874274145E-13,-1.));
#490=DIRECTION('',(0.,0.,-1.));
#491=DIRECTION('',(0.,-1.,0.));
#492=DIRECTION('',(0.,0.,-1.));
#493=DIRECTION('',(0.,-1.,0.));
#494=DIRECTION('',(0.,0.,-1.));
#495=DIRECTION('',(-1.,0.,0.));
#496=DIRECTION('',(0.,0.,1.));
#497=DIRECTION('',(-1.,0.,0.));
#498=DIRECTION('',(0.,0.,-1.));
#499=DIRECTION('',(0.,-1.,0.));
#500=DIRECTION('',(0.,0.,-1.));
#501=DIRECTION('',(-0.967376300599849,0.253343823760813,0.));
#502=DIRECTION('',(0.,0.,-1.));
#503=DIRECTION('',(0.,-1.,0.));
#504=DIRECTION('',(0.,0.,-1.));
#505=DIRECTION('',(-0.960415959422322,0.278569892283607,0.));
#506=DIRECTION('',(0.,0.,-1.));
#507=DIRECTION('',(0.,-1.,4.1340739373327E-17));
#508=DIRECTION('',(0.,0.,-1.));
#509=DIRECTION('',(-0.959280213898982,0.282456140350895,0.));
#510=DIRECTION('',(0.,0.,-1.));
#511=DIRECTION('',(0.,-1.,0.));
#512=DIRECTION('',(0.,0.,-1.));
#513=DIRECTION('',(-0.957780637724524,0.287500000000007,0.));
#514=DIRECTION('',(0.,0.,-1.));
#515=DIRECTION('',(0.00415426945299211,-0.999991370985426,0.));
#516=DIRECTION('',(0.,0.,-1.));
#517=DIRECTION('',(-0.957780637724524,0.287500000000007,0.));
#518=DIRECTION('',(0.,0.,-1.));
#519=DIRECTION('',(0.,-1.,0.));
#520=DIRECTION('',(0.,0.,-1.));
#521=DIRECTION('',(-0.959280213898982,0.282456140350895,0.));
#522=DIRECTION('',(0.,0.,-1.));
#523=DIRECTION('',(0.0039631344949438,-0.999992146751651,0.));
#524=DIRECTION('',(0.,0.,-1.));
#525=DIRECTION('',(-0.960415959422322,0.278569892283607,0.));
#526=DIRECTION('',(0.,0.,-1.));
#527=DIRECTION('',(0.,-1.,0.));
#528=DIRECTION('',(0.,0.,-1.));
#529=DIRECTION('',(-0.967376300599849,0.253343823760813,0.));
#530=DIRECTION('',(0.,0.,1.));
#531=DIRECTION('',(0.,1.,2.65761895971388E-17));
#532=DIRECTION('',(0.,0.,-1.));
#533=DIRECTION('',(0.,-1.,0.));
#534=DIRECTION('',(0.,0.,-1.));
#535=DIRECTION('',(-1.,0.,0.));
#536=DIRECTION('',(0.,0.,-1.));
#537=DIRECTION('',(0.,-1.,0.));
#538=DIRECTION('',(0.,0.,1.));
#539=DIRECTION('',(-1.,0.,0.));
#540=DIRECTION('',(0.,0.,1.));
#541=DIRECTION('',(-1.,0.,0.));
#542=DIRECTION('',(0.,0.,-1.));
#543=DIRECTION('',(0.,-1.,0.));
#544=DIRECTION('',(1.33168609664097E-13,-0.144306116415197,-0.989533094325381));
#545=DIRECTION('',(-1.33167879821197E-13,0.144306116415197,-0.989533094325381));
#546=DIRECTION('',(0.,0.,-1.));
#547=DIRECTION('',(0.,-1.,-2.55055708228373E-16));
#548=DIRECTION('',(0.,0.,-1.));
#549=DIRECTION('',(0.,-1.,-2.55055708228373E-16));
#550=DIRECTION('',(0.,0.,-1.));
#551=DIRECTION('',(-1.,0.,0.));
#552=CARTESIAN_POINT('',(0.,0.,0.));
#553=CARTESIAN_POINT('',(0.,0.,0.));
#554=CARTESIAN_POINT('',(0.,0.,-92.));
#555=CARTESIAN_POINT('',(0.,0.,0.));
#556=CARTESIAN_POINT('',(0.,0.,-92.));
#557=CARTESIAN_POINT('',(0.,-24.25,-92.));
#558=CARTESIAN_POINT('',(-8.89978507166162E-11,24.25,-92.));
#559=CARTESIAN_POINT('',(0.,0.,-92.));
#560=CARTESIAN_POINT('',(0.,0.,-92.));
#561=CARTESIAN_POINT('',(0.,0.,-3.19999999999999));
#562=CARTESIAN_POINT('',(-31.775,0.,-3.19999999999999));
#563=CARTESIAN_POINT('',(0.,0.,-3.2));
#564=CARTESIAN_POINT('',(0.,-22.6916641016621,-3.2));
#565=CARTESIAN_POINT('',(6.12411196672187E-12,22.6916641016621,-3.2));
#566=CARTESIAN_POINT('',(0.,0.,-3.2));
#567=CARTESIAN_POINT('',(0.,0.,-3.2));
#568=CARTESIAN_POINT('',(0.,22.15,-41.4));
#569=CARTESIAN_POINT('',(0.,22.15,-22.1));
#570=CARTESIAN_POINT('',(0.,22.15,-41.4));
#571=CARTESIAN_POINT('',(0.,0.,-22.1));
#572=CARTESIAN_POINT('',(0.,-22.15,-22.1));
#573=CARTESIAN_POINT('',(0.,-22.15,-41.4));
#574=CARTESIAN_POINT('',(0.,-22.15,-41.4));
#575=CARTESIAN_POINT('',(0.,0.,-41.4));
#576=CARTESIAN_POINT('',(0.,0.,-15.455));
#577=CARTESIAN_POINT('',(0.,0.,-41.4));
#578=CARTESIAN_POINT('',(2.49208533549029E-13,24.5,-41.4));
#579=CARTESIAN_POINT('',(-2.48057653654846E-13,-24.5,-41.4));
#580=CARTESIAN_POINT('',(0.,0.,-41.4));
#581=CARTESIAN_POINT('',(0.,0.,-41.4));
#582=CARTESIAN_POINT('',(0.,0.,-41.4));
#583=CARTESIAN_POINT('',(1.613225511921E-12,-24.5,-60.275));
#584=CARTESIAN_POINT('',(8.12680247239148E-13,-24.5,-60.525));
#585=CARTESIAN_POINT('',(-1.607035342935E-12,24.5,-60.275));
#586=CARTESIAN_POINT('',(-8.0277250062659E-13,24.5,-60.525));
#587=CARTESIAN_POINT('',(0.,0.,-60.525));
#588=CARTESIAN_POINT('',(0.,0.,-38.87));
#589=CARTESIAN_POINT('',(0.,0.,-60.525));
#590=CARTESIAN_POINT('',(0.,0.,-38.87));
#591=CARTESIAN_POINT('',(-1.251777460265E-14,-24.375,-60.525));
#592=CARTESIAN_POINT('',(0.,-24.25,-60.525));
#593=CARTESIAN_POINT('',(0.,0.,-60.525));
#594=CARTESIAN_POINT('',(0.,24.25,-60.525));
#595=CARTESIAN_POINT('',(2.607635329088E-14,24.375,-60.525));
#596=CARTESIAN_POINT('',(0.,0.,-60.525));
#597=CARTESIAN_POINT('',(0.,0.,-60.525));
#598=CARTESIAN_POINT('',(0.,0.,-60.525));
#599=CARTESIAN_POINT('',(3.652966124298E-10,-24.24999999997,-90.80000000003));
#600=CARTESIAN_POINT('',(-3.652900347704E-10,24.24999999997,-90.80000000003));
#601=CARTESIAN_POINT('',(0.,0.,-38.87));
#602=CARTESIAN_POINT('',(0.,0.,-38.87));
#603=CARTESIAN_POINT('',(0.,0.,-19.1));
#604=CARTESIAN_POINT('',(-25.15,0.,-19.1));
#605=CARTESIAN_POINT('',(0.,0.,-19.1));
#606=CARTESIAN_POINT('',(-31.775,0.,-19.1));
#607=CARTESIAN_POINT('',(0.,0.,-19.1));
#608=CARTESIAN_POINT('',(0.,0.,-14.636270398786));
#609=CARTESIAN_POINT('',(-30.7383819515602,8.04999999999983,-14.636270398786));
#610=CARTESIAN_POINT('',(0.,0.,72.775));
#611=CARTESIAN_POINT('',(0.,0.,-12.975));
#612=CARTESIAN_POINT('',(-27.753711680655,8.05000000000067,-12.975));
#613=CARTESIAN_POINT('',(0.,0.,-13.805635199393));
#614=CARTESIAN_POINT('',(0.,0.,-12.975));
#615=CARTESIAN_POINT('',(-27.339486096121,8.0500000000005,-12.975));
#616=CARTESIAN_POINT('',(0.,0.,-12.975));
#617=CARTESIAN_POINT('',(0.,0.,-12.475));
#618=CARTESIAN_POINT('',(-26.8178578562867,8.0500000000002,-12.475));
#619=CARTESIAN_POINT('',(0.,0.,-12.475));
#620=CARTESIAN_POINT('',(0.,0.,-9.725));
#621=CARTESIAN_POINT('',(-26.8178578562867,8.0500000000002,-9.725));
#622=CARTESIAN_POINT('',(0.,0.,72.775));
#623=CARTESIAN_POINT('',(0.,0.,-9.225));
#624=CARTESIAN_POINT('',(-27.339486096121,8.0500000000005,-9.225));
#625=CARTESIAN_POINT('',(0.,0.,-9.725));
#626=CARTESIAN_POINT('',(0.,0.,-9.225));
#627=CARTESIAN_POINT('',(-27.753711680655,8.05000000000067,-9.225));
#628=CARTESIAN_POINT('',(0.,0.,-9.225));
#629=CARTESIAN_POINT('',(0.,0.,-7.56372960121));
#630=CARTESIAN_POINT('',(-30.7383819515602,8.04999999999983,-7.56372960121));
#631=CARTESIAN_POINT('',(0.,0.,-8.39436480061));
#632=CARTESIAN_POINT('',(0.,0.,72.775));
#633=CARTESIAN_POINT('',(0.,0.,-22.1));
#634=CARTESIAN_POINT('',(0.,0.,-15.455));
#635=CARTESIAN_POINT('',(0.,0.,68.4));
#636=CARTESIAN_POINT('',(9.36652294774858E-12,12.2500548269614,68.4));
#637=CARTESIAN_POINT('',(-9.36657428212651E-12,-12.2500548269614,68.4));
#638=CARTESIAN_POINT('',(0.,0.,68.4));
#639=CARTESIAN_POINT('',(0.,0.,68.4));
#640=CARTESIAN_POINT('',(0.,-22.39999903812,-1.2));
#641=CARTESIAN_POINT('',(0.,22.39999903812,-1.2));
#642=CARTESIAN_POINT('',(0.,0.,33.08658366985));
#643=CARTESIAN_POINT('',(0.,0.,33.08658366985));
#644=CARTESIAN_POINT('',(0.,0.,-22.1));
#645=MECHANICAL_DESIGN_GEOMETRIC_PRESENTATION_REPRESENTATION('',(#354,#355,
#356,#357),#646);
#646=(
GEOMETRIC_REPRESENTATION_CONTEXT(3)
GLOBAL_UNCERTAINTY_ASSIGNED_CONTEXT((#647))
GLOBAL_UNIT_ASSIGNED_CONTEXT((#653,#649,#648))
REPRESENTATION_CONTEXT('69871.40AD-QTCW.M5','TOP_LEVEL_ASSEMBLY_PART')
);
#647=UNCERTAINTY_MEASURE_WITH_UNIT(LENGTH_MEASURE(2.E-5),#653,
'DISTANCE_ACCURACY_VALUE','Maximum Tolerance applied to model');
#648=(
NAMED_UNIT(*)
SI_UNIT($,.STERADIAN.)
SOLID_ANGLE_UNIT()
);
#649=(
CONVERSION_BASED_UNIT('DEGREE',#651)
NAMED_UNIT(#650)
PLANE_ANGLE_UNIT()
);
#650=DIMENSIONAL_EXPONENTS(0.,0.,0.,0.,0.,0.,0.);
#651=PLANE_ANGLE_MEASURE_WITH_UNIT(PLANE_ANGLE_MEASURE(0.0174532925),#652);
#652=(
NAMED_UNIT(*)
PLANE_ANGLE_UNIT()
SI_UNIT($,.RADIAN.)
);
#653=(
LENGTH_UNIT()
NAMED_UNIT(*)
SI_UNIT(.MILLI.,.METRE.)
);
ENDSEC;
END-ISO-10303-21;
