ISO-10303-21;
HEADER;
/* Generated by software containing ST-Developer
 * from STEP Tools, Inc. (www.steptools.com) 
 */
/* OPTION: using custom schema-name function */

FILE_DESCRIPTION(
/* description */ (''),
/* implementation_level */ '2;1');

FILE_NAME(
/* name */ '69871.40A-QTCC.M5.M22.stp',
/* time_stamp */ '2024-07-22T12:01:23+02:00',
/* author */ (''),
/* organization */ (''),
/* preprocessor_version */ 'ST-DEVELOPER v16.7',
/* originating_system */ 'SIEMENS PLM Software NX 12.0',
/* authorisation */ '');

FILE_SCHEMA (('AUTOMOTIVE_DESIGN { 1 0 10303 214 3 1 1 1 }'));
ENDSEC;

DATA;
#10=CONSTRUCTIVE_GEOMETRY_REPRESENTATION_RELATIONSHIP(
'supplemental geometry','',#32,#11);
#11=CONSTRUCTIVE_GEOMETRY_REPRESENTATION('supplemental geometry',(#318,
#319,#320),#540);
#12=PROPERTY_DEFINITION_REPRESENTATION(#16,#14);
#13=PROPERTY_DEFINITION_REPRESENTATION(#17,#15);
#14=REPRESENTATION('',(#18),#540);
#15=REPRESENTATION('',(#19),#540);
#16=PROPERTY_DEFINITION('pmi validation property','',#23);
#17=PROPERTY_DEFINITION('pmi validation property','',#23);
#18=VALUE_REPRESENTATION_ITEM('number of annotations',COUNT_MEASURE(0.));
#19=VALUE_REPRESENTATION_ITEM('number of views',COUNT_MEASURE(0.));
#20=SHAPE_REPRESENTATION_RELATIONSHIP('None',
'relationship between pf6612088076yuyl-None and pf6612088076yuyl-None',
#32,#21);
#21=ADVANCED_BREP_SHAPE_REPRESENTATION('pf6612088076yuyl-None',(#38),#540);
#22=SHAPE_DEFINITION_REPRESENTATION(#23,#32);
#23=PRODUCT_DEFINITION_SHAPE('','',#24);
#24=PRODUCT_DEFINITION(' ','',#26,#25);
#25=PRODUCT_DEFINITION_CONTEXT('part definition',#31,'design');
#26=PRODUCT_DEFINITION_FORMATION_WITH_SPECIFIED_SOURCE(' ',' ',#28,
 .NOT_KNOWN.);
#27=PRODUCT_RELATED_PRODUCT_CATEGORY('part','',(#28));
#28=PRODUCT('pf6612088076yuyl','pf6612088076yuyl',' ',(#29));
#29=PRODUCT_CONTEXT(' ',#31,'mechanical');
#30=APPLICATION_PROTOCOL_DEFINITION('international standard',
'automotive_design',2010,#31);
#31=APPLICATION_CONTEXT(
'core data for automotive mechanical design processes');
#32=SHAPE_REPRESENTATION('pf6612088076yuyl-None',(#317),#540);
#33=SURFACE_STYLE_USAGE(.BOTH.,#34);
#34=SURFACE_SIDE_STYLE('',(#35));
#35=SURFACE_STYLE_FILL_AREA(#36);
#36=FILL_AREA_STYLE('',(#37));
#37=FILL_AREA_STYLE_COLOUR('',#313);
#38=MANIFOLD_SOLID_BREP('',#39);
#39=CLOSED_SHELL('',(#74,#75,#76,#77,#78,#79,#80,#81,#82,#83,#84,#85,#86,
#87,#88,#89,#90,#91,#92));
#40=LINE('',#508,#48);
#41=LINE('',#509,#49);
#42=LINE('',#517,#50);
#43=LINE('',#521,#51);
#44=LINE('',#530,#52);
#45=LINE('',#532,#53);
#46=LINE('',#534,#54);
#47=LINE('',#536,#55);
#48=VECTOR('',#426,1.);
#49=VECTOR('',#427,1.);
#50=VECTOR('',#438,1.);
#51=VECTOR('',#441,1.);
#52=VECTOR('',#454,1.);
#53=VECTOR('',#455,1.);
#54=VECTOR('',#456,1.);
#55=VECTOR('',#457,1.);
#56=FACE_OUTER_BOUND('',#148,.T.);
#57=FACE_OUTER_BOUND('',#149,.T.);
#58=FACE_OUTER_BOUND('',#150,.T.);
#59=FACE_OUTER_BOUND('',#151,.T.);
#60=FACE_OUTER_BOUND('',#152,.T.);
#61=FACE_OUTER_BOUND('',#153,.T.);
#62=TOROIDAL_SURFACE('',#336,28.5,0.5);
#63=TOROIDAL_SURFACE('',#340,28.5,0.5);
#64=CONICAL_SURFACE('',#332,30.3362976321,60.);
#65=CONICAL_SURFACE('',#344,30.3362976321,60.);
#66=CONICAL_SURFACE('',#349,17.39989973582,8.2971);
#67=CONICAL_SURFACE('',#350,17.39989973582,8.2971);
#68=CYLINDRICAL_SURFACE('',#330,31.775);
#69=CYLINDRICAL_SURFACE('',#338,28.);
#70=CYLINDRICAL_SURFACE('',#345,31.775);
#71=CYLINDRICAL_SURFACE('',#355,27.);
#72=CYLINDRICAL_SURFACE('',#357,27.);
#73=CYLINDRICAL_SURFACE('',#361,25.);
#74=ADVANCED_FACE('',(#100,#101),#93,.F.);
#75=ADVANCED_FACE('',(#102,#103),#94,.T.);
#76=ADVANCED_FACE('',(#104,#105),#68,.T.);
#77=ADVANCED_FACE('',(#106,#107),#64,.T.);
#78=ADVANCED_FACE('',(#108,#109),#95,.F.);
#79=ADVANCED_FACE('',(#110,#111),#62,.F.);
#80=ADVANCED_FACE('',(#112,#113),#69,.T.);
#81=ADVANCED_FACE('',(#114,#115),#63,.F.);
#82=ADVANCED_FACE('',(#116,#117),#96,.T.);
#83=ADVANCED_FACE('',(#118,#119),#65,.T.);
#84=ADVANCED_FACE('',(#120,#121),#70,.T.);
#85=ADVANCED_FACE('',(#56),#97,.F.);
#86=ADVANCED_FACE('',(#57),#66,.T.);
#87=ADVANCED_FACE('',(#58),#67,.T.);
#88=ADVANCED_FACE('',(#59),#98,.T.);
#89=ADVANCED_FACE('',(#60),#71,.T.);
#90=ADVANCED_FACE('',(#61),#72,.T.);
#91=ADVANCED_FACE('',(#122,#123),#99,.F.);
#92=ADVANCED_FACE('',(#124,#125),#73,.T.);
#93=PLANE('',#324);
#94=PLANE('',#328);
#95=PLANE('',#334);
#96=PLANE('',#342);
#97=PLANE('',#348);
#98=PLANE('',#353);
#99=PLANE('',#360);
#100=FACE_BOUND('',#126,.T.);
#101=FACE_BOUND('',#127,.T.);
#102=FACE_BOUND('',#128,.T.);
#103=FACE_BOUND('',#129,.T.);
#104=FACE_BOUND('',#130,.T.);
#105=FACE_BOUND('',#131,.T.);
#106=FACE_BOUND('',#132,.T.);
#107=FACE_BOUND('',#133,.T.);
#108=FACE_BOUND('',#134,.T.);
#109=FACE_BOUND('',#135,.T.);
#110=FACE_BOUND('',#136,.T.);
#111=FACE_BOUND('',#137,.T.);
#112=FACE_BOUND('',#138,.T.);
#113=FACE_BOUND('',#139,.T.);
#114=FACE_BOUND('',#140,.T.);
#115=FACE_BOUND('',#141,.T.);
#116=FACE_BOUND('',#142,.T.);
#117=FACE_BOUND('',#143,.T.);
#118=FACE_BOUND('',#144,.T.);
#119=FACE_BOUND('',#145,.T.);
#120=FACE_BOUND('',#146,.T.);
#121=FACE_BOUND('',#147,.T.);
#122=FACE_BOUND('',#154,.T.);
#123=FACE_BOUND('',#155,.T.);
#124=FACE_BOUND('',#156,.T.);
#125=FACE_BOUND('',#157,.T.);
#126=EDGE_LOOP('',(#158));
#127=EDGE_LOOP('',(#159,#160));
#128=EDGE_LOOP('',(#161,#162));
#129=EDGE_LOOP('',(#163));
#130=EDGE_LOOP('',(#164));
#131=EDGE_LOOP('',(#165));
#132=EDGE_LOOP('',(#166));
#133=EDGE_LOOP('',(#167));
#134=EDGE_LOOP('',(#168));
#135=EDGE_LOOP('',(#169));
#136=EDGE_LOOP('',(#170));
#137=EDGE_LOOP('',(#171));
#138=EDGE_LOOP('',(#172));
#139=EDGE_LOOP('',(#173));
#140=EDGE_LOOP('',(#174));
#141=EDGE_LOOP('',(#175));
#142=EDGE_LOOP('',(#176));
#143=EDGE_LOOP('',(#177));
#144=EDGE_LOOP('',(#178));
#145=EDGE_LOOP('',(#179));
#146=EDGE_LOOP('',(#180));
#147=EDGE_LOOP('',(#181));
#148=EDGE_LOOP('',(#182,#183));
#149=EDGE_LOOP('',(#184,#185,#186,#187));
#150=EDGE_LOOP('',(#188,#189,#190,#191));
#151=EDGE_LOOP('',(#192,#193));
#152=EDGE_LOOP('',(#194,#195,#196,#197));
#153=EDGE_LOOP('',(#198,#199,#200,#201));
#154=EDGE_LOOP('',(#202,#203));
#155=EDGE_LOOP('',(#204,#205));
#156=EDGE_LOOP('',(#206,#207,#208,#209,#210,#211));
#157=EDGE_LOOP('',(#212,#213,#214,#215,#216,#217));
#158=ORIENTED_EDGE('',*,*,#244,.T.);
#159=ORIENTED_EDGE('',*,*,#245,.T.);
#160=ORIENTED_EDGE('',*,*,#246,.T.);
#161=ORIENTED_EDGE('',*,*,#247,.F.);
#162=ORIENTED_EDGE('',*,*,#248,.F.);
#163=ORIENTED_EDGE('',*,*,#249,.F.);
#164=ORIENTED_EDGE('',*,*,#249,.T.);
#165=ORIENTED_EDGE('',*,*,#250,.T.);
#166=ORIENTED_EDGE('',*,*,#250,.F.);
#167=ORIENTED_EDGE('',*,*,#251,.T.);
#168=ORIENTED_EDGE('',*,*,#251,.F.);
#169=ORIENTED_EDGE('',*,*,#252,.T.);
#170=ORIENTED_EDGE('',*,*,#252,.F.);
#171=ORIENTED_EDGE('',*,*,#253,.T.);
#172=ORIENTED_EDGE('',*,*,#253,.F.);
#173=ORIENTED_EDGE('',*,*,#254,.T.);
#174=ORIENTED_EDGE('',*,*,#254,.F.);
#175=ORIENTED_EDGE('',*,*,#255,.T.);
#176=ORIENTED_EDGE('',*,*,#255,.F.);
#177=ORIENTED_EDGE('',*,*,#256,.T.);
#178=ORIENTED_EDGE('',*,*,#256,.F.);
#179=ORIENTED_EDGE('',*,*,#257,.T.);
#180=ORIENTED_EDGE('',*,*,#257,.F.);
#181=ORIENTED_EDGE('',*,*,#244,.F.);
#182=ORIENTED_EDGE('',*,*,#258,.T.);
#183=ORIENTED_EDGE('',*,*,#259,.T.);
#184=ORIENTED_EDGE('',*,*,#260,.T.);
#185=ORIENTED_EDGE('',*,*,#246,.F.);
#186=ORIENTED_EDGE('',*,*,#261,.F.);
#187=ORIENTED_EDGE('',*,*,#259,.F.);
#188=ORIENTED_EDGE('',*,*,#261,.T.);
#189=ORIENTED_EDGE('',*,*,#245,.F.);
#190=ORIENTED_EDGE('',*,*,#260,.F.);
#191=ORIENTED_EDGE('',*,*,#258,.F.);
#192=ORIENTED_EDGE('',*,*,#262,.T.);
#193=ORIENTED_EDGE('',*,*,#263,.T.);
#194=ORIENTED_EDGE('',*,*,#263,.F.);
#195=ORIENTED_EDGE('',*,*,#264,.T.);
#196=ORIENTED_EDGE('',*,*,#265,.F.);
#197=ORIENTED_EDGE('',*,*,#266,.F.);
#198=ORIENTED_EDGE('',*,*,#262,.F.);
#199=ORIENTED_EDGE('',*,*,#266,.T.);
#200=ORIENTED_EDGE('',*,*,#267,.F.);
#201=ORIENTED_EDGE('',*,*,#264,.F.);
#202=ORIENTED_EDGE('',*,*,#267,.T.);
#203=ORIENTED_EDGE('',*,*,#265,.T.);
#204=ORIENTED_EDGE('',*,*,#268,.T.);
#205=ORIENTED_EDGE('',*,*,#269,.T.);
#206=ORIENTED_EDGE('',*,*,#270,.T.);
#207=ORIENTED_EDGE('',*,*,#270,.F.);
#208=ORIENTED_EDGE('',*,*,#269,.F.);
#209=ORIENTED_EDGE('',*,*,#271,.T.);
#210=ORIENTED_EDGE('',*,*,#271,.F.);
#211=ORIENTED_EDGE('',*,*,#268,.F.);
#212=ORIENTED_EDGE('',*,*,#272,.F.);
#213=ORIENTED_EDGE('',*,*,#272,.T.);
#214=ORIENTED_EDGE('',*,*,#247,.T.);
#215=ORIENTED_EDGE('',*,*,#273,.F.);
#216=ORIENTED_EDGE('',*,*,#273,.T.);
#217=ORIENTED_EDGE('',*,*,#248,.T.);
#218=VERTEX_POINT('',#465);
#219=VERTEX_POINT('',#467);
#220=VERTEX_POINT('',#468);
#221=VERTEX_POINT('',#472);
#222=VERTEX_POINT('',#473);
#223=VERTEX_POINT('',#476);
#224=VERTEX_POINT('',#479);
#225=VERTEX_POINT('',#482);
#226=VERTEX_POINT('',#485);
#227=VERTEX_POINT('',#488);
#228=VERTEX_POINT('',#491);
#229=VERTEX_POINT('',#494);
#230=VERTEX_POINT('',#497);
#231=VERTEX_POINT('',#500);
#232=VERTEX_POINT('',#504);
#233=VERTEX_POINT('',#505);
#234=VERTEX_POINT('',#513);
#235=VERTEX_POINT('',#514);
#236=VERTEX_POINT('',#518);
#237=VERTEX_POINT('',#520);
#238=VERTEX_POINT('',#526);
#239=VERTEX_POINT('',#527);
#240=VERTEX_POINT('',#531);
#241=VERTEX_POINT('',#533);
#242=VERTEX_POINT('',#535);
#243=VERTEX_POINT('',#537);
#244=EDGE_CURVE('',#218,#218,#274,.T.);
#245=EDGE_CURVE('',#219,#220,#275,.T.);
#246=EDGE_CURVE('',#220,#219,#276,.T.);
#247=EDGE_CURVE('',#221,#222,#277,.T.);
#248=EDGE_CURVE('',#222,#221,#278,.T.);
#249=EDGE_CURVE('',#223,#223,#279,.T.);
#250=EDGE_CURVE('',#224,#224,#280,.T.);
#251=EDGE_CURVE('',#225,#225,#281,.T.);
#252=EDGE_CURVE('',#226,#226,#282,.T.);
#253=EDGE_CURVE('',#227,#227,#283,.T.);
#254=EDGE_CURVE('',#228,#228,#284,.T.);
#255=EDGE_CURVE('',#229,#229,#285,.T.);
#256=EDGE_CURVE('',#230,#230,#286,.T.);
#257=EDGE_CURVE('',#231,#231,#287,.T.);
#258=EDGE_CURVE('',#232,#233,#288,.T.);
#259=EDGE_CURVE('',#233,#232,#289,.T.);
#260=EDGE_CURVE('',#233,#219,#40,.T.);
#261=EDGE_CURVE('',#232,#220,#41,.T.);
#262=EDGE_CURVE('',#234,#235,#290,.T.);
#263=EDGE_CURVE('',#235,#234,#291,.T.);
#264=EDGE_CURVE('',#235,#236,#42,.T.);
#265=EDGE_CURVE('',#237,#236,#292,.T.);
#266=EDGE_CURVE('',#234,#237,#43,.T.);
#267=EDGE_CURVE('',#236,#237,#293,.T.);
#268=EDGE_CURVE('',#238,#239,#294,.T.);
#269=EDGE_CURVE('',#239,#238,#295,.T.);
#270=EDGE_CURVE('',#238,#240,#44,.T.);
#271=EDGE_CURVE('',#239,#241,#45,.T.);
#272=EDGE_CURVE('',#242,#221,#46,.T.);
#273=EDGE_CURVE('',#243,#222,#47,.T.);
#274=CIRCLE('',#321,31.775);
#275=CIRCLE('',#322,22.6916641016621);
#276=CIRCLE('',#323,22.6916641016621);
#277=CIRCLE('',#325,25.);
#278=CIRCLE('',#326,25.);
#279=CIRCLE('',#327,31.775);
#280=CIRCLE('',#329,31.775);
#281=CIRCLE('',#331,28.89759526419);
#282=CIRCLE('',#333,28.5);
#283=CIRCLE('',#335,28.);
#284=CIRCLE('',#337,28.);
#285=CIRCLE('',#339,28.5);
#286=CIRCLE('',#341,28.89759526419);
#287=CIRCLE('',#343,31.775);
#288=CIRCLE('',#346,12.2500548269618);
#289=CIRCLE('',#347,12.2500548269618);
#290=CIRCLE('',#351,27.);
#291=CIRCLE('',#352,27.);
#292=CIRCLE('',#354,27.);
#293=CIRCLE('',#356,27.);
#294=CIRCLE('',#358,25.);
#295=CIRCLE('',#359,25.);
#296=INVISIBILITY((#297,#298,#299,#300));
#297=PRESENTATION_LAYER_ASSIGNMENT('100','Layer 100',(#318));
#298=PRESENTATION_LAYER_ASSIGNMENT('101','Layer 101',(#319));
#299=PRESENTATION_LAYER_ASSIGNMENT('102','Layer 102',(#320));
#300=PRESENTATION_LAYER_ASSIGNMENT('98','Layer 98',(#38));
#301=STYLED_ITEM('',(#305),#318);
#302=STYLED_ITEM('',(#306),#319);
#303=STYLED_ITEM('',(#307),#320);
#304=STYLED_ITEM('',(#308),#38);
#305=PRESENTATION_STYLE_ASSIGNMENT((#309));
#306=PRESENTATION_STYLE_ASSIGNMENT((#310));
#307=PRESENTATION_STYLE_ASSIGNMENT((#311));
#308=PRESENTATION_STYLE_ASSIGNMENT((#33));
#309=CURVE_STYLE('',#314,POSITIVE_LENGTH_MEASURE(0.7),#312);
#310=CURVE_STYLE('',#315,POSITIVE_LENGTH_MEASURE(0.7),#312);
#311=CURVE_STYLE('',#316,POSITIVE_LENGTH_MEASURE(0.7),#312);
#312=COLOUR_RGB('Medium Maroon',0.6,0.4,0.4);
#313=COLOUR_RGB('Medium Gray',0.490196078431373,0.490196078431373,0.490196078431373);
#314=DRAUGHTING_PRE_DEFINED_CURVE_FONT('continuous');
#315=DRAUGHTING_PRE_DEFINED_CURVE_FONT('continuous');
#316=DRAUGHTING_PRE_DEFINED_CURVE_FONT('continuous');
#317=AXIS2_PLACEMENT_3D('',#460,#362,#363);
#318=AXIS2_PLACEMENT_3D('PCS',#461,#364,#365);
#319=AXIS2_PLACEMENT_3D('CSW',#462,#366,#367);
#320=AXIS2_PLACEMENT_3D('MCS',#463,#368,#369);
#321=AXIS2_PLACEMENT_3D('',#464,#370,#371);
#322=AXIS2_PLACEMENT_3D('',#466,#372,#373);
#323=AXIS2_PLACEMENT_3D('',#469,#374,#375);
#324=AXIS2_PLACEMENT_3D('',#470,#376,#377);
#325=AXIS2_PLACEMENT_3D('',#471,#378,#379);
#326=AXIS2_PLACEMENT_3D('',#474,#380,#381);
#327=AXIS2_PLACEMENT_3D('',#475,#382,#383);
#328=AXIS2_PLACEMENT_3D('',#477,#384,#385);
#329=AXIS2_PLACEMENT_3D('',#478,#386,#387);
#330=AXIS2_PLACEMENT_3D('',#480,#388,#389);
#331=AXIS2_PLACEMENT_3D('',#481,#390,#391);
#332=AXIS2_PLACEMENT_3D('',#483,#392,#393);
#333=AXIS2_PLACEMENT_3D('',#484,#394,#395);
#334=AXIS2_PLACEMENT_3D('',#486,#396,#397);
#335=AXIS2_PLACEMENT_3D('',#487,#398,#399);
#336=AXIS2_PLACEMENT_3D('',#489,#400,#401);
#337=AXIS2_PLACEMENT_3D('',#490,#402,#403);
#338=AXIS2_PLACEMENT_3D('',#492,#404,#405);
#339=AXIS2_PLACEMENT_3D('',#493,#406,#407);
#340=AXIS2_PLACEMENT_3D('',#495,#408,#409);
#341=AXIS2_PLACEMENT_3D('',#496,#410,#411);
#342=AXIS2_PLACEMENT_3D('',#498,#412,#413);
#343=AXIS2_PLACEMENT_3D('',#499,#414,#415);
#344=AXIS2_PLACEMENT_3D('',#501,#416,#417);
#345=AXIS2_PLACEMENT_3D('',#502,#418,#419);
#346=AXIS2_PLACEMENT_3D('',#503,#420,#421);
#347=AXIS2_PLACEMENT_3D('',#506,#422,#423);
#348=AXIS2_PLACEMENT_3D('',#507,#424,#425);
#349=AXIS2_PLACEMENT_3D('',#510,#428,#429);
#350=AXIS2_PLACEMENT_3D('',#511,#430,#431);
#351=AXIS2_PLACEMENT_3D('',#512,#432,#433);
#352=AXIS2_PLACEMENT_3D('',#515,#434,#435);
#353=AXIS2_PLACEMENT_3D('',#516,#436,#437);
#354=AXIS2_PLACEMENT_3D('',#519,#439,#440);
#355=AXIS2_PLACEMENT_3D('',#522,#442,#443);
#356=AXIS2_PLACEMENT_3D('',#523,#444,#445);
#357=AXIS2_PLACEMENT_3D('',#524,#446,#447);
#358=AXIS2_PLACEMENT_3D('',#525,#448,#449);
#359=AXIS2_PLACEMENT_3D('',#528,#450,#451);
#360=AXIS2_PLACEMENT_3D('',#529,#452,#453);
#361=AXIS2_PLACEMENT_3D('',#538,#458,#459);
#362=DIRECTION('',(0.,0.,1.));
#363=DIRECTION('',(1.,0.,0.));
#364=DIRECTION('',(0.,0.,1.));
#365=DIRECTION('',(1.,0.,0.));
#366=DIRECTION('',(0.,0.,1.));
#367=DIRECTION('',(1.,0.,0.));
#368=DIRECTION('',(0.,0.,1.));
#369=DIRECTION('',(1.,0.,0.));
#370=DIRECTION('',(0.,0.,1.));
#371=DIRECTION('',(-1.,0.,0.));
#372=DIRECTION('',(0.,0.,-1.));
#373=DIRECTION('',(-1.,0.,0.));
#374=DIRECTION('',(0.,0.,-1.));
#375=DIRECTION('',(-1.,0.,0.));
#376=DIRECTION('',(0.,0.,-1.));
#377=DIRECTION('',(0.,-1.,0.));
#378=DIRECTION('',(0.,0.,-1.));
#379=DIRECTION('',(-1.,0.,0.));
#380=DIRECTION('',(0.,0.,-1.));
#381=DIRECTION('',(-1.,0.,0.));
#382=DIRECTION('',(0.,0.,1.));
#383=DIRECTION('',(-1.,0.,0.));
#384=DIRECTION('',(0.,0.,-1.));
#385=DIRECTION('',(0.,-1.,0.));
#386=DIRECTION('',(0.,0.,-1.));
#387=DIRECTION('',(-0.967376300599849,0.253343823760813,0.));
#388=DIRECTION('',(0.,0.,-1.));
#389=DIRECTION('',(0.,-1.,0.));
#390=DIRECTION('',(0.,0.,-1.));
#391=DIRECTION('',(-0.960415959422322,0.278569892283607,0.));
#392=DIRECTION('',(0.,0.,-1.));
#393=DIRECTION('',(0.,-1.,4.1340739373327E-17));
#394=DIRECTION('',(0.,0.,-1.));
#395=DIRECTION('',(-0.959280213898982,0.282456140350895,0.));
#396=DIRECTION('',(0.,0.,-1.));
#397=DIRECTION('',(0.,-1.,0.));
#398=DIRECTION('',(0.,0.,-1.));
#399=DIRECTION('',(-0.957780637724524,0.287500000000007,0.));
#400=DIRECTION('',(0.,0.,-1.));
#401=DIRECTION('',(0.00415426945299211,-0.999991370985426,0.));
#402=DIRECTION('',(0.,0.,-1.));
#403=DIRECTION('',(-0.957780637724524,0.287500000000007,0.));
#404=DIRECTION('',(0.,0.,-1.));
#405=DIRECTION('',(0.,-1.,0.));
#406=DIRECTION('',(0.,0.,-1.));
#407=DIRECTION('',(-0.959280213898982,0.282456140350895,0.));
#408=DIRECTION('',(0.,0.,-1.));
#409=DIRECTION('',(0.0039631344949438,-0.999992146751651,0.));
#410=DIRECTION('',(0.,0.,-1.));
#411=DIRECTION('',(-0.960415959422322,0.278569892283607,0.));
#412=DIRECTION('',(0.,0.,-1.));
#413=DIRECTION('',(0.,-1.,0.));
#414=DIRECTION('',(0.,0.,-1.));
#415=DIRECTION('',(-0.967376300599849,0.253343823760813,0.));
#416=DIRECTION('',(0.,0.,1.));
#417=DIRECTION('',(0.,1.,2.65761895971388E-17));
#418=DIRECTION('',(0.,0.,-1.));
#419=DIRECTION('',(0.,-1.,0.));
#420=DIRECTION('',(0.,0.,1.));
#421=DIRECTION('',(-1.,0.,0.));
#422=DIRECTION('',(0.,0.,1.));
#423=DIRECTION('',(-1.,0.,0.));
#424=DIRECTION('',(0.,0.,-1.));
#425=DIRECTION('',(0.,-1.,0.));
#426=DIRECTION('',(1.33168609664097E-13,-0.144306116415197,-0.989533094325381));
#427=DIRECTION('',(-1.33167879821197E-13,0.144306116415197,-0.989533094325381));
#428=DIRECTION('',(0.,0.,-1.));
#429=DIRECTION('',(0.,-1.,-2.55055708228373E-16));
#430=DIRECTION('',(0.,0.,-1.));
#431=DIRECTION('',(0.,-1.,-2.55055708228373E-16));
#432=DIRECTION('',(0.,0.,-1.));
#433=DIRECTION('',(-1.,0.,0.));
#434=DIRECTION('',(0.,0.,-1.));
#435=DIRECTION('',(-1.,0.,0.));
#436=DIRECTION('',(0.,0.,-1.));
#437=DIRECTION('',(0.,-1.,0.));
#438=DIRECTION('',(0.,0.,1.));
#439=DIRECTION('',(0.,0.,1.));
#440=DIRECTION('',(-1.,0.,0.));
#441=DIRECTION('',(0.,0.,1.));
#442=DIRECTION('',(0.,0.,-1.));
#443=DIRECTION('',(0.,-1.,0.));
#444=DIRECTION('',(0.,0.,1.));
#445=DIRECTION('',(-1.,0.,0.));
#446=DIRECTION('',(0.,0.,-1.));
#447=DIRECTION('',(0.,-1.,0.));
#448=DIRECTION('',(0.,0.,-1.));
#449=DIRECTION('',(0.,1.,0.));
#450=DIRECTION('',(0.,0.,-1.));
#451=DIRECTION('',(0.,-1.,0.));
#452=DIRECTION('',(0.,0.,-1.));
#453=DIRECTION('',(0.,-1.,0.));
#454=DIRECTION('',(0.,0.,1.));
#455=DIRECTION('',(0.,0.,1.));
#456=DIRECTION('',(0.,0.,1.));
#457=DIRECTION('',(0.,0.,1.));
#458=DIRECTION('',(0.,0.,-1.));
#459=DIRECTION('',(0.,-1.,0.));
#460=CARTESIAN_POINT('',(0.,0.,0.));
#461=CARTESIAN_POINT('',(0.,0.,0.));
#462=CARTESIAN_POINT('',(0.,0.,-97.));
#463=CARTESIAN_POINT('',(0.,0.,0.));
#464=CARTESIAN_POINT('',(0.,0.,-3.19999999999999));
#465=CARTESIAN_POINT('',(-31.775,0.,-3.19999999999999));
#466=CARTESIAN_POINT('',(0.,0.,-3.2));
#467=CARTESIAN_POINT('',(0.,-22.6916641016621,-3.2));
#468=CARTESIAN_POINT('',(6.12411196672187E-12,22.6916641016621,-3.2));
#469=CARTESIAN_POINT('',(0.,0.,-3.2));
#470=CARTESIAN_POINT('',(0.,0.,-3.2));
#471=CARTESIAN_POINT('',(0.,0.,-19.1));
#472=CARTESIAN_POINT('',(-3.06161699786838E-15,25.,-19.1));
#473=CARTESIAN_POINT('',(0.,-25.,-19.1));
#474=CARTESIAN_POINT('',(0.,0.,-19.1));
#475=CARTESIAN_POINT('',(0.,0.,-19.1));
#476=CARTESIAN_POINT('',(-31.775,0.,-19.1));
#477=CARTESIAN_POINT('',(0.,0.,-19.1));
#478=CARTESIAN_POINT('',(0.,0.,-14.636270398786));
#479=CARTESIAN_POINT('',(-30.7383819515602,8.04999999999983,-14.636270398786));
#480=CARTESIAN_POINT('',(0.,0.,72.775));
#481=CARTESIAN_POINT('',(0.,0.,-12.975));
#482=CARTESIAN_POINT('',(-27.753711680655,8.05000000000067,-12.975));
#483=CARTESIAN_POINT('',(0.,0.,-13.805635199393));
#484=CARTESIAN_POINT('',(0.,0.,-12.975));
#485=CARTESIAN_POINT('',(-27.339486096121,8.0500000000005,-12.975));
#486=CARTESIAN_POINT('',(0.,0.,-12.975));
#487=CARTESIAN_POINT('',(0.,0.,-12.475));
#488=CARTESIAN_POINT('',(-26.8178578562867,8.0500000000002,-12.475));
#489=CARTESIAN_POINT('',(0.,0.,-12.475));
#490=CARTESIAN_POINT('',(0.,0.,-9.725));
#491=CARTESIAN_POINT('',(-26.8178578562867,8.0500000000002,-9.725));
#492=CARTESIAN_POINT('',(0.,0.,72.775));
#493=CARTESIAN_POINT('',(0.,0.,-9.225));
#494=CARTESIAN_POINT('',(-27.339486096121,8.0500000000005,-9.225));
#495=CARTESIAN_POINT('',(0.,0.,-9.725));
#496=CARTESIAN_POINT('',(0.,0.,-9.225));
#497=CARTESIAN_POINT('',(-27.753711680655,8.05000000000067,-9.225));
#498=CARTESIAN_POINT('',(0.,0.,-9.225));
#499=CARTESIAN_POINT('',(0.,0.,-7.56372960121));
#500=CARTESIAN_POINT('',(-30.7383819515602,8.04999999999983,-7.56372960121));
#501=CARTESIAN_POINT('',(0.,0.,-8.39436480061));
#502=CARTESIAN_POINT('',(0.,0.,72.775));
#503=CARTESIAN_POINT('',(0.,0.,68.4));
#504=CARTESIAN_POINT('',(9.36652294774858E-12,12.2500548269614,68.4));
#505=CARTESIAN_POINT('',(-9.36657428212651E-12,-12.2500548269614,68.4));
#506=CARTESIAN_POINT('',(0.,0.,68.4));
#507=CARTESIAN_POINT('',(0.,0.,68.4));
#508=CARTESIAN_POINT('',(0.,-22.39999903812,-1.2));
#509=CARTESIAN_POINT('',(0.,22.39999903812,-1.2));
#510=CARTESIAN_POINT('',(0.,0.,33.08658366985));
#511=CARTESIAN_POINT('',(0.,0.,33.08658366985));
#512=CARTESIAN_POINT('',(0.,0.,-97.));
#513=CARTESIAN_POINT('',(0.,-27.,-97.));
#514=CARTESIAN_POINT('',(-8.40484228171672E-11,27.,-97.));
#515=CARTESIAN_POINT('',(0.,0.,-97.));
#516=CARTESIAN_POINT('',(0.,0.,-97.));
#517=CARTESIAN_POINT('',(0.,27.,-76.5));
#518=CARTESIAN_POINT('',(3.05995824586095E-13,27.,-49.));
#519=CARTESIAN_POINT('',(0.,0.,-49.));
#520=CARTESIAN_POINT('',(-3.1642819183437E-13,-27.,-49.));
#521=CARTESIAN_POINT('',(0.,-27.,-76.5));
#522=CARTESIAN_POINT('',(0.,0.,-46.6));
#523=CARTESIAN_POINT('',(0.,0.,-49.));
#524=CARTESIAN_POINT('',(0.,0.,-46.6));
#525=CARTESIAN_POINT('',(0.,0.,-49.));
#526=CARTESIAN_POINT('',(0.,25.,-49.));
#527=CARTESIAN_POINT('',(0.,-25.,-49.));
#528=CARTESIAN_POINT('',(0.,0.,-49.));
#529=CARTESIAN_POINT('',(0.,0.,-49.));
#530=CARTESIAN_POINT('',(0.,25.,-49.));
#531=CARTESIAN_POINT('',(0.,25.,-38.2));
#532=CARTESIAN_POINT('',(0.,-25.,-49.));
#533=CARTESIAN_POINT('',(0.,-25.,-38.2));
#534=CARTESIAN_POINT('',(0.,25.,-33.2));
#535=CARTESIAN_POINT('',(0.,25.,-33.2));
#536=CARTESIAN_POINT('',(0.,-25.,-33.2));
#537=CARTESIAN_POINT('',(0.,-25.,-33.2));
#538=CARTESIAN_POINT('',(0.,0.,-15.955));
#539=MECHANICAL_DESIGN_GEOMETRIC_PRESENTATION_REPRESENTATION('',(#301,#302,
#303,#304),#540);
#540=(
GEOMETRIC_REPRESENTATION_CONTEXT(3)
GLOBAL_UNCERTAINTY_ASSIGNED_CONTEXT((#541))
GLOBAL_UNIT_ASSIGNED_CONTEXT((#547,#543,#542))
REPRESENTATION_CONTEXT('69871.40A-QTCC.M5','TOP_LEVEL_ASSEMBLY_PART')
);
#541=UNCERTAINTY_MEASURE_WITH_UNIT(LENGTH_MEASURE(2.E-5),#547,
'DISTANCE_ACCURACY_VALUE','Maximum Tolerance applied to model');
#542=(
NAMED_UNIT(*)
SI_UNIT($,.STERADIAN.)
SOLID_ANGLE_UNIT()
);
#543=(
CONVERSION_BASED_UNIT('DEGREE',#545)
NAMED_UNIT(#544)
PLANE_ANGLE_UNIT()
);
#544=DIMENSIONAL_EXPONENTS(0.,0.,0.,0.,0.,0.,0.);
#545=PLANE_ANGLE_MEASURE_WITH_UNIT(PLANE_ANGLE_MEASURE(0.0174532925),#546);
#546=(
NAMED_UNIT(*)
PLANE_ANGLE_UNIT()
SI_UNIT($,.RADIAN.)
);
#547=(
LENGTH_UNIT()
NAMED_UNIT(*)
SI_UNIT(.MILLI.,.METRE.)
);
ENDSEC;
END-ISO-10303-21;
