ISO-10303-21;
HEADER;
/* Generated by software containing ST-Developer
 * from STEP Tools, Inc. (www.steptools.com) 
 */
/* OPTION: using custom schema-name function */

FILE_DESCRIPTION(
/* description */ (''),
/* implementation_level */ '2;1');

FILE_NAME(
/* name */ '69871.30AD-W.08.050.stp',
/* time_stamp */ '2024-06-24T06:54:04+02:00',
/* author */ (''),
/* organization */ (''),
/* preprocessor_version */ 'ST-DEVELOPER v16.7',
/* originating_system */ 'SIEMENS PLM Software NX 12.0',
/* authorisation */ '');

FILE_SCHEMA (('AUTOMOTIVE_DESIGN { 1 0 10303 214 3 1 1 1 }'));
ENDSEC;

DATA;
#10=CONSTRUCTIVE_GEOMETRY_REPRESENTATION_RELATIONSHIP(
'supplemental geometry','',#32,#11);
#11=CONSTRUCTIVE_GEOMETRY_REPRESENTATION('supplemental geometry',(#295,
#296,#297),#501);
#12=PROPERTY_DEFINITION_REPRESENTATION(#16,#14);
#13=PROPERTY_DEFINITION_REPRESENTATION(#17,#15);
#14=REPRESENTATION('',(#18),#501);
#15=REPRESENTATION('',(#19),#501);
#16=PROPERTY_DEFINITION('pmi validation property','',#23);
#17=PROPERTY_DEFINITION('pmi validation property','',#23);
#18=VALUE_REPRESENTATION_ITEM('number of annotations',COUNT_MEASURE(0.));
#19=VALUE_REPRESENTATION_ITEM('number of views',COUNT_MEASURE(0.));
#20=SHAPE_REPRESENTATION_RELATIONSHIP('None',
'relationship between pf6639C8F234kgst-None and pf6639C8F234kgst-None',
#32,#21);
#21=ADVANCED_BREP_SHAPE_REPRESENTATION('pf6639C8F234kgst-None',(#38),#501);
#22=SHAPE_DEFINITION_REPRESENTATION(#23,#32);
#23=PRODUCT_DEFINITION_SHAPE('','',#24);
#24=PRODUCT_DEFINITION(' ','',#26,#25);
#25=PRODUCT_DEFINITION_CONTEXT('part definition',#31,'design');
#26=PRODUCT_DEFINITION_FORMATION_WITH_SPECIFIED_SOURCE(' ',' ',#28,
 .NOT_KNOWN.);
#27=PRODUCT_RELATED_PRODUCT_CATEGORY('part','',(#28));
#28=PRODUCT('pf6639C8F234kgst','pf6639C8F234kgst',' ',(#29));
#29=PRODUCT_CONTEXT(' ',#31,'mechanical');
#30=APPLICATION_PROTOCOL_DEFINITION('international standard',
'automotive_design',2010,#31);
#31=APPLICATION_CONTEXT(
'core data for automotive mechanical design processes');
#32=SHAPE_REPRESENTATION('pf6639C8F234kgst-None',(#294),#501);
#33=SURFACE_STYLE_USAGE(.BOTH.,#34);
#34=SURFACE_SIDE_STYLE('',(#35));
#35=SURFACE_STYLE_FILL_AREA(#36);
#36=FILL_AREA_STYLE('',(#37));
#37=FILL_AREA_STYLE_COLOUR('',#290);
#38=MANIFOLD_SOLID_BREP('',#39);
#39=CLOSED_SHELL('',(#73,#74,#75,#76,#77,#78,#79,#80,#81,#82,#83,#84,#85,
#86,#87,#88,#89));
#40=FACE_OUTER_BOUND('',#138,.T.);
#41=FACE_OUTER_BOUND('',#139,.T.);
#42=FACE_OUTER_BOUND('',#140,.T.);
#43=FACE_OUTER_BOUND('',#141,.T.);
#44=FACE_OUTER_BOUND('',#142,.T.);
#45=FACE_OUTER_BOUND('',#143,.T.);
#46=CONICAL_SURFACE('',#316,23.73127357173,60.);
#47=CONICAL_SURFACE('',#324,23.73127357179,60.);
#48=CONICAL_SURFACE('',#329,12.10823593171,25.);
#49=CONICAL_SURFACE('',#330,12.10823593171,25.);
#50=CONICAL_SURFACE('',#334,12.51453841141,8.2971);
#51=CONICAL_SURFACE('',#335,12.51453841141,8.2971);
#52=CYLINDRICAL_SURFACE('',#312,14.);
#53=CYLINDRICAL_SURFACE('',#314,25.);
#54=CYLINDRICAL_SURFACE('',#320,22.025);
#55=CYLINDRICAL_SURFACE('',#325,25.);
#56=LINE('',#452,#63);
#57=LINE('',#454,#64);
#58=LINE('',#459,#65);
#59=LINE('',#487,#66);
#60=LINE('',#488,#67);
#61=LINE('',#496,#68);
#62=LINE('',#497,#69);
#63=VECTOR('',#368,1.);
#64=VECTOR('',#369,1.);
#65=VECTOR('',#372,1.);
#66=VECTOR('',#409,1.);
#67=VECTOR('',#410,1.);
#68=VECTOR('',#421,1.);
#69=VECTOR('',#422,1.);
#70=TOROIDAL_SURFACE('',#309,19.,5.);
#71=TOROIDAL_SURFACE('',#318,22.525,0.5);
#72=TOROIDAL_SURFACE('',#322,22.525,0.5);
#73=ADVANCED_FACE('',(#94,#95),#90,.F.);
#74=ADVANCED_FACE('',(#96,#97),#91,.T.);
#75=ADVANCED_FACE('',(#98,#99),#70,.F.);
#76=ADVANCED_FACE('',(#100,#101),#52,.T.);
#77=ADVANCED_FACE('',(#102,#103),#53,.T.);
#78=ADVANCED_FACE('',(#104,#105),#46,.T.);
#79=ADVANCED_FACE('',(#106,#107),#71,.F.);
#80=ADVANCED_FACE('',(#108,#109),#54,.T.);
#81=ADVANCED_FACE('',(#110,#111),#72,.F.);
#82=ADVANCED_FACE('',(#112,#113),#47,.T.);
#83=ADVANCED_FACE('',(#114,#115),#55,.T.);
#84=ADVANCED_FACE('',(#40),#92,.F.);
#85=ADVANCED_FACE('',(#41),#48,.T.);
#86=ADVANCED_FACE('',(#42),#49,.T.);
#87=ADVANCED_FACE('',(#43),#93,.F.);
#88=ADVANCED_FACE('',(#44),#50,.T.);
#89=ADVANCED_FACE('',(#45),#51,.T.);
#90=PLANE('',#301);
#91=PLANE('',#304);
#92=PLANE('',#328);
#93=PLANE('',#333);
#94=FACE_BOUND('',#116,.T.);
#95=FACE_BOUND('',#117,.T.);
#96=FACE_BOUND('',#118,.T.);
#97=FACE_BOUND('',#119,.T.);
#98=FACE_BOUND('',#120,.T.);
#99=FACE_BOUND('',#121,.T.);
#100=FACE_BOUND('',#122,.T.);
#101=FACE_BOUND('',#123,.T.);
#102=FACE_BOUND('',#124,.T.);
#103=FACE_BOUND('',#125,.T.);
#104=FACE_BOUND('',#126,.T.);
#105=FACE_BOUND('',#127,.T.);
#106=FACE_BOUND('',#128,.T.);
#107=FACE_BOUND('',#129,.T.);
#108=FACE_BOUND('',#130,.T.);
#109=FACE_BOUND('',#131,.T.);
#110=FACE_BOUND('',#132,.T.);
#111=FACE_BOUND('',#133,.T.);
#112=FACE_BOUND('',#134,.T.);
#113=FACE_BOUND('',#135,.T.);
#114=FACE_BOUND('',#136,.T.);
#115=FACE_BOUND('',#137,.T.);
#116=EDGE_LOOP('',(#144));
#117=EDGE_LOOP('',(#145,#146));
#118=EDGE_LOOP('',(#147));
#119=EDGE_LOOP('',(#148));
#120=EDGE_LOOP('',(#149,#150,#151,#152));
#121=EDGE_LOOP('',(#153,#154,#155));
#122=EDGE_LOOP('',(#156,#157,#158,#159));
#123=EDGE_LOOP('',(#160,#161,#162,#163,#164,#165));
#124=EDGE_LOOP('',(#166));
#125=EDGE_LOOP('',(#167));
#126=EDGE_LOOP('',(#168));
#127=EDGE_LOOP('',(#169));
#128=EDGE_LOOP('',(#170));
#129=EDGE_LOOP('',(#171));
#130=EDGE_LOOP('',(#172));
#131=EDGE_LOOP('',(#173));
#132=EDGE_LOOP('',(#174));
#133=EDGE_LOOP('',(#175));
#134=EDGE_LOOP('',(#176));
#135=EDGE_LOOP('',(#177));
#136=EDGE_LOOP('',(#178));
#137=EDGE_LOOP('',(#179));
#138=EDGE_LOOP('',(#180,#181));
#139=EDGE_LOOP('',(#182,#183,#184,#185));
#140=EDGE_LOOP('',(#186,#187,#188,#189));
#141=EDGE_LOOP('',(#190,#191));
#142=EDGE_LOOP('',(#192,#193,#194,#195));
#143=EDGE_LOOP('',(#196,#197,#198,#199));
#144=ORIENTED_EDGE('',*,*,#224,.T.);
#145=ORIENTED_EDGE('',*,*,#225,.T.);
#146=ORIENTED_EDGE('',*,*,#226,.T.);
#147=ORIENTED_EDGE('',*,*,#227,.F.);
#148=ORIENTED_EDGE('',*,*,#228,.F.);
#149=ORIENTED_EDGE('',*,*,#229,.T.);
#150=ORIENTED_EDGE('',*,*,#230,.F.);
#151=ORIENTED_EDGE('',*,*,#231,.F.);
#152=ORIENTED_EDGE('',*,*,#229,.F.);
#153=ORIENTED_EDGE('',*,*,#232,.T.);
#154=ORIENTED_EDGE('',*,*,#232,.F.);
#155=ORIENTED_EDGE('',*,*,#228,.T.);
#156=ORIENTED_EDGE('',*,*,#230,.T.);
#157=ORIENTED_EDGE('',*,*,#231,.T.);
#158=ORIENTED_EDGE('',*,*,#233,.F.);
#159=ORIENTED_EDGE('',*,*,#233,.T.);
#160=ORIENTED_EDGE('',*,*,#234,.T.);
#161=ORIENTED_EDGE('',*,*,#234,.F.);
#162=ORIENTED_EDGE('',*,*,#235,.T.);
#163=ORIENTED_EDGE('',*,*,#236,.T.);
#164=ORIENTED_EDGE('',*,*,#236,.F.);
#165=ORIENTED_EDGE('',*,*,#237,.F.);
#166=ORIENTED_EDGE('',*,*,#227,.T.);
#167=ORIENTED_EDGE('',*,*,#238,.T.);
#168=ORIENTED_EDGE('',*,*,#238,.F.);
#169=ORIENTED_EDGE('',*,*,#239,.T.);
#170=ORIENTED_EDGE('',*,*,#239,.F.);
#171=ORIENTED_EDGE('',*,*,#240,.T.);
#172=ORIENTED_EDGE('',*,*,#240,.F.);
#173=ORIENTED_EDGE('',*,*,#241,.T.);
#174=ORIENTED_EDGE('',*,*,#241,.F.);
#175=ORIENTED_EDGE('',*,*,#242,.T.);
#176=ORIENTED_EDGE('',*,*,#242,.F.);
#177=ORIENTED_EDGE('',*,*,#243,.T.);
#178=ORIENTED_EDGE('',*,*,#243,.F.);
#179=ORIENTED_EDGE('',*,*,#224,.F.);
#180=ORIENTED_EDGE('',*,*,#244,.F.);
#181=ORIENTED_EDGE('',*,*,#245,.T.);
#182=ORIENTED_EDGE('',*,*,#244,.T.);
#183=ORIENTED_EDGE('',*,*,#246,.T.);
#184=ORIENTED_EDGE('',*,*,#235,.F.);
#185=ORIENTED_EDGE('',*,*,#247,.F.);
#186=ORIENTED_EDGE('',*,*,#237,.T.);
#187=ORIENTED_EDGE('',*,*,#246,.F.);
#188=ORIENTED_EDGE('',*,*,#245,.F.);
#189=ORIENTED_EDGE('',*,*,#247,.T.);
#190=ORIENTED_EDGE('',*,*,#248,.T.);
#191=ORIENTED_EDGE('',*,*,#249,.T.);
#192=ORIENTED_EDGE('',*,*,#250,.F.);
#193=ORIENTED_EDGE('',*,*,#226,.F.);
#194=ORIENTED_EDGE('',*,*,#251,.T.);
#195=ORIENTED_EDGE('',*,*,#249,.F.);
#196=ORIENTED_EDGE('',*,*,#251,.F.);
#197=ORIENTED_EDGE('',*,*,#225,.F.);
#198=ORIENTED_EDGE('',*,*,#250,.T.);
#199=ORIENTED_EDGE('',*,*,#248,.F.);
#200=VERTEX_POINT('',#432);
#201=VERTEX_POINT('',#434);
#202=VERTEX_POINT('',#435);
#203=VERTEX_POINT('',#439);
#204=VERTEX_POINT('',#441);
#205=VERTEX_POINT('',#444);
#206=VERTEX_POINT('',#445);
#207=VERTEX_POINT('',#447);
#208=VERTEX_POINT('',#450);
#209=VERTEX_POINT('',#453);
#210=VERTEX_POINT('',#455);
#211=VERTEX_POINT('',#456);
#212=VERTEX_POINT('',#458);
#213=VERTEX_POINT('',#460);
#214=VERTEX_POINT('',#464);
#215=VERTEX_POINT('',#467);
#216=VERTEX_POINT('',#470);
#217=VERTEX_POINT('',#473);
#218=VERTEX_POINT('',#476);
#219=VERTEX_POINT('',#479);
#220=VERTEX_POINT('',#483);
#221=VERTEX_POINT('',#484);
#222=VERTEX_POINT('',#492);
#223=VERTEX_POINT('',#493);
#224=EDGE_CURVE('',#200,#200,#252,.T.);
#225=EDGE_CURVE('',#201,#202,#253,.T.);
#226=EDGE_CURVE('',#202,#201,#254,.T.);
#227=EDGE_CURVE('',#203,#203,#255,.T.);
#228=EDGE_CURVE('',#204,#204,#256,.T.);
#229=EDGE_CURVE('',#205,#206,#257,.T.);
#230=EDGE_CURVE('',#207,#206,#258,.T.);
#231=EDGE_CURVE('',#206,#207,#259,.T.);
#232=EDGE_CURVE('',#204,#208,#260,.T.);
#233=EDGE_CURVE('',#209,#207,#56,.T.);
#234=EDGE_CURVE('',#210,#211,#57,.T.);
#235=EDGE_CURVE('',#210,#212,#261,.T.);
#236=EDGE_CURVE('',#212,#213,#58,.T.);
#237=EDGE_CURVE('',#210,#212,#262,.T.);
#238=EDGE_CURVE('',#214,#214,#263,.T.);
#239=EDGE_CURVE('',#215,#215,#264,.T.);
#240=EDGE_CURVE('',#216,#216,#265,.T.);
#241=EDGE_CURVE('',#217,#217,#266,.T.);
#242=EDGE_CURVE('',#218,#218,#267,.T.);
#243=EDGE_CURVE('',#219,#219,#268,.T.);
#244=EDGE_CURVE('',#220,#221,#269,.T.);
#245=EDGE_CURVE('',#220,#221,#270,.T.);
#246=EDGE_CURVE('',#221,#212,#59,.T.);
#247=EDGE_CURVE('',#220,#210,#60,.T.);
#248=EDGE_CURVE('',#222,#223,#271,.T.);
#249=EDGE_CURVE('',#223,#222,#272,.T.);
#250=EDGE_CURVE('',#201,#223,#61,.T.);
#251=EDGE_CURVE('',#202,#222,#62,.T.);
#252=CIRCLE('',#298,25.);
#253=CIRCLE('',#299,16.3416641016637);
#254=CIRCLE('',#300,16.3416641016637);
#255=CIRCLE('',#302,25.);
#256=CIRCLE('',#303,19.);
#257=CIRCLE('',#305,5.);
#258=CIRCLE('',#306,14.);
#259=CIRCLE('',#307,14.);
#260=CIRCLE('',#308,5.);
#261=CIRCLE('',#310,14.);
#262=CIRCLE('',#311,14.);
#263=CIRCLE('',#313,25.);
#264=CIRCLE('',#315,22.46254714345);
#265=CIRCLE('',#317,22.025);
#266=CIRCLE('',#319,22.025);
#267=CIRCLE('',#321,22.46254714358);
#268=CIRCLE('',#323,25.);
#269=CIRCLE('',#326,9.99999999999954);
#270=CIRCLE('',#327,9.99999999999954);
#271=CIRCLE('',#331,8.90420498141631);
#272=CIRCLE('',#332,8.90420498141631);
#273=INVISIBILITY((#274,#275,#276));
#274=PRESENTATION_LAYER_ASSIGNMENT('100','Layer 100',(#295));
#275=PRESENTATION_LAYER_ASSIGNMENT('101','Layer 101',(#296));
#276=PRESENTATION_LAYER_ASSIGNMENT('102','Layer 102',(#297));
#277=PRESENTATION_LAYER_ASSIGNMENT('98','Layer 98',(#38));
#278=STYLED_ITEM('',(#282),#295);
#279=STYLED_ITEM('',(#283),#296);
#280=STYLED_ITEM('',(#284),#297);
#281=STYLED_ITEM('',(#285),#38);
#282=PRESENTATION_STYLE_ASSIGNMENT((#286));
#283=PRESENTATION_STYLE_ASSIGNMENT((#287));
#284=PRESENTATION_STYLE_ASSIGNMENT((#288));
#285=PRESENTATION_STYLE_ASSIGNMENT((#33));
#286=CURVE_STYLE('',#291,POSITIVE_LENGTH_MEASURE(0.7),#289);
#287=CURVE_STYLE('',#292,POSITIVE_LENGTH_MEASURE(0.7),#289);
#288=CURVE_STYLE('',#293,POSITIVE_LENGTH_MEASURE(0.7),#289);
#289=COLOUR_RGB('Medium Maroon',0.6,0.4,0.4);
#290=COLOUR_RGB('Medium Gray',0.490196078431373,0.490196078431373,0.490196078431373);
#291=DRAUGHTING_PRE_DEFINED_CURVE_FONT('continuous');
#292=DRAUGHTING_PRE_DEFINED_CURVE_FONT('continuous');
#293=DRAUGHTING_PRE_DEFINED_CURVE_FONT('continuous');
#294=AXIS2_PLACEMENT_3D('',#427,#336,#337);
#295=AXIS2_PLACEMENT_3D('PCS',#428,#338,#339);
#296=AXIS2_PLACEMENT_3D('CSW',#429,#340,#341);
#297=AXIS2_PLACEMENT_3D('MCS',#430,#342,#343);
#298=AXIS2_PLACEMENT_3D('',#431,#344,#345);
#299=AXIS2_PLACEMENT_3D('',#433,#346,#347);
#300=AXIS2_PLACEMENT_3D('',#436,#348,#349);
#301=AXIS2_PLACEMENT_3D('',#437,#350,#351);
#302=AXIS2_PLACEMENT_3D('',#438,#352,#353);
#303=AXIS2_PLACEMENT_3D('',#440,#354,#355);
#304=AXIS2_PLACEMENT_3D('',#442,#356,#357);
#305=AXIS2_PLACEMENT_3D('',#443,#358,#359);
#306=AXIS2_PLACEMENT_3D('',#446,#360,#361);
#307=AXIS2_PLACEMENT_3D('',#448,#362,#363);
#308=AXIS2_PLACEMENT_3D('',#449,#364,#365);
#309=AXIS2_PLACEMENT_3D('',#451,#366,#367);
#310=AXIS2_PLACEMENT_3D('',#457,#370,#371);
#311=AXIS2_PLACEMENT_3D('',#461,#373,#374);
#312=AXIS2_PLACEMENT_3D('',#462,#375,#376);
#313=AXIS2_PLACEMENT_3D('',#463,#377,#378);
#314=AXIS2_PLACEMENT_3D('',#465,#379,#380);
#315=AXIS2_PLACEMENT_3D('',#466,#381,#382);
#316=AXIS2_PLACEMENT_3D('',#468,#383,#384);
#317=AXIS2_PLACEMENT_3D('',#469,#385,#386);
#318=AXIS2_PLACEMENT_3D('',#471,#387,#388);
#319=AXIS2_PLACEMENT_3D('',#472,#389,#390);
#320=AXIS2_PLACEMENT_3D('',#474,#391,#392);
#321=AXIS2_PLACEMENT_3D('',#475,#393,#394);
#322=AXIS2_PLACEMENT_3D('',#477,#395,#396);
#323=AXIS2_PLACEMENT_3D('',#478,#397,#398);
#324=AXIS2_PLACEMENT_3D('',#480,#399,#400);
#325=AXIS2_PLACEMENT_3D('',#481,#401,#402);
#326=AXIS2_PLACEMENT_3D('',#482,#403,#404);
#327=AXIS2_PLACEMENT_3D('',#485,#405,#406);
#328=AXIS2_PLACEMENT_3D('',#486,#407,#408);
#329=AXIS2_PLACEMENT_3D('',#489,#411,#412);
#330=AXIS2_PLACEMENT_3D('',#490,#413,#414);
#331=AXIS2_PLACEMENT_3D('',#491,#415,#416);
#332=AXIS2_PLACEMENT_3D('',#494,#417,#418);
#333=AXIS2_PLACEMENT_3D('',#495,#419,#420);
#334=AXIS2_PLACEMENT_3D('',#498,#423,#424);
#335=AXIS2_PLACEMENT_3D('',#499,#425,#426);
#336=DIRECTION('',(0.,0.,1.));
#337=DIRECTION('',(1.,0.,0.));
#338=DIRECTION('',(0.,0.,1.));
#339=DIRECTION('',(1.,0.,0.));
#340=DIRECTION('',(0.,0.,1.));
#341=DIRECTION('',(1.,0.,0.));
#342=DIRECTION('',(0.,0.,1.));
#343=DIRECTION('',(1.,0.,0.));
#344=DIRECTION('',(0.,0.,1.));
#345=DIRECTION('',(-1.,0.,0.));
#346=DIRECTION('',(0.,0.,-1.));
#347=DIRECTION('',(-1.,0.,0.));
#348=DIRECTION('',(0.,0.,-1.));
#349=DIRECTION('',(-1.,0.,0.));
#350=DIRECTION('',(0.,0.,-1.));
#351=DIRECTION('',(0.,1.,0.));
#352=DIRECTION('',(0.,0.,1.));
#353=DIRECTION('',(-1.,0.,0.));
#354=DIRECTION('',(0.,0.,-1.));
#355=DIRECTION('',(-0.905809897819686,0.423684350680893,0.));
#356=DIRECTION('',(0.,0.,-1.));
#357=DIRECTION('',(0.,1.,0.));
#358=DIRECTION('',(3.84865691896498E-6,-0.999999999992594,0.));
#359=DIRECTION('',(-0.0399999999718584,-1.53946276651432E-7,0.999199679744858));
#360=DIRECTION('',(0.,0.,-1.));
#361=DIRECTION('',(0.,-1.,0.));
#362=DIRECTION('',(0.,0.,-1.));
#363=DIRECTION('',(0.999999999994642,-3.27354883771214E-6,0.));
#364=DIRECTION('',(0.999999997784874,6.65601433997082E-5,0.));
#365=DIRECTION('',(3.5496079682943E-9,-5.33293316257177E-5,0.999999998577991));
#366=DIRECTION('',(0.,0.,1.));
#367=DIRECTION('',(0.999999564444476,-0.000933333197827278,0.));
#368=DIRECTION('',(5.256621944457E-13,0.,1.));
#369=DIRECTION('',(0.,0.,1.));
#370=DIRECTION('',(0.,0.,1.));
#371=DIRECTION('',(1.,0.,0.));
#372=DIRECTION('',(0.,0.,1.));
#373=DIRECTION('',(0.,0.,-1.));
#374=DIRECTION('',(1.,0.,0.));
#375=DIRECTION('',(0.,0.,1.));
#376=DIRECTION('',(0.,-1.,0.));
#377=DIRECTION('',(0.,0.,-1.));
#378=DIRECTION('',(0.94673966854674,-0.322000000000014,0.));
#379=DIRECTION('',(0.,0.,-1.));
#380=DIRECTION('',(0.,1.,0.));
#381=DIRECTION('',(0.,0.,-1.));
#382=DIRECTION('',(0.933577982075045,-0.358374317417817,0.));
#383=DIRECTION('',(0.,0.,-1.));
#384=DIRECTION('',(0.,1.,-4.14962578634445E-17));
#385=DIRECTION('',(0.,0.,-1.));
#386=DIRECTION('',(0.930813791005031,-0.365493757094212,0.));
#387=DIRECTION('',(0.,0.,-1.));
#388=DIRECTION('',(6.47937227024391E-5,-0.999999997900887,0.));
#389=DIRECTION('',(0.,0.,-1.));
#390=DIRECTION('',(0.930813791005031,-0.365493757094212,0.));
#391=DIRECTION('',(0.,0.,-1.));
#392=DIRECTION('',(0.,1.,0.));
#393=DIRECTION('',(0.,0.,-1.));
#394=DIRECTION('',(0.933577982075817,-0.358374317415807,0.));
#395=DIRECTION('',(0.,0.,-1.));
#396=DIRECTION('',(6.44853621066812E-5,-0.999999997920819,0.));
#397=DIRECTION('',(0.,0.,-1.));
#398=DIRECTION('',(0.94673966854674,-0.322000000000014,0.));
#399=DIRECTION('',(0.,0.,1.));
#400=DIRECTION('',(0.,-1.,3.06281903277794E-17));
#401=DIRECTION('',(0.,0.,-1.));
#402=DIRECTION('',(0.,1.,0.));
#403=DIRECTION('',(0.,0.,1.));
#404=DIRECTION('',(1.,0.,0.));
#405=DIRECTION('',(0.,0.,-1.));
#406=DIRECTION('',(1.,0.,0.));
#407=DIRECTION('',(0.,0.,1.));
#408=DIRECTION('',(0.,-1.,0.));
#409=DIRECTION('',(0.,-0.422618261740719,0.906307787036641));
#410=DIRECTION('',(0.,0.422618261740719,0.906307787036641));
#411=DIRECTION('',(0.,0.,1.));
#412=DIRECTION('',(0.,-1.,1.01527265142548E-16));
#413=DIRECTION('',(0.,0.,1.));
#414=DIRECTION('',(0.,-1.,1.01527265142548E-16));
#415=DIRECTION('',(0.,0.,1.));
#416=DIRECTION('',(-1.,0.,0.));
#417=DIRECTION('',(0.,0.,1.));
#418=DIRECTION('',(-1.,0.,0.));
#419=DIRECTION('',(0.,0.,-1.));
#420=DIRECTION('',(0.,1.,0.));
#421=DIRECTION('',(3.82953160747093E-13,-0.144306116415197,0.989533094325381));
#422=DIRECTION('',(-3.82951926350393E-13,0.144306116415197,0.989533094325381));
#423=DIRECTION('',(0.,0.,-1.));
#424=DIRECTION('',(0.,1.,2.84835142979602E-16));
#425=DIRECTION('',(0.,0.,-1.));
#426=DIRECTION('',(0.,1.,2.84835142979602E-16));
#427=CARTESIAN_POINT('',(0.,0.,0.));
#428=CARTESIAN_POINT('',(0.,0.,0.));
#429=CARTESIAN_POINT('',(0.,0.,-50.));
#430=CARTESIAN_POINT('',(0.,0.,0.));
#431=CARTESIAN_POINT('',(0.,0.,-3.2));
#432=CARTESIAN_POINT('',(-25.,0.,-3.2));
#433=CARTESIAN_POINT('',(0.,0.,-3.2));
#434=CARTESIAN_POINT('',(0.,16.3416641016637,-3.2));
#435=CARTESIAN_POINT('',(-1.24149938345436E-11,-16.3416641016637,-3.2));
#436=CARTESIAN_POINT('',(0.,0.,-3.2));
#437=CARTESIAN_POINT('',(0.,0.,-3.2));
#438=CARTESIAN_POINT('',(0.,0.,-19.1));
#439=CARTESIAN_POINT('',(-25.,0.,-19.1));
#440=CARTESIAN_POINT('',(0.,0.,-19.1));
#441=CARTESIAN_POINT('',(-0.001253940280537,18.99999995862,-19.1));
#442=CARTESIAN_POINT('',(0.,0.,-19.1));
#443=CARTESIAN_POINT('',(18.99999999986,7.312448146586E-5,-24.1));
#444=CARTESIAN_POINT('',(18.7999987102525,7.23547451184395E-5,-19.1040016529073));
#445=CARTESIAN_POINT('',(13.99999999992,-4.582968372206E-5,-24.1));
#446=CARTESIAN_POINT('',(0.,0.,-24.1));
#447=CARTESIAN_POINT('',(0.,-14.,-24.1));
#448=CARTESIAN_POINT('',(0.,0.,-24.1));
#449=CARTESIAN_POINT('',(-0.001264642724595,18.99999995791,-24.1));
#450=CARTESIAN_POINT('',(-0.0003982836954996,14.00389390189,-23.902708415495));
#451=CARTESIAN_POINT('',(0.,0.,-24.1));
#452=CARTESIAN_POINT('',(0.,-14.,-27.));
#453=CARTESIAN_POINT('',(-5.69924093211526E-29,-14.,-27.));
#454=CARTESIAN_POINT('',(0.,14.,-40.97858299268));
#455=CARTESIAN_POINT('',(0.,14.,-41.421972317957));
#456=CARTESIAN_POINT('',(0.,14.,-36.0922163454695));
#457=CARTESIAN_POINT('',(0.,0.,-41.4219723179608));
#458=CARTESIAN_POINT('',(0.,-14.,-41.421972317957));
#459=CARTESIAN_POINT('',(0.,-14.,-40.97858299268));
#460=CARTESIAN_POINT('',(0.,-14.,-37.));
#461=CARTESIAN_POINT('',(0.,0.,-41.4219723179608));
#462=CARTESIAN_POINT('',(0.,0.,-51.775));
#463=CARTESIAN_POINT('',(0.,0.,-14.477499074759));
#464=CARTESIAN_POINT('',(23.6684917136685,-8.05000000000034,-14.477499074759));
#465=CARTESIAN_POINT('',(0.,0.,51.145));
#466=CARTESIAN_POINT('',(0.,0.,-13.012499984975));
#467=CARTESIAN_POINT('',(20.9705394344476,-8.04999999999944,-13.012499984975));
#468=CARTESIAN_POINT('',(0.,0.,-13.744999529867));
#469=CARTESIAN_POINT('',(0.,0.,-12.51641567691));
#470=CARTESIAN_POINT('',(20.5011737468858,-8.05000000000002,-12.51641567691));
#471=CARTESIAN_POINT('',(0.,0.,-12.51641567691));
#472=CARTESIAN_POINT('',(0.,0.,-9.683584323034));
#473=CARTESIAN_POINT('',(20.5011737468858,-8.05000000000002,-9.683584323034));
#474=CARTESIAN_POINT('',(0.,0.,51.145));
#475=CARTESIAN_POINT('',(0.,0.,-9.187500014953));
#476=CARTESIAN_POINT('',(20.9705394345863,-8.05000000000086,-9.187500014953));
#477=CARTESIAN_POINT('',(0.,0.,-9.683584323034));
#478=CARTESIAN_POINT('',(0.,0.,-7.72250092524));
#479=CARTESIAN_POINT('',(23.6684917136685,-8.05000000000034,-7.72250092524));
#480=CARTESIAN_POINT('',(0.,0.,-8.4550004701));
#481=CARTESIAN_POINT('',(0.,0.,51.145));
#482=CARTESIAN_POINT('',(0.,0.,-50.));
#483=CARTESIAN_POINT('',(0.,9.99999999999576,-50.));
#484=CARTESIAN_POINT('',(0.,-9.99999999999576,-50.));
#485=CARTESIAN_POINT('',(0.,0.,-50.));
#486=CARTESIAN_POINT('',(0.,0.,-50.));
#487=CARTESIAN_POINT('',(0.,-10.40385628934,-49.13392739261));
#488=CARTESIAN_POINT('',(0.,10.40385628934,-49.13392739261));
#489=CARTESIAN_POINT('',(0.,0.,-45.47887345438));
#490=CARTESIAN_POINT('',(0.,0.,-45.47887345438));
#491=CARTESIAN_POINT('',(0.,0.,47.8));
#492=CARTESIAN_POINT('',(-1.89631296808341E-11,-8.90420498141354,47.8));
#493=CARTESIAN_POINT('',(1.89631908060644E-11,8.90420498141354,47.8));
#494=CARTESIAN_POINT('',(0.,0.,47.8));
#495=CARTESIAN_POINT('',(0.,0.,47.8));
#496=CARTESIAN_POINT('',(0.,16.04999903812,-1.2));
#497=CARTESIAN_POINT('',(0.,-16.04999903812,-1.2));
#498=CARTESIAN_POINT('',(0.,0.,23.04329183492));
#499=CARTESIAN_POINT('',(0.,0.,23.04329183492));
#500=MECHANICAL_DESIGN_GEOMETRIC_PRESENTATION_REPRESENTATION('',(#278,#279,
#280,#281),#501);
#501=(
GEOMETRIC_REPRESENTATION_CONTEXT(3)
GLOBAL_UNCERTAINTY_ASSIGNED_CONTEXT((#502))
GLOBAL_UNIT_ASSIGNED_CONTEXT((#508,#504,#503))
REPRESENTATION_CONTEXT('69871.30AD-W.08','TOP_LEVEL_ASSEMBLY_PART')
);
#502=UNCERTAINTY_MEASURE_WITH_UNIT(LENGTH_MEASURE(0.0011743984821384),#508,
'DISTANCE_ACCURACY_VALUE','Maximum Tolerance applied to model');
#503=(
NAMED_UNIT(*)
SI_UNIT($,.STERADIAN.)
SOLID_ANGLE_UNIT()
);
#504=(
CONVERSION_BASED_UNIT('DEGREE',#506)
NAMED_UNIT(#505)
PLANE_ANGLE_UNIT()
);
#505=DIMENSIONAL_EXPONENTS(0.,0.,0.,0.,0.,0.,0.);
#506=PLANE_ANGLE_MEASURE_WITH_UNIT(PLANE_ANGLE_MEASURE(0.0174532925),#507);
#507=(
NAMED_UNIT(*)
PLANE_ANGLE_UNIT()
SI_UNIT($,.RADIAN.)
);
#508=(
LENGTH_UNIT()
NAMED_UNIT(*)
SI_UNIT(.MILLI.,.METRE.)
);
ENDSEC;
END-ISO-10303-21;
