ISO-10303-21;
HEADER;
/* Generated by software containing ST-Developer
 * from STEP Tools, Inc. (www.steptools.com) 
 */
/* OPTION: using custom schema-name function */

FILE_DESCRIPTION(
/* description */ (''),
/* implementation_level */ '2;1');

FILE_NAME(
/* name */ '69871.30AD-QTCW.M3.M14.stp',
/* time_stamp */ '2024-07-22T11:16:02+02:00',
/* author */ (''),
/* organization */ (''),
/* preprocessor_version */ 'ST-DEVELOPER v16.7',
/* originating_system */ 'SIEMENS PLM Software NX 12.0',
/* authorisation */ '');

FILE_SCHEMA (('AUTOMOTIVE_DESIGN { 1 0 10303 214 3 1 1 1 }'));
ENDSEC;

DATA;
#10=CONSTRUCTIVE_GEOMETRY_REPRESENTATION_RELATIONSHIP(
'supplemental geometry','',#32,#11);
#11=CONSTRUCTIVE_GEOMETRY_REPRESENTATION('supplemental geometry',(#364,
#365,#366),#638);
#12=PROPERTY_DEFINITION_REPRESENTATION(#16,#14);
#13=PROPERTY_DEFINITION_REPRESENTATION(#17,#15);
#14=REPRESENTATION('',(#18),#638);
#15=REPRESENTATION('',(#19),#638);
#16=PROPERTY_DEFINITION('pmi validation property','',#23);
#17=PROPERTY_DEFINITION('pmi validation property','',#23);
#18=VALUE_REPRESENTATION_ITEM('number of annotations',COUNT_MEASURE(0.));
#19=VALUE_REPRESENTATION_ITEM('number of views',COUNT_MEASURE(0.));
#20=SHAPE_REPRESENTATION_RELATIONSHIP('None',
'relationship between pf6612088076yuqd-None and pf6612088076yuqd-None',
#32,#21);
#21=ADVANCED_BREP_SHAPE_REPRESENTATION('pf6612088076yuqd-None',(#38),#638);
#22=SHAPE_DEFINITION_REPRESENTATION(#23,#32);
#23=PRODUCT_DEFINITION_SHAPE('','',#24);
#24=PRODUCT_DEFINITION(' ','',#26,#25);
#25=PRODUCT_DEFINITION_CONTEXT('part definition',#31,'design');
#26=PRODUCT_DEFINITION_FORMATION_WITH_SPECIFIED_SOURCE(' ',' ',#28,
 .NOT_KNOWN.);
#27=PRODUCT_RELATED_PRODUCT_CATEGORY('part','',(#28));
#28=PRODUCT('pf6612088076yuqd','pf6612088076yuqd',' ',(#29));
#29=PRODUCT_CONTEXT(' ',#31,'mechanical');
#30=APPLICATION_PROTOCOL_DEFINITION('international standard',
'automotive_design',2010,#31);
#31=APPLICATION_CONTEXT(
'core data for automotive mechanical design processes');
#32=SHAPE_REPRESENTATION('pf6612088076yuqd-None',(#363),#638);
#33=SURFACE_STYLE_USAGE(.BOTH.,#34);
#34=SURFACE_SIDE_STYLE('',(#35));
#35=SURFACE_STYLE_FILL_AREA(#36);
#36=FILL_AREA_STYLE('',(#37));
#37=FILL_AREA_STYLE_COLOUR('',#359);
#38=MANIFOLD_SOLID_BREP('',#39);
#39=CLOSED_SHELL('',(#95,#96,#97,#98,#99,#100,#101,#102,#103,#104,#105,
#106,#107,#108,#109,#110,#111,#112,#113,#114,#115,#116,#117,#118));
#40=CONICAL_SURFACE('',#406,23.73127357173,60.);
#41=CONICAL_SURFACE('',#414,23.73127357179,60.);
#42=CONICAL_SURFACE('',#417,12.51453841141,8.2971);
#43=CONICAL_SURFACE('',#420,12.51453841141,8.2971);
#44=TOROIDAL_SURFACE('',#381,16.875,0.125);
#45=TOROIDAL_SURFACE('',#383,16.875,0.125);
#46=TOROIDAL_SURFACE('',#398,17.,3.);
#47=TOROIDAL_SURFACE('',#402,17.,3.);
#48=TOROIDAL_SURFACE('',#408,22.525,0.5);
#49=TOROIDAL_SURFACE('',#412,22.525,0.5);
#50=CYLINDRICAL_SURFACE('',#375,16.75);
#51=CYLINDRICAL_SURFACE('',#377,16.75);
#52=CYLINDRICAL_SURFACE('',#385,17.);
#53=CYLINDRICAL_SURFACE('',#387,17.);
#54=CYLINDRICAL_SURFACE('',#392,14.);
#55=CYLINDRICAL_SURFACE('',#394,14.);
#56=CYLINDRICAL_SURFACE('',#404,25.);
#57=CYLINDRICAL_SURFACE('',#410,22.025);
#58=CYLINDRICAL_SURFACE('',#415,25.);
#59=LINE('',#561,#67);
#60=LINE('',#565,#68);
#61=LINE('',#577,#69);
#62=LINE('',#581,#70);
#63=LINE('',#590,#71);
#64=LINE('',#594,#72);
#65=LINE('',#628,#73);
#66=LINE('',#630,#74);
#67=VECTOR('',#443,1.);
#68=VECTOR('',#446,1.);
#69=VECTOR('',#465,1.);
#70=VECTOR('',#468,1.);
#71=VECTOR('',#481,1.);
#72=VECTOR('',#484,1.);
#73=VECTOR('',#533,1.);
#74=VECTOR('',#534,1.);
#75=FACE_BOUND('',#139,.T.);
#76=FACE_BOUND('',#140,.T.);
#77=FACE_BOUND('',#147,.T.);
#78=FACE_BOUND('',#148,.T.);
#79=FACE_BOUND('',#152,.T.);
#80=FACE_BOUND('',#153,.T.);
#81=FACE_BOUND('',#155,.T.);
#82=FACE_BOUND('',#156,.T.);
#83=FACE_BOUND('',#157,.T.);
#84=FACE_BOUND('',#158,.T.);
#85=FACE_BOUND('',#159,.T.);
#86=FACE_BOUND('',#160,.T.);
#87=FACE_BOUND('',#161,.T.);
#88=FACE_BOUND('',#162,.T.);
#89=FACE_BOUND('',#163,.T.);
#90=FACE_BOUND('',#164,.T.);
#91=FACE_BOUND('',#165,.T.);
#92=FACE_BOUND('',#166,.T.);
#93=FACE_BOUND('',#167,.T.);
#94=FACE_BOUND('',#168,.T.);
#95=ADVANCED_FACE('',(#124),#119,.T.);
#96=ADVANCED_FACE('',(#75,#76),#120,.F.);
#97=ADVANCED_FACE('',(#125),#50,.T.);
#98=ADVANCED_FACE('',(#126),#51,.T.);
#99=ADVANCED_FACE('',(#127),#44,.F.);
#100=ADVANCED_FACE('',(#128),#45,.F.);
#101=ADVANCED_FACE('',(#129),#52,.T.);
#102=ADVANCED_FACE('',(#130),#53,.T.);
#103=ADVANCED_FACE('',(#77,#78),#121,.F.);
#104=ADVANCED_FACE('',(#131),#54,.T.);
#105=ADVANCED_FACE('',(#132),#55,.T.);
#106=ADVANCED_FACE('',(#133),#46,.F.);
#107=ADVANCED_FACE('',(#79,#80),#122,.T.);
#108=ADVANCED_FACE('',(#134),#47,.F.);
#109=ADVANCED_FACE('',(#81,#82),#56,.T.);
#110=ADVANCED_FACE('',(#83,#84),#40,.T.);
#111=ADVANCED_FACE('',(#85,#86),#48,.F.);
#112=ADVANCED_FACE('',(#87,#88),#57,.T.);
#113=ADVANCED_FACE('',(#89,#90),#49,.F.);
#114=ADVANCED_FACE('',(#91,#92),#41,.T.);
#115=ADVANCED_FACE('',(#93,#94),#58,.T.);
#116=ADVANCED_FACE('',(#135),#42,.T.);
#117=ADVANCED_FACE('',(#136),#123,.F.);
#118=ADVANCED_FACE('',(#137),#43,.T.);
#119=PLANE('',#369);
#120=PLANE('',#373);
#121=PLANE('',#390);
#122=PLANE('',#401);
#123=PLANE('',#419);
#124=FACE_OUTER_BOUND('',#138,.T.);
#125=FACE_OUTER_BOUND('',#141,.T.);
#126=FACE_OUTER_BOUND('',#142,.T.);
#127=FACE_OUTER_BOUND('',#143,.T.);
#128=FACE_OUTER_BOUND('',#144,.T.);
#129=FACE_OUTER_BOUND('',#145,.T.);
#130=FACE_OUTER_BOUND('',#146,.T.);
#131=FACE_OUTER_BOUND('',#149,.T.);
#132=FACE_OUTER_BOUND('',#150,.T.);
#133=FACE_OUTER_BOUND('',#151,.T.);
#134=FACE_OUTER_BOUND('',#154,.T.);
#135=FACE_OUTER_BOUND('',#169,.T.);
#136=FACE_OUTER_BOUND('',#170,.T.);
#137=FACE_OUTER_BOUND('',#171,.T.);
#138=EDGE_LOOP('',(#172,#173));
#139=EDGE_LOOP('',(#174));
#140=EDGE_LOOP('',(#175,#176));
#141=EDGE_LOOP('',(#177,#178,#179,#180));
#142=EDGE_LOOP('',(#181,#182,#183,#184));
#143=EDGE_LOOP('',(#185,#186,#187,#188));
#144=EDGE_LOOP('',(#189,#190,#191,#192));
#145=EDGE_LOOP('',(#193,#194,#195,#196));
#146=EDGE_LOOP('',(#197,#198,#199,#200));
#147=EDGE_LOOP('',(#201,#202));
#148=EDGE_LOOP('',(#203,#204));
#149=EDGE_LOOP('',(#205,#206,#207,#208));
#150=EDGE_LOOP('',(#209,#210,#211,#212));
#151=EDGE_LOOP('',(#213,#214,#215,#216));
#152=EDGE_LOOP('',(#217));
#153=EDGE_LOOP('',(#218,#219));
#154=EDGE_LOOP('',(#220,#221,#222,#223));
#155=EDGE_LOOP('',(#224));
#156=EDGE_LOOP('',(#225));
#157=EDGE_LOOP('',(#226));
#158=EDGE_LOOP('',(#227));
#159=EDGE_LOOP('',(#228));
#160=EDGE_LOOP('',(#229));
#161=EDGE_LOOP('',(#230));
#162=EDGE_LOOP('',(#231));
#163=EDGE_LOOP('',(#232));
#164=EDGE_LOOP('',(#233));
#165=EDGE_LOOP('',(#234));
#166=EDGE_LOOP('',(#235));
#167=EDGE_LOOP('',(#236));
#168=EDGE_LOOP('',(#237));
#169=EDGE_LOOP('',(#238,#239,#240,#241));
#170=EDGE_LOOP('',(#242,#243));
#171=EDGE_LOOP('',(#244,#245,#246,#247));
#172=ORIENTED_EDGE('',*,*,#274,.T.);
#173=ORIENTED_EDGE('',*,*,#275,.T.);
#174=ORIENTED_EDGE('',*,*,#276,.T.);
#175=ORIENTED_EDGE('',*,*,#277,.T.);
#176=ORIENTED_EDGE('',*,*,#278,.T.);
#177=ORIENTED_EDGE('',*,*,#275,.F.);
#178=ORIENTED_EDGE('',*,*,#279,.F.);
#179=ORIENTED_EDGE('',*,*,#280,.T.);
#180=ORIENTED_EDGE('',*,*,#281,.T.);
#181=ORIENTED_EDGE('',*,*,#274,.F.);
#182=ORIENTED_EDGE('',*,*,#281,.F.);
#183=ORIENTED_EDGE('',*,*,#282,.T.);
#184=ORIENTED_EDGE('',*,*,#279,.T.);
#185=ORIENTED_EDGE('',*,*,#283,.F.);
#186=ORIENTED_EDGE('',*,*,#280,.F.);
#187=ORIENTED_EDGE('',*,*,#284,.T.);
#188=ORIENTED_EDGE('',*,*,#285,.F.);
#189=ORIENTED_EDGE('',*,*,#284,.F.);
#190=ORIENTED_EDGE('',*,*,#282,.F.);
#191=ORIENTED_EDGE('',*,*,#283,.T.);
#192=ORIENTED_EDGE('',*,*,#286,.F.);
#193=ORIENTED_EDGE('',*,*,#287,.F.);
#194=ORIENTED_EDGE('',*,*,#288,.F.);
#195=ORIENTED_EDGE('',*,*,#289,.T.);
#196=ORIENTED_EDGE('',*,*,#285,.T.);
#197=ORIENTED_EDGE('',*,*,#289,.F.);
#198=ORIENTED_EDGE('',*,*,#290,.F.);
#199=ORIENTED_EDGE('',*,*,#287,.T.);
#200=ORIENTED_EDGE('',*,*,#286,.T.);
#201=ORIENTED_EDGE('',*,*,#290,.T.);
#202=ORIENTED_EDGE('',*,*,#288,.T.);
#203=ORIENTED_EDGE('',*,*,#291,.T.);
#204=ORIENTED_EDGE('',*,*,#292,.T.);
#205=ORIENTED_EDGE('',*,*,#293,.F.);
#206=ORIENTED_EDGE('',*,*,#294,.T.);
#207=ORIENTED_EDGE('',*,*,#295,.T.);
#208=ORIENTED_EDGE('',*,*,#292,.F.);
#209=ORIENTED_EDGE('',*,*,#295,.F.);
#210=ORIENTED_EDGE('',*,*,#296,.F.);
#211=ORIENTED_EDGE('',*,*,#293,.T.);
#212=ORIENTED_EDGE('',*,*,#291,.F.);
#213=ORIENTED_EDGE('',*,*,#297,.T.);
#214=ORIENTED_EDGE('',*,*,#294,.F.);
#215=ORIENTED_EDGE('',*,*,#298,.F.);
#216=ORIENTED_EDGE('',*,*,#299,.T.);
#217=ORIENTED_EDGE('',*,*,#300,.F.);
#218=ORIENTED_EDGE('',*,*,#299,.F.);
#219=ORIENTED_EDGE('',*,*,#301,.F.);
#220=ORIENTED_EDGE('',*,*,#301,.T.);
#221=ORIENTED_EDGE('',*,*,#298,.T.);
#222=ORIENTED_EDGE('',*,*,#296,.T.);
#223=ORIENTED_EDGE('',*,*,#297,.F.);
#224=ORIENTED_EDGE('',*,*,#300,.T.);
#225=ORIENTED_EDGE('',*,*,#302,.T.);
#226=ORIENTED_EDGE('',*,*,#302,.F.);
#227=ORIENTED_EDGE('',*,*,#303,.T.);
#228=ORIENTED_EDGE('',*,*,#303,.F.);
#229=ORIENTED_EDGE('',*,*,#304,.T.);
#230=ORIENTED_EDGE('',*,*,#304,.F.);
#231=ORIENTED_EDGE('',*,*,#305,.T.);
#232=ORIENTED_EDGE('',*,*,#305,.F.);
#233=ORIENTED_EDGE('',*,*,#306,.T.);
#234=ORIENTED_EDGE('',*,*,#306,.F.);
#235=ORIENTED_EDGE('',*,*,#307,.T.);
#236=ORIENTED_EDGE('',*,*,#307,.F.);
#237=ORIENTED_EDGE('',*,*,#276,.F.);
#238=ORIENTED_EDGE('',*,*,#308,.T.);
#239=ORIENTED_EDGE('',*,*,#278,.F.);
#240=ORIENTED_EDGE('',*,*,#309,.F.);
#241=ORIENTED_EDGE('',*,*,#310,.F.);
#242=ORIENTED_EDGE('',*,*,#311,.T.);
#243=ORIENTED_EDGE('',*,*,#310,.T.);
#244=ORIENTED_EDGE('',*,*,#309,.T.);
#245=ORIENTED_EDGE('',*,*,#277,.F.);
#246=ORIENTED_EDGE('',*,*,#308,.F.);
#247=ORIENTED_EDGE('',*,*,#311,.F.);
#248=VERTEX_POINT('',#550);
#249=VERTEX_POINT('',#551);
#250=VERTEX_POINT('',#555);
#251=VERTEX_POINT('',#557);
#252=VERTEX_POINT('',#558);
#253=VERTEX_POINT('',#562);
#254=VERTEX_POINT('',#564);
#255=VERTEX_POINT('',#570);
#256=VERTEX_POINT('',#572);
#257=VERTEX_POINT('',#578);
#258=VERTEX_POINT('',#580);
#259=VERTEX_POINT('',#586);
#260=VERTEX_POINT('',#587);
#261=VERTEX_POINT('',#591);
#262=VERTEX_POINT('',#593);
#263=VERTEX_POINT('',#599);
#264=VERTEX_POINT('',#601);
#265=VERTEX_POINT('',#605);
#266=VERTEX_POINT('',#610);
#267=VERTEX_POINT('',#613);
#268=VERTEX_POINT('',#616);
#269=VERTEX_POINT('',#619);
#270=VERTEX_POINT('',#622);
#271=VERTEX_POINT('',#625);
#272=VERTEX_POINT('',#629);
#273=VERTEX_POINT('',#631);
#274=EDGE_CURVE('',#248,#249,#312,.T.);
#275=EDGE_CURVE('',#249,#248,#313,.T.);
#276=EDGE_CURVE('',#250,#250,#314,.T.);
#277=EDGE_CURVE('',#251,#252,#315,.T.);
#278=EDGE_CURVE('',#252,#251,#316,.T.);
#279=EDGE_CURVE('',#253,#249,#59,.T.);
#280=EDGE_CURVE('',#253,#254,#317,.T.);
#281=EDGE_CURVE('',#254,#248,#60,.T.);
#282=EDGE_CURVE('',#254,#253,#318,.T.);
#283=EDGE_CURVE('',#254,#255,#319,.T.);
#284=EDGE_CURVE('',#253,#256,#320,.T.);
#285=EDGE_CURVE('',#255,#256,#321,.T.);
#286=EDGE_CURVE('',#256,#255,#322,.T.);
#287=EDGE_CURVE('',#257,#256,#61,.T.);
#288=EDGE_CURVE('',#258,#257,#323,.T.);
#289=EDGE_CURVE('',#258,#255,#62,.T.);
#290=EDGE_CURVE('',#257,#258,#324,.T.);
#291=EDGE_CURVE('',#259,#260,#325,.T.);
#292=EDGE_CURVE('',#260,#259,#326,.T.);
#293=EDGE_CURVE('',#261,#260,#63,.T.);
#294=EDGE_CURVE('',#261,#262,#327,.T.);
#295=EDGE_CURVE('',#262,#259,#64,.T.);
#296=EDGE_CURVE('',#261,#262,#328,.T.);
#297=EDGE_CURVE('',#263,#262,#329,.T.);
#298=EDGE_CURVE('',#264,#261,#330,.T.);
#299=EDGE_CURVE('',#264,#263,#331,.T.);
#300=EDGE_CURVE('',#265,#265,#332,.T.);
#301=EDGE_CURVE('',#263,#264,#333,.T.);
#302=EDGE_CURVE('',#266,#266,#334,.T.);
#303=EDGE_CURVE('',#267,#267,#335,.T.);
#304=EDGE_CURVE('',#268,#268,#336,.T.);
#305=EDGE_CURVE('',#269,#269,#337,.T.);
#306=EDGE_CURVE('',#270,#270,#338,.T.);
#307=EDGE_CURVE('',#271,#271,#339,.T.);
#308=EDGE_CURVE('',#272,#251,#65,.T.);
#309=EDGE_CURVE('',#273,#252,#66,.T.);
#310=EDGE_CURVE('',#272,#273,#340,.T.);
#311=EDGE_CURVE('',#273,#272,#341,.T.);
#312=CIRCLE('',#367,16.75);
#313=CIRCLE('',#368,16.75);
#314=CIRCLE('',#370,25.);
#315=CIRCLE('',#371,16.3416641016637);
#316=CIRCLE('',#372,16.3416641016637);
#317=CIRCLE('',#374,16.75);
#318=CIRCLE('',#376,16.75);
#319=CIRCLE('',#378,0.125);
#320=CIRCLE('',#379,0.125);
#321=CIRCLE('',#380,17.);
#322=CIRCLE('',#382,17.);
#323=CIRCLE('',#384,17.);
#324=CIRCLE('',#386,17.);
#325=CIRCLE('',#388,14.);
#326=CIRCLE('',#389,14.);
#327=CIRCLE('',#391,14.);
#328=CIRCLE('',#393,14.);
#329=CIRCLE('',#395,3.);
#330=CIRCLE('',#396,3.);
#331=CIRCLE('',#397,17.);
#332=CIRCLE('',#399,25.);
#333=CIRCLE('',#400,17.);
#334=CIRCLE('',#403,25.);
#335=CIRCLE('',#405,22.46254714345);
#336=CIRCLE('',#407,22.025);
#337=CIRCLE('',#409,22.025);
#338=CIRCLE('',#411,22.46254714358);
#339=CIRCLE('',#413,25.);
#340=CIRCLE('',#416,8.90420498141631);
#341=CIRCLE('',#418,8.90420498141631);
#342=INVISIBILITY((#343,#344,#345,#346));
#343=PRESENTATION_LAYER_ASSIGNMENT('100','Layer 100',(#364));
#344=PRESENTATION_LAYER_ASSIGNMENT('101','Layer 101',(#365));
#345=PRESENTATION_LAYER_ASSIGNMENT('102','Layer 102',(#366));
#346=PRESENTATION_LAYER_ASSIGNMENT('98','Layer 98',(#38));
#347=STYLED_ITEM('',(#351),#364);
#348=STYLED_ITEM('',(#352),#365);
#349=STYLED_ITEM('',(#353),#366);
#350=STYLED_ITEM('',(#354),#38);
#351=PRESENTATION_STYLE_ASSIGNMENT((#355));
#352=PRESENTATION_STYLE_ASSIGNMENT((#356));
#353=PRESENTATION_STYLE_ASSIGNMENT((#357));
#354=PRESENTATION_STYLE_ASSIGNMENT((#33));
#355=CURVE_STYLE('',#360,POSITIVE_LENGTH_MEASURE(0.7),#358);
#356=CURVE_STYLE('',#361,POSITIVE_LENGTH_MEASURE(0.7),#358);
#357=CURVE_STYLE('',#362,POSITIVE_LENGTH_MEASURE(0.7),#358);
#358=COLOUR_RGB('Medium Maroon',0.6,0.4,0.4);
#359=COLOUR_RGB('Medium Gray',0.490196078431373,0.490196078431373,0.490196078431373);
#360=DRAUGHTING_PRE_DEFINED_CURVE_FONT('continuous');
#361=DRAUGHTING_PRE_DEFINED_CURVE_FONT('continuous');
#362=DRAUGHTING_PRE_DEFINED_CURVE_FONT('continuous');
#363=AXIS2_PLACEMENT_3D('',#545,#421,#422);
#364=AXIS2_PLACEMENT_3D('PCS',#546,#423,#424);
#365=AXIS2_PLACEMENT_3D('CSW',#547,#425,#426);
#366=AXIS2_PLACEMENT_3D('MCS',#548,#427,#428);
#367=AXIS2_PLACEMENT_3D('',#549,#429,#430);
#368=AXIS2_PLACEMENT_3D('',#552,#431,#432);
#369=AXIS2_PLACEMENT_3D('',#553,#433,#434);
#370=AXIS2_PLACEMENT_3D('',#554,#435,#436);
#371=AXIS2_PLACEMENT_3D('',#556,#437,#438);
#372=AXIS2_PLACEMENT_3D('',#559,#439,#440);
#373=AXIS2_PLACEMENT_3D('',#560,#441,#442);
#374=AXIS2_PLACEMENT_3D('',#563,#444,#445);
#375=AXIS2_PLACEMENT_3D('',#566,#447,#448);
#376=AXIS2_PLACEMENT_3D('',#567,#449,#450);
#377=AXIS2_PLACEMENT_3D('',#568,#451,#452);
#378=AXIS2_PLACEMENT_3D('',#569,#453,#454);
#379=AXIS2_PLACEMENT_3D('',#571,#455,#456);
#380=AXIS2_PLACEMENT_3D('',#573,#457,#458);
#381=AXIS2_PLACEMENT_3D('',#574,#459,#460);
#382=AXIS2_PLACEMENT_3D('',#575,#461,#462);
#383=AXIS2_PLACEMENT_3D('',#576,#463,#464);
#384=AXIS2_PLACEMENT_3D('',#579,#466,#467);
#385=AXIS2_PLACEMENT_3D('',#582,#469,#470);
#386=AXIS2_PLACEMENT_3D('',#583,#471,#472);
#387=AXIS2_PLACEMENT_3D('',#584,#473,#474);
#388=AXIS2_PLACEMENT_3D('',#585,#475,#476);
#389=AXIS2_PLACEMENT_3D('',#588,#477,#478);
#390=AXIS2_PLACEMENT_3D('',#589,#479,#480);
#391=AXIS2_PLACEMENT_3D('',#592,#482,#483);
#392=AXIS2_PLACEMENT_3D('',#595,#485,#486);
#393=AXIS2_PLACEMENT_3D('',#596,#487,#488);
#394=AXIS2_PLACEMENT_3D('',#597,#489,#490);
#395=AXIS2_PLACEMENT_3D('',#598,#491,#492);
#396=AXIS2_PLACEMENT_3D('',#600,#493,#494);
#397=AXIS2_PLACEMENT_3D('',#602,#495,#496);
#398=AXIS2_PLACEMENT_3D('',#603,#497,#498);
#399=AXIS2_PLACEMENT_3D('',#604,#499,#500);
#400=AXIS2_PLACEMENT_3D('',#606,#501,#502);
#401=AXIS2_PLACEMENT_3D('',#607,#503,#504);
#402=AXIS2_PLACEMENT_3D('',#608,#505,#506);
#403=AXIS2_PLACEMENT_3D('',#609,#507,#508);
#404=AXIS2_PLACEMENT_3D('',#611,#509,#510);
#405=AXIS2_PLACEMENT_3D('',#612,#511,#512);
#406=AXIS2_PLACEMENT_3D('',#614,#513,#514);
#407=AXIS2_PLACEMENT_3D('',#615,#515,#516);
#408=AXIS2_PLACEMENT_3D('',#617,#517,#518);
#409=AXIS2_PLACEMENT_3D('',#618,#519,#520);
#410=AXIS2_PLACEMENT_3D('',#620,#521,#522);
#411=AXIS2_PLACEMENT_3D('',#621,#523,#524);
#412=AXIS2_PLACEMENT_3D('',#623,#525,#526);
#413=AXIS2_PLACEMENT_3D('',#624,#527,#528);
#414=AXIS2_PLACEMENT_3D('',#626,#529,#530);
#415=AXIS2_PLACEMENT_3D('',#627,#531,#532);
#416=AXIS2_PLACEMENT_3D('',#632,#535,#536);
#417=AXIS2_PLACEMENT_3D('',#633,#537,#538);
#418=AXIS2_PLACEMENT_3D('',#634,#539,#540);
#419=AXIS2_PLACEMENT_3D('',#635,#541,#542);
#420=AXIS2_PLACEMENT_3D('',#636,#543,#544);
#421=DIRECTION('',(0.,0.,1.));
#422=DIRECTION('',(1.,0.,0.));
#423=DIRECTION('',(0.,0.,1.));
#424=DIRECTION('',(1.,0.,0.));
#425=DIRECTION('',(0.,0.,1.));
#426=DIRECTION('',(1.,0.,0.));
#427=DIRECTION('',(0.,0.,1.));
#428=DIRECTION('',(1.,0.,0.));
#429=DIRECTION('',(0.,0.,-1.));
#430=DIRECTION('',(-1.,0.,0.));
#431=DIRECTION('',(0.,0.,-1.));
#432=DIRECTION('',(-1.,0.,0.));
#433=DIRECTION('',(0.,0.,-1.));
#434=DIRECTION('',(0.,-1.,0.));
#435=DIRECTION('',(0.,0.,1.));
#436=DIRECTION('',(-1.,0.,0.));
#437=DIRECTION('',(0.,0.,-1.));
#438=DIRECTION('',(-1.,0.,0.));
#439=DIRECTION('',(0.,0.,-1.));
#440=DIRECTION('',(-1.,0.,0.));
#441=DIRECTION('',(0.,0.,-1.));
#442=DIRECTION('',(0.,-1.,0.));
#443=DIRECTION('',(-4.78774209958E-11,-5.594838100693E-12,-1.));
#444=DIRECTION('',(0.,0.,-1.));
#445=DIRECTION('',(0.,1.,0.));
#446=DIRECTION('',(4.787738226055E-11,5.594838100693E-12,-1.));
#447=DIRECTION('',(0.,0.,-1.));
#448=DIRECTION('',(0.,-1.,0.));
#449=DIRECTION('',(0.,0.,-1.));
#450=DIRECTION('',(0.,-1.,0.));
#451=DIRECTION('',(0.,0.,-1.));
#452=DIRECTION('',(0.,-1.,0.));
#453=DIRECTION('',(1.,0.,0.));
#454=DIRECTION('',(0.,0.,1.));
#455=DIRECTION('',(-1.,0.,0.));
#456=DIRECTION('',(0.,0.,1.));
#457=DIRECTION('',(0.,0.,1.));
#458=DIRECTION('',(-1.,0.,0.));
#459=DIRECTION('',(0.,0.,-1.));
#460=DIRECTION('',(0.00662491012622213,-0.999978055042119,0.));
#461=DIRECTION('',(0.,0.,1.));
#462=DIRECTION('',(-1.,0.,0.));
#463=DIRECTION('',(0.,0.,-1.));
#464=DIRECTION('',(-0.00662491012622313,0.999978055042119,0.));
#465=DIRECTION('',(-2.816488675483E-14,0.,-1.));
#466=DIRECTION('',(0.,0.,1.));
#467=DIRECTION('',(-1.,0.,0.));
#468=DIRECTION('',(2.81632147322E-14,0.,-1.));
#469=DIRECTION('',(0.,0.,-1.));
#470=DIRECTION('',(0.,-1.,0.));
#471=DIRECTION('',(0.,0.,1.));
#472=DIRECTION('',(-1.,0.,0.));
#473=DIRECTION('',(0.,0.,-1.));
#474=DIRECTION('',(0.,-1.,0.));
#475=DIRECTION('',(0.,0.,-1.));
#476=DIRECTION('',(0.,1.,0.));
#477=DIRECTION('',(0.,0.,-1.));
#478=DIRECTION('',(0.,-1.,0.));
#479=DIRECTION('',(0.,0.,-1.));
#480=DIRECTION('',(0.,-1.,0.));
#481=DIRECTION('',(0.,0.,-1.));
#482=DIRECTION('',(0.,0.,-1.));
#483=DIRECTION('',(0.,-1.,0.));
#484=DIRECTION('',(0.,0.,-1.));
#485=DIRECTION('',(0.,0.,-1.));
#486=DIRECTION('',(0.,-1.,0.));
#487=DIRECTION('',(0.,0.,1.));
#488=DIRECTION('',(0.,-1.,0.));
#489=DIRECTION('',(0.,0.,-1.));
#490=DIRECTION('',(0.,-1.,0.));
#491=DIRECTION('',(1.,0.,0.));
#492=DIRECTION('',(0.,-1.,0.));
#493=DIRECTION('',(-1.,0.,0.));
#494=DIRECTION('',(0.,1.,0.));
#495=DIRECTION('',(0.,0.,-1.));
#496=DIRECTION('',(0.,-1.,0.));
#497=DIRECTION('',(0.,0.,-1.));
#498=DIRECTION('',(0.,-1.,0.));
#499=DIRECTION('',(0.,0.,1.));
#500=DIRECTION('',(-1.,0.,0.));
#501=DIRECTION('',(0.,0.,-1.));
#502=DIRECTION('',(0.,1.,0.));
#503=DIRECTION('',(0.,0.,-1.));
#504=DIRECTION('',(0.,-1.,0.));
#505=DIRECTION('',(0.,0.,-1.));
#506=DIRECTION('',(0.,-1.,0.));
#507=DIRECTION('',(0.,0.,-1.));
#508=DIRECTION('',(-0.94673966854674,0.322000000000014,0.));
#509=DIRECTION('',(0.,0.,-1.));
#510=DIRECTION('',(0.,-1.,0.));
#511=DIRECTION('',(0.,0.,-1.));
#512=DIRECTION('',(-0.933577982075045,0.358374317417817,0.));
#513=DIRECTION('',(0.,0.,-1.));
#514=DIRECTION('',(0.,-1.,-4.14962578634445E-17));
#515=DIRECTION('',(0.,0.,-1.));
#516=DIRECTION('',(-0.930813791005031,0.365493757094212,0.));
#517=DIRECTION('',(0.,0.,-1.));
#518=DIRECTION('',(-6.47937227024391E-5,0.999999997900887,0.));
#519=DIRECTION('',(0.,0.,-1.));
#520=DIRECTION('',(-0.930813791005031,0.365493757094212,0.));
#521=DIRECTION('',(0.,0.,-1.));
#522=DIRECTION('',(0.,-1.,0.));
#523=DIRECTION('',(0.,0.,-1.));
#524=DIRECTION('',(-0.933577982075817,0.358374317415807,0.));
#525=DIRECTION('',(0.,0.,-1.));
#526=DIRECTION('',(-6.44853621066812E-5,0.999999997920819,0.));
#527=DIRECTION('',(0.,0.,-1.));
#528=DIRECTION('',(-0.94673966854674,0.322000000000014,0.));
#529=DIRECTION('',(0.,0.,1.));
#530=DIRECTION('',(0.,1.,3.06281903277794E-17));
#531=DIRECTION('',(0.,0.,-1.));
#532=DIRECTION('',(0.,-1.,0.));
#533=DIRECTION('',(3.82953160747093E-13,-0.144306116415197,-0.989533094325381));
#534=DIRECTION('',(-3.82951926350393E-13,0.144306116415197,-0.989533094325381));
#535=DIRECTION('',(0.,0.,1.));
#536=DIRECTION('',(-1.,0.,0.));
#537=DIRECTION('',(0.,0.,-1.));
#538=DIRECTION('',(0.,-1.,2.84835142979602E-16));
#539=DIRECTION('',(0.,0.,1.));
#540=DIRECTION('',(-1.,0.,0.));
#541=DIRECTION('',(0.,0.,-1.));
#542=DIRECTION('',(0.,-1.,0.));
#543=DIRECTION('',(0.,0.,-1.));
#544=DIRECTION('',(0.,-1.,2.84835142979602E-16));
#545=CARTESIAN_POINT('',(0.,0.,0.));
#546=CARTESIAN_POINT('',(0.,0.,0.));
#547=CARTESIAN_POINT('',(0.,0.,-58.));
#548=CARTESIAN_POINT('',(0.,0.,0.));
#549=CARTESIAN_POINT('',(0.,0.,-58.));
#550=CARTESIAN_POINT('',(0.,-16.75,-58.));
#551=CARTESIAN_POINT('',(-2.22646316734199E-10,16.75,-58.));
#552=CARTESIAN_POINT('',(0.,0.,-58.));
#553=CARTESIAN_POINT('',(0.,0.,-58.));
#554=CARTESIAN_POINT('',(0.,0.,-3.2));
#555=CARTESIAN_POINT('',(-25.,0.,-3.2));
#556=CARTESIAN_POINT('',(0.,0.,-3.2));
#557=CARTESIAN_POINT('',(0.,-16.3416641016637,-3.2));
#558=CARTESIAN_POINT('',(1.24149938345436E-11,16.3416641016637,-3.2));
#559=CARTESIAN_POINT('',(0.,0.,-3.2));
#560=CARTESIAN_POINT('',(0.,0.,-3.2));
#561=CARTESIAN_POINT('',(-8.947402373749E-10,16.74999999989,-56.80000000011));
#562=CARTESIAN_POINT('',(0.,16.75,-38.025));
#563=CARTESIAN_POINT('',(0.,0.,-38.025));
#564=CARTESIAN_POINT('',(0.,-16.75,-38.025));
#565=CARTESIAN_POINT('',(8.947401165965E-10,-16.74999999989,-56.80000000011));
#566=CARTESIAN_POINT('',(0.,0.,-25.345));
#567=CARTESIAN_POINT('',(0.,0.,-38.025));
#568=CARTESIAN_POINT('',(0.,0.,-25.345));
#569=CARTESIAN_POINT('',(0.,-16.875,-38.025));
#570=CARTESIAN_POINT('',(1.13482725413375E-13,-17.,-38.025));
#571=CARTESIAN_POINT('',(0.,16.875,-38.025));
#572=CARTESIAN_POINT('',(-1.13220972247904E-13,17.,-38.025));
#573=CARTESIAN_POINT('',(0.,0.,-38.025));
#574=CARTESIAN_POINT('',(0.,0.,-38.025));
#575=CARTESIAN_POINT('',(0.,0.,-38.025));
#576=CARTESIAN_POINT('',(0.,0.,-38.025));
#577=CARTESIAN_POINT('',(-2.194007228071E-13,17.,-37.775));
#578=CARTESIAN_POINT('',(8.68924206516763E-14,17.,-26.9));
#579=CARTESIAN_POINT('',(0.,0.,-26.9));
#580=CARTESIAN_POINT('',(-8.63503130689751E-14,-17.,-26.9));
#581=CARTESIAN_POINT('',(2.199246471437E-13,-17.,-37.775));
#582=CARTESIAN_POINT('',(0.,0.,-25.345));
#583=CARTESIAN_POINT('',(0.,0.,-26.9));
#584=CARTESIAN_POINT('',(0.,0.,-25.345));
#585=CARTESIAN_POINT('',(0.,0.,-26.9));
#586=CARTESIAN_POINT('',(0.,14.,-26.9));
#587=CARTESIAN_POINT('',(0.,-14.,-26.9));
#588=CARTESIAN_POINT('',(0.,0.,-26.9));
#589=CARTESIAN_POINT('',(0.,0.,-26.9));
#590=CARTESIAN_POINT('',(0.,-14.,-26.9));
#591=CARTESIAN_POINT('',(0.,-14.,-22.1));
#592=CARTESIAN_POINT('',(0.,0.,-22.1));
#593=CARTESIAN_POINT('',(0.,14.,-22.1));
#594=CARTESIAN_POINT('',(0.,14.,-26.9));
#595=CARTESIAN_POINT('',(0.,0.,-17.155));
#596=CARTESIAN_POINT('',(0.,0.,-22.1));
#597=CARTESIAN_POINT('',(0.,0.,-17.155));
#598=CARTESIAN_POINT('',(0.,17.,-22.1));
#599=CARTESIAN_POINT('',(0.,17.,-19.1));
#600=CARTESIAN_POINT('',(0.,-17.,-22.1));
#601=CARTESIAN_POINT('',(0.,-17.,-19.1));
#602=CARTESIAN_POINT('',(0.,0.,-19.1));
#603=CARTESIAN_POINT('',(0.,0.,-22.1));
#604=CARTESIAN_POINT('',(0.,0.,-19.1));
#605=CARTESIAN_POINT('',(-25.,0.,-19.1));
#606=CARTESIAN_POINT('',(0.,0.,-19.1));
#607=CARTESIAN_POINT('',(0.,0.,-19.1));
#608=CARTESIAN_POINT('',(0.,0.,-22.1));
#609=CARTESIAN_POINT('',(0.,0.,-14.477499074759));
#610=CARTESIAN_POINT('',(-23.6684917136685,8.05000000000034,-14.477499074759));
#611=CARTESIAN_POINT('',(0.,0.,51.145));
#612=CARTESIAN_POINT('',(0.,0.,-13.012499984975));
#613=CARTESIAN_POINT('',(-20.9705394344476,8.04999999999944,-13.012499984975));
#614=CARTESIAN_POINT('',(0.,0.,-13.744999529867));
#615=CARTESIAN_POINT('',(0.,0.,-12.51641567691));
#616=CARTESIAN_POINT('',(-20.5011737468858,8.05000000000002,-12.51641567691));
#617=CARTESIAN_POINT('',(0.,0.,-12.51641567691));
#618=CARTESIAN_POINT('',(0.,0.,-9.683584323034));
#619=CARTESIAN_POINT('',(-20.5011737468858,8.05000000000002,-9.683584323034));
#620=CARTESIAN_POINT('',(0.,0.,51.145));
#621=CARTESIAN_POINT('',(0.,0.,-9.187500014953));
#622=CARTESIAN_POINT('',(-20.9705394345863,8.05000000000086,-9.187500014953));
#623=CARTESIAN_POINT('',(0.,0.,-9.683584323034));
#624=CARTESIAN_POINT('',(0.,0.,-7.72250092524));
#625=CARTESIAN_POINT('',(-23.6684917136685,8.05000000000034,-7.72250092524));
#626=CARTESIAN_POINT('',(0.,0.,-8.4550004701));
#627=CARTESIAN_POINT('',(0.,0.,51.145));
#628=CARTESIAN_POINT('',(0.,-16.04999903812,-1.2));
#629=CARTESIAN_POINT('',(-1.89631908060644E-11,-8.90420498141354,47.8));
#630=CARTESIAN_POINT('',(0.,16.04999903812,-1.2));
#631=CARTESIAN_POINT('',(1.89631296808341E-11,8.90420498141354,47.8));
#632=CARTESIAN_POINT('',(0.,0.,47.8));
#633=CARTESIAN_POINT('',(0.,0.,23.04329183492));
#634=CARTESIAN_POINT('',(0.,0.,47.8));
#635=CARTESIAN_POINT('',(0.,0.,47.8));
#636=CARTESIAN_POINT('',(0.,0.,23.04329183492));
#637=MECHANICAL_DESIGN_GEOMETRIC_PRESENTATION_REPRESENTATION('',(#347,#348,
#349,#350),#638);
#638=(
GEOMETRIC_REPRESENTATION_CONTEXT(3)
GLOBAL_UNCERTAINTY_ASSIGNED_CONTEXT((#639))
GLOBAL_UNIT_ASSIGNED_CONTEXT((#645,#641,#640))
REPRESENTATION_CONTEXT('69871.30AD-QTCW.M3','TOP_LEVEL_ASSEMBLY_PART')
);
#639=UNCERTAINTY_MEASURE_WITH_UNIT(LENGTH_MEASURE(2.E-5),#645,
'DISTANCE_ACCURACY_VALUE','Maximum Tolerance applied to model');
#640=(
NAMED_UNIT(*)
SI_UNIT($,.STERADIAN.)
SOLID_ANGLE_UNIT()
);
#641=(
CONVERSION_BASED_UNIT('DEGREE',#643)
NAMED_UNIT(#642)
PLANE_ANGLE_UNIT()
);
#642=DIMENSIONAL_EXPONENTS(0.,0.,0.,0.,0.,0.,0.);
#643=PLANE_ANGLE_MEASURE_WITH_UNIT(PLANE_ANGLE_MEASURE(0.0174532925),#644);
#644=(
NAMED_UNIT(*)
PLANE_ANGLE_UNIT()
SI_UNIT($,.RADIAN.)
);
#645=(
LENGTH_UNIT()
NAMED_UNIT(*)
SI_UNIT(.MILLI.,.METRE.)
);
ENDSEC;
END-ISO-10303-21;
