ISO-10303-21;
HEADER;
/* Generated by software containing ST-Developer
 * from STEP Tools, Inc. (www.steptools.com) 
 */
/* OPTION: using custom schema-name function */

FILE_DESCRIPTION(
/* description */ (''),
/* implementation_level */ '2;1');

FILE_NAME(
/* name */ '69871.30AD-CC.ER32.070.stp',
/* time_stamp */ '2024-06-23T18:17:56+02:00',
/* author */ (''),
/* organization */ (''),
/* preprocessor_version */ 'ST-DEVELOPER v16.7',
/* originating_system */ 'SIEMENS PLM Software NX 12.0',
/* authorisation */ '');

FILE_SCHEMA (('AUTOMOTIVE_DESIGN { 1 0 10303 214 3 1 1 1 }'));
ENDSEC;

DATA;
#10=CONSTRUCTIVE_GEOMETRY_REPRESENTATION_RELATIONSHIP(
'supplemental geometry','',#32,#11);
#11=CONSTRUCTIVE_GEOMETRY_REPRESENTATION('supplemental geometry',(#318,
#319,#320),#540);
#12=PROPERTY_DEFINITION_REPRESENTATION(#16,#14);
#13=PROPERTY_DEFINITION_REPRESENTATION(#17,#15);
#14=REPRESENTATION('',(#18),#540);
#15=REPRESENTATION('',(#19),#540);
#16=PROPERTY_DEFINITION('pmi validation property','',#23);
#17=PROPERTY_DEFINITION('pmi validation property','',#23);
#18=VALUE_REPRESENTATION_ITEM('number of annotations',COUNT_MEASURE(0.));
#19=VALUE_REPRESENTATION_ITEM('number of views',COUNT_MEASURE(0.));
#20=SHAPE_REPRESENTATION_RELATIONSHIP('None',
'relationship between pf660F5CA0AEj8fv-None and pf660F5CA0AEj8fv-None',
#32,#21);
#21=ADVANCED_BREP_SHAPE_REPRESENTATION('pf660F5CA0AEj8fv-None',(#38),#540);
#22=SHAPE_DEFINITION_REPRESENTATION(#23,#32);
#23=PRODUCT_DEFINITION_SHAPE('','',#24);
#24=PRODUCT_DEFINITION(' ','',#26,#25);
#25=PRODUCT_DEFINITION_CONTEXT('part definition',#31,'design');
#26=PRODUCT_DEFINITION_FORMATION_WITH_SPECIFIED_SOURCE(' ',' ',#28,
 .NOT_KNOWN.);
#27=PRODUCT_RELATED_PRODUCT_CATEGORY('part','',(#28));
#28=PRODUCT('pf660F5CA0AEj8fv','pf660F5CA0AEj8fv',' ',(#29));
#29=PRODUCT_CONTEXT(' ',#31,'mechanical');
#30=APPLICATION_PROTOCOL_DEFINITION('international standard',
'automotive_design',2010,#31);
#31=APPLICATION_CONTEXT(
'core data for automotive mechanical design processes');
#32=SHAPE_REPRESENTATION('pf660F5CA0AEj8fv-None',(#317),#540);
#33=SURFACE_STYLE_USAGE(.BOTH.,#34);
#34=SURFACE_SIDE_STYLE('',(#35));
#35=SURFACE_STYLE_FILL_AREA(#36);
#36=FILL_AREA_STYLE('',(#37));
#37=FILL_AREA_STYLE_COLOUR('',#313);
#38=MANIFOLD_SOLID_BREP('',#39);
#39=CLOSED_SHELL('',(#76,#77,#78,#79,#80,#81,#82,#83,#84,#85,#86,#87,#88,
#89,#90,#91,#92,#93,#94));
#40=CONICAL_SURFACE('',#341,23.73127357173,60.);
#41=CONICAL_SURFACE('',#349,23.73127357179,60.);
#42=CONICAL_SURFACE('',#354,12.51453841141,8.2971);
#43=CONICAL_SURFACE('',#355,12.51453841141,8.2971);
#44=CONICAL_SURFACE('',#360,21.95705080757,60.);
#45=TOROIDAL_SURFACE('',#339,22.,2.);
#46=TOROIDAL_SURFACE('',#343,22.525,0.5);
#47=TOROIDAL_SURFACE('',#347,22.525,0.5);
#48=FACE_OUTER_BOUND('',#134,.T.);
#49=FACE_OUTER_BOUND('',#135,.T.);
#50=FACE_OUTER_BOUND('',#150,.T.);
#51=FACE_OUTER_BOUND('',#151,.T.);
#52=FACE_OUTER_BOUND('',#152,.T.);
#53=FACE_OUTER_BOUND('',#153,.T.);
#54=LINE('',#488,#62);
#55=LINE('',#492,#63);
#56=LINE('',#518,#64);
#57=LINE('',#519,#65);
#58=LINE('',#529,#66);
#59=LINE('',#531,#67);
#60=LINE('',#534,#68);
#61=LINE('',#536,#69);
#62=VECTOR('',#398,1.);
#63=VECTOR('',#401,1.);
#64=VECTOR('',#438,1.);
#65=VECTOR('',#439,1.);
#66=VECTOR('',#452,1.);
#67=VECTOR('',#453,1.);
#68=VECTOR('',#456,1.);
#69=VECTOR('',#457,1.);
#70=CYLINDRICAL_SURFACE('',#332,25.);
#71=CYLINDRICAL_SURFACE('',#336,20.);
#72=CYLINDRICAL_SURFACE('',#338,20.);
#73=CYLINDRICAL_SURFACE('',#345,22.025);
#74=CYLINDRICAL_SURFACE('',#350,25.);
#75=CYLINDRICAL_SURFACE('',#361,24.95);
#76=ADVANCED_FACE('',(#100,#101),#95,.T.);
#77=ADVANCED_FACE('',(#102,#103),#96,.F.);
#78=ADVANCED_FACE('',(#104,#105),#70,.T.);
#79=ADVANCED_FACE('',(#106,#107),#97,.T.);
#80=ADVANCED_FACE('',(#48),#71,.T.);
#81=ADVANCED_FACE('',(#49),#72,.T.);
#82=ADVANCED_FACE('',(#108,#109),#45,.F.);
#83=ADVANCED_FACE('',(#110,#111),#40,.T.);
#84=ADVANCED_FACE('',(#112,#113),#46,.F.);
#85=ADVANCED_FACE('',(#114,#115),#73,.T.);
#86=ADVANCED_FACE('',(#116,#117),#47,.F.);
#87=ADVANCED_FACE('',(#118,#119),#41,.T.);
#88=ADVANCED_FACE('',(#120,#121),#74,.T.);
#89=ADVANCED_FACE('',(#50),#98,.F.);
#90=ADVANCED_FACE('',(#51),#42,.T.);
#91=ADVANCED_FACE('',(#52),#43,.T.);
#92=ADVANCED_FACE('',(#53),#99,.F.);
#93=ADVANCED_FACE('',(#122,#123),#44,.T.);
#94=ADVANCED_FACE('',(#124,#125),#75,.T.);
#95=PLANE('',#325);
#96=PLANE('',#329);
#97=PLANE('',#334);
#98=PLANE('',#353);
#99=PLANE('',#358);
#100=FACE_BOUND('',#126,.T.);
#101=FACE_BOUND('',#127,.T.);
#102=FACE_BOUND('',#128,.T.);
#103=FACE_BOUND('',#129,.T.);
#104=FACE_BOUND('',#130,.T.);
#105=FACE_BOUND('',#131,.T.);
#106=FACE_BOUND('',#132,.T.);
#107=FACE_BOUND('',#133,.T.);
#108=FACE_BOUND('',#136,.T.);
#109=FACE_BOUND('',#137,.T.);
#110=FACE_BOUND('',#138,.T.);
#111=FACE_BOUND('',#139,.T.);
#112=FACE_BOUND('',#140,.T.);
#113=FACE_BOUND('',#141,.T.);
#114=FACE_BOUND('',#142,.T.);
#115=FACE_BOUND('',#143,.T.);
#116=FACE_BOUND('',#144,.T.);
#117=FACE_BOUND('',#145,.T.);
#118=FACE_BOUND('',#146,.T.);
#119=FACE_BOUND('',#147,.T.);
#120=FACE_BOUND('',#148,.T.);
#121=FACE_BOUND('',#149,.T.);
#122=FACE_BOUND('',#154,.T.);
#123=FACE_BOUND('',#155,.T.);
#124=FACE_BOUND('',#156,.T.);
#125=FACE_BOUND('',#157,.T.);
#126=EDGE_LOOP('',(#158,#159));
#127=EDGE_LOOP('',(#160,#161));
#128=EDGE_LOOP('',(#162));
#129=EDGE_LOOP('',(#163,#164));
#130=EDGE_LOOP('',(#165));
#131=EDGE_LOOP('',(#166));
#132=EDGE_LOOP('',(#167));
#133=EDGE_LOOP('',(#168));
#134=EDGE_LOOP('',(#169,#170,#171,#172));
#135=EDGE_LOOP('',(#173,#174,#175,#176));
#136=EDGE_LOOP('',(#177));
#137=EDGE_LOOP('',(#178,#179));
#138=EDGE_LOOP('',(#180));
#139=EDGE_LOOP('',(#181));
#140=EDGE_LOOP('',(#182));
#141=EDGE_LOOP('',(#183));
#142=EDGE_LOOP('',(#184));
#143=EDGE_LOOP('',(#185));
#144=EDGE_LOOP('',(#186));
#145=EDGE_LOOP('',(#187));
#146=EDGE_LOOP('',(#188));
#147=EDGE_LOOP('',(#189));
#148=EDGE_LOOP('',(#190));
#149=EDGE_LOOP('',(#191));
#150=EDGE_LOOP('',(#192,#193));
#151=EDGE_LOOP('',(#194,#195,#196,#197));
#152=EDGE_LOOP('',(#198,#199,#200,#201));
#153=EDGE_LOOP('',(#202,#203));
#154=EDGE_LOOP('',(#204));
#155=EDGE_LOOP('',(#205,#206,#207,#208,#209,#210));
#156=EDGE_LOOP('',(#211));
#157=EDGE_LOOP('',(#212,#213,#214,#215,#216,#217));
#158=ORIENTED_EDGE('',*,*,#244,.T.);
#159=ORIENTED_EDGE('',*,*,#245,.T.);
#160=ORIENTED_EDGE('',*,*,#246,.T.);
#161=ORIENTED_EDGE('',*,*,#247,.T.);
#162=ORIENTED_EDGE('',*,*,#248,.T.);
#163=ORIENTED_EDGE('',*,*,#249,.T.);
#164=ORIENTED_EDGE('',*,*,#250,.T.);
#165=ORIENTED_EDGE('',*,*,#251,.T.);
#166=ORIENTED_EDGE('',*,*,#252,.T.);
#167=ORIENTED_EDGE('',*,*,#252,.F.);
#168=ORIENTED_EDGE('',*,*,#253,.F.);
#169=ORIENTED_EDGE('',*,*,#246,.F.);
#170=ORIENTED_EDGE('',*,*,#254,.T.);
#171=ORIENTED_EDGE('',*,*,#255,.T.);
#172=ORIENTED_EDGE('',*,*,#256,.F.);
#173=ORIENTED_EDGE('',*,*,#247,.F.);
#174=ORIENTED_EDGE('',*,*,#256,.T.);
#175=ORIENTED_EDGE('',*,*,#257,.T.);
#176=ORIENTED_EDGE('',*,*,#254,.F.);
#177=ORIENTED_EDGE('',*,*,#253,.T.);
#178=ORIENTED_EDGE('',*,*,#257,.F.);
#179=ORIENTED_EDGE('',*,*,#255,.F.);
#180=ORIENTED_EDGE('',*,*,#258,.T.);
#181=ORIENTED_EDGE('',*,*,#251,.F.);
#182=ORIENTED_EDGE('',*,*,#259,.T.);
#183=ORIENTED_EDGE('',*,*,#258,.F.);
#184=ORIENTED_EDGE('',*,*,#260,.T.);
#185=ORIENTED_EDGE('',*,*,#259,.F.);
#186=ORIENTED_EDGE('',*,*,#261,.T.);
#187=ORIENTED_EDGE('',*,*,#260,.F.);
#188=ORIENTED_EDGE('',*,*,#262,.T.);
#189=ORIENTED_EDGE('',*,*,#261,.F.);
#190=ORIENTED_EDGE('',*,*,#248,.F.);
#191=ORIENTED_EDGE('',*,*,#262,.F.);
#192=ORIENTED_EDGE('',*,*,#263,.T.);
#193=ORIENTED_EDGE('',*,*,#264,.T.);
#194=ORIENTED_EDGE('',*,*,#265,.F.);
#195=ORIENTED_EDGE('',*,*,#250,.F.);
#196=ORIENTED_EDGE('',*,*,#266,.T.);
#197=ORIENTED_EDGE('',*,*,#264,.F.);
#198=ORIENTED_EDGE('',*,*,#266,.F.);
#199=ORIENTED_EDGE('',*,*,#249,.F.);
#200=ORIENTED_EDGE('',*,*,#265,.T.);
#201=ORIENTED_EDGE('',*,*,#263,.F.);
#202=ORIENTED_EDGE('',*,*,#267,.T.);
#203=ORIENTED_EDGE('',*,*,#268,.T.);
#204=ORIENTED_EDGE('',*,*,#269,.T.);
#205=ORIENTED_EDGE('',*,*,#270,.T.);
#206=ORIENTED_EDGE('',*,*,#270,.F.);
#207=ORIENTED_EDGE('',*,*,#267,.F.);
#208=ORIENTED_EDGE('',*,*,#271,.T.);
#209=ORIENTED_EDGE('',*,*,#271,.F.);
#210=ORIENTED_EDGE('',*,*,#268,.F.);
#211=ORIENTED_EDGE('',*,*,#269,.F.);
#212=ORIENTED_EDGE('',*,*,#272,.T.);
#213=ORIENTED_EDGE('',*,*,#272,.F.);
#214=ORIENTED_EDGE('',*,*,#244,.F.);
#215=ORIENTED_EDGE('',*,*,#273,.T.);
#216=ORIENTED_EDGE('',*,*,#273,.F.);
#217=ORIENTED_EDGE('',*,*,#245,.F.);
#218=VERTEX_POINT('',#465);
#219=VERTEX_POINT('',#466);
#220=VERTEX_POINT('',#469);
#221=VERTEX_POINT('',#470);
#222=VERTEX_POINT('',#474);
#223=VERTEX_POINT('',#476);
#224=VERTEX_POINT('',#477);
#225=VERTEX_POINT('',#481);
#226=VERTEX_POINT('',#483);
#227=VERTEX_POINT('',#486);
#228=VERTEX_POINT('',#489);
#229=VERTEX_POINT('',#491);
#230=VERTEX_POINT('',#498);
#231=VERTEX_POINT('',#501);
#232=VERTEX_POINT('',#504);
#233=VERTEX_POINT('',#507);
#234=VERTEX_POINT('',#510);
#235=VERTEX_POINT('',#514);
#236=VERTEX_POINT('',#515);
#237=VERTEX_POINT('',#523);
#238=VERTEX_POINT('',#524);
#239=VERTEX_POINT('',#528);
#240=VERTEX_POINT('',#530);
#241=VERTEX_POINT('',#532);
#242=VERTEX_POINT('',#535);
#243=VERTEX_POINT('',#537);
#244=EDGE_CURVE('',#218,#219,#274,.T.);
#245=EDGE_CURVE('',#219,#218,#275,.T.);
#246=EDGE_CURVE('',#220,#221,#276,.T.);
#247=EDGE_CURVE('',#221,#220,#277,.T.);
#248=EDGE_CURVE('',#222,#222,#278,.T.);
#249=EDGE_CURVE('',#223,#224,#279,.T.);
#250=EDGE_CURVE('',#224,#223,#280,.T.);
#251=EDGE_CURVE('',#225,#225,#281,.T.);
#252=EDGE_CURVE('',#226,#226,#282,.T.);
#253=EDGE_CURVE('',#227,#227,#283,.T.);
#254=EDGE_CURVE('',#220,#228,#54,.T.);
#255=EDGE_CURVE('',#228,#229,#284,.T.);
#256=EDGE_CURVE('',#221,#229,#55,.T.);
#257=EDGE_CURVE('',#229,#228,#285,.T.);
#258=EDGE_CURVE('',#230,#230,#286,.T.);
#259=EDGE_CURVE('',#231,#231,#287,.T.);
#260=EDGE_CURVE('',#232,#232,#288,.T.);
#261=EDGE_CURVE('',#233,#233,#289,.T.);
#262=EDGE_CURVE('',#234,#234,#290,.T.);
#263=EDGE_CURVE('',#235,#236,#291,.T.);
#264=EDGE_CURVE('',#236,#235,#292,.T.);
#265=EDGE_CURVE('',#223,#236,#56,.T.);
#266=EDGE_CURVE('',#224,#235,#57,.T.);
#267=EDGE_CURVE('',#237,#238,#293,.T.);
#268=EDGE_CURVE('',#238,#237,#294,.T.);
#269=EDGE_CURVE('',#239,#239,#295,.T.);
#270=EDGE_CURVE('',#238,#240,#58,.T.);
#271=EDGE_CURVE('',#237,#241,#59,.T.);
#272=EDGE_CURVE('',#219,#242,#60,.T.);
#273=EDGE_CURVE('',#218,#243,#61,.T.);
#274=CIRCLE('',#321,24.95);
#275=CIRCLE('',#322,24.95);
#276=CIRCLE('',#323,20.);
#277=CIRCLE('',#324,20.);
#278=CIRCLE('',#326,25.);
#279=CIRCLE('',#327,16.3416641016637);
#280=CIRCLE('',#328,16.3416641016637);
#281=CIRCLE('',#330,25.);
#282=CIRCLE('',#331,25.);
#283=CIRCLE('',#333,22.);
#284=CIRCLE('',#335,20.);
#285=CIRCLE('',#337,20.);
#286=CIRCLE('',#340,22.46254714345);
#287=CIRCLE('',#342,22.025);
#288=CIRCLE('',#344,22.025);
#289=CIRCLE('',#346,22.46254714358);
#290=CIRCLE('',#348,25.);
#291=CIRCLE('',#351,8.90420498141631);
#292=CIRCLE('',#352,8.90420498141631);
#293=CIRCLE('',#356,19.5000000000054);
#294=CIRCLE('',#357,19.5000000000054);
#295=CIRCLE('',#359,24.95);
#296=INVISIBILITY((#297,#298,#299));
#297=PRESENTATION_LAYER_ASSIGNMENT('100','Layer 100',(#318));
#298=PRESENTATION_LAYER_ASSIGNMENT('101','Layer 101',(#319));
#299=PRESENTATION_LAYER_ASSIGNMENT('102','Layer 102',(#320));
#300=PRESENTATION_LAYER_ASSIGNMENT('98','Layer 98',(#38));
#301=STYLED_ITEM('',(#305),#318);
#302=STYLED_ITEM('',(#306),#319);
#303=STYLED_ITEM('',(#307),#320);
#304=STYLED_ITEM('',(#308),#38);
#305=PRESENTATION_STYLE_ASSIGNMENT((#309));
#306=PRESENTATION_STYLE_ASSIGNMENT((#310));
#307=PRESENTATION_STYLE_ASSIGNMENT((#311));
#308=PRESENTATION_STYLE_ASSIGNMENT((#33));
#309=CURVE_STYLE('',#314,POSITIVE_LENGTH_MEASURE(0.7),#312);
#310=CURVE_STYLE('',#315,POSITIVE_LENGTH_MEASURE(0.7),#312);
#311=CURVE_STYLE('',#316,POSITIVE_LENGTH_MEASURE(0.7),#312);
#312=COLOUR_RGB('Medium Maroon',0.6,0.4,0.4);
#313=COLOUR_RGB('Medium Gray',0.490196078431373,0.490196078431373,0.490196078431373);
#314=DRAUGHTING_PRE_DEFINED_CURVE_FONT('continuous');
#315=DRAUGHTING_PRE_DEFINED_CURVE_FONT('continuous');
#316=DRAUGHTING_PRE_DEFINED_CURVE_FONT('continuous');
#317=AXIS2_PLACEMENT_3D('',#460,#362,#363);
#318=AXIS2_PLACEMENT_3D('PCS',#461,#364,#365);
#319=AXIS2_PLACEMENT_3D('CSW',#462,#366,#367);
#320=AXIS2_PLACEMENT_3D('MCS',#463,#368,#369);
#321=AXIS2_PLACEMENT_3D('',#464,#370,#371);
#322=AXIS2_PLACEMENT_3D('',#467,#372,#373);
#323=AXIS2_PLACEMENT_3D('',#468,#374,#375);
#324=AXIS2_PLACEMENT_3D('',#471,#376,#377);
#325=AXIS2_PLACEMENT_3D('',#472,#378,#379);
#326=AXIS2_PLACEMENT_3D('',#473,#380,#381);
#327=AXIS2_PLACEMENT_3D('',#475,#382,#383);
#328=AXIS2_PLACEMENT_3D('',#478,#384,#385);
#329=AXIS2_PLACEMENT_3D('',#479,#386,#387);
#330=AXIS2_PLACEMENT_3D('',#480,#388,#389);
#331=AXIS2_PLACEMENT_3D('',#482,#390,#391);
#332=AXIS2_PLACEMENT_3D('',#484,#392,#393);
#333=AXIS2_PLACEMENT_3D('',#485,#394,#395);
#334=AXIS2_PLACEMENT_3D('',#487,#396,#397);
#335=AXIS2_PLACEMENT_3D('',#490,#399,#400);
#336=AXIS2_PLACEMENT_3D('',#493,#402,#403);
#337=AXIS2_PLACEMENT_3D('',#494,#404,#405);
#338=AXIS2_PLACEMENT_3D('',#495,#406,#407);
#339=AXIS2_PLACEMENT_3D('',#496,#408,#409);
#340=AXIS2_PLACEMENT_3D('',#497,#410,#411);
#341=AXIS2_PLACEMENT_3D('',#499,#412,#413);
#342=AXIS2_PLACEMENT_3D('',#500,#414,#415);
#343=AXIS2_PLACEMENT_3D('',#502,#416,#417);
#344=AXIS2_PLACEMENT_3D('',#503,#418,#419);
#345=AXIS2_PLACEMENT_3D('',#505,#420,#421);
#346=AXIS2_PLACEMENT_3D('',#506,#422,#423);
#347=AXIS2_PLACEMENT_3D('',#508,#424,#425);
#348=AXIS2_PLACEMENT_3D('',#509,#426,#427);
#349=AXIS2_PLACEMENT_3D('',#511,#428,#429);
#350=AXIS2_PLACEMENT_3D('',#512,#430,#431);
#351=AXIS2_PLACEMENT_3D('',#513,#432,#433);
#352=AXIS2_PLACEMENT_3D('',#516,#434,#435);
#353=AXIS2_PLACEMENT_3D('',#517,#436,#437);
#354=AXIS2_PLACEMENT_3D('',#520,#440,#441);
#355=AXIS2_PLACEMENT_3D('',#521,#442,#443);
#356=AXIS2_PLACEMENT_3D('',#522,#444,#445);
#357=AXIS2_PLACEMENT_3D('',#525,#446,#447);
#358=AXIS2_PLACEMENT_3D('',#526,#448,#449);
#359=AXIS2_PLACEMENT_3D('',#527,#450,#451);
#360=AXIS2_PLACEMENT_3D('',#533,#454,#455);
#361=AXIS2_PLACEMENT_3D('',#538,#458,#459);
#362=DIRECTION('',(0.,0.,1.));
#363=DIRECTION('',(1.,0.,0.));
#364=DIRECTION('',(0.,0.,1.));
#365=DIRECTION('',(1.,0.,0.));
#366=DIRECTION('',(0.,0.,1.));
#367=DIRECTION('',(1.,0.,0.));
#368=DIRECTION('',(0.,0.,1.));
#369=DIRECTION('',(1.,0.,0.));
#370=DIRECTION('',(0.,0.,1.));
#371=DIRECTION('',(1.,0.,0.));
#372=DIRECTION('',(0.,0.,1.));
#373=DIRECTION('',(1.,0.,0.));
#374=DIRECTION('',(0.,0.,-1.));
#375=DIRECTION('',(1.,0.,0.));
#376=DIRECTION('',(0.,0.,-1.));
#377=DIRECTION('',(1.,0.,0.));
#378=DIRECTION('',(0.,0.,1.));
#379=DIRECTION('',(0.,1.,0.));
#380=DIRECTION('',(0.,0.,1.));
#381=DIRECTION('',(-1.,0.,0.));
#382=DIRECTION('',(0.,0.,-1.));
#383=DIRECTION('',(-1.,0.,0.));
#384=DIRECTION('',(0.,0.,-1.));
#385=DIRECTION('',(-1.,0.,0.));
#386=DIRECTION('',(0.,0.,-1.));
#387=DIRECTION('',(0.,1.,0.));
#388=DIRECTION('',(0.,0.,-1.));
#389=DIRECTION('',(0.94673966854674,-0.322000000000014,0.));
#390=DIRECTION('',(0.,0.,1.));
#391=DIRECTION('',(-1.,0.,0.));
#392=DIRECTION('',(0.,0.,-1.));
#393=DIRECTION('',(0.,1.,0.));
#394=DIRECTION('',(0.,0.,-1.));
#395=DIRECTION('',(0.93065059887698,-0.365909090909092,0.));
#396=DIRECTION('',(0.,0.,-1.));
#397=DIRECTION('',(0.,1.,0.));
#398=DIRECTION('',(-8.06650350293E-14,0.,1.));
#399=DIRECTION('',(0.,0.,-1.));
#400=DIRECTION('',(0.,-1.,0.));
#401=DIRECTION('',(8.061666374192E-14,0.,1.));
#402=DIRECTION('',(0.,0.,-1.));
#403=DIRECTION('',(0.,1.,0.));
#404=DIRECTION('',(0.,0.,-1.));
#405=DIRECTION('',(0.940000000000013,-0.341174442184605,0.));
#406=DIRECTION('',(0.,0.,-1.));
#407=DIRECTION('',(0.,1.,0.));
#408=DIRECTION('',(0.,0.,-1.));
#409=DIRECTION('',(-0.999998895961361,0.00148595964285994,0.));
#410=DIRECTION('',(0.,0.,-1.));
#411=DIRECTION('',(0.933577982075045,-0.358374317417817,0.));
#412=DIRECTION('',(0.,0.,-1.));
#413=DIRECTION('',(0.,1.,-4.14962578634445E-17));
#414=DIRECTION('',(0.,0.,-1.));
#415=DIRECTION('',(0.930813791005031,-0.365493757094212,0.));
#416=DIRECTION('',(0.,0.,-1.));
#417=DIRECTION('',(6.47937227024391E-5,-0.999999997900887,0.));
#418=DIRECTION('',(0.,0.,-1.));
#419=DIRECTION('',(0.930813791005031,-0.365493757094212,0.));
#420=DIRECTION('',(0.,0.,-1.));
#421=DIRECTION('',(0.,1.,0.));
#422=DIRECTION('',(0.,0.,-1.));
#423=DIRECTION('',(0.933577982075817,-0.358374317415807,0.));
#424=DIRECTION('',(0.,0.,-1.));
#425=DIRECTION('',(6.44853621066812E-5,-0.999999997920819,0.));
#426=DIRECTION('',(0.,0.,-1.));
#427=DIRECTION('',(0.94673966854674,-0.322000000000014,0.));
#428=DIRECTION('',(0.,0.,1.));
#429=DIRECTION('',(0.,-1.,3.06281903277794E-17));
#430=DIRECTION('',(0.,0.,-1.));
#431=DIRECTION('',(0.,1.,0.));
#432=DIRECTION('',(0.,0.,1.));
#433=DIRECTION('',(-1.,0.,0.));
#434=DIRECTION('',(0.,0.,1.));
#435=DIRECTION('',(-1.,0.,0.));
#436=DIRECTION('',(0.,0.,-1.));
#437=DIRECTION('',(0.,1.,0.));
#438=DIRECTION('',(3.82953160747093E-13,-0.144306116415197,0.989533094325381));
#439=DIRECTION('',(-3.82951926350393E-13,0.144306116415197,0.989533094325381));
#440=DIRECTION('',(0.,0.,-1.));
#441=DIRECTION('',(0.,1.,2.84835142979602E-16));
#442=DIRECTION('',(0.,0.,-1.));
#443=DIRECTION('',(0.,1.,2.84835142979602E-16));
#444=DIRECTION('',(0.,0.,-1.));
#445=DIRECTION('',(1.,0.,0.));
#446=DIRECTION('',(0.,0.,-1.));
#447=DIRECTION('',(1.,0.,0.));
#448=DIRECTION('',(0.,0.,1.));
#449=DIRECTION('',(0.,1.,0.));
#450=DIRECTION('',(0.,0.,-1.));
#451=DIRECTION('',(1.,0.,0.));
#452=DIRECTION('',(-4.16850436835114E-14,0.866025403784429,0.500000000000017));
#453=DIRECTION('',(4.26442744262914E-14,-0.866025403784429,0.500000000000017));
#454=DIRECTION('',(0.,0.,1.));
#455=DIRECTION('',(0.,1.,0.));
#456=DIRECTION('',(0.,0.,-1.));
#457=DIRECTION('',(-1.369249300723E-14,0.,-1.));
#458=DIRECTION('',(0.,0.,1.));
#459=DIRECTION('',(0.,1.,0.));
#460=CARTESIAN_POINT('',(0.,0.,0.));
#461=CARTESIAN_POINT('',(0.,0.,0.));
#462=CARTESIAN_POINT('',(0.,0.,-57.));
#463=CARTESIAN_POINT('',(0.,0.,0.));
#464=CARTESIAN_POINT('',(0.,0.,-47.1));
#465=CARTESIAN_POINT('',(3.15862999398051E-14,-24.95,-47.1));
#466=CARTESIAN_POINT('',(0.,24.95,-47.1));
#467=CARTESIAN_POINT('',(0.,0.,-47.1));
#468=CARTESIAN_POINT('',(0.,0.,-47.1));
#469=CARTESIAN_POINT('',(-3.22962732490572E-14,-20.,-47.1));
#470=CARTESIAN_POINT('',(3.22769065889663E-14,20.,-47.1));
#471=CARTESIAN_POINT('',(0.,0.,-47.1));
#472=CARTESIAN_POINT('',(0.,0.,-47.1));
#473=CARTESIAN_POINT('',(0.,0.,-3.2));
#474=CARTESIAN_POINT('',(-25.,0.,-3.2));
#475=CARTESIAN_POINT('',(0.,0.,-3.2));
#476=CARTESIAN_POINT('',(0.,16.3416641016637,-3.2));
#477=CARTESIAN_POINT('',(-1.24149938345436E-11,-16.3416641016637,-3.2));
#478=CARTESIAN_POINT('',(0.,0.,-3.2));
#479=CARTESIAN_POINT('',(0.,0.,-3.2));
#480=CARTESIAN_POINT('',(0.,0.,-14.477499074759));
#481=CARTESIAN_POINT('',(23.6684917136685,-8.05000000000034,-14.477499074759));
#482=CARTESIAN_POINT('',(0.,0.,-19.1));
#483=CARTESIAN_POINT('',(-25.,0.,-19.1));
#484=CARTESIAN_POINT('',(0.,0.,51.145));
#485=CARTESIAN_POINT('',(0.,0.,-19.1));
#486=CARTESIAN_POINT('',(20.4743131752936,-8.05000000000003,-19.1));
#487=CARTESIAN_POINT('',(0.,0.,-19.1));
#488=CARTESIAN_POINT('',(0.,-20.,-47.5003751221));
#489=CARTESIAN_POINT('',(0.,-20.,-21.1));
#490=CARTESIAN_POINT('',(0.,0.,-21.1));
#491=CARTESIAN_POINT('',(0.,20.,-21.1));
#492=CARTESIAN_POINT('',(0.,20.,-47.5003751221));
#493=CARTESIAN_POINT('',(0.,0.,-17.205));
#494=CARTESIAN_POINT('',(0.,0.,-21.1));
#495=CARTESIAN_POINT('',(0.,0.,-17.205));
#496=CARTESIAN_POINT('',(0.,0.,-21.1));
#497=CARTESIAN_POINT('',(0.,0.,-13.012499984975));
#498=CARTESIAN_POINT('',(20.9705394344476,-8.04999999999944,-13.012499984975));
#499=CARTESIAN_POINT('',(0.,0.,-13.744999529867));
#500=CARTESIAN_POINT('',(0.,0.,-12.51641567691));
#501=CARTESIAN_POINT('',(20.5011737468858,-8.05000000000002,-12.51641567691));
#502=CARTESIAN_POINT('',(0.,0.,-12.51641567691));
#503=CARTESIAN_POINT('',(0.,0.,-9.683584323034));
#504=CARTESIAN_POINT('',(20.5011737468858,-8.05000000000002,-9.683584323034));
#505=CARTESIAN_POINT('',(0.,0.,51.145));
#506=CARTESIAN_POINT('',(0.,0.,-9.187500014953));
#507=CARTESIAN_POINT('',(20.9705394345863,-8.05000000000086,-9.187500014953));
#508=CARTESIAN_POINT('',(0.,0.,-9.683584323034));
#509=CARTESIAN_POINT('',(0.,0.,-7.72250092524));
#510=CARTESIAN_POINT('',(23.6684917136685,-8.05000000000034,-7.72250092524));
#511=CARTESIAN_POINT('',(0.,0.,-8.4550004701));
#512=CARTESIAN_POINT('',(0.,0.,51.145));
#513=CARTESIAN_POINT('',(0.,0.,47.8));
#514=CARTESIAN_POINT('',(-1.89631296808341E-11,-8.90420498141354,47.8));
#515=CARTESIAN_POINT('',(1.89631908060644E-11,8.90420498141354,47.8));
#516=CARTESIAN_POINT('',(0.,0.,47.8));
#517=CARTESIAN_POINT('',(0.,0.,47.8));
#518=CARTESIAN_POINT('',(0.,16.04999903812,-1.2));
#519=CARTESIAN_POINT('',(0.,-16.04999903812,-1.2));
#520=CARTESIAN_POINT('',(0.,0.,23.04329183492));
#521=CARTESIAN_POINT('',(0.,0.,23.04329183492));
#522=CARTESIAN_POINT('',(0.,0.,-70.));
#523=CARTESIAN_POINT('',(-2.28529977885759E-14,-19.5000000000042,-70.));
#524=CARTESIAN_POINT('',(2.2338947582812E-14,19.5000000000042,-70.));
#525=CARTESIAN_POINT('',(0.,0.,-70.));
#526=CARTESIAN_POINT('',(0.,0.,-70.));
#527=CARTESIAN_POINT('',(0.,0.,-66.8534410329197));
#528=CARTESIAN_POINT('',(24.95,0.,-66.8534410329197));
#529=CARTESIAN_POINT('',(0.,19.96410161514,-69.73205080757));
#530=CARTESIAN_POINT('',(-8.951454755896E-14,21.77301270189,-68.68767550469));
#531=CARTESIAN_POINT('',(0.,-19.96410161514,-69.73205080757));
#532=CARTESIAN_POINT('',(9.1518161354E-14,-21.77301270189,-68.68767550469));
#533=CARTESIAN_POINT('',(0.,0.,-68.58142105484));
#534=CARTESIAN_POINT('',(0.,24.95,-52.3));
#535=CARTESIAN_POINT('',(0.,24.95,-52.3));
#536=CARTESIAN_POINT('',(-7.110739761442E-14,-24.95,-54.6));
#537=CARTESIAN_POINT('',(-1.4690906817711E-13,-24.95,-54.6));
#538=CARTESIAN_POINT('',(0.,0.,-77.97));
#539=MECHANICAL_DESIGN_GEOMETRIC_PRESENTATION_REPRESENTATION('',(#301,#302,
#303,#304),#540);
#540=(
GEOMETRIC_REPRESENTATION_CONTEXT(3)
GLOBAL_UNCERTAINTY_ASSIGNED_CONTEXT((#541))
GLOBAL_UNIT_ASSIGNED_CONTEXT((#547,#543,#542))
REPRESENTATION_CONTEXT('69871.30AD-CC.ER32','TOP_LEVEL_ASSEMBLY_PART')
);
#541=UNCERTAINTY_MEASURE_WITH_UNIT(LENGTH_MEASURE(2.E-5),#547,
'DISTANCE_ACCURACY_VALUE','Maximum Tolerance applied to model');
#542=(
NAMED_UNIT(*)
SI_UNIT($,.STERADIAN.)
SOLID_ANGLE_UNIT()
);
#543=(
CONVERSION_BASED_UNIT('DEGREE',#545)
NAMED_UNIT(#544)
PLANE_ANGLE_UNIT()
);
#544=DIMENSIONAL_EXPONENTS(0.,0.,0.,0.,0.,0.,0.);
#545=PLANE_ANGLE_MEASURE_WITH_UNIT(PLANE_ANGLE_MEASURE(0.0174532925),#546);
#546=(
NAMED_UNIT(*)
PLANE_ANGLE_UNIT()
SI_UNIT($,.RADIAN.)
);
#547=(
LENGTH_UNIT()
NAMED_UNIT(*)
SI_UNIT(.MILLI.,.METRE.)
);
ENDSEC;
END-ISO-10303-21;
