ISO-10303-21;
HEADER;
/* Generated by software containing ST-Developer
 * from STEP Tools, Inc. (www.steptools.com) 
 */
/* OPTION: using custom schema-name function */

FILE_DESCRIPTION(
/* description */ (''),
/* implementation_level */ '2;1');

FILE_NAME(
/* name */ '69871.30AD-CC.ER25.100.stp',
/* time_stamp */ '2024-06-23T18:15:33+02:00',
/* author */ (''),
/* organization */ (''),
/* preprocessor_version */ 'ST-DEVELOPER v16.7',
/* originating_system */ 'SIEMENS PLM Software NX 12.0',
/* authorisation */ '');

FILE_SCHEMA (('AUTOMOTIVE_DESIGN { 1 0 10303 214 3 1 1 1 }'));
ENDSEC;

DATA;
#10=CONSTRUCTIVE_GEOMETRY_REPRESENTATION_RELATIONSHIP(
'supplemental geometry','',#32,#11);
#11=CONSTRUCTIVE_GEOMETRY_REPRESENTATION('supplemental geometry',(#333,
#334,#335),#572);
#12=PROPERTY_DEFINITION_REPRESENTATION(#16,#14);
#13=PROPERTY_DEFINITION_REPRESENTATION(#17,#15);
#14=REPRESENTATION('',(#18),#572);
#15=REPRESENTATION('',(#19),#572);
#16=PROPERTY_DEFINITION('pmi validation property','',#23);
#17=PROPERTY_DEFINITION('pmi validation property','',#23);
#18=VALUE_REPRESENTATION_ITEM('number of annotations',COUNT_MEASURE(0.));
#19=VALUE_REPRESENTATION_ITEM('number of views',COUNT_MEASURE(0.));
#20=SHAPE_REPRESENTATION_RELATIONSHIP('None',
'relationship between pf660F5CA0AEj8fm-None and pf660F5CA0AEj8fm-None',
#32,#21);
#21=ADVANCED_BREP_SHAPE_REPRESENTATION('pf660F5CA0AEj8fm-None',(#38),#572);
#22=SHAPE_DEFINITION_REPRESENTATION(#23,#32);
#23=PRODUCT_DEFINITION_SHAPE('','',#24);
#24=PRODUCT_DEFINITION(' ','',#26,#25);
#25=PRODUCT_DEFINITION_CONTEXT('part definition',#31,'design');
#26=PRODUCT_DEFINITION_FORMATION_WITH_SPECIFIED_SOURCE(' ',' ',#28,
 .NOT_KNOWN.);
#27=PRODUCT_RELATED_PRODUCT_CATEGORY('part','',(#28));
#28=PRODUCT('pf660F5CA0AEj8fm','pf660F5CA0AEj8fm',' ',(#29));
#29=PRODUCT_CONTEXT(' ',#31,'mechanical');
#30=APPLICATION_PROTOCOL_DEFINITION('international standard',
'automotive_design',2010,#31);
#31=APPLICATION_CONTEXT(
'core data for automotive mechanical design processes');
#32=SHAPE_REPRESENTATION('pf660F5CA0AEj8fm-None',(#332),#572);
#33=SURFACE_STYLE_USAGE(.BOTH.,#34);
#34=SURFACE_SIDE_STYLE('',(#35));
#35=SURFACE_STYLE_FILL_AREA(#36);
#36=FILL_AREA_STYLE('',(#37));
#37=FILL_AREA_STYLE_COLOUR('',#328);
#38=MANIFOLD_SOLID_BREP('',#39);
#39=CLOSED_SHELL('',(#79,#80,#81,#82,#83,#84,#85,#86,#87,#88,#89,#90,#91,
#92,#93,#94,#95,#96,#97,#98));
#40=LINE('',#539,#48);
#41=LINE('',#541,#49);
#42=LINE('',#550,#50);
#43=LINE('',#551,#51);
#44=LINE('',#561,#52);
#45=LINE('',#563,#53);
#46=LINE('',#566,#54);
#47=LINE('',#568,#55);
#48=VECTOR('',#449,1.);
#49=VECTOR('',#452,1.);
#50=VECTOR('',#465,1.);
#51=VECTOR('',#466,1.);
#52=VECTOR('',#479,1.);
#53=VECTOR('',#480,1.);
#54=VECTOR('',#483,1.);
#55=VECTOR('',#484,1.);
#56=CONICAL_SURFACE('',#356,23.73127357173,60.);
#57=CONICAL_SURFACE('',#364,23.73127357179,60.);
#58=CONICAL_SURFACE('',#373,12.51453841141,8.2971);
#59=CONICAL_SURFACE('',#374,12.51453841141,8.2971);
#60=CONICAL_SURFACE('',#379,17.83205080757,60.);
#61=TOROIDAL_SURFACE('',#354,18.,2.);
#62=TOROIDAL_SURFACE('',#358,22.525,0.5);
#63=TOROIDAL_SURFACE('',#362,22.525,0.5);
#64=TOROIDAL_SURFACE('',#368,18.,2.);
#65=FACE_OUTER_BOUND('',#136,.T.);
#66=FACE_OUTER_BOUND('',#149,.T.);
#67=FACE_OUTER_BOUND('',#150,.T.);
#68=FACE_OUTER_BOUND('',#151,.T.);
#69=FACE_OUTER_BOUND('',#152,.T.);
#70=FACE_OUTER_BOUND('',#153,.T.);
#71=FACE_OUTER_BOUND('',#154,.T.);
#72=FACE_OUTER_BOUND('',#155,.T.);
#73=CYLINDRICAL_SURFACE('',#347,25.);
#74=CYLINDRICAL_SURFACE('',#360,22.025);
#75=CYLINDRICAL_SURFACE('',#365,25.);
#76=CYLINDRICAL_SURFACE('',#367,16.);
#77=CYLINDRICAL_SURFACE('',#369,16.);
#78=CYLINDRICAL_SURFACE('',#380,20.95);
#79=ADVANCED_FACE('',(#104,#105),#99,.T.);
#80=ADVANCED_FACE('',(#106,#107),#100,.F.);
#81=ADVANCED_FACE('',(#108,#109),#73,.T.);
#82=ADVANCED_FACE('',(#110,#111),#101,.T.);
#83=ADVANCED_FACE('',(#65),#61,.F.);
#84=ADVANCED_FACE('',(#112,#113),#56,.T.);
#85=ADVANCED_FACE('',(#114,#115),#62,.F.);
#86=ADVANCED_FACE('',(#116,#117),#74,.T.);
#87=ADVANCED_FACE('',(#118,#119),#63,.F.);
#88=ADVANCED_FACE('',(#120,#121),#57,.T.);
#89=ADVANCED_FACE('',(#122,#123),#75,.T.);
#90=ADVANCED_FACE('',(#66),#76,.T.);
#91=ADVANCED_FACE('',(#67),#64,.F.);
#92=ADVANCED_FACE('',(#68),#77,.T.);
#93=ADVANCED_FACE('',(#69),#102,.F.);
#94=ADVANCED_FACE('',(#70),#58,.T.);
#95=ADVANCED_FACE('',(#71),#59,.T.);
#96=ADVANCED_FACE('',(#72),#103,.F.);
#97=ADVANCED_FACE('',(#124,#125),#60,.T.);
#98=ADVANCED_FACE('',(#126,#127),#78,.T.);
#99=PLANE('',#340);
#100=PLANE('',#344);
#101=PLANE('',#350);
#102=PLANE('',#372);
#103=PLANE('',#377);
#104=FACE_BOUND('',#128,.T.);
#105=FACE_BOUND('',#129,.T.);
#106=FACE_BOUND('',#130,.T.);
#107=FACE_BOUND('',#131,.T.);
#108=FACE_BOUND('',#132,.T.);
#109=FACE_BOUND('',#133,.T.);
#110=FACE_BOUND('',#134,.T.);
#111=FACE_BOUND('',#135,.T.);
#112=FACE_BOUND('',#137,.T.);
#113=FACE_BOUND('',#138,.T.);
#114=FACE_BOUND('',#139,.T.);
#115=FACE_BOUND('',#140,.T.);
#116=FACE_BOUND('',#141,.T.);
#117=FACE_BOUND('',#142,.T.);
#118=FACE_BOUND('',#143,.T.);
#119=FACE_BOUND('',#144,.T.);
#120=FACE_BOUND('',#145,.T.);
#121=FACE_BOUND('',#146,.T.);
#122=FACE_BOUND('',#147,.T.);
#123=FACE_BOUND('',#148,.T.);
#124=FACE_BOUND('',#156,.T.);
#125=FACE_BOUND('',#157,.T.);
#126=FACE_BOUND('',#158,.T.);
#127=FACE_BOUND('',#159,.T.);
#128=EDGE_LOOP('',(#160,#161));
#129=EDGE_LOOP('',(#162,#163));
#130=EDGE_LOOP('',(#164));
#131=EDGE_LOOP('',(#165,#166));
#132=EDGE_LOOP('',(#167));
#133=EDGE_LOOP('',(#168));
#134=EDGE_LOOP('',(#169));
#135=EDGE_LOOP('',(#170,#171));
#136=EDGE_LOOP('',(#172,#173,#174,#175));
#137=EDGE_LOOP('',(#176));
#138=EDGE_LOOP('',(#177));
#139=EDGE_LOOP('',(#178));
#140=EDGE_LOOP('',(#179));
#141=EDGE_LOOP('',(#180));
#142=EDGE_LOOP('',(#181));
#143=EDGE_LOOP('',(#182));
#144=EDGE_LOOP('',(#183));
#145=EDGE_LOOP('',(#184));
#146=EDGE_LOOP('',(#185));
#147=EDGE_LOOP('',(#186));
#148=EDGE_LOOP('',(#187));
#149=EDGE_LOOP('',(#188,#189,#190,#191));
#150=EDGE_LOOP('',(#192,#193,#194,#195));
#151=EDGE_LOOP('',(#196,#197,#198,#199));
#152=EDGE_LOOP('',(#200,#201));
#153=EDGE_LOOP('',(#202,#203,#204,#205));
#154=EDGE_LOOP('',(#206,#207,#208,#209));
#155=EDGE_LOOP('',(#210,#211));
#156=EDGE_LOOP('',(#212));
#157=EDGE_LOOP('',(#213,#214,#215,#216,#217,#218));
#158=EDGE_LOOP('',(#219));
#159=EDGE_LOOP('',(#220,#221,#222,#223,#224,#225));
#160=ORIENTED_EDGE('',*,*,#253,.T.);
#161=ORIENTED_EDGE('',*,*,#254,.T.);
#162=ORIENTED_EDGE('',*,*,#255,.T.);
#163=ORIENTED_EDGE('',*,*,#256,.T.);
#164=ORIENTED_EDGE('',*,*,#257,.T.);
#165=ORIENTED_EDGE('',*,*,#258,.T.);
#166=ORIENTED_EDGE('',*,*,#259,.T.);
#167=ORIENTED_EDGE('',*,*,#260,.T.);
#168=ORIENTED_EDGE('',*,*,#261,.T.);
#169=ORIENTED_EDGE('',*,*,#260,.F.);
#170=ORIENTED_EDGE('',*,*,#262,.F.);
#171=ORIENTED_EDGE('',*,*,#263,.F.);
#172=ORIENTED_EDGE('',*,*,#262,.T.);
#173=ORIENTED_EDGE('',*,*,#264,.T.);
#174=ORIENTED_EDGE('',*,*,#265,.F.);
#175=ORIENTED_EDGE('',*,*,#266,.F.);
#176=ORIENTED_EDGE('',*,*,#261,.F.);
#177=ORIENTED_EDGE('',*,*,#267,.T.);
#178=ORIENTED_EDGE('',*,*,#267,.F.);
#179=ORIENTED_EDGE('',*,*,#268,.T.);
#180=ORIENTED_EDGE('',*,*,#268,.F.);
#181=ORIENTED_EDGE('',*,*,#269,.T.);
#182=ORIENTED_EDGE('',*,*,#269,.F.);
#183=ORIENTED_EDGE('',*,*,#270,.T.);
#184=ORIENTED_EDGE('',*,*,#270,.F.);
#185=ORIENTED_EDGE('',*,*,#271,.T.);
#186=ORIENTED_EDGE('',*,*,#271,.F.);
#187=ORIENTED_EDGE('',*,*,#257,.F.);
#188=ORIENTED_EDGE('',*,*,#255,.F.);
#189=ORIENTED_EDGE('',*,*,#272,.T.);
#190=ORIENTED_EDGE('',*,*,#273,.T.);
#191=ORIENTED_EDGE('',*,*,#274,.F.);
#192=ORIENTED_EDGE('',*,*,#266,.T.);
#193=ORIENTED_EDGE('',*,*,#273,.F.);
#194=ORIENTED_EDGE('',*,*,#264,.F.);
#195=ORIENTED_EDGE('',*,*,#263,.T.);
#196=ORIENTED_EDGE('',*,*,#256,.F.);
#197=ORIENTED_EDGE('',*,*,#274,.T.);
#198=ORIENTED_EDGE('',*,*,#265,.T.);
#199=ORIENTED_EDGE('',*,*,#272,.F.);
#200=ORIENTED_EDGE('',*,*,#275,.T.);
#201=ORIENTED_EDGE('',*,*,#276,.T.);
#202=ORIENTED_EDGE('',*,*,#277,.F.);
#203=ORIENTED_EDGE('',*,*,#259,.F.);
#204=ORIENTED_EDGE('',*,*,#278,.T.);
#205=ORIENTED_EDGE('',*,*,#276,.F.);
#206=ORIENTED_EDGE('',*,*,#278,.F.);
#207=ORIENTED_EDGE('',*,*,#258,.F.);
#208=ORIENTED_EDGE('',*,*,#277,.T.);
#209=ORIENTED_EDGE('',*,*,#275,.F.);
#210=ORIENTED_EDGE('',*,*,#279,.T.);
#211=ORIENTED_EDGE('',*,*,#280,.T.);
#212=ORIENTED_EDGE('',*,*,#281,.F.);
#213=ORIENTED_EDGE('',*,*,#282,.T.);
#214=ORIENTED_EDGE('',*,*,#282,.F.);
#215=ORIENTED_EDGE('',*,*,#280,.F.);
#216=ORIENTED_EDGE('',*,*,#283,.T.);
#217=ORIENTED_EDGE('',*,*,#283,.F.);
#218=ORIENTED_EDGE('',*,*,#279,.F.);
#219=ORIENTED_EDGE('',*,*,#281,.T.);
#220=ORIENTED_EDGE('',*,*,#284,.T.);
#221=ORIENTED_EDGE('',*,*,#284,.F.);
#222=ORIENTED_EDGE('',*,*,#254,.F.);
#223=ORIENTED_EDGE('',*,*,#285,.T.);
#224=ORIENTED_EDGE('',*,*,#285,.F.);
#225=ORIENTED_EDGE('',*,*,#253,.F.);
#226=VERTEX_POINT('',#492);
#227=VERTEX_POINT('',#493);
#228=VERTEX_POINT('',#496);
#229=VERTEX_POINT('',#497);
#230=VERTEX_POINT('',#501);
#231=VERTEX_POINT('',#503);
#232=VERTEX_POINT('',#504);
#233=VERTEX_POINT('',#508);
#234=VERTEX_POINT('',#510);
#235=VERTEX_POINT('',#513);
#236=VERTEX_POINT('',#514);
#237=VERTEX_POINT('',#518);
#238=VERTEX_POINT('',#520);
#239=VERTEX_POINT('',#524);
#240=VERTEX_POINT('',#527);
#241=VERTEX_POINT('',#530);
#242=VERTEX_POINT('',#533);
#243=VERTEX_POINT('',#536);
#244=VERTEX_POINT('',#546);
#245=VERTEX_POINT('',#547);
#246=VERTEX_POINT('',#555);
#247=VERTEX_POINT('',#556);
#248=VERTEX_POINT('',#560);
#249=VERTEX_POINT('',#562);
#250=VERTEX_POINT('',#564);
#251=VERTEX_POINT('',#567);
#252=VERTEX_POINT('',#569);
#253=EDGE_CURVE('',#226,#227,#286,.T.);
#254=EDGE_CURVE('',#227,#226,#287,.T.);
#255=EDGE_CURVE('',#228,#229,#288,.T.);
#256=EDGE_CURVE('',#229,#228,#289,.T.);
#257=EDGE_CURVE('',#230,#230,#290,.T.);
#258=EDGE_CURVE('',#231,#232,#291,.T.);
#259=EDGE_CURVE('',#232,#231,#292,.T.);
#260=EDGE_CURVE('',#233,#233,#293,.T.);
#261=EDGE_CURVE('',#234,#234,#294,.T.);
#262=EDGE_CURVE('',#235,#236,#295,.T.);
#263=EDGE_CURVE('',#236,#235,#296,.T.);
#264=EDGE_CURVE('',#236,#237,#297,.T.);
#265=EDGE_CURVE('',#238,#237,#298,.T.);
#266=EDGE_CURVE('',#235,#238,#299,.T.);
#267=EDGE_CURVE('',#239,#239,#300,.T.);
#268=EDGE_CURVE('',#240,#240,#301,.T.);
#269=EDGE_CURVE('',#241,#241,#302,.T.);
#270=EDGE_CURVE('',#242,#242,#303,.T.);
#271=EDGE_CURVE('',#243,#243,#304,.T.);
#272=EDGE_CURVE('',#228,#237,#40,.T.);
#273=EDGE_CURVE('',#237,#238,#305,.T.);
#274=EDGE_CURVE('',#229,#238,#41,.T.);
#275=EDGE_CURVE('',#244,#245,#306,.T.);
#276=EDGE_CURVE('',#245,#244,#307,.T.);
#277=EDGE_CURVE('',#231,#245,#42,.T.);
#278=EDGE_CURVE('',#232,#244,#43,.T.);
#279=EDGE_CURVE('',#246,#247,#308,.T.);
#280=EDGE_CURVE('',#247,#246,#309,.T.);
#281=EDGE_CURVE('',#248,#248,#310,.T.);
#282=EDGE_CURVE('',#246,#249,#44,.T.);
#283=EDGE_CURVE('',#247,#250,#45,.T.);
#284=EDGE_CURVE('',#226,#251,#46,.T.);
#285=EDGE_CURVE('',#227,#252,#47,.T.);
#286=CIRCLE('',#336,20.95);
#287=CIRCLE('',#337,20.95);
#288=CIRCLE('',#338,16.);
#289=CIRCLE('',#339,16.);
#290=CIRCLE('',#341,25.);
#291=CIRCLE('',#342,16.3416641016637);
#292=CIRCLE('',#343,16.3416641016637);
#293=CIRCLE('',#345,25.);
#294=CIRCLE('',#346,25.);
#295=CIRCLE('',#348,18.);
#296=CIRCLE('',#349,18.);
#297=CIRCLE('',#351,2.);
#298=CIRCLE('',#352,16.);
#299=CIRCLE('',#353,2.);
#300=CIRCLE('',#355,22.46254714345);
#301=CIRCLE('',#357,22.025);
#302=CIRCLE('',#359,22.025);
#303=CIRCLE('',#361,22.46254714358);
#304=CIRCLE('',#363,25.);
#305=CIRCLE('',#366,16.);
#306=CIRCLE('',#370,8.90420498141631);
#307=CIRCLE('',#371,8.90420498141631);
#308=CIRCLE('',#375,15.2500000000031);
#309=CIRCLE('',#376,15.2500000000031);
#310=CIRCLE('',#378,20.95);
#311=INVISIBILITY((#312,#313,#314));
#312=PRESENTATION_LAYER_ASSIGNMENT('100','Layer 100',(#333));
#313=PRESENTATION_LAYER_ASSIGNMENT('101','Layer 101',(#334));
#314=PRESENTATION_LAYER_ASSIGNMENT('102','Layer 102',(#335));
#315=PRESENTATION_LAYER_ASSIGNMENT('98','Layer 98',(#38));
#316=STYLED_ITEM('',(#320),#333);
#317=STYLED_ITEM('',(#321),#334);
#318=STYLED_ITEM('',(#322),#335);
#319=STYLED_ITEM('',(#323),#38);
#320=PRESENTATION_STYLE_ASSIGNMENT((#324));
#321=PRESENTATION_STYLE_ASSIGNMENT((#325));
#322=PRESENTATION_STYLE_ASSIGNMENT((#326));
#323=PRESENTATION_STYLE_ASSIGNMENT((#33));
#324=CURVE_STYLE('',#329,POSITIVE_LENGTH_MEASURE(0.7),#327);
#325=CURVE_STYLE('',#330,POSITIVE_LENGTH_MEASURE(0.7),#327);
#326=CURVE_STYLE('',#331,POSITIVE_LENGTH_MEASURE(0.7),#327);
#327=COLOUR_RGB('Medium Maroon',0.6,0.4,0.4);
#328=COLOUR_RGB('Medium Gray',0.490196078431373,0.490196078431373,0.490196078431373);
#329=DRAUGHTING_PRE_DEFINED_CURVE_FONT('continuous');
#330=DRAUGHTING_PRE_DEFINED_CURVE_FONT('continuous');
#331=DRAUGHTING_PRE_DEFINED_CURVE_FONT('continuous');
#332=AXIS2_PLACEMENT_3D('',#487,#381,#382);
#333=AXIS2_PLACEMENT_3D('PCS',#488,#383,#384);
#334=AXIS2_PLACEMENT_3D('CSW',#489,#385,#386);
#335=AXIS2_PLACEMENT_3D('MCS',#490,#387,#388);
#336=AXIS2_PLACEMENT_3D('',#491,#389,#390);
#337=AXIS2_PLACEMENT_3D('',#494,#391,#392);
#338=AXIS2_PLACEMENT_3D('',#495,#393,#394);
#339=AXIS2_PLACEMENT_3D('',#498,#395,#396);
#340=AXIS2_PLACEMENT_3D('',#499,#397,#398);
#341=AXIS2_PLACEMENT_3D('',#500,#399,#400);
#342=AXIS2_PLACEMENT_3D('',#502,#401,#402);
#343=AXIS2_PLACEMENT_3D('',#505,#403,#404);
#344=AXIS2_PLACEMENT_3D('',#506,#405,#406);
#345=AXIS2_PLACEMENT_3D('',#507,#407,#408);
#346=AXIS2_PLACEMENT_3D('',#509,#409,#410);
#347=AXIS2_PLACEMENT_3D('',#511,#411,#412);
#348=AXIS2_PLACEMENT_3D('',#512,#413,#414);
#349=AXIS2_PLACEMENT_3D('',#515,#415,#416);
#350=AXIS2_PLACEMENT_3D('',#516,#417,#418);
#351=AXIS2_PLACEMENT_3D('',#517,#419,#420);
#352=AXIS2_PLACEMENT_3D('',#519,#421,#422);
#353=AXIS2_PLACEMENT_3D('',#521,#423,#424);
#354=AXIS2_PLACEMENT_3D('',#522,#425,#426);
#355=AXIS2_PLACEMENT_3D('',#523,#427,#428);
#356=AXIS2_PLACEMENT_3D('',#525,#429,#430);
#357=AXIS2_PLACEMENT_3D('',#526,#431,#432);
#358=AXIS2_PLACEMENT_3D('',#528,#433,#434);
#359=AXIS2_PLACEMENT_3D('',#529,#435,#436);
#360=AXIS2_PLACEMENT_3D('',#531,#437,#438);
#361=AXIS2_PLACEMENT_3D('',#532,#439,#440);
#362=AXIS2_PLACEMENT_3D('',#534,#441,#442);
#363=AXIS2_PLACEMENT_3D('',#535,#443,#444);
#364=AXIS2_PLACEMENT_3D('',#537,#445,#446);
#365=AXIS2_PLACEMENT_3D('',#538,#447,#448);
#366=AXIS2_PLACEMENT_3D('',#540,#450,#451);
#367=AXIS2_PLACEMENT_3D('',#542,#453,#454);
#368=AXIS2_PLACEMENT_3D('',#543,#455,#456);
#369=AXIS2_PLACEMENT_3D('',#544,#457,#458);
#370=AXIS2_PLACEMENT_3D('',#545,#459,#460);
#371=AXIS2_PLACEMENT_3D('',#548,#461,#462);
#372=AXIS2_PLACEMENT_3D('',#549,#463,#464);
#373=AXIS2_PLACEMENT_3D('',#552,#467,#468);
#374=AXIS2_PLACEMENT_3D('',#553,#469,#470);
#375=AXIS2_PLACEMENT_3D('',#554,#471,#472);
#376=AXIS2_PLACEMENT_3D('',#557,#473,#474);
#377=AXIS2_PLACEMENT_3D('',#558,#475,#476);
#378=AXIS2_PLACEMENT_3D('',#559,#477,#478);
#379=AXIS2_PLACEMENT_3D('',#565,#481,#482);
#380=AXIS2_PLACEMENT_3D('',#570,#485,#486);
#381=DIRECTION('',(0.,0.,1.));
#382=DIRECTION('',(1.,0.,0.));
#383=DIRECTION('',(0.,0.,1.));
#384=DIRECTION('',(1.,0.,0.));
#385=DIRECTION('',(0.,0.,1.));
#386=DIRECTION('',(1.,0.,0.));
#387=DIRECTION('',(0.,0.,1.));
#388=DIRECTION('',(1.,0.,0.));
#389=DIRECTION('',(0.,0.,1.));
#390=DIRECTION('',(1.,0.,0.));
#391=DIRECTION('',(0.,0.,1.));
#392=DIRECTION('',(1.,0.,0.));
#393=DIRECTION('',(0.,0.,-1.));
#394=DIRECTION('',(1.,0.,0.));
#395=DIRECTION('',(0.,0.,-1.));
#396=DIRECTION('',(1.,0.,0.));
#397=DIRECTION('',(0.,0.,1.));
#398=DIRECTION('',(0.,1.,0.));
#399=DIRECTION('',(0.,0.,1.));
#400=DIRECTION('',(-1.,0.,0.));
#401=DIRECTION('',(0.,0.,-1.));
#402=DIRECTION('',(-1.,0.,0.));
#403=DIRECTION('',(0.,0.,-1.));
#404=DIRECTION('',(-1.,0.,0.));
#405=DIRECTION('',(0.,0.,-1.));
#406=DIRECTION('',(0.,1.,0.));
#407=DIRECTION('',(0.,0.,1.));
#408=DIRECTION('',(-1.,0.,0.));
#409=DIRECTION('',(0.,0.,-1.));
#410=DIRECTION('',(0.94673966854674,-0.322000000000014,0.));
#411=DIRECTION('',(0.,0.,-1.));
#412=DIRECTION('',(0.,1.,0.));
#413=DIRECTION('',(0.,0.,-1.));
#414=DIRECTION('',(-0.905555059437446,0.424228752358022,0.));
#415=DIRECTION('',(0.,0.,-1.));
#416=DIRECTION('',(0.,1.,0.));
#417=DIRECTION('',(0.,0.,-1.));
#418=DIRECTION('',(0.,1.,0.));
#419=DIRECTION('',(1.,4.080243087845E-14,0.));
#420=DIRECTION('',(4.63455781817344E-27,-1.14491749414469E-13,1.));
#421=DIRECTION('',(0.,0.,-1.));
#422=DIRECTION('',(0.,-1.,0.));
#423=DIRECTION('',(-1.,-4.303111686421E-14,0.));
#424=DIRECTION('',(-5.02898827078395E-27,1.17961196366423E-13,1.));
#425=DIRECTION('',(0.,0.,-1.));
#426=DIRECTION('',(-0.99999889596136,0.00148595964285994,0.));
#427=DIRECTION('',(0.,0.,-1.));
#428=DIRECTION('',(0.933577982075045,-0.358374317417817,0.));
#429=DIRECTION('',(0.,0.,-1.));
#430=DIRECTION('',(0.,1.,-4.14962578634445E-17));
#431=DIRECTION('',(0.,0.,-1.));
#432=DIRECTION('',(0.930813791005031,-0.365493757094212,0.));
#433=DIRECTION('',(0.,0.,-1.));
#434=DIRECTION('',(6.47937227024391E-5,-0.999999997900887,0.));
#435=DIRECTION('',(0.,0.,-1.));
#436=DIRECTION('',(0.930813791005031,-0.365493757094212,0.));
#437=DIRECTION('',(0.,0.,-1.));
#438=DIRECTION('',(0.,1.,0.));
#439=DIRECTION('',(0.,0.,-1.));
#440=DIRECTION('',(0.933577982075817,-0.358374317415807,0.));
#441=DIRECTION('',(0.,0.,-1.));
#442=DIRECTION('',(6.44853621066812E-5,-0.999999997920819,0.));
#443=DIRECTION('',(0.,0.,-1.));
#444=DIRECTION('',(0.94673966854674,-0.322000000000014,0.));
#445=DIRECTION('',(0.,0.,1.));
#446=DIRECTION('',(0.,-1.,3.06281903277794E-17));
#447=DIRECTION('',(0.,0.,-1.));
#448=DIRECTION('',(0.,1.,0.));
#449=DIRECTION('',(1.398559107282E-13,0.,1.));
#450=DIRECTION('',(0.,0.,-1.));
#451=DIRECTION('',(0.,1.,0.));
#452=DIRECTION('',(-5.559089873581E-13,0.,1.));
#453=DIRECTION('',(0.,0.,-1.));
#454=DIRECTION('',(0.,1.,0.));
#455=DIRECTION('',(0.,0.,-1.));
#456=DIRECTION('',(0.0069354479206907,-0.999975949491856,0.));
#457=DIRECTION('',(0.,0.,-1.));
#458=DIRECTION('',(0.,1.,0.));
#459=DIRECTION('',(0.,0.,1.));
#460=DIRECTION('',(-1.,0.,0.));
#461=DIRECTION('',(0.,0.,1.));
#462=DIRECTION('',(-1.,0.,0.));
#463=DIRECTION('',(0.,0.,-1.));
#464=DIRECTION('',(0.,1.,0.));
#465=DIRECTION('',(3.82953160747093E-13,-0.144306116415197,0.989533094325381));
#466=DIRECTION('',(-3.82951926350393E-13,0.144306116415197,0.989533094325381));
#467=DIRECTION('',(0.,0.,-1.));
#468=DIRECTION('',(0.,1.,2.84835142979602E-16));
#469=DIRECTION('',(0.,0.,-1.));
#470=DIRECTION('',(0.,1.,2.84835142979602E-16));
#471=DIRECTION('',(0.,0.,-1.));
#472=DIRECTION('',(1.,0.,0.));
#473=DIRECTION('',(0.,0.,-1.));
#474=DIRECTION('',(1.,0.,0.));
#475=DIRECTION('',(0.,0.,1.));
#476=DIRECTION('',(0.,1.,0.));
#477=DIRECTION('',(0.,0.,1.));
#478=DIRECTION('',(1.,0.,0.));
#479=DIRECTION('',(1.66779668786906E-13,-0.866025403784429,0.500000000000017));
#480=DIRECTION('',(-1.66258221628606E-13,0.866025403784429,0.500000000000017));
#481=DIRECTION('',(0.,0.,1.));
#482=DIRECTION('',(0.,1.,0.));
#483=DIRECTION('',(0.,0.,-1.));
#484=DIRECTION('',(0.,0.,-1.));
#485=DIRECTION('',(0.,0.,1.));
#486=DIRECTION('',(0.,1.,0.));
#487=CARTESIAN_POINT('',(0.,0.,0.));
#488=CARTESIAN_POINT('',(0.,0.,0.));
#489=CARTESIAN_POINT('',(0.,0.,-88.));
#490=CARTESIAN_POINT('',(0.,0.,0.));
#491=CARTESIAN_POINT('',(0.,0.,-79.6));
#492=CARTESIAN_POINT('',(0.,-20.95,-79.6));
#493=CARTESIAN_POINT('',(0.,20.95,-79.6));
#494=CARTESIAN_POINT('',(0.,0.,-79.6));
#495=CARTESIAN_POINT('',(0.,0.,-79.6));
#496=CARTESIAN_POINT('',(5.59948273342105E-14,16.,-79.6));
#497=CARTESIAN_POINT('',(-2.22572128689989E-13,-16.,-79.6));
#498=CARTESIAN_POINT('',(0.,0.,-79.6));
#499=CARTESIAN_POINT('',(0.,0.,-79.6));
#500=CARTESIAN_POINT('',(0.,0.,-3.2));
#501=CARTESIAN_POINT('',(-25.,0.,-3.2));
#502=CARTESIAN_POINT('',(0.,0.,-3.2));
#503=CARTESIAN_POINT('',(0.,16.3416641016637,-3.2));
#504=CARTESIAN_POINT('',(-1.24149938345436E-11,-16.3416641016637,-3.2));
#505=CARTESIAN_POINT('',(0.,0.,-3.2));
#506=CARTESIAN_POINT('',(0.,0.,-3.2));
#507=CARTESIAN_POINT('',(0.,0.,-19.1));
#508=CARTESIAN_POINT('',(-25.,0.,-19.1));
#509=CARTESIAN_POINT('',(0.,0.,-14.477499074759));
#510=CARTESIAN_POINT('',(23.6684917136685,-8.05000000000034,-14.477499074759));
#511=CARTESIAN_POINT('',(0.,0.,51.145));
#512=CARTESIAN_POINT('',(0.,0.,-19.1));
#513=CARTESIAN_POINT('',(0.,-18.,-19.1));
#514=CARTESIAN_POINT('',(0.,18.,-19.1));
#515=CARTESIAN_POINT('',(0.,0.,-19.1));
#516=CARTESIAN_POINT('',(0.,0.,-19.1));
#517=CARTESIAN_POINT('',(-7.34454164153E-13,18.,-21.1));
#518=CARTESIAN_POINT('',(0.,16.,-21.1));
#519=CARTESIAN_POINT('',(0.,0.,-21.1));
#520=CARTESIAN_POINT('',(0.,-16.,-21.1));
#521=CARTESIAN_POINT('',(7.745609709175E-13,-18.,-21.1));
#522=CARTESIAN_POINT('',(0.,0.,-21.1));
#523=CARTESIAN_POINT('',(0.,0.,-13.012499984975));
#524=CARTESIAN_POINT('',(20.9705394344476,-8.04999999999944,-13.012499984975));
#525=CARTESIAN_POINT('',(0.,0.,-13.744999529867));
#526=CARTESIAN_POINT('',(0.,0.,-12.51641567691));
#527=CARTESIAN_POINT('',(20.5011737468858,-8.05000000000002,-12.51641567691));
#528=CARTESIAN_POINT('',(0.,0.,-12.51641567691));
#529=CARTESIAN_POINT('',(0.,0.,-9.683584323034));
#530=CARTESIAN_POINT('',(20.5011737468858,-8.05000000000002,-9.683584323034));
#531=CARTESIAN_POINT('',(0.,0.,51.145));
#532=CARTESIAN_POINT('',(0.,0.,-9.187500014953));
#533=CARTESIAN_POINT('',(20.9705394345863,-8.05000000000086,-9.187500014953));
#534=CARTESIAN_POINT('',(0.,0.,-9.683584323034));
#535=CARTESIAN_POINT('',(0.,0.,-7.72250092524));
#536=CARTESIAN_POINT('',(23.6684917136685,-8.05000000000034,-7.72250092524));
#537=CARTESIAN_POINT('',(0.,0.,-8.4550004701));
#538=CARTESIAN_POINT('',(0.,0.,51.145));
#539=CARTESIAN_POINT('',(0.,16.,-80.0003751221));
#540=CARTESIAN_POINT('',(0.,0.,-21.1));
#541=CARTESIAN_POINT('',(0.,-16.,-80.0003751221));
#542=CARTESIAN_POINT('',(0.,0.,-15.655));
#543=CARTESIAN_POINT('',(0.,0.,-21.1));
#544=CARTESIAN_POINT('',(0.,0.,-15.655));
#545=CARTESIAN_POINT('',(0.,0.,47.8));
#546=CARTESIAN_POINT('',(-1.89631296808341E-11,-8.90420498141354,47.8));
#547=CARTESIAN_POINT('',(1.89631908060644E-11,8.90420498141354,47.8));
#548=CARTESIAN_POINT('',(0.,0.,47.8));
#549=CARTESIAN_POINT('',(0.,0.,47.8));
#550=CARTESIAN_POINT('',(0.,16.04999903812,-1.2));
#551=CARTESIAN_POINT('',(0.,-16.04999903812,-1.2));
#552=CARTESIAN_POINT('',(0.,0.,23.04329183492));
#553=CARTESIAN_POINT('',(0.,0.,23.04329183492));
#554=CARTESIAN_POINT('',(0.,0.,-100.));
#555=CARTESIAN_POINT('',(-8.93769551303921E-14,-15.2500000000042,-100.));
#556=CARTESIAN_POINT('',(8.90975124404692E-14,15.2500000000042,-100.));
#557=CARTESIAN_POINT('',(0.,0.,-100.));
#558=CARTESIAN_POINT('',(0.,0.,-100.));
#559=CARTESIAN_POINT('',(0.,0.,-96.709103465621));
#560=CARTESIAN_POINT('',(20.95,0.,-96.709103465621));
#561=CARTESIAN_POINT('',(0.,-15.71410161514,-99.73205080757));
#562=CARTESIAN_POINT('',(4.128742529659E-13,-17.84801270189,-98.5000366672));
#563=CARTESIAN_POINT('',(0.,15.71410161514,-99.73205080757));
#564=CARTESIAN_POINT('',(-4.11589372421E-13,17.84801270189,-98.5000366672));
#565=CARTESIAN_POINT('',(0.,0.,-98.50925227119));
#566=CARTESIAN_POINT('',(0.,-20.95,-85.7));
#567=CARTESIAN_POINT('',(0.,-20.95,-85.7));
#568=CARTESIAN_POINT('',(0.,20.95,-83.7));
#569=CARTESIAN_POINT('',(0.,20.95,-83.7));
#570=CARTESIAN_POINT('',(0.,0.,-107.845));
#571=MECHANICAL_DESIGN_GEOMETRIC_PRESENTATION_REPRESENTATION('',(#316,#317,
#318,#319),#572);
#572=(
GEOMETRIC_REPRESENTATION_CONTEXT(3)
GLOBAL_UNCERTAINTY_ASSIGNED_CONTEXT((#573))
GLOBAL_UNIT_ASSIGNED_CONTEXT((#579,#575,#574))
REPRESENTATION_CONTEXT('69871.30AD-CC.ER25','TOP_LEVEL_ASSEMBLY_PART')
);
#573=UNCERTAINTY_MEASURE_WITH_UNIT(LENGTH_MEASURE(2.E-5),#579,
'DISTANCE_ACCURACY_VALUE','Maximum Tolerance applied to model');
#574=(
NAMED_UNIT(*)
SI_UNIT($,.STERADIAN.)
SOLID_ANGLE_UNIT()
);
#575=(
CONVERSION_BASED_UNIT('DEGREE',#577)
NAMED_UNIT(#576)
PLANE_ANGLE_UNIT()
);
#576=DIMENSIONAL_EXPONENTS(0.,0.,0.,0.,0.,0.,0.);
#577=PLANE_ANGLE_MEASURE_WITH_UNIT(PLANE_ANGLE_MEASURE(0.0174532925),#578);
#578=(
NAMED_UNIT(*)
PLANE_ANGLE_UNIT()
SI_UNIT($,.RADIAN.)
);
#579=(
LENGTH_UNIT()
NAMED_UNIT(*)
SI_UNIT(.MILLI.,.METRE.)
);
ENDSEC;
END-ISO-10303-21;
