ISO-10303-21;
HEADER;
/* Generated by software containing ST-Developer
 * from STEP Tools, Inc. (www.steptools.com) 
 */
/* OPTION: using custom schema-name function */

FILE_DESCRIPTION(
/* description */ (''),
/* implementation_level */ '2;1');

FILE_NAME(
/* name */ '69871.30AD-CC.ER16.100.stp',
/* time_stamp */ '2024-06-23T18:11:26+02:00',
/* author */ (''),
/* organization */ (''),
/* preprocessor_version */ 'ST-DEVELOPER v16.7',
/* originating_system */ 'SIEMENS PLM Software NX 12.0',
/* authorisation */ '');

FILE_SCHEMA (('AUTOMOTIVE_DESIGN { 1 0 10303 214 3 1 1 1 }'));
ENDSEC;

DATA;
#10=CONSTRUCTIVE_GEOMETRY_REPRESENTATION_RELATIONSHIP(
'supplemental geometry','',#32,#11);
#11=CONSTRUCTIVE_GEOMETRY_REPRESENTATION('supplemental geometry',(#400,
#401,#402),#698);
#12=PROPERTY_DEFINITION_REPRESENTATION(#16,#14);
#13=PROPERTY_DEFINITION_REPRESENTATION(#17,#15);
#14=REPRESENTATION('',(#18),#698);
#15=REPRESENTATION('',(#19),#698);
#16=PROPERTY_DEFINITION('pmi validation property','',#23);
#17=PROPERTY_DEFINITION('pmi validation property','',#23);
#18=VALUE_REPRESENTATION_ITEM('number of annotations',COUNT_MEASURE(0.));
#19=VALUE_REPRESENTATION_ITEM('number of views',COUNT_MEASURE(0.));
#20=SHAPE_REPRESENTATION_RELATIONSHIP('None',
'relationship between pf660F5CA0AEj8f4-None and pf660F5CA0AEj8f4-None',
#32,#21);
#21=ADVANCED_BREP_SHAPE_REPRESENTATION('pf660F5CA0AEj8f4-None',(#38),#698);
#22=SHAPE_DEFINITION_REPRESENTATION(#23,#32);
#23=PRODUCT_DEFINITION_SHAPE('','',#24);
#24=PRODUCT_DEFINITION(' ','',#26,#25);
#25=PRODUCT_DEFINITION_CONTEXT('part definition',#31,'design');
#26=PRODUCT_DEFINITION_FORMATION_WITH_SPECIFIED_SOURCE(' ',' ',#28,
 .NOT_KNOWN.);
#27=PRODUCT_RELATED_PRODUCT_CATEGORY('part','',(#28));
#28=PRODUCT('pf660F5CA0AEj8f4','pf660F5CA0AEj8f4',' ',(#29));
#29=PRODUCT_CONTEXT(' ',#31,'mechanical');
#30=APPLICATION_PROTOCOL_DEFINITION('international standard',
'automotive_design',2010,#31);
#31=APPLICATION_CONTEXT(
'core data for automotive mechanical design processes');
#32=SHAPE_REPRESENTATION('pf660F5CA0AEj8f4-None',(#399),#698);
#33=SURFACE_STYLE_USAGE(.BOTH.,#34);
#34=SURFACE_SIDE_STYLE('',(#35));
#35=SURFACE_STYLE_FILL_AREA(#36);
#36=FILL_AREA_STYLE('',(#37));
#37=FILL_AREA_STYLE_COLOUR('',#395);
#38=MANIFOLD_SOLID_BREP('',#39);
#39=CLOSED_SHELL('',(#89,#90,#91,#92,#93,#94,#95,#96,#97,#98,#99,#100,#101,
#102,#103,#104,#105,#106,#107,#108,#109,#110,#111,#112));
#40=CONICAL_SURFACE('',#428,23.73127357173,60.);
#41=CONICAL_SURFACE('',#436,23.73127357179,60.);
#42=CONICAL_SURFACE('',#452,12.51453841141,8.2971);
#43=CONICAL_SURFACE('',#453,12.51453841141,8.2971);
#44=CONICAL_SURFACE('',#458,13.25705080757,60.);
#45=TOROIDAL_SURFACE('',#424,19.,5.);
#46=TOROIDAL_SURFACE('',#430,22.525,0.5);
#47=TOROIDAL_SURFACE('',#434,22.525,0.5);
#48=TOROIDAL_SURFACE('',#444,11.5001,0.5001);
#49=TOROIDAL_SURFACE('',#446,11.5001,0.5001);
#50=CYLINDRICAL_SURFACE('',#415,14.);
#51=CYLINDRICAL_SURFACE('',#418,14.);
#52=CYLINDRICAL_SURFACE('',#426,25.);
#53=CYLINDRICAL_SURFACE('',#432,22.025);
#54=CYLINDRICAL_SURFACE('',#437,25.);
#55=CYLINDRICAL_SURFACE('',#447,11.);
#56=CYLINDRICAL_SURFACE('',#448,11.);
#57=CYLINDRICAL_SURFACE('',#459,15.8);
#58=FACE_OUTER_BOUND('',#149,.T.);
#59=FACE_OUTER_BOUND('',#150,.T.);
#60=FACE_OUTER_BOUND('',#153,.T.);
#61=FACE_OUTER_BOUND('',#170,.T.);
#62=FACE_OUTER_BOUND('',#171,.T.);
#63=FACE_OUTER_BOUND('',#172,.T.);
#64=FACE_OUTER_BOUND('',#173,.T.);
#65=FACE_OUTER_BOUND('',#174,.T.);
#66=FACE_OUTER_BOUND('',#175,.T.);
#67=FACE_OUTER_BOUND('',#176,.T.);
#68=FACE_OUTER_BOUND('',#177,.T.);
#69=LINE('',#612,#79);
#70=LINE('',#617,#80);
#71=LINE('',#667,#81);
#72=LINE('',#668,#82);
#73=LINE('',#676,#83);
#74=LINE('',#677,#84);
#75=LINE('',#687,#85);
#76=LINE('',#689,#86);
#77=LINE('',#692,#87);
#78=LINE('',#694,#88);
#79=VECTOR('',#486,1.);
#80=VECTOR('',#489,1.);
#81=VECTOR('',#558,1.);
#82=VECTOR('',#559,1.);
#83=VECTOR('',#570,1.);
#84=VECTOR('',#571,1.);
#85=VECTOR('',#584,1.);
#86=VECTOR('',#585,1.);
#87=VECTOR('',#588,1.);
#88=VECTOR('',#589,1.);
#89=ADVANCED_FACE('',(#119,#120),#113,.T.);
#90=ADVANCED_FACE('',(#121,#122),#114,.F.);
#91=ADVANCED_FACE('',(#58),#50,.T.);
#92=ADVANCED_FACE('',(#59),#51,.T.);
#93=ADVANCED_FACE('',(#123,#124),#115,.T.);
#94=ADVANCED_FACE('',(#60),#45,.F.);
#95=ADVANCED_FACE('',(#125,#126),#52,.T.);
#96=ADVANCED_FACE('',(#127,#128),#40,.T.);
#97=ADVANCED_FACE('',(#129,#130),#46,.F.);
#98=ADVANCED_FACE('',(#131,#132),#53,.T.);
#99=ADVANCED_FACE('',(#133,#134),#47,.F.);
#100=ADVANCED_FACE('',(#135,#136),#41,.T.);
#101=ADVANCED_FACE('',(#137,#138),#54,.T.);
#102=ADVANCED_FACE('',(#139,#140),#116,.T.);
#103=ADVANCED_FACE('',(#61),#48,.F.);
#104=ADVANCED_FACE('',(#62),#49,.F.);
#105=ADVANCED_FACE('',(#63),#55,.T.);
#106=ADVANCED_FACE('',(#64),#56,.T.);
#107=ADVANCED_FACE('',(#65),#117,.F.);
#108=ADVANCED_FACE('',(#66),#42,.T.);
#109=ADVANCED_FACE('',(#67),#43,.T.);
#110=ADVANCED_FACE('',(#68),#118,.F.);
#111=ADVANCED_FACE('',(#141,#142),#44,.T.);
#112=ADVANCED_FACE('',(#143,#144),#57,.T.);
#113=PLANE('',#407);
#114=PLANE('',#411);
#115=PLANE('',#421);
#116=PLANE('',#440);
#117=PLANE('',#451);
#118=PLANE('',#456);
#119=FACE_BOUND('',#145,.T.);
#120=FACE_BOUND('',#146,.T.);
#121=FACE_BOUND('',#147,.T.);
#122=FACE_BOUND('',#148,.T.);
#123=FACE_BOUND('',#151,.T.);
#124=FACE_BOUND('',#152,.T.);
#125=FACE_BOUND('',#154,.T.);
#126=FACE_BOUND('',#155,.T.);
#127=FACE_BOUND('',#156,.T.);
#128=FACE_BOUND('',#157,.T.);
#129=FACE_BOUND('',#158,.T.);
#130=FACE_BOUND('',#159,.T.);
#131=FACE_BOUND('',#160,.T.);
#132=FACE_BOUND('',#161,.T.);
#133=FACE_BOUND('',#162,.T.);
#134=FACE_BOUND('',#163,.T.);
#135=FACE_BOUND('',#164,.T.);
#136=FACE_BOUND('',#165,.T.);
#137=FACE_BOUND('',#166,.T.);
#138=FACE_BOUND('',#167,.T.);
#139=FACE_BOUND('',#168,.T.);
#140=FACE_BOUND('',#169,.T.);
#141=FACE_BOUND('',#178,.T.);
#142=FACE_BOUND('',#179,.T.);
#143=FACE_BOUND('',#180,.T.);
#144=FACE_BOUND('',#181,.T.);
#145=EDGE_LOOP('',(#182,#183));
#146=EDGE_LOOP('',(#184,#185));
#147=EDGE_LOOP('',(#186));
#148=EDGE_LOOP('',(#187,#188));
#149=EDGE_LOOP('',(#189,#190,#191,#192,#193));
#150=EDGE_LOOP('',(#194,#195,#196,#197));
#151=EDGE_LOOP('',(#198));
#152=EDGE_LOOP('',(#199));
#153=EDGE_LOOP('',(#200,#201,#202,#203,#204,#205,#206,#207));
#154=EDGE_LOOP('',(#208));
#155=EDGE_LOOP('',(#209));
#156=EDGE_LOOP('',(#210));
#157=EDGE_LOOP('',(#211));
#158=EDGE_LOOP('',(#212));
#159=EDGE_LOOP('',(#213));
#160=EDGE_LOOP('',(#214));
#161=EDGE_LOOP('',(#215));
#162=EDGE_LOOP('',(#216));
#163=EDGE_LOOP('',(#217));
#164=EDGE_LOOP('',(#218));
#165=EDGE_LOOP('',(#219));
#166=EDGE_LOOP('',(#220));
#167=EDGE_LOOP('',(#221));
#168=EDGE_LOOP('',(#222,#223));
#169=EDGE_LOOP('',(#224,#225));
#170=EDGE_LOOP('',(#226,#227,#228,#229));
#171=EDGE_LOOP('',(#230,#231,#232,#233));
#172=EDGE_LOOP('',(#234,#235,#236,#237));
#173=EDGE_LOOP('',(#238,#239,#240,#241));
#174=EDGE_LOOP('',(#242,#243));
#175=EDGE_LOOP('',(#244,#245,#246,#247));
#176=EDGE_LOOP('',(#248,#249,#250,#251));
#177=EDGE_LOOP('',(#252,#253));
#178=EDGE_LOOP('',(#254));
#179=EDGE_LOOP('',(#255,#256,#257,#258,#259,#260));
#180=EDGE_LOOP('',(#261));
#181=EDGE_LOOP('',(#262,#263,#264,#265,#266,#267));
#182=ORIENTED_EDGE('',*,*,#302,.T.);
#183=ORIENTED_EDGE('',*,*,#303,.T.);
#184=ORIENTED_EDGE('',*,*,#304,.T.);
#185=ORIENTED_EDGE('',*,*,#305,.T.);
#186=ORIENTED_EDGE('',*,*,#306,.T.);
#187=ORIENTED_EDGE('',*,*,#307,.T.);
#188=ORIENTED_EDGE('',*,*,#308,.T.);
#189=ORIENTED_EDGE('',*,*,#309,.F.);
#190=ORIENTED_EDGE('',*,*,#310,.T.);
#191=ORIENTED_EDGE('',*,*,#311,.T.);
#192=ORIENTED_EDGE('',*,*,#312,.T.);
#193=ORIENTED_EDGE('',*,*,#313,.T.);
#194=ORIENTED_EDGE('',*,*,#311,.F.);
#195=ORIENTED_EDGE('',*,*,#314,.T.);
#196=ORIENTED_EDGE('',*,*,#309,.T.);
#197=ORIENTED_EDGE('',*,*,#315,.T.);
#198=ORIENTED_EDGE('',*,*,#316,.F.);
#199=ORIENTED_EDGE('',*,*,#317,.F.);
#200=ORIENTED_EDGE('',*,*,#317,.T.);
#201=ORIENTED_EDGE('',*,*,#318,.F.);
#202=ORIENTED_EDGE('',*,*,#313,.F.);
#203=ORIENTED_EDGE('',*,*,#319,.T.);
#204=ORIENTED_EDGE('',*,*,#319,.F.);
#205=ORIENTED_EDGE('',*,*,#312,.F.);
#206=ORIENTED_EDGE('',*,*,#315,.F.);
#207=ORIENTED_EDGE('',*,*,#318,.T.);
#208=ORIENTED_EDGE('',*,*,#316,.T.);
#209=ORIENTED_EDGE('',*,*,#320,.T.);
#210=ORIENTED_EDGE('',*,*,#320,.F.);
#211=ORIENTED_EDGE('',*,*,#321,.T.);
#212=ORIENTED_EDGE('',*,*,#321,.F.);
#213=ORIENTED_EDGE('',*,*,#322,.T.);
#214=ORIENTED_EDGE('',*,*,#322,.F.);
#215=ORIENTED_EDGE('',*,*,#323,.T.);
#216=ORIENTED_EDGE('',*,*,#323,.F.);
#217=ORIENTED_EDGE('',*,*,#324,.T.);
#218=ORIENTED_EDGE('',*,*,#324,.F.);
#219=ORIENTED_EDGE('',*,*,#325,.T.);
#220=ORIENTED_EDGE('',*,*,#325,.F.);
#221=ORIENTED_EDGE('',*,*,#306,.F.);
#222=ORIENTED_EDGE('',*,*,#310,.F.);
#223=ORIENTED_EDGE('',*,*,#314,.F.);
#224=ORIENTED_EDGE('',*,*,#326,.F.);
#225=ORIENTED_EDGE('',*,*,#327,.F.);
#226=ORIENTED_EDGE('',*,*,#328,.T.);
#227=ORIENTED_EDGE('',*,*,#329,.F.);
#228=ORIENTED_EDGE('',*,*,#330,.F.);
#229=ORIENTED_EDGE('',*,*,#327,.T.);
#230=ORIENTED_EDGE('',*,*,#330,.T.);
#231=ORIENTED_EDGE('',*,*,#331,.F.);
#232=ORIENTED_EDGE('',*,*,#328,.F.);
#233=ORIENTED_EDGE('',*,*,#326,.T.);
#234=ORIENTED_EDGE('',*,*,#305,.F.);
#235=ORIENTED_EDGE('',*,*,#332,.T.);
#236=ORIENTED_EDGE('',*,*,#331,.T.);
#237=ORIENTED_EDGE('',*,*,#333,.F.);
#238=ORIENTED_EDGE('',*,*,#304,.F.);
#239=ORIENTED_EDGE('',*,*,#333,.T.);
#240=ORIENTED_EDGE('',*,*,#329,.T.);
#241=ORIENTED_EDGE('',*,*,#332,.F.);
#242=ORIENTED_EDGE('',*,*,#334,.T.);
#243=ORIENTED_EDGE('',*,*,#335,.T.);
#244=ORIENTED_EDGE('',*,*,#336,.F.);
#245=ORIENTED_EDGE('',*,*,#307,.F.);
#246=ORIENTED_EDGE('',*,*,#337,.T.);
#247=ORIENTED_EDGE('',*,*,#334,.F.);
#248=ORIENTED_EDGE('',*,*,#337,.F.);
#249=ORIENTED_EDGE('',*,*,#308,.F.);
#250=ORIENTED_EDGE('',*,*,#336,.T.);
#251=ORIENTED_EDGE('',*,*,#335,.F.);
#252=ORIENTED_EDGE('',*,*,#338,.F.);
#253=ORIENTED_EDGE('',*,*,#339,.F.);
#254=ORIENTED_EDGE('',*,*,#340,.F.);
#255=ORIENTED_EDGE('',*,*,#341,.T.);
#256=ORIENTED_EDGE('',*,*,#341,.F.);
#257=ORIENTED_EDGE('',*,*,#338,.T.);
#258=ORIENTED_EDGE('',*,*,#342,.T.);
#259=ORIENTED_EDGE('',*,*,#342,.F.);
#260=ORIENTED_EDGE('',*,*,#339,.T.);
#261=ORIENTED_EDGE('',*,*,#340,.T.);
#262=ORIENTED_EDGE('',*,*,#343,.F.);
#263=ORIENTED_EDGE('',*,*,#343,.T.);
#264=ORIENTED_EDGE('',*,*,#302,.F.);
#265=ORIENTED_EDGE('',*,*,#344,.F.);
#266=ORIENTED_EDGE('',*,*,#344,.T.);
#267=ORIENTED_EDGE('',*,*,#303,.F.);
#268=VERTEX_POINT('',#597);
#269=VERTEX_POINT('',#598);
#270=VERTEX_POINT('',#601);
#271=VERTEX_POINT('',#602);
#272=VERTEX_POINT('',#606);
#273=VERTEX_POINT('',#608);
#274=VERTEX_POINT('',#609);
#275=VERTEX_POINT('',#613);
#276=VERTEX_POINT('',#614);
#277=VERTEX_POINT('',#616);
#278=VERTEX_POINT('',#618);
#279=VERTEX_POINT('',#620);
#280=VERTEX_POINT('',#627);
#281=VERTEX_POINT('',#629);
#282=VERTEX_POINT('',#633);
#283=VERTEX_POINT('',#636);
#284=VERTEX_POINT('',#639);
#285=VERTEX_POINT('',#642);
#286=VERTEX_POINT('',#645);
#287=VERTEX_POINT('',#648);
#288=VERTEX_POINT('',#651);
#289=VERTEX_POINT('',#655);
#290=VERTEX_POINT('',#656);
#291=VERTEX_POINT('',#660);
#292=VERTEX_POINT('',#662);
#293=VERTEX_POINT('',#672);
#294=VERTEX_POINT('',#673);
#295=VERTEX_POINT('',#681);
#296=VERTEX_POINT('',#682);
#297=VERTEX_POINT('',#686);
#298=VERTEX_POINT('',#688);
#299=VERTEX_POINT('',#690);
#300=VERTEX_POINT('',#693);
#301=VERTEX_POINT('',#695);
#302=EDGE_CURVE('',#268,#269,#345,.T.);
#303=EDGE_CURVE('',#269,#268,#346,.T.);
#304=EDGE_CURVE('',#270,#271,#347,.T.);
#305=EDGE_CURVE('',#271,#270,#348,.T.);
#306=EDGE_CURVE('',#272,#272,#349,.T.);
#307=EDGE_CURVE('',#273,#274,#350,.T.);
#308=EDGE_CURVE('',#274,#273,#351,.T.);
#309=EDGE_CURVE('',#275,#276,#69,.T.);
#310=EDGE_CURVE('',#275,#277,#352,.T.);
#311=EDGE_CURVE('',#277,#278,#70,.T.);
#312=EDGE_CURVE('',#278,#279,#353,.T.);
#313=EDGE_CURVE('',#279,#276,#354,.T.);
#314=EDGE_CURVE('',#277,#275,#355,.T.);
#315=EDGE_CURVE('',#276,#278,#356,.T.);
#316=EDGE_CURVE('',#280,#280,#357,.T.);
#317=EDGE_CURVE('',#281,#281,#358,.T.);
#318=EDGE_CURVE('',#276,#281,#359,.T.);
#319=EDGE_CURVE('',#279,#282,#360,.T.);
#320=EDGE_CURVE('',#283,#283,#361,.T.);
#321=EDGE_CURVE('',#284,#284,#362,.T.);
#322=EDGE_CURVE('',#285,#285,#363,.T.);
#323=EDGE_CURVE('',#286,#286,#364,.T.);
#324=EDGE_CURVE('',#287,#287,#365,.T.);
#325=EDGE_CURVE('',#288,#288,#366,.T.);
#326=EDGE_CURVE('',#289,#290,#367,.T.);
#327=EDGE_CURVE('',#290,#289,#368,.T.);
#328=EDGE_CURVE('',#289,#291,#369,.T.);
#329=EDGE_CURVE('',#292,#291,#370,.T.);
#330=EDGE_CURVE('',#290,#292,#371,.T.);
#331=EDGE_CURVE('',#291,#292,#372,.T.);
#332=EDGE_CURVE('',#271,#291,#71,.T.);
#333=EDGE_CURVE('',#270,#292,#72,.T.);
#334=EDGE_CURVE('',#293,#294,#373,.T.);
#335=EDGE_CURVE('',#294,#293,#374,.T.);
#336=EDGE_CURVE('',#274,#293,#73,.T.);
#337=EDGE_CURVE('',#273,#294,#74,.T.);
#338=EDGE_CURVE('',#295,#296,#375,.T.);
#339=EDGE_CURVE('',#296,#295,#376,.T.);
#340=EDGE_CURVE('',#297,#297,#377,.T.);
#341=EDGE_CURVE('',#295,#298,#75,.T.);
#342=EDGE_CURVE('',#296,#299,#76,.T.);
#343=EDGE_CURVE('',#300,#269,#77,.T.);
#344=EDGE_CURVE('',#301,#268,#78,.T.);
#345=CIRCLE('',#403,15.8);
#346=CIRCLE('',#404,15.8);
#347=CIRCLE('',#405,11.);
#348=CIRCLE('',#406,11.);
#349=CIRCLE('',#408,25.);
#350=CIRCLE('',#409,16.3416641016637);
#351=CIRCLE('',#410,16.3416641016637);
#352=CIRCLE('',#412,14.);
#353=CIRCLE('',#413,14.);
#354=CIRCLE('',#414,14.);
#355=CIRCLE('',#416,14.);
#356=CIRCLE('',#417,14.);
#357=CIRCLE('',#419,25.);
#358=CIRCLE('',#420,19.);
#359=CIRCLE('',#422,5.);
#360=CIRCLE('',#423,5.);
#361=CIRCLE('',#425,25.);
#362=CIRCLE('',#427,22.46254714345);
#363=CIRCLE('',#429,22.025);
#364=CIRCLE('',#431,22.025);
#365=CIRCLE('',#433,22.46254714358);
#366=CIRCLE('',#435,25.);
#367=CIRCLE('',#438,11.5001);
#368=CIRCLE('',#439,11.5001);
#369=CIRCLE('',#441,0.5001);
#370=CIRCLE('',#442,11.);
#371=CIRCLE('',#443,0.5001);
#372=CIRCLE('',#445,11.);
#373=CIRCLE('',#449,8.90420498141631);
#374=CIRCLE('',#450,8.90420498141631);
#375=CIRCLE('',#454,11.2499999999962);
#376=CIRCLE('',#455,11.2499999999962);
#377=CIRCLE('',#457,15.8);
#378=INVISIBILITY((#379,#380,#381));
#379=PRESENTATION_LAYER_ASSIGNMENT('100','Layer 100',(#400));
#380=PRESENTATION_LAYER_ASSIGNMENT('101','Layer 101',(#401));
#381=PRESENTATION_LAYER_ASSIGNMENT('102','Layer 102',(#402));
#382=PRESENTATION_LAYER_ASSIGNMENT('98','Layer 98',(#38));
#383=STYLED_ITEM('',(#387),#400);
#384=STYLED_ITEM('',(#388),#401);
#385=STYLED_ITEM('',(#389),#402);
#386=STYLED_ITEM('',(#390),#38);
#387=PRESENTATION_STYLE_ASSIGNMENT((#391));
#388=PRESENTATION_STYLE_ASSIGNMENT((#392));
#389=PRESENTATION_STYLE_ASSIGNMENT((#393));
#390=PRESENTATION_STYLE_ASSIGNMENT((#33));
#391=CURVE_STYLE('',#396,POSITIVE_LENGTH_MEASURE(0.7),#394);
#392=CURVE_STYLE('',#397,POSITIVE_LENGTH_MEASURE(0.7),#394);
#393=CURVE_STYLE('',#398,POSITIVE_LENGTH_MEASURE(0.7),#394);
#394=COLOUR_RGB('Medium Maroon',0.6,0.4,0.4);
#395=COLOUR_RGB('Medium Gray',0.490196078431373,0.490196078431373,0.490196078431373);
#396=DRAUGHTING_PRE_DEFINED_CURVE_FONT('continuous');
#397=DRAUGHTING_PRE_DEFINED_CURVE_FONT('continuous');
#398=DRAUGHTING_PRE_DEFINED_CURVE_FONT('continuous');
#399=AXIS2_PLACEMENT_3D('',#592,#460,#461);
#400=AXIS2_PLACEMENT_3D('PCS',#593,#462,#463);
#401=AXIS2_PLACEMENT_3D('CSW',#594,#464,#465);
#402=AXIS2_PLACEMENT_3D('MCS',#595,#466,#467);
#403=AXIS2_PLACEMENT_3D('',#596,#468,#469);
#404=AXIS2_PLACEMENT_3D('',#599,#470,#471);
#405=AXIS2_PLACEMENT_3D('',#600,#472,#473);
#406=AXIS2_PLACEMENT_3D('',#603,#474,#475);
#407=AXIS2_PLACEMENT_3D('',#604,#476,#477);
#408=AXIS2_PLACEMENT_3D('',#605,#478,#479);
#409=AXIS2_PLACEMENT_3D('',#607,#480,#481);
#410=AXIS2_PLACEMENT_3D('',#610,#482,#483);
#411=AXIS2_PLACEMENT_3D('',#611,#484,#485);
#412=AXIS2_PLACEMENT_3D('',#615,#487,#488);
#413=AXIS2_PLACEMENT_3D('',#619,#490,#491);
#414=AXIS2_PLACEMENT_3D('',#621,#492,#493);
#415=AXIS2_PLACEMENT_3D('',#622,#494,#495);
#416=AXIS2_PLACEMENT_3D('',#623,#496,#497);
#417=AXIS2_PLACEMENT_3D('',#624,#498,#499);
#418=AXIS2_PLACEMENT_3D('',#625,#500,#501);
#419=AXIS2_PLACEMENT_3D('',#626,#502,#503);
#420=AXIS2_PLACEMENT_3D('',#628,#504,#505);
#421=AXIS2_PLACEMENT_3D('',#630,#506,#507);
#422=AXIS2_PLACEMENT_3D('',#631,#508,#509);
#423=AXIS2_PLACEMENT_3D('',#632,#510,#511);
#424=AXIS2_PLACEMENT_3D('',#634,#512,#513);
#425=AXIS2_PLACEMENT_3D('',#635,#514,#515);
#426=AXIS2_PLACEMENT_3D('',#637,#516,#517);
#427=AXIS2_PLACEMENT_3D('',#638,#518,#519);
#428=AXIS2_PLACEMENT_3D('',#640,#520,#521);
#429=AXIS2_PLACEMENT_3D('',#641,#522,#523);
#430=AXIS2_PLACEMENT_3D('',#643,#524,#525);
#431=AXIS2_PLACEMENT_3D('',#644,#526,#527);
#432=AXIS2_PLACEMENT_3D('',#646,#528,#529);
#433=AXIS2_PLACEMENT_3D('',#647,#530,#531);
#434=AXIS2_PLACEMENT_3D('',#649,#532,#533);
#435=AXIS2_PLACEMENT_3D('',#650,#534,#535);
#436=AXIS2_PLACEMENT_3D('',#652,#536,#537);
#437=AXIS2_PLACEMENT_3D('',#653,#538,#539);
#438=AXIS2_PLACEMENT_3D('',#654,#540,#541);
#439=AXIS2_PLACEMENT_3D('',#657,#542,#543);
#440=AXIS2_PLACEMENT_3D('',#658,#544,#545);
#441=AXIS2_PLACEMENT_3D('',#659,#546,#547);
#442=AXIS2_PLACEMENT_3D('',#661,#548,#549);
#443=AXIS2_PLACEMENT_3D('',#663,#550,#551);
#444=AXIS2_PLACEMENT_3D('',#664,#552,#553);
#445=AXIS2_PLACEMENT_3D('',#665,#554,#555);
#446=AXIS2_PLACEMENT_3D('',#666,#556,#557);
#447=AXIS2_PLACEMENT_3D('',#669,#560,#561);
#448=AXIS2_PLACEMENT_3D('',#670,#562,#563);
#449=AXIS2_PLACEMENT_3D('',#671,#564,#565);
#450=AXIS2_PLACEMENT_3D('',#674,#566,#567);
#451=AXIS2_PLACEMENT_3D('',#675,#568,#569);
#452=AXIS2_PLACEMENT_3D('',#678,#572,#573);
#453=AXIS2_PLACEMENT_3D('',#679,#574,#575);
#454=AXIS2_PLACEMENT_3D('',#680,#576,#577);
#455=AXIS2_PLACEMENT_3D('',#683,#578,#579);
#456=AXIS2_PLACEMENT_3D('',#684,#580,#581);
#457=AXIS2_PLACEMENT_3D('',#685,#582,#583);
#458=AXIS2_PLACEMENT_3D('',#691,#586,#587);
#459=AXIS2_PLACEMENT_3D('',#696,#590,#591);
#460=DIRECTION('',(0.,0.,1.));
#461=DIRECTION('',(1.,0.,0.));
#462=DIRECTION('',(0.,0.,1.));
#463=DIRECTION('',(1.,0.,0.));
#464=DIRECTION('',(0.,0.,1.));
#465=DIRECTION('',(1.,0.,0.));
#466=DIRECTION('',(0.,0.,1.));
#467=DIRECTION('',(1.,0.,0.));
#468=DIRECTION('',(0.,0.,1.));
#469=DIRECTION('',(1.,0.,0.));
#470=DIRECTION('',(0.,0.,1.));
#471=DIRECTION('',(1.,0.,0.));
#472=DIRECTION('',(0.,0.,-1.));
#473=DIRECTION('',(1.,0.,0.));
#474=DIRECTION('',(0.,0.,-1.));
#475=DIRECTION('',(1.,0.,0.));
#476=DIRECTION('',(0.,0.,1.));
#477=DIRECTION('',(0.,1.,0.));
#478=DIRECTION('',(0.,0.,1.));
#479=DIRECTION('',(-1.,0.,0.));
#480=DIRECTION('',(0.,0.,-1.));
#481=DIRECTION('',(-1.,0.,0.));
#482=DIRECTION('',(0.,0.,-1.));
#483=DIRECTION('',(-1.,0.,0.));
#484=DIRECTION('',(0.,0.,-1.));
#485=DIRECTION('',(0.,1.,0.));
#486=DIRECTION('',(-1.459340523245E-11,-2.355096059566E-12,1.));
#487=DIRECTION('',(0.,0.,1.));
#488=DIRECTION('',(-1.,0.,0.));
#489=DIRECTION('',(1.454595775975E-11,2.355096059566E-12,1.));
#490=DIRECTION('',(0.,0.,-1.));
#491=DIRECTION('',(0.,1.,0.));
#492=DIRECTION('',(0.,0.,-1.));
#493=DIRECTION('',(0.99999999990743,-1.36066207453204E-5,0.));
#494=DIRECTION('',(0.,0.,-1.));
#495=DIRECTION('',(0.,1.,0.));
#496=DIRECTION('',(0.,0.,1.));
#497=DIRECTION('',(-1.,0.,0.));
#498=DIRECTION('',(0.,0.,-1.));
#499=DIRECTION('',(0.,-1.,0.));
#500=DIRECTION('',(0.,0.,-1.));
#501=DIRECTION('',(0.,1.,0.));
#502=DIRECTION('',(0.,0.,1.));
#503=DIRECTION('',(-1.,0.,0.));
#504=DIRECTION('',(0.,0.,-1.));
#505=DIRECTION('',(0.,-1.,0.));
#506=DIRECTION('',(0.,0.,-1.));
#507=DIRECTION('',(0.,1.,0.));
#508=DIRECTION('',(1.,6.103798022572E-14,0.));
#509=DIRECTION('',(-6.31088724176809E-28,1.04083408558608E-14,1.));
#510=DIRECTION('',(-3.19173512033302E-6,0.999999999994906,0.));
#511=DIRECTION('',(-0.0399999999806507,-1.27669404752212E-7,0.99919967974451));
#512=DIRECTION('',(0.,0.,-1.));
#513=DIRECTION('',(0.00792620674293161,-0.99996858712995,0.));
#514=DIRECTION('',(0.,0.,-1.));
#515=DIRECTION('',(0.94673966854674,-0.322000000000014,0.));
#516=DIRECTION('',(0.,0.,-1.));
#517=DIRECTION('',(0.,1.,0.));
#518=DIRECTION('',(0.,0.,-1.));
#519=DIRECTION('',(0.933577982075045,-0.358374317417817,0.));
#520=DIRECTION('',(0.,0.,-1.));
#521=DIRECTION('',(0.,1.,-4.14962578634445E-17));
#522=DIRECTION('',(0.,0.,-1.));
#523=DIRECTION('',(0.930813791005031,-0.365493757094212,0.));
#524=DIRECTION('',(0.,0.,-1.));
#525=DIRECTION('',(6.47937227024391E-5,-0.999999997900887,0.));
#526=DIRECTION('',(0.,0.,-1.));
#527=DIRECTION('',(0.930813791005031,-0.365493757094212,0.));
#528=DIRECTION('',(0.,0.,-1.));
#529=DIRECTION('',(0.,1.,0.));
#530=DIRECTION('',(0.,0.,-1.));
#531=DIRECTION('',(0.933577982075817,-0.358374317415807,0.));
#532=DIRECTION('',(0.,0.,-1.));
#533=DIRECTION('',(6.44853621066812E-5,-0.999999997920819,0.));
#534=DIRECTION('',(0.,0.,-1.));
#535=DIRECTION('',(0.94673966854674,-0.322000000000014,0.));
#536=DIRECTION('',(0.,0.,1.));
#537=DIRECTION('',(0.,-1.,3.06281903277794E-17));
#538=DIRECTION('',(0.,0.,-1.));
#539=DIRECTION('',(0.,1.,0.));
#540=DIRECTION('',(0.,0.,-1.));
#541=DIRECTION('',(0.,1.,0.));
#542=DIRECTION('',(0.,0.,-1.));
#543=DIRECTION('',(0.,-1.,0.));
#544=DIRECTION('',(0.,0.,-1.));
#545=DIRECTION('',(0.,1.,0.));
#546=DIRECTION('',(1.,0.,0.));
#547=DIRECTION('',(0.,-1.04062596039401E-13,1.00000000000001));
#548=DIRECTION('',(0.,0.,-1.));
#549=DIRECTION('',(0.,-1.,0.));
#550=DIRECTION('',(-1.,0.,0.));
#551=DIRECTION('',(0.,1.00593842838087E-13,1.00000000000001));
#552=DIRECTION('',(0.,0.,-1.));
#553=DIRECTION('',(-0.0100878340173995,0.999949116507854,0.));
#554=DIRECTION('',(0.,0.,-1.));
#555=DIRECTION('',(0.,1.,0.));
#556=DIRECTION('',(0.,0.,-1.));
#557=DIRECTION('',(0.0100878340173995,-0.999949116507854,0.));
#558=DIRECTION('',(1.001929988838E-13,0.,1.));
#559=DIRECTION('',(-1.002169521153E-13,0.,1.));
#560=DIRECTION('',(0.,0.,-1.));
#561=DIRECTION('',(0.,1.,0.));
#562=DIRECTION('',(0.,0.,-1.));
#563=DIRECTION('',(0.,1.,0.));
#564=DIRECTION('',(0.,0.,1.));
#565=DIRECTION('',(-1.,0.,0.));
#566=DIRECTION('',(0.,0.,1.));
#567=DIRECTION('',(-1.,0.,0.));
#568=DIRECTION('',(0.,0.,-1.));
#569=DIRECTION('',(0.,1.,0.));
#570=DIRECTION('',(-3.82951926350393E-13,0.144306116415197,0.989533094325381));
#571=DIRECTION('',(3.82953160747093E-13,-0.144306116415197,0.989533094325381));
#572=DIRECTION('',(0.,0.,-1.));
#573=DIRECTION('',(0.,1.,2.84835142979602E-16));
#574=DIRECTION('',(0.,0.,-1.));
#575=DIRECTION('',(0.,1.,2.84835142979602E-16));
#576=DIRECTION('',(0.,0.,1.));
#577=DIRECTION('',(1.,0.,0.));
#578=DIRECTION('',(0.,0.,1.));
#579=DIRECTION('',(1.,0.,0.));
#580=DIRECTION('',(0.,0.,1.));
#581=DIRECTION('',(0.,1.,0.));
#582=DIRECTION('',(0.,0.,1.));
#583=DIRECTION('',(1.,0.,0.));
#584=DIRECTION('',(-2.11881358499207E-12,0.866025403784429,0.500000000000017));
#585=DIRECTION('',(2.11982186923407E-12,-0.866025403784429,0.500000000000017));
#586=DIRECTION('',(0.,0.,1.));
#587=DIRECTION('',(0.,1.,7.95148417009026E-18));
#588=DIRECTION('',(0.,0.,1.));
#589=DIRECTION('',(0.,0.,1.));
#590=DIRECTION('',(0.,0.,1.));
#591=DIRECTION('',(0.,1.,0.));
#592=CARTESIAN_POINT('',(0.,0.,0.));
#593=CARTESIAN_POINT('',(0.,0.,0.));
#594=CARTESIAN_POINT('',(0.,0.,-89.4));
#595=CARTESIAN_POINT('',(0.,0.,0.));
#596=CARTESIAN_POINT('',(0.,0.,-82.1));
#597=CARTESIAN_POINT('',(0.,-15.8,-82.1));
#598=CARTESIAN_POINT('',(0.,15.8,-82.1));
#599=CARTESIAN_POINT('',(0.,0.,-82.1));
#600=CARTESIAN_POINT('',(0.,0.,-82.1));
#601=CARTESIAN_POINT('',(-4.01243744396536E-14,-11.,-82.1));
#602=CARTESIAN_POINT('',(4.01147841616671E-14,11.,-82.1));
#603=CARTESIAN_POINT('',(0.,0.,-82.1));
#604=CARTESIAN_POINT('',(0.,0.,-82.1));
#605=CARTESIAN_POINT('',(0.,0.,-3.2));
#606=CARTESIAN_POINT('',(-25.,0.,-3.2));
#607=CARTESIAN_POINT('',(0.,0.,-3.2));
#608=CARTESIAN_POINT('',(0.,16.3416641016637,-3.2));
#609=CARTESIAN_POINT('',(-1.24149938345436E-11,-16.3416641016637,-3.2));
#610=CARTESIAN_POINT('',(0.,0.,-3.2));
#611=CARTESIAN_POINT('',(0.,0.,-3.2));
#612=CARTESIAN_POINT('',(7.124411331079E-10,-13.99999999988,-73.40000000012));
#613=CARTESIAN_POINT('',(7.19737835722374E-10,-13.9999999998788,-73.9));
#614=CARTESIAN_POINT('',(0.,-14.,-24.1));
#615=CARTESIAN_POINT('',(0.,0.,-73.9));
#616=CARTESIAN_POINT('',(-7.19711340311629E-10,13.9999999998788,-73.9));
#617=CARTESIAN_POINT('',(-7.124383614335E-10,13.99999999988,-73.40000000012));
#618=CARTESIAN_POINT('',(0.,14.,-24.1));
#619=CARTESIAN_POINT('',(0.,0.,-24.1));
#620=CARTESIAN_POINT('',(13.9999999987,-0.0001904926904344,-24.1));
#621=CARTESIAN_POINT('',(0.,0.,-24.1));
#622=CARTESIAN_POINT('',(0.,0.,-15.585));
#623=CARTESIAN_POINT('',(0.,0.,-73.9));
#624=CARTESIAN_POINT('',(0.,0.,-24.1));
#625=CARTESIAN_POINT('',(0.,0.,-15.585));
#626=CARTESIAN_POINT('',(0.,0.,-19.1));
#627=CARTESIAN_POINT('',(-25.,0.,-19.1));
#628=CARTESIAN_POINT('',(0.,0.,-19.1));
#629=CARTESIAN_POINT('',(0.,-19.,-19.1));
#630=CARTESIAN_POINT('',(0.,0.,-19.1));
#631=CARTESIAN_POINT('',(1.159738971523E-12,-19.,-24.1));
#632=CARTESIAN_POINT('',(18.9999999999,6.064296728633E-5,-24.1));
#633=CARTESIAN_POINT('',(18.8,6.00046202653597E-5,-19.1040016012774));
#634=CARTESIAN_POINT('',(0.,0.,-24.1));
#635=CARTESIAN_POINT('',(0.,0.,-14.477499074759));
#636=CARTESIAN_POINT('',(23.6684917136685,-8.05000000000034,-14.477499074759));
#637=CARTESIAN_POINT('',(0.,0.,51.145));
#638=CARTESIAN_POINT('',(0.,0.,-13.012499984975));
#639=CARTESIAN_POINT('',(20.9705394344476,-8.04999999999944,-13.012499984975));
#640=CARTESIAN_POINT('',(0.,0.,-13.744999529867));
#641=CARTESIAN_POINT('',(0.,0.,-12.51641567691));
#642=CARTESIAN_POINT('',(20.5011737468858,-8.05000000000002,-12.51641567691));
#643=CARTESIAN_POINT('',(0.,0.,-12.51641567691));
#644=CARTESIAN_POINT('',(0.,0.,-9.683584323034));
#645=CARTESIAN_POINT('',(20.5011737468858,-8.05000000000002,-9.683584323034));
#646=CARTESIAN_POINT('',(0.,0.,51.145));
#647=CARTESIAN_POINT('',(0.,0.,-9.187500014953));
#648=CARTESIAN_POINT('',(20.9705394345863,-8.05000000000086,-9.187500014953));
#649=CARTESIAN_POINT('',(0.,0.,-9.683584323034));
#650=CARTESIAN_POINT('',(0.,0.,-7.72250092524));
#651=CARTESIAN_POINT('',(23.6684917136685,-8.05000000000034,-7.72250092524));
#652=CARTESIAN_POINT('',(0.,0.,-8.4550004701));
#653=CARTESIAN_POINT('',(0.,0.,51.145));
#654=CARTESIAN_POINT('',(0.,0.,-73.9));
#655=CARTESIAN_POINT('',(0.,11.5001,-73.9));
#656=CARTESIAN_POINT('',(0.,-11.5001,-73.9));
#657=CARTESIAN_POINT('',(0.,0.,-73.9));
#658=CARTESIAN_POINT('',(0.,0.,-73.9));
#659=CARTESIAN_POINT('',(-1.887379141863E-14,11.5001,-74.4001));
#660=CARTESIAN_POINT('',(0.,11.,-74.4001));
#661=CARTESIAN_POINT('',(0.,0.,-74.4001));
#662=CARTESIAN_POINT('',(0.,-11.,-74.4001));
#663=CARTESIAN_POINT('',(1.765254609154E-14,-11.5001,-74.4001));
#664=CARTESIAN_POINT('',(0.,0.,-74.4001));
#665=CARTESIAN_POINT('',(0.,0.,-74.4001));
#666=CARTESIAN_POINT('',(0.,0.,-74.4001));
#667=CARTESIAN_POINT('',(0.,11.,-82.5003751221));
#668=CARTESIAN_POINT('',(0.,-11.,-82.5003751221));
#669=CARTESIAN_POINT('',(0.,0.,-15.585));
#670=CARTESIAN_POINT('',(0.,0.,-15.585));
#671=CARTESIAN_POINT('',(0.,0.,47.8));
#672=CARTESIAN_POINT('',(-1.89631296808341E-11,-8.90420498141354,47.8));
#673=CARTESIAN_POINT('',(1.89631908060644E-11,8.90420498141354,47.8));
#674=CARTESIAN_POINT('',(0.,0.,47.8));
#675=CARTESIAN_POINT('',(0.,0.,47.8));
#676=CARTESIAN_POINT('',(0.,-16.04999903812,-1.2));
#677=CARTESIAN_POINT('',(0.,16.04999903812,-1.2));
#678=CARTESIAN_POINT('',(0.,0.,23.04329183492));
#679=CARTESIAN_POINT('',(0.,0.,23.04329183492));
#680=CARTESIAN_POINT('',(0.,0.,-100.));
#681=CARTESIAN_POINT('',(1.13546877801672E-12,11.2500000000042,-100.));
#682=CARTESIAN_POINT('',(-1.13600911591349E-12,-11.2500000000042,-100.));
#683=CARTESIAN_POINT('',(0.,0.,-100.));
#684=CARTESIAN_POINT('',(0.,0.,-100.));
#685=CARTESIAN_POINT('',(0.,0.,-97.373056275185));
#686=CARTESIAN_POINT('',(15.8,0.,-97.373056275185));
#687=CARTESIAN_POINT('',(0.,11.71410161514,-99.73205080757));
#688=CARTESIAN_POINT('',(-2.775655961402E-12,12.84801270189,-99.07738693639));
#689=CARTESIAN_POINT('',(0.,-11.71410161514,-99.73205080757));
#690=CARTESIAN_POINT('',(2.776976155932E-12,-12.84801270189,-99.07738693639));
#691=CARTESIAN_POINT('',(0.,0.,-98.84122867597));
#692=CARTESIAN_POINT('',(0.,15.8,-85.05));
#693=CARTESIAN_POINT('',(0.,15.8,-85.05));
#694=CARTESIAN_POINT('',(0.,-15.8,-86.15));
#695=CARTESIAN_POINT('',(0.,-15.8,-86.15));
#696=CARTESIAN_POINT('',(0.,0.,-107.72));
#697=MECHANICAL_DESIGN_GEOMETRIC_PRESENTATION_REPRESENTATION('',(#383,#384,
#385,#386),#698);
#698=(
GEOMETRIC_REPRESENTATION_CONTEXT(3)
GLOBAL_UNCERTAINTY_ASSIGNED_CONTEXT((#699))
GLOBAL_UNIT_ASSIGNED_CONTEXT((#705,#701,#700))
REPRESENTATION_CONTEXT('69871.30AD-CC.ER16','TOP_LEVEL_ASSEMBLY_PART')
);
#699=UNCERTAINTY_MEASURE_WITH_UNIT(LENGTH_MEASURE(0.000475057503886961),
#705,'DISTANCE_ACCURACY_VALUE','Maximum Tolerance applied to model');
#700=(
NAMED_UNIT(*)
SI_UNIT($,.STERADIAN.)
SOLID_ANGLE_UNIT()
);
#701=(
CONVERSION_BASED_UNIT('DEGREE',#703)
NAMED_UNIT(#702)
PLANE_ANGLE_UNIT()
);
#702=DIMENSIONAL_EXPONENTS(0.,0.,0.,0.,0.,0.,0.);
#703=PLANE_ANGLE_MEASURE_WITH_UNIT(PLANE_ANGLE_MEASURE(0.0174532925),#704);
#704=(
NAMED_UNIT(*)
PLANE_ANGLE_UNIT()
SI_UNIT($,.RADIAN.)
);
#705=(
LENGTH_UNIT()
NAMED_UNIT(*)
SI_UNIT(.MILLI.,.METRE.)
);
ENDSEC;
END-ISO-10303-21;
