ISO-10303-21;
HEADER;
/* Generated by software containing ST-Developer
 * from STEP Tools, Inc. (www.steptools.com) 
 */
/* OPTION: using custom schema-name function */

FILE_DESCRIPTION(
/* description */ (''),
/* implementation_level */ '2;1');

FILE_NAME(
/* name */ '69871.30A-QTCC.M5.M22.stp',
/* time_stamp */ '2024-07-22T11:01:20+02:00',
/* author */ (''),
/* organization */ (''),
/* preprocessor_version */ 'ST-DEVELOPER v16.7',
/* originating_system */ 'SIEMENS PLM Software NX 12.0',
/* authorisation */ '');

FILE_SCHEMA (('AUTOMOTIVE_DESIGN { 1 0 10303 214 3 1 1 1 }'));
ENDSEC;

DATA;
#10=CONSTRUCTIVE_GEOMETRY_REPRESENTATION_RELATIONSHIP(
'supplemental geometry','',#32,#11);
#11=CONSTRUCTIVE_GEOMETRY_REPRESENTATION('supplemental geometry',(#377,
#378,#379),#652);
#12=PROPERTY_DEFINITION_REPRESENTATION(#16,#14);
#13=PROPERTY_DEFINITION_REPRESENTATION(#17,#15);
#14=REPRESENTATION('',(#18),#652);
#15=REPRESENTATION('',(#19),#652);
#16=PROPERTY_DEFINITION('pmi validation property','',#23);
#17=PROPERTY_DEFINITION('pmi validation property','',#23);
#18=VALUE_REPRESENTATION_ITEM('number of annotations',COUNT_MEASURE(0.));
#19=VALUE_REPRESENTATION_ITEM('number of views',COUNT_MEASURE(0.));
#20=SHAPE_REPRESENTATION_RELATIONSHIP('None',
'relationship between pf6612088076yunr-None and pf6612088076yunr-None',
#32,#21);
#21=ADVANCED_BREP_SHAPE_REPRESENTATION('pf6612088076yunr-None',(#38),#652);
#22=SHAPE_DEFINITION_REPRESENTATION(#23,#32);
#23=PRODUCT_DEFINITION_SHAPE('','',#24);
#24=PRODUCT_DEFINITION(' ','',#26,#25);
#25=PRODUCT_DEFINITION_CONTEXT('part definition',#31,'design');
#26=PRODUCT_DEFINITION_FORMATION_WITH_SPECIFIED_SOURCE(' ',' ',#28,
 .NOT_KNOWN.);
#27=PRODUCT_RELATED_PRODUCT_CATEGORY('part','',(#28));
#28=PRODUCT('pf6612088076yunr','pf6612088076yunr',' ',(#29));
#29=PRODUCT_CONTEXT(' ',#31,'mechanical');
#30=APPLICATION_PROTOCOL_DEFINITION('international standard',
'automotive_design',2010,#31);
#31=APPLICATION_CONTEXT(
'core data for automotive mechanical design processes');
#32=SHAPE_REPRESENTATION('pf6612088076yunr-None',(#376),#652);
#33=SURFACE_STYLE_USAGE(.BOTH.,#34);
#34=SURFACE_SIDE_STYLE('',(#35));
#35=SURFACE_STYLE_FILL_AREA(#36);
#36=FILL_AREA_STYLE('',(#37));
#37=FILL_AREA_STYLE_COLOUR('',#372);
#38=MANIFOLD_SOLID_BREP('',#39);
#39=CLOSED_SHELL('',(#87,#88,#89,#90,#91,#92,#93,#94,#95,#96,#97,#98,#99,
#100,#101,#102,#103,#104,#105,#106,#107,#108,#109));
#40=CONICAL_SURFACE('',#412,23.73127357173,60.);
#41=CONICAL_SURFACE('',#420,23.73127357179,60.);
#42=CONICAL_SURFACE('',#430,12.51453841141,8.2971);
#43=CONICAL_SURFACE('',#431,12.51453841141,8.2971);
#44=TOROIDAL_SURFACE('',#391,21.8,0.8);
#45=TOROIDAL_SURFACE('',#397,21.8,0.8);
#46=TOROIDAL_SURFACE('',#402,21.8,0.8);
#47=TOROIDAL_SURFACE('',#414,22.525,0.5);
#48=TOROIDAL_SURFACE('',#418,22.525,0.5);
#49=CYLINDRICAL_SURFACE('',#389,21.);
#50=CYLINDRICAL_SURFACE('',#393,21.);
#51=CYLINDRICAL_SURFACE('',#405,25.);
#52=CYLINDRICAL_SURFACE('',#410,25.);
#53=CYLINDRICAL_SURFACE('',#416,22.025);
#54=CYLINDRICAL_SURFACE('',#421,25.);
#55=CYLINDRICAL_SURFACE('',#425,27.);
#56=CYLINDRICAL_SURFACE('',#426,27.);
#57=FACE_OUTER_BOUND('',#146,.T.);
#58=FACE_OUTER_BOUND('',#149,.T.);
#59=FACE_OUTER_BOUND('',#150,.T.);
#60=FACE_OUTER_BOUND('',#153,.T.);
#61=FACE_OUTER_BOUND('',#172,.T.);
#62=FACE_OUTER_BOUND('',#173,.T.);
#63=FACE_OUTER_BOUND('',#174,.T.);
#64=FACE_OUTER_BOUND('',#175,.T.);
#65=FACE_OUTER_BOUND('',#176,.T.);
#66=FACE_OUTER_BOUND('',#177,.T.);
#67=LINE('',#570,#77);
#68=LINE('',#575,#78);
#69=LINE('',#596,#79);
#70=LINE('',#601,#80);
#71=LINE('',#604,#81);
#72=LINE('',#606,#82);
#73=LINE('',#638,#83);
#74=LINE('',#639,#84);
#75=LINE('',#647,#85);
#76=LINE('',#648,#86);
#77=VECTOR('',#454,1.);
#78=VECTOR('',#457,1.);
#79=VECTOR('',#488,1.);
#80=VECTOR('',#491,1.);
#81=VECTOR('',#494,1.);
#82=VECTOR('',#495,1.);
#83=VECTOR('',#536,1.);
#84=VECTOR('',#537,1.);
#85=VECTOR('',#548,1.);
#86=VECTOR('',#549,1.);
#87=ADVANCED_FACE('',(#116,#117),#110,.F.);
#88=ADVANCED_FACE('',(#118,#119),#111,.F.);
#89=ADVANCED_FACE('',(#57),#49,.T.);
#90=ADVANCED_FACE('',(#120,#121),#44,.F.);
#91=ADVANCED_FACE('',(#58),#50,.T.);
#92=ADVANCED_FACE('',(#59),#45,.F.);
#93=ADVANCED_FACE('',(#122,#123),#112,.T.);
#94=ADVANCED_FACE('',(#60),#46,.F.);
#95=ADVANCED_FACE('',(#124,#125),#51,.T.);
#96=ADVANCED_FACE('',(#126,#127),#113,.F.);
#97=ADVANCED_FACE('',(#128,#129),#52,.T.);
#98=ADVANCED_FACE('',(#130,#131),#40,.T.);
#99=ADVANCED_FACE('',(#132,#133),#47,.F.);
#100=ADVANCED_FACE('',(#134,#135),#53,.T.);
#101=ADVANCED_FACE('',(#136,#137),#48,.F.);
#102=ADVANCED_FACE('',(#138,#139),#41,.T.);
#103=ADVANCED_FACE('',(#140,#141),#54,.T.);
#104=ADVANCED_FACE('',(#61),#114,.T.);
#105=ADVANCED_FACE('',(#62),#55,.T.);
#106=ADVANCED_FACE('',(#63),#56,.T.);
#107=ADVANCED_FACE('',(#64),#115,.F.);
#108=ADVANCED_FACE('',(#65),#42,.T.);
#109=ADVANCED_FACE('',(#66),#43,.T.);
#110=PLANE('',#383);
#111=PLANE('',#386);
#112=PLANE('',#401);
#113=PLANE('',#408);
#114=PLANE('',#424);
#115=PLANE('',#429);
#116=FACE_BOUND('',#142,.T.);
#117=FACE_BOUND('',#143,.T.);
#118=FACE_BOUND('',#144,.T.);
#119=FACE_BOUND('',#145,.T.);
#120=FACE_BOUND('',#147,.T.);
#121=FACE_BOUND('',#148,.T.);
#122=FACE_BOUND('',#151,.T.);
#123=FACE_BOUND('',#152,.T.);
#124=FACE_BOUND('',#154,.T.);
#125=FACE_BOUND('',#155,.T.);
#126=FACE_BOUND('',#156,.T.);
#127=FACE_BOUND('',#157,.T.);
#128=FACE_BOUND('',#158,.T.);
#129=FACE_BOUND('',#159,.T.);
#130=FACE_BOUND('',#160,.T.);
#131=FACE_BOUND('',#161,.T.);
#132=FACE_BOUND('',#162,.T.);
#133=FACE_BOUND('',#163,.T.);
#134=FACE_BOUND('',#164,.T.);
#135=FACE_BOUND('',#165,.T.);
#136=FACE_BOUND('',#166,.T.);
#137=FACE_BOUND('',#167,.T.);
#138=FACE_BOUND('',#168,.T.);
#139=FACE_BOUND('',#169,.T.);
#140=FACE_BOUND('',#170,.T.);
#141=FACE_BOUND('',#171,.T.);
#142=EDGE_LOOP('',(#178));
#143=EDGE_LOOP('',(#179,#180));
#144=EDGE_LOOP('',(#181));
#145=EDGE_LOOP('',(#182));
#146=EDGE_LOOP('',(#183,#184,#185,#186));
#147=EDGE_LOOP('',(#187));
#148=EDGE_LOOP('',(#188,#189));
#149=EDGE_LOOP('',(#190,#191,#192,#193));
#150=EDGE_LOOP('',(#194,#195,#196,#197));
#151=EDGE_LOOP('',(#198,#199));
#152=EDGE_LOOP('',(#200,#201));
#153=EDGE_LOOP('',(#202,#203,#204,#205));
#154=EDGE_LOOP('',(#206,#207,#208,#209,#210,#211));
#155=EDGE_LOOP('',(#212,#213,#214,#215,#216,#217));
#156=EDGE_LOOP('',(#218,#219));
#157=EDGE_LOOP('',(#220,#221));
#158=EDGE_LOOP('',(#222));
#159=EDGE_LOOP('',(#223));
#160=EDGE_LOOP('',(#224));
#161=EDGE_LOOP('',(#225));
#162=EDGE_LOOP('',(#226));
#163=EDGE_LOOP('',(#227));
#164=EDGE_LOOP('',(#228));
#165=EDGE_LOOP('',(#229));
#166=EDGE_LOOP('',(#230));
#167=EDGE_LOOP('',(#231));
#168=EDGE_LOOP('',(#232));
#169=EDGE_LOOP('',(#233));
#170=EDGE_LOOP('',(#234));
#171=EDGE_LOOP('',(#235));
#172=EDGE_LOOP('',(#236,#237));
#173=EDGE_LOOP('',(#238,#239,#240,#241));
#174=EDGE_LOOP('',(#242,#243,#244,#245));
#175=EDGE_LOOP('',(#246,#247));
#176=EDGE_LOOP('',(#248,#249,#250,#251));
#177=EDGE_LOOP('',(#252,#253,#254,#255));
#178=ORIENTED_EDGE('',*,*,#287,.T.);
#179=ORIENTED_EDGE('',*,*,#288,.T.);
#180=ORIENTED_EDGE('',*,*,#289,.T.);
#181=ORIENTED_EDGE('',*,*,#290,.F.);
#182=ORIENTED_EDGE('',*,*,#291,.T.);
#183=ORIENTED_EDGE('',*,*,#292,.F.);
#184=ORIENTED_EDGE('',*,*,#293,.T.);
#185=ORIENTED_EDGE('',*,*,#294,.T.);
#186=ORIENTED_EDGE('',*,*,#295,.F.);
#187=ORIENTED_EDGE('',*,*,#291,.F.);
#188=ORIENTED_EDGE('',*,*,#295,.T.);
#189=ORIENTED_EDGE('',*,*,#296,.T.);
#190=ORIENTED_EDGE('',*,*,#296,.F.);
#191=ORIENTED_EDGE('',*,*,#294,.F.);
#192=ORIENTED_EDGE('',*,*,#297,.T.);
#193=ORIENTED_EDGE('',*,*,#292,.T.);
#194=ORIENTED_EDGE('',*,*,#298,.F.);
#195=ORIENTED_EDGE('',*,*,#297,.F.);
#196=ORIENTED_EDGE('',*,*,#299,.T.);
#197=ORIENTED_EDGE('',*,*,#300,.T.);
#198=ORIENTED_EDGE('',*,*,#301,.F.);
#199=ORIENTED_EDGE('',*,*,#302,.F.);
#200=ORIENTED_EDGE('',*,*,#300,.F.);
#201=ORIENTED_EDGE('',*,*,#303,.F.);
#202=ORIENTED_EDGE('',*,*,#299,.F.);
#203=ORIENTED_EDGE('',*,*,#293,.F.);
#204=ORIENTED_EDGE('',*,*,#298,.T.);
#205=ORIENTED_EDGE('',*,*,#303,.T.);
#206=ORIENTED_EDGE('',*,*,#304,.F.);
#207=ORIENTED_EDGE('',*,*,#304,.T.);
#208=ORIENTED_EDGE('',*,*,#305,.F.);
#209=ORIENTED_EDGE('',*,*,#306,.F.);
#210=ORIENTED_EDGE('',*,*,#306,.T.);
#211=ORIENTED_EDGE('',*,*,#307,.F.);
#212=ORIENTED_EDGE('',*,*,#308,.T.);
#213=ORIENTED_EDGE('',*,*,#308,.F.);
#214=ORIENTED_EDGE('',*,*,#301,.T.);
#215=ORIENTED_EDGE('',*,*,#309,.T.);
#216=ORIENTED_EDGE('',*,*,#309,.F.);
#217=ORIENTED_EDGE('',*,*,#302,.T.);
#218=ORIENTED_EDGE('',*,*,#310,.T.);
#219=ORIENTED_EDGE('',*,*,#311,.T.);
#220=ORIENTED_EDGE('',*,*,#307,.T.);
#221=ORIENTED_EDGE('',*,*,#305,.T.);
#222=ORIENTED_EDGE('',*,*,#290,.T.);
#223=ORIENTED_EDGE('',*,*,#312,.T.);
#224=ORIENTED_EDGE('',*,*,#312,.F.);
#225=ORIENTED_EDGE('',*,*,#313,.T.);
#226=ORIENTED_EDGE('',*,*,#313,.F.);
#227=ORIENTED_EDGE('',*,*,#314,.T.);
#228=ORIENTED_EDGE('',*,*,#314,.F.);
#229=ORIENTED_EDGE('',*,*,#315,.T.);
#230=ORIENTED_EDGE('',*,*,#315,.F.);
#231=ORIENTED_EDGE('',*,*,#316,.T.);
#232=ORIENTED_EDGE('',*,*,#316,.F.);
#233=ORIENTED_EDGE('',*,*,#317,.T.);
#234=ORIENTED_EDGE('',*,*,#317,.F.);
#235=ORIENTED_EDGE('',*,*,#287,.F.);
#236=ORIENTED_EDGE('',*,*,#318,.T.);
#237=ORIENTED_EDGE('',*,*,#319,.T.);
#238=ORIENTED_EDGE('',*,*,#319,.F.);
#239=ORIENTED_EDGE('',*,*,#320,.T.);
#240=ORIENTED_EDGE('',*,*,#311,.F.);
#241=ORIENTED_EDGE('',*,*,#321,.F.);
#242=ORIENTED_EDGE('',*,*,#318,.F.);
#243=ORIENTED_EDGE('',*,*,#321,.T.);
#244=ORIENTED_EDGE('',*,*,#310,.F.);
#245=ORIENTED_EDGE('',*,*,#320,.F.);
#246=ORIENTED_EDGE('',*,*,#322,.T.);
#247=ORIENTED_EDGE('',*,*,#323,.T.);
#248=ORIENTED_EDGE('',*,*,#324,.T.);
#249=ORIENTED_EDGE('',*,*,#289,.F.);
#250=ORIENTED_EDGE('',*,*,#325,.F.);
#251=ORIENTED_EDGE('',*,*,#323,.F.);
#252=ORIENTED_EDGE('',*,*,#325,.T.);
#253=ORIENTED_EDGE('',*,*,#288,.F.);
#254=ORIENTED_EDGE('',*,*,#324,.F.);
#255=ORIENTED_EDGE('',*,*,#322,.F.);
#256=VERTEX_POINT('',#559);
#257=VERTEX_POINT('',#561);
#258=VERTEX_POINT('',#562);
#259=VERTEX_POINT('',#566);
#260=VERTEX_POINT('',#568);
#261=VERTEX_POINT('',#571);
#262=VERTEX_POINT('',#572);
#263=VERTEX_POINT('',#574);
#264=VERTEX_POINT('',#576);
#265=VERTEX_POINT('',#584);
#266=VERTEX_POINT('',#586);
#267=VERTEX_POINT('',#590);
#268=VERTEX_POINT('',#591);
#269=VERTEX_POINT('',#597);
#270=VERTEX_POINT('',#598);
#271=VERTEX_POINT('',#600);
#272=VERTEX_POINT('',#602);
#273=VERTEX_POINT('',#605);
#274=VERTEX_POINT('',#607);
#275=VERTEX_POINT('',#610);
#276=VERTEX_POINT('',#611);
#277=VERTEX_POINT('',#615);
#278=VERTEX_POINT('',#618);
#279=VERTEX_POINT('',#621);
#280=VERTEX_POINT('',#624);
#281=VERTEX_POINT('',#627);
#282=VERTEX_POINT('',#630);
#283=VERTEX_POINT('',#634);
#284=VERTEX_POINT('',#635);
#285=VERTEX_POINT('',#643);
#286=VERTEX_POINT('',#644);
#287=EDGE_CURVE('',#256,#256,#326,.T.);
#288=EDGE_CURVE('',#257,#258,#327,.T.);
#289=EDGE_CURVE('',#258,#257,#328,.T.);
#290=EDGE_CURVE('',#259,#259,#329,.T.);
#291=EDGE_CURVE('',#260,#260,#330,.T.);
#292=EDGE_CURVE('',#261,#262,#67,.T.);
#293=EDGE_CURVE('',#261,#263,#331,.T.);
#294=EDGE_CURVE('',#263,#264,#68,.T.);
#295=EDGE_CURVE('',#262,#264,#332,.T.);
#296=EDGE_CURVE('',#264,#262,#333,.T.);
#297=EDGE_CURVE('',#263,#261,#334,.T.);
#298=EDGE_CURVE('',#261,#265,#335,.T.);
#299=EDGE_CURVE('',#263,#266,#336,.T.);
#300=EDGE_CURVE('',#266,#265,#337,.T.);
#301=EDGE_CURVE('',#267,#268,#338,.T.);
#302=EDGE_CURVE('',#268,#267,#339,.T.);
#303=EDGE_CURVE('',#265,#266,#340,.T.);
#304=EDGE_CURVE('',#269,#270,#69,.T.);
#305=EDGE_CURVE('',#271,#270,#341,.T.);
#306=EDGE_CURVE('',#272,#271,#70,.T.);
#307=EDGE_CURVE('',#270,#271,#342,.T.);
#308=EDGE_CURVE('',#267,#273,#71,.T.);
#309=EDGE_CURVE('',#268,#274,#72,.T.);
#310=EDGE_CURVE('',#275,#276,#343,.T.);
#311=EDGE_CURVE('',#276,#275,#344,.T.);
#312=EDGE_CURVE('',#277,#277,#345,.T.);
#313=EDGE_CURVE('',#278,#278,#346,.T.);
#314=EDGE_CURVE('',#279,#279,#347,.T.);
#315=EDGE_CURVE('',#280,#280,#348,.T.);
#316=EDGE_CURVE('',#281,#281,#349,.T.);
#317=EDGE_CURVE('',#282,#282,#350,.T.);
#318=EDGE_CURVE('',#283,#284,#351,.T.);
#319=EDGE_CURVE('',#284,#283,#352,.T.);
#320=EDGE_CURVE('',#284,#275,#73,.T.);
#321=EDGE_CURVE('',#283,#276,#74,.T.);
#322=EDGE_CURVE('',#285,#286,#353,.T.);
#323=EDGE_CURVE('',#286,#285,#354,.T.);
#324=EDGE_CURVE('',#286,#257,#75,.T.);
#325=EDGE_CURVE('',#285,#258,#76,.T.);
#326=CIRCLE('',#380,25.);
#327=CIRCLE('',#381,16.3416641016637);
#328=CIRCLE('',#382,16.3416641016637);
#329=CIRCLE('',#384,25.);
#330=CIRCLE('',#385,21.8);
#331=CIRCLE('',#387,21.);
#332=CIRCLE('',#388,21.);
#333=CIRCLE('',#390,21.);
#334=CIRCLE('',#392,21.);
#335=CIRCLE('',#394,0.8);
#336=CIRCLE('',#395,0.8);
#337=CIRCLE('',#396,21.8);
#338=CIRCLE('',#398,25.);
#339=CIRCLE('',#399,25.);
#340=CIRCLE('',#400,21.8);
#341=CIRCLE('',#403,25.);
#342=CIRCLE('',#404,25.);
#343=CIRCLE('',#406,27.);
#344=CIRCLE('',#407,27.);
#345=CIRCLE('',#409,25.);
#346=CIRCLE('',#411,22.46254714345);
#347=CIRCLE('',#413,22.025);
#348=CIRCLE('',#415,22.025);
#349=CIRCLE('',#417,22.46254714358);
#350=CIRCLE('',#419,25.);
#351=CIRCLE('',#422,27.);
#352=CIRCLE('',#423,27.);
#353=CIRCLE('',#427,8.90420498141631);
#354=CIRCLE('',#428,8.90420498141631);
#355=INVISIBILITY((#356,#357,#358,#359));
#356=PRESENTATION_LAYER_ASSIGNMENT('100','Layer 100',(#377));
#357=PRESENTATION_LAYER_ASSIGNMENT('101','Layer 101',(#378));
#358=PRESENTATION_LAYER_ASSIGNMENT('102','Layer 102',(#379));
#359=PRESENTATION_LAYER_ASSIGNMENT('98','Layer 98',(#38));
#360=STYLED_ITEM('',(#364),#377);
#361=STYLED_ITEM('',(#365),#378);
#362=STYLED_ITEM('',(#366),#379);
#363=STYLED_ITEM('',(#367),#38);
#364=PRESENTATION_STYLE_ASSIGNMENT((#368));
#365=PRESENTATION_STYLE_ASSIGNMENT((#369));
#366=PRESENTATION_STYLE_ASSIGNMENT((#370));
#367=PRESENTATION_STYLE_ASSIGNMENT((#33));
#368=CURVE_STYLE('',#373,POSITIVE_LENGTH_MEASURE(0.7),#371);
#369=CURVE_STYLE('',#374,POSITIVE_LENGTH_MEASURE(0.7),#371);
#370=CURVE_STYLE('',#375,POSITIVE_LENGTH_MEASURE(0.7),#371);
#371=COLOUR_RGB('Medium Maroon',0.6,0.4,0.4);
#372=COLOUR_RGB('Medium Gray',0.490196078431373,0.490196078431373,0.490196078431373);
#373=DRAUGHTING_PRE_DEFINED_CURVE_FONT('continuous');
#374=DRAUGHTING_PRE_DEFINED_CURVE_FONT('continuous');
#375=DRAUGHTING_PRE_DEFINED_CURVE_FONT('continuous');
#376=AXIS2_PLACEMENT_3D('',#554,#432,#433);
#377=AXIS2_PLACEMENT_3D('PCS',#555,#434,#435);
#378=AXIS2_PLACEMENT_3D('CSW',#556,#436,#437);
#379=AXIS2_PLACEMENT_3D('MCS',#557,#438,#439);
#380=AXIS2_PLACEMENT_3D('',#558,#440,#441);
#381=AXIS2_PLACEMENT_3D('',#560,#442,#443);
#382=AXIS2_PLACEMENT_3D('',#563,#444,#445);
#383=AXIS2_PLACEMENT_3D('',#564,#446,#447);
#384=AXIS2_PLACEMENT_3D('',#565,#448,#449);
#385=AXIS2_PLACEMENT_3D('',#567,#450,#451);
#386=AXIS2_PLACEMENT_3D('',#569,#452,#453);
#387=AXIS2_PLACEMENT_3D('',#573,#455,#456);
#388=AXIS2_PLACEMENT_3D('',#577,#458,#459);
#389=AXIS2_PLACEMENT_3D('',#578,#460,#461);
#390=AXIS2_PLACEMENT_3D('',#579,#462,#463);
#391=AXIS2_PLACEMENT_3D('',#580,#464,#465);
#392=AXIS2_PLACEMENT_3D('',#581,#466,#467);
#393=AXIS2_PLACEMENT_3D('',#582,#468,#469);
#394=AXIS2_PLACEMENT_3D('',#583,#470,#471);
#395=AXIS2_PLACEMENT_3D('',#585,#472,#473);
#396=AXIS2_PLACEMENT_3D('',#587,#474,#475);
#397=AXIS2_PLACEMENT_3D('',#588,#476,#477);
#398=AXIS2_PLACEMENT_3D('',#589,#478,#479);
#399=AXIS2_PLACEMENT_3D('',#592,#480,#481);
#400=AXIS2_PLACEMENT_3D('',#593,#482,#483);
#401=AXIS2_PLACEMENT_3D('',#594,#484,#485);
#402=AXIS2_PLACEMENT_3D('',#595,#486,#487);
#403=AXIS2_PLACEMENT_3D('',#599,#489,#490);
#404=AXIS2_PLACEMENT_3D('',#603,#492,#493);
#405=AXIS2_PLACEMENT_3D('',#608,#496,#497);
#406=AXIS2_PLACEMENT_3D('',#609,#498,#499);
#407=AXIS2_PLACEMENT_3D('',#612,#500,#501);
#408=AXIS2_PLACEMENT_3D('',#613,#502,#503);
#409=AXIS2_PLACEMENT_3D('',#614,#504,#505);
#410=AXIS2_PLACEMENT_3D('',#616,#506,#507);
#411=AXIS2_PLACEMENT_3D('',#617,#508,#509);
#412=AXIS2_PLACEMENT_3D('',#619,#510,#511);
#413=AXIS2_PLACEMENT_3D('',#620,#512,#513);
#414=AXIS2_PLACEMENT_3D('',#622,#514,#515);
#415=AXIS2_PLACEMENT_3D('',#623,#516,#517);
#416=AXIS2_PLACEMENT_3D('',#625,#518,#519);
#417=AXIS2_PLACEMENT_3D('',#626,#520,#521);
#418=AXIS2_PLACEMENT_3D('',#628,#522,#523);
#419=AXIS2_PLACEMENT_3D('',#629,#524,#525);
#420=AXIS2_PLACEMENT_3D('',#631,#526,#527);
#421=AXIS2_PLACEMENT_3D('',#632,#528,#529);
#422=AXIS2_PLACEMENT_3D('',#633,#530,#531);
#423=AXIS2_PLACEMENT_3D('',#636,#532,#533);
#424=AXIS2_PLACEMENT_3D('',#637,#534,#535);
#425=AXIS2_PLACEMENT_3D('',#640,#538,#539);
#426=AXIS2_PLACEMENT_3D('',#641,#540,#541);
#427=AXIS2_PLACEMENT_3D('',#642,#542,#543);
#428=AXIS2_PLACEMENT_3D('',#645,#544,#545);
#429=AXIS2_PLACEMENT_3D('',#646,#546,#547);
#430=AXIS2_PLACEMENT_3D('',#649,#550,#551);
#431=AXIS2_PLACEMENT_3D('',#650,#552,#553);
#432=DIRECTION('',(0.,0.,1.));
#433=DIRECTION('',(1.,0.,0.));
#434=DIRECTION('',(0.,0.,1.));
#435=DIRECTION('',(1.,0.,0.));
#436=DIRECTION('',(0.,0.,1.));
#437=DIRECTION('',(1.,0.,0.));
#438=DIRECTION('',(0.,0.,1.));
#439=DIRECTION('',(1.,0.,0.));
#440=DIRECTION('',(0.,0.,1.));
#441=DIRECTION('',(-1.,0.,0.));
#442=DIRECTION('',(0.,0.,-1.));
#443=DIRECTION('',(-1.,0.,0.));
#444=DIRECTION('',(0.,0.,-1.));
#445=DIRECTION('',(-1.,0.,0.));
#446=DIRECTION('',(0.,0.,-1.));
#447=DIRECTION('',(0.,-1.,0.));
#448=DIRECTION('',(0.,0.,1.));
#449=DIRECTION('',(1.,0.,0.));
#450=DIRECTION('',(0.,0.,1.));
#451=DIRECTION('',(-0.929323722171582,-0.369266055045893,0.));
#452=DIRECTION('',(0.,0.,1.));
#453=DIRECTION('',(0.,1.,0.));
#454=DIRECTION('',(-2.399838292346E-14,0.,1.));
#455=DIRECTION('',(0.,0.,1.));
#456=DIRECTION('',(0.,-1.,0.));
#457=DIRECTION('',(2.389971799849E-14,0.,1.));
#458=DIRECTION('',(0.,0.,1.));
#459=DIRECTION('',(0.,-1.,0.));
#460=DIRECTION('',(0.,0.,1.));
#461=DIRECTION('',(0.,1.,0.));
#462=DIRECTION('',(0.,0.,1.));
#463=DIRECTION('',(-0.924300311457059,-0.381665998276483,0.));
#464=DIRECTION('',(0.,0.,1.));
#465=DIRECTION('',(0.999999564444476,0.000933333197827078,0.));
#466=DIRECTION('',(0.,0.,1.));
#467=DIRECTION('',(0.,1.,0.));
#468=DIRECTION('',(0.,0.,1.));
#469=DIRECTION('',(0.,1.,0.));
#470=DIRECTION('',(-1.,0.,0.));
#471=DIRECTION('',(0.,1.30104260698261E-14,-1.));
#472=DIRECTION('',(1.,0.,0.));
#473=DIRECTION('',(0.,-1.30104260698261E-14,-1.));
#474=DIRECTION('',(0.,0.,1.));
#475=DIRECTION('',(0.,1.,0.));
#476=DIRECTION('',(0.,0.,1.));
#477=DIRECTION('',(-0.00528416856784208,-0.999986038683814,0.));
#478=DIRECTION('',(0.,0.,-1.));
#479=DIRECTION('',(1.,0.,0.));
#480=DIRECTION('',(0.,0.,-1.));
#481=DIRECTION('',(1.,0.,0.));
#482=DIRECTION('',(0.,0.,1.));
#483=DIRECTION('',(0.,-1.,0.));
#484=DIRECTION('',(0.,0.,1.));
#485=DIRECTION('',(0.,1.,0.));
#486=DIRECTION('',(0.,0.,1.));
#487=DIRECTION('',(0.00528416856784108,0.999986038683814,0.));
#488=DIRECTION('',(0.,0.,-1.));
#489=DIRECTION('',(0.,0.,-1.));
#490=DIRECTION('',(0.,-1.,0.));
#491=DIRECTION('',(0.,0.,-1.));
#492=DIRECTION('',(0.,0.,-1.));
#493=DIRECTION('',(0.,1.,0.));
#494=DIRECTION('',(4.333861550954E-13,0.,-1.));
#495=DIRECTION('',(-4.310580138597E-13,0.,-1.));
#496=DIRECTION('',(0.,0.,-1.));
#497=DIRECTION('',(0.,-1.,0.));
#498=DIRECTION('',(0.,0.,1.));
#499=DIRECTION('',(-1.,0.,0.));
#500=DIRECTION('',(0.,0.,1.));
#501=DIRECTION('',(-1.,0.,0.));
#502=DIRECTION('',(0.,0.,-1.));
#503=DIRECTION('',(0.,-1.,0.));
#504=DIRECTION('',(0.,0.,-1.));
#505=DIRECTION('',(-0.94673966854674,0.322000000000014,0.));
#506=DIRECTION('',(0.,0.,-1.));
#507=DIRECTION('',(0.,-1.,0.));
#508=DIRECTION('',(0.,0.,-1.));
#509=DIRECTION('',(-0.933577982075045,0.358374317417817,0.));
#510=DIRECTION('',(0.,0.,-1.));
#511=DIRECTION('',(0.,-1.,-4.14962578634445E-17));
#512=DIRECTION('',(0.,0.,-1.));
#513=DIRECTION('',(-0.930813791005031,0.365493757094212,0.));
#514=DIRECTION('',(0.,0.,-1.));
#515=DIRECTION('',(-6.47937227024391E-5,0.999999997900887,0.));
#516=DIRECTION('',(0.,0.,-1.));
#517=DIRECTION('',(-0.930813791005031,0.365493757094212,0.));
#518=DIRECTION('',(0.,0.,-1.));
#519=DIRECTION('',(0.,-1.,0.));
#520=DIRECTION('',(0.,0.,-1.));
#521=DIRECTION('',(-0.933577982075817,0.358374317415807,0.));
#522=DIRECTION('',(0.,0.,-1.));
#523=DIRECTION('',(-6.44853621066812E-5,0.999999997920819,0.));
#524=DIRECTION('',(0.,0.,-1.));
#525=DIRECTION('',(-0.94673966854674,0.322000000000014,0.));
#526=DIRECTION('',(0.,0.,1.));
#527=DIRECTION('',(0.,1.,3.06281903277794E-17));
#528=DIRECTION('',(0.,0.,-1.));
#529=DIRECTION('',(0.,-1.,0.));
#530=DIRECTION('',(0.,0.,-1.));
#531=DIRECTION('',(-1.,0.,0.));
#532=DIRECTION('',(0.,0.,-1.));
#533=DIRECTION('',(-1.,0.,0.));
#534=DIRECTION('',(0.,0.,-1.));
#535=DIRECTION('',(0.,-1.,0.));
#536=DIRECTION('',(0.,0.,1.));
#537=DIRECTION('',(0.,0.,1.));
#538=DIRECTION('',(0.,0.,-1.));
#539=DIRECTION('',(0.,-1.,0.));
#540=DIRECTION('',(0.,0.,-1.));
#541=DIRECTION('',(0.,-1.,0.));
#542=DIRECTION('',(0.,0.,1.));
#543=DIRECTION('',(-1.,0.,0.));
#544=DIRECTION('',(0.,0.,1.));
#545=DIRECTION('',(-1.,0.,0.));
#546=DIRECTION('',(0.,0.,-1.));
#547=DIRECTION('',(0.,-1.,0.));
#548=DIRECTION('',(3.82953160747093E-13,-0.144306116415197,-0.989533094325381));
#549=DIRECTION('',(-3.82951926350393E-13,0.144306116415197,-0.989533094325381));
#550=DIRECTION('',(0.,0.,-1.));
#551=DIRECTION('',(0.,-1.,2.84835142979602E-16));
#552=DIRECTION('',(0.,0.,-1.));
#553=DIRECTION('',(0.,-1.,2.84835142979602E-16));
#554=CARTESIAN_POINT('',(0.,0.,0.));
#555=CARTESIAN_POINT('',(0.,0.,0.));
#556=CARTESIAN_POINT('',(0.,0.,-102.));
#557=CARTESIAN_POINT('',(0.,0.,0.));
#558=CARTESIAN_POINT('',(0.,0.,-3.2));
#559=CARTESIAN_POINT('',(-25.,0.,-3.2));
#560=CARTESIAN_POINT('',(0.,0.,-3.2));
#561=CARTESIAN_POINT('',(0.,-16.3416641016637,-3.2));
#562=CARTESIAN_POINT('',(1.24149938345436E-11,16.3416641016637,-3.2));
#563=CARTESIAN_POINT('',(0.,0.,-3.2));
#564=CARTESIAN_POINT('',(0.,0.,-3.2));
#565=CARTESIAN_POINT('',(0.,0.,-19.1));
#566=CARTESIAN_POINT('',(25.,0.,-19.1));
#567=CARTESIAN_POINT('',(0.,-1.224646799147E-14,-19.1));
#568=CARTESIAN_POINT('',(-20.2592571433405,-8.05000000000047,-19.1));
#569=CARTESIAN_POINT('',(0.,-1.224646799147E-14,-19.1));
#570=CARTESIAN_POINT('',(1.634248292248E-13,-21.,-19.9));
#571=CARTESIAN_POINT('',(0.,-21.,-34.2));
#572=CARTESIAN_POINT('',(0.,-21.,-19.9));
#573=CARTESIAN_POINT('',(0.,-1.039725132476E-14,-34.2));
#574=CARTESIAN_POINT('',(0.,21.,-34.2));
#575=CARTESIAN_POINT('',(-1.625077387472E-13,21.,-19.9));
#576=CARTESIAN_POINT('',(0.,21.,-19.9));
#577=CARTESIAN_POINT('',(0.,-1.214849624754E-14,-19.9));
#578=CARTESIAN_POINT('',(0.,-1.02019201603E-14,-35.795));
#579=CARTESIAN_POINT('',(0.,-1.214849624754E-14,-19.9));
#580=CARTESIAN_POINT('',(0.,-1.214849624754E-14,-19.9));
#581=CARTESIAN_POINT('',(0.,-1.039725132476E-14,-34.2));
#582=CARTESIAN_POINT('',(0.,-1.02019201603E-14,-35.795));
#583=CARTESIAN_POINT('',(0.,-21.8,-34.2));
#584=CARTESIAN_POINT('',(0.,-21.8,-35.));
#585=CARTESIAN_POINT('',(1.353084311262E-14,21.8,-34.2));
#586=CARTESIAN_POINT('',(0.,21.8,-35.));
#587=CARTESIAN_POINT('',(0.,-1.029927958083E-14,-35.));
#588=CARTESIAN_POINT('',(0.,-1.039725132476E-14,-34.2));
#589=CARTESIAN_POINT('',(0.,0.,-35.));
#590=CARTESIAN_POINT('',(-1.38683569630528E-12,25.,-35.));
#591=CARTESIAN_POINT('',(1.37938564435104E-12,-25.,-35.));
#592=CARTESIAN_POINT('',(0.,0.,-35.));
#593=CARTESIAN_POINT('',(0.,-1.029927958083E-14,-35.));
#594=CARTESIAN_POINT('',(0.,-1.029927958083E-14,-35.));
#595=CARTESIAN_POINT('',(0.,-1.039725132476E-14,-34.2));
#596=CARTESIAN_POINT('',(0.,25.,-54.));
#597=CARTESIAN_POINT('',(0.,25.,-43.2));
#598=CARTESIAN_POINT('',(0.,25.,-54.));
#599=CARTESIAN_POINT('',(0.,0.,-54.));
#600=CARTESIAN_POINT('',(0.,-25.,-54.));
#601=CARTESIAN_POINT('',(0.,-25.,-54.));
#602=CARTESIAN_POINT('',(0.,-25.,-43.2));
#603=CARTESIAN_POINT('',(0.,0.,-54.));
#604=CARTESIAN_POINT('',(0.,25.,-38.2));
#605=CARTESIAN_POINT('',(-2.56585412168851E-46,25.,-38.2));
#606=CARTESIAN_POINT('',(0.,-25.,-38.2));
#607=CARTESIAN_POINT('',(-5.71340307902302E-27,-25.,-38.2));
#608=CARTESIAN_POINT('',(0.,0.,-15.705));
#609=CARTESIAN_POINT('',(0.,0.,-54.));
#610=CARTESIAN_POINT('',(3.05995824586095E-13,27.,-54.));
#611=CARTESIAN_POINT('',(-3.1642819183437E-13,-27.,-54.));
#612=CARTESIAN_POINT('',(0.,0.,-54.));
#613=CARTESIAN_POINT('',(0.,0.,-54.));
#614=CARTESIAN_POINT('',(0.,0.,-14.477499074759));
#615=CARTESIAN_POINT('',(-23.6684917136685,8.05000000000034,-14.477499074759));
#616=CARTESIAN_POINT('',(0.,0.,51.145));
#617=CARTESIAN_POINT('',(0.,0.,-13.012499984975));
#618=CARTESIAN_POINT('',(-20.9705394344476,8.04999999999944,-13.012499984975));
#619=CARTESIAN_POINT('',(0.,0.,-13.744999529867));
#620=CARTESIAN_POINT('',(0.,0.,-12.51641567691));
#621=CARTESIAN_POINT('',(-20.5011737468858,8.05000000000002,-12.51641567691));
#622=CARTESIAN_POINT('',(0.,0.,-12.51641567691));
#623=CARTESIAN_POINT('',(0.,0.,-9.683584323034));
#624=CARTESIAN_POINT('',(-20.5011737468858,8.05000000000002,-9.683584323034));
#625=CARTESIAN_POINT('',(0.,0.,51.145));
#626=CARTESIAN_POINT('',(0.,0.,-9.187500014953));
#627=CARTESIAN_POINT('',(-20.9705394345863,8.05000000000086,-9.187500014953));
#628=CARTESIAN_POINT('',(0.,0.,-9.683584323034));
#629=CARTESIAN_POINT('',(0.,0.,-7.72250092524));
#630=CARTESIAN_POINT('',(-23.6684917136685,8.05000000000034,-7.72250092524));
#631=CARTESIAN_POINT('',(0.,0.,-8.4550004701));
#632=CARTESIAN_POINT('',(0.,0.,51.145));
#633=CARTESIAN_POINT('',(0.,0.,-102.));
#634=CARTESIAN_POINT('',(0.,-27.,-102.));
#635=CARTESIAN_POINT('',(-8.40484228171672E-11,27.,-102.));
#636=CARTESIAN_POINT('',(0.,0.,-102.));
#637=CARTESIAN_POINT('',(0.,0.,-102.));
#638=CARTESIAN_POINT('',(0.,27.,-81.5));
#639=CARTESIAN_POINT('',(0.,-27.,-81.5));
#640=CARTESIAN_POINT('',(0.,0.,-51.6));
#641=CARTESIAN_POINT('',(0.,0.,-51.6));
#642=CARTESIAN_POINT('',(0.,0.,47.8));
#643=CARTESIAN_POINT('',(1.89631296808341E-11,8.90420498141354,47.8));
#644=CARTESIAN_POINT('',(-1.89631908060644E-11,-8.90420498141354,47.8));
#645=CARTESIAN_POINT('',(0.,0.,47.8));
#646=CARTESIAN_POINT('',(0.,0.,47.8));
#647=CARTESIAN_POINT('',(0.,-16.04999903812,-1.2));
#648=CARTESIAN_POINT('',(0.,16.04999903812,-1.2));
#649=CARTESIAN_POINT('',(0.,0.,23.04329183492));
#650=CARTESIAN_POINT('',(0.,0.,23.04329183492));
#651=MECHANICAL_DESIGN_GEOMETRIC_PRESENTATION_REPRESENTATION('',(#360,#361,
#362,#363),#652);
#652=(
GEOMETRIC_REPRESENTATION_CONTEXT(3)
GLOBAL_UNCERTAINTY_ASSIGNED_CONTEXT((#653))
GLOBAL_UNIT_ASSIGNED_CONTEXT((#659,#655,#654))
REPRESENTATION_CONTEXT('69871.30A-QTCC.M5','TOP_LEVEL_ASSEMBLY_PART')
);
#653=UNCERTAINTY_MEASURE_WITH_UNIT(LENGTH_MEASURE(2.E-5),#659,
'DISTANCE_ACCURACY_VALUE','Maximum Tolerance applied to model');
#654=(
NAMED_UNIT(*)
SI_UNIT($,.STERADIAN.)
SOLID_ANGLE_UNIT()
);
#655=(
CONVERSION_BASED_UNIT('DEGREE',#657)
NAMED_UNIT(#656)
PLANE_ANGLE_UNIT()
);
#656=DIMENSIONAL_EXPONENTS(0.,0.,0.,0.,0.,0.,0.);
#657=PLANE_ANGLE_MEASURE_WITH_UNIT(PLANE_ANGLE_MEASURE(0.0174532925),#658);
#658=(
NAMED_UNIT(*)
PLANE_ANGLE_UNIT()
SI_UNIT($,.RADIAN.)
);
#659=(
LENGTH_UNIT()
NAMED_UNIT(*)
SI_UNIT(.MILLI.,.METRE.)
);
ENDSEC;
END-ISO-10303-21;
