ISO-10303-21;
HEADER;
/* Generated by software containing ST-Developer
 * from STEP Tools, Inc. (www.steptools.com) 
 */
/* OPTION: using custom schema-name function */

FILE_DESCRIPTION(
/* description */ (''),
/* implementation_level */ '2;1');

FILE_NAME(
/* name */ '69871.30A-QTCC.M3.M14.stp',
/* time_stamp */ '2024-07-22T11:00:06+02:00',
/* author */ (''),
/* organization */ (''),
/* preprocessor_version */ 'ST-DEVELOPER v16.7',
/* originating_system */ 'SIEMENS PLM Software NX 12.0',
/* authorisation */ '');

FILE_SCHEMA (('AUTOMOTIVE_DESIGN { 1 0 10303 214 3 1 1 1 }'));
ENDSEC;

DATA;
#10=CONSTRUCTIVE_GEOMETRY_REPRESENTATION_RELATIONSHIP(
'supplemental geometry','',#32,#11);
#11=CONSTRUCTIVE_GEOMETRY_REPRESENTATION('supplemental geometry',(#296,
#297,#298),#500);
#12=PROPERTY_DEFINITION_REPRESENTATION(#16,#14);
#13=PROPERTY_DEFINITION_REPRESENTATION(#17,#15);
#14=REPRESENTATION('',(#18),#500);
#15=REPRESENTATION('',(#19),#500);
#16=PROPERTY_DEFINITION('pmi validation property','',#23);
#17=PROPERTY_DEFINITION('pmi validation property','',#23);
#18=VALUE_REPRESENTATION_ITEM('number of annotations',COUNT_MEASURE(0.));
#19=VALUE_REPRESENTATION_ITEM('number of views',COUNT_MEASURE(0.));
#20=SHAPE_REPRESENTATION_RELATIONSHIP('None',
'relationship between pf6612088076yuni-None and pf6612088076yuni-None',
#32,#21);
#21=ADVANCED_BREP_SHAPE_REPRESENTATION('pf6612088076yuni-None',(#38),#500);
#22=SHAPE_DEFINITION_REPRESENTATION(#23,#32);
#23=PRODUCT_DEFINITION_SHAPE('','',#24);
#24=PRODUCT_DEFINITION(' ','',#26,#25);
#25=PRODUCT_DEFINITION_CONTEXT('part definition',#31,'design');
#26=PRODUCT_DEFINITION_FORMATION_WITH_SPECIFIED_SOURCE(' ',' ',#28,
 .NOT_KNOWN.);
#27=PRODUCT_RELATED_PRODUCT_CATEGORY('part','',(#28));
#28=PRODUCT('pf6612088076yuni','pf6612088076yuni',' ',(#29));
#29=PRODUCT_CONTEXT(' ',#31,'mechanical');
#30=APPLICATION_PROTOCOL_DEFINITION('international standard',
'automotive_design',2010,#31);
#31=APPLICATION_CONTEXT(
'core data for automotive mechanical design processes');
#32=SHAPE_REPRESENTATION('pf6612088076yuni-None',(#295),#500);
#33=SURFACE_STYLE_USAGE(.BOTH.,#34);
#34=SURFACE_SIDE_STYLE('',(#35));
#35=SURFACE_STYLE_FILL_AREA(#36);
#36=FILL_AREA_STYLE('',(#37));
#37=FILL_AREA_STYLE_COLOUR('',#291);
#38=MANIFOLD_SOLID_BREP('',#39);
#39=CLOSED_SHELL('',(#74,#75,#76,#77,#78,#79,#80,#81,#82,#83,#84,#85,#86,
#87,#88,#89,#90));
#40=LINE('',#468,#48);
#41=LINE('',#472,#49);
#42=LINE('',#481,#50);
#43=LINE('',#483,#51);
#44=LINE('',#485,#52);
#45=LINE('',#487,#53);
#46=LINE('',#495,#54);
#47=LINE('',#496,#55);
#48=VECTOR('',#392,1.);
#49=VECTOR('',#395,1.);
#50=VECTOR('',#408,1.);
#51=VECTOR('',#409,1.);
#52=VECTOR('',#410,1.);
#53=VECTOR('',#411,1.);
#54=VECTOR('',#420,1.);
#55=VECTOR('',#421,1.);
#56=FACE_OUTER_BOUND('',#136,.T.);
#57=FACE_OUTER_BOUND('',#137,.T.);
#58=FACE_OUTER_BOUND('',#138,.T.);
#59=FACE_OUTER_BOUND('',#143,.T.);
#60=FACE_OUTER_BOUND('',#144,.T.);
#61=FACE_OUTER_BOUND('',#145,.T.);
#62=TOROIDAL_SURFACE('',#312,22.525,0.5);
#63=TOROIDAL_SURFACE('',#316,22.525,0.5);
#64=CONICAL_SURFACE('',#310,23.73127357173,60.);
#65=CONICAL_SURFACE('',#318,23.73127357179,60.);
#66=CONICAL_SURFACE('',#334,12.51453841141,8.2971);
#67=CONICAL_SURFACE('',#335,12.51453841141,8.2971);
#68=CYLINDRICAL_SURFACE('',#308,25.);
#69=CYLINDRICAL_SURFACE('',#314,22.025);
#70=CYLINDRICAL_SURFACE('',#319,25.);
#71=CYLINDRICAL_SURFACE('',#324,19.25);
#72=CYLINDRICAL_SURFACE('',#326,19.25);
#73=CYLINDRICAL_SURFACE('',#330,17.5);
#74=ADVANCED_FACE('',(#96,#97),#91,.F.);
#75=ADVANCED_FACE('',(#98,#99),#92,.T.);
#76=ADVANCED_FACE('',(#100,#101),#68,.T.);
#77=ADVANCED_FACE('',(#102,#103),#64,.T.);
#78=ADVANCED_FACE('',(#104,#105),#62,.F.);
#79=ADVANCED_FACE('',(#106,#107),#69,.T.);
#80=ADVANCED_FACE('',(#108,#109),#63,.F.);
#81=ADVANCED_FACE('',(#110,#111),#65,.T.);
#82=ADVANCED_FACE('',(#112,#113),#70,.T.);
#83=ADVANCED_FACE('',(#56),#93,.T.);
#84=ADVANCED_FACE('',(#57),#71,.T.);
#85=ADVANCED_FACE('',(#58),#72,.T.);
#86=ADVANCED_FACE('',(#114,#115),#94,.F.);
#87=ADVANCED_FACE('',(#116,#117),#73,.T.);
#88=ADVANCED_FACE('',(#59),#95,.F.);
#89=ADVANCED_FACE('',(#60),#66,.T.);
#90=ADVANCED_FACE('',(#61),#67,.T.);
#91=PLANE('',#302);
#92=PLANE('',#306);
#93=PLANE('',#322);
#94=PLANE('',#329);
#95=PLANE('',#333);
#96=FACE_BOUND('',#118,.T.);
#97=FACE_BOUND('',#119,.T.);
#98=FACE_BOUND('',#120,.T.);
#99=FACE_BOUND('',#121,.T.);
#100=FACE_BOUND('',#122,.T.);
#101=FACE_BOUND('',#123,.T.);
#102=FACE_BOUND('',#124,.T.);
#103=FACE_BOUND('',#125,.T.);
#104=FACE_BOUND('',#126,.T.);
#105=FACE_BOUND('',#127,.T.);
#106=FACE_BOUND('',#128,.T.);
#107=FACE_BOUND('',#129,.T.);
#108=FACE_BOUND('',#130,.T.);
#109=FACE_BOUND('',#131,.T.);
#110=FACE_BOUND('',#132,.T.);
#111=FACE_BOUND('',#133,.T.);
#112=FACE_BOUND('',#134,.T.);
#113=FACE_BOUND('',#135,.T.);
#114=FACE_BOUND('',#139,.T.);
#115=FACE_BOUND('',#140,.T.);
#116=FACE_BOUND('',#141,.T.);
#117=FACE_BOUND('',#142,.T.);
#118=EDGE_LOOP('',(#146));
#119=EDGE_LOOP('',(#147,#148));
#120=EDGE_LOOP('',(#149,#150));
#121=EDGE_LOOP('',(#151));
#122=EDGE_LOOP('',(#152));
#123=EDGE_LOOP('',(#153));
#124=EDGE_LOOP('',(#154));
#125=EDGE_LOOP('',(#155));
#126=EDGE_LOOP('',(#156));
#127=EDGE_LOOP('',(#157));
#128=EDGE_LOOP('',(#158));
#129=EDGE_LOOP('',(#159));
#130=EDGE_LOOP('',(#160));
#131=EDGE_LOOP('',(#161));
#132=EDGE_LOOP('',(#162));
#133=EDGE_LOOP('',(#163));
#134=EDGE_LOOP('',(#164));
#135=EDGE_LOOP('',(#165));
#136=EDGE_LOOP('',(#166,#167));
#137=EDGE_LOOP('',(#168,#169,#170,#171));
#138=EDGE_LOOP('',(#172,#173,#174,#175));
#139=EDGE_LOOP('',(#176,#177));
#140=EDGE_LOOP('',(#178,#179));
#141=EDGE_LOOP('',(#180,#181,#182,#183,#184,#185));
#142=EDGE_LOOP('',(#186,#187,#188,#189,#190,#191));
#143=EDGE_LOOP('',(#192,#193));
#144=EDGE_LOOP('',(#194,#195,#196,#197));
#145=EDGE_LOOP('',(#198,#199,#200,#201));
#146=ORIENTED_EDGE('',*,*,#226,.T.);
#147=ORIENTED_EDGE('',*,*,#227,.T.);
#148=ORIENTED_EDGE('',*,*,#228,.T.);
#149=ORIENTED_EDGE('',*,*,#229,.F.);
#150=ORIENTED_EDGE('',*,*,#230,.F.);
#151=ORIENTED_EDGE('',*,*,#231,.F.);
#152=ORIENTED_EDGE('',*,*,#231,.T.);
#153=ORIENTED_EDGE('',*,*,#232,.T.);
#154=ORIENTED_EDGE('',*,*,#232,.F.);
#155=ORIENTED_EDGE('',*,*,#233,.T.);
#156=ORIENTED_EDGE('',*,*,#233,.F.);
#157=ORIENTED_EDGE('',*,*,#234,.T.);
#158=ORIENTED_EDGE('',*,*,#234,.F.);
#159=ORIENTED_EDGE('',*,*,#235,.T.);
#160=ORIENTED_EDGE('',*,*,#235,.F.);
#161=ORIENTED_EDGE('',*,*,#236,.T.);
#162=ORIENTED_EDGE('',*,*,#236,.F.);
#163=ORIENTED_EDGE('',*,*,#237,.T.);
#164=ORIENTED_EDGE('',*,*,#237,.F.);
#165=ORIENTED_EDGE('',*,*,#226,.F.);
#166=ORIENTED_EDGE('',*,*,#238,.T.);
#167=ORIENTED_EDGE('',*,*,#239,.T.);
#168=ORIENTED_EDGE('',*,*,#238,.F.);
#169=ORIENTED_EDGE('',*,*,#240,.T.);
#170=ORIENTED_EDGE('',*,*,#241,.F.);
#171=ORIENTED_EDGE('',*,*,#242,.F.);
#172=ORIENTED_EDGE('',*,*,#239,.F.);
#173=ORIENTED_EDGE('',*,*,#242,.T.);
#174=ORIENTED_EDGE('',*,*,#243,.F.);
#175=ORIENTED_EDGE('',*,*,#240,.F.);
#176=ORIENTED_EDGE('',*,*,#243,.T.);
#177=ORIENTED_EDGE('',*,*,#241,.T.);
#178=ORIENTED_EDGE('',*,*,#244,.T.);
#179=ORIENTED_EDGE('',*,*,#245,.T.);
#180=ORIENTED_EDGE('',*,*,#246,.T.);
#181=ORIENTED_EDGE('',*,*,#230,.T.);
#182=ORIENTED_EDGE('',*,*,#247,.F.);
#183=ORIENTED_EDGE('',*,*,#247,.T.);
#184=ORIENTED_EDGE('',*,*,#229,.T.);
#185=ORIENTED_EDGE('',*,*,#246,.F.);
#186=ORIENTED_EDGE('',*,*,#248,.T.);
#187=ORIENTED_EDGE('',*,*,#248,.F.);
#188=ORIENTED_EDGE('',*,*,#244,.F.);
#189=ORIENTED_EDGE('',*,*,#249,.T.);
#190=ORIENTED_EDGE('',*,*,#249,.F.);
#191=ORIENTED_EDGE('',*,*,#245,.F.);
#192=ORIENTED_EDGE('',*,*,#250,.T.);
#193=ORIENTED_EDGE('',*,*,#251,.T.);
#194=ORIENTED_EDGE('',*,*,#252,.T.);
#195=ORIENTED_EDGE('',*,*,#227,.F.);
#196=ORIENTED_EDGE('',*,*,#253,.F.);
#197=ORIENTED_EDGE('',*,*,#250,.F.);
#198=ORIENTED_EDGE('',*,*,#253,.T.);
#199=ORIENTED_EDGE('',*,*,#228,.F.);
#200=ORIENTED_EDGE('',*,*,#252,.F.);
#201=ORIENTED_EDGE('',*,*,#251,.F.);
#202=VERTEX_POINT('',#431);
#203=VERTEX_POINT('',#433);
#204=VERTEX_POINT('',#434);
#205=VERTEX_POINT('',#438);
#206=VERTEX_POINT('',#439);
#207=VERTEX_POINT('',#442);
#208=VERTEX_POINT('',#445);
#209=VERTEX_POINT('',#448);
#210=VERTEX_POINT('',#451);
#211=VERTEX_POINT('',#454);
#212=VERTEX_POINT('',#457);
#213=VERTEX_POINT('',#460);
#214=VERTEX_POINT('',#464);
#215=VERTEX_POINT('',#465);
#216=VERTEX_POINT('',#469);
#217=VERTEX_POINT('',#471);
#218=VERTEX_POINT('',#477);
#219=VERTEX_POINT('',#478);
#220=VERTEX_POINT('',#482);
#221=VERTEX_POINT('',#484);
#222=VERTEX_POINT('',#486);
#223=VERTEX_POINT('',#488);
#224=VERTEX_POINT('',#491);
#225=VERTEX_POINT('',#492);
#226=EDGE_CURVE('',#202,#202,#254,.T.);
#227=EDGE_CURVE('',#203,#204,#255,.T.);
#228=EDGE_CURVE('',#204,#203,#256,.T.);
#229=EDGE_CURVE('',#205,#206,#257,.T.);
#230=EDGE_CURVE('',#206,#205,#258,.T.);
#231=EDGE_CURVE('',#207,#207,#259,.T.);
#232=EDGE_CURVE('',#208,#208,#260,.T.);
#233=EDGE_CURVE('',#209,#209,#261,.T.);
#234=EDGE_CURVE('',#210,#210,#262,.T.);
#235=EDGE_CURVE('',#211,#211,#263,.T.);
#236=EDGE_CURVE('',#212,#212,#264,.T.);
#237=EDGE_CURVE('',#213,#213,#265,.T.);
#238=EDGE_CURVE('',#214,#215,#266,.T.);
#239=EDGE_CURVE('',#215,#214,#267,.T.);
#240=EDGE_CURVE('',#214,#216,#40,.T.);
#241=EDGE_CURVE('',#217,#216,#268,.T.);
#242=EDGE_CURVE('',#215,#217,#41,.T.);
#243=EDGE_CURVE('',#216,#217,#269,.T.);
#244=EDGE_CURVE('',#218,#219,#270,.T.);
#245=EDGE_CURVE('',#219,#218,#271,.T.);
#246=EDGE_CURVE('',#220,#206,#42,.T.);
#247=EDGE_CURVE('',#221,#205,#43,.T.);
#248=EDGE_CURVE('',#219,#222,#44,.T.);
#249=EDGE_CURVE('',#218,#223,#45,.T.);
#250=EDGE_CURVE('',#224,#225,#272,.T.);
#251=EDGE_CURVE('',#225,#224,#273,.T.);
#252=EDGE_CURVE('',#224,#204,#46,.T.);
#253=EDGE_CURVE('',#225,#203,#47,.T.);
#254=CIRCLE('',#299,25.);
#255=CIRCLE('',#300,16.3416641016637);
#256=CIRCLE('',#301,16.3416641016637);
#257=CIRCLE('',#303,17.5);
#258=CIRCLE('',#304,17.5);
#259=CIRCLE('',#305,25.);
#260=CIRCLE('',#307,25.);
#261=CIRCLE('',#309,22.46254714345);
#262=CIRCLE('',#311,22.025);
#263=CIRCLE('',#313,22.025);
#264=CIRCLE('',#315,22.46254714358);
#265=CIRCLE('',#317,25.);
#266=CIRCLE('',#320,19.25);
#267=CIRCLE('',#321,19.25);
#268=CIRCLE('',#323,19.25);
#269=CIRCLE('',#325,19.25);
#270=CIRCLE('',#327,17.5);
#271=CIRCLE('',#328,17.5);
#272=CIRCLE('',#331,8.90420498141631);
#273=CIRCLE('',#332,8.90420498141631);
#274=INVISIBILITY((#275,#276,#277,#278));
#275=PRESENTATION_LAYER_ASSIGNMENT('100','Layer 100',(#296));
#276=PRESENTATION_LAYER_ASSIGNMENT('101','Layer 101',(#297));
#277=PRESENTATION_LAYER_ASSIGNMENT('102','Layer 102',(#298));
#278=PRESENTATION_LAYER_ASSIGNMENT('98','Layer 98',(#38));
#279=STYLED_ITEM('',(#283),#296);
#280=STYLED_ITEM('',(#284),#297);
#281=STYLED_ITEM('',(#285),#298);
#282=STYLED_ITEM('',(#286),#38);
#283=PRESENTATION_STYLE_ASSIGNMENT((#287));
#284=PRESENTATION_STYLE_ASSIGNMENT((#288));
#285=PRESENTATION_STYLE_ASSIGNMENT((#289));
#286=PRESENTATION_STYLE_ASSIGNMENT((#33));
#287=CURVE_STYLE('',#292,POSITIVE_LENGTH_MEASURE(0.7),#290);
#288=CURVE_STYLE('',#293,POSITIVE_LENGTH_MEASURE(0.7),#290);
#289=CURVE_STYLE('',#294,POSITIVE_LENGTH_MEASURE(0.7),#290);
#290=COLOUR_RGB('Medium Maroon',0.6,0.4,0.4);
#291=COLOUR_RGB('Medium Gray',0.490196078431373,0.490196078431373,0.490196078431373);
#292=DRAUGHTING_PRE_DEFINED_CURVE_FONT('continuous');
#293=DRAUGHTING_PRE_DEFINED_CURVE_FONT('continuous');
#294=DRAUGHTING_PRE_DEFINED_CURVE_FONT('continuous');
#295=AXIS2_PLACEMENT_3D('',#426,#336,#337);
#296=AXIS2_PLACEMENT_3D('PCS',#427,#338,#339);
#297=AXIS2_PLACEMENT_3D('CSW',#428,#340,#341);
#298=AXIS2_PLACEMENT_3D('MCS',#429,#342,#343);
#299=AXIS2_PLACEMENT_3D('',#430,#344,#345);
#300=AXIS2_PLACEMENT_3D('',#432,#346,#347);
#301=AXIS2_PLACEMENT_3D('',#435,#348,#349);
#302=AXIS2_PLACEMENT_3D('',#436,#350,#351);
#303=AXIS2_PLACEMENT_3D('',#437,#352,#353);
#304=AXIS2_PLACEMENT_3D('',#440,#354,#355);
#305=AXIS2_PLACEMENT_3D('',#441,#356,#357);
#306=AXIS2_PLACEMENT_3D('',#443,#358,#359);
#307=AXIS2_PLACEMENT_3D('',#444,#360,#361);
#308=AXIS2_PLACEMENT_3D('',#446,#362,#363);
#309=AXIS2_PLACEMENT_3D('',#447,#364,#365);
#310=AXIS2_PLACEMENT_3D('',#449,#366,#367);
#311=AXIS2_PLACEMENT_3D('',#450,#368,#369);
#312=AXIS2_PLACEMENT_3D('',#452,#370,#371);
#313=AXIS2_PLACEMENT_3D('',#453,#372,#373);
#314=AXIS2_PLACEMENT_3D('',#455,#374,#375);
#315=AXIS2_PLACEMENT_3D('',#456,#376,#377);
#316=AXIS2_PLACEMENT_3D('',#458,#378,#379);
#317=AXIS2_PLACEMENT_3D('',#459,#380,#381);
#318=AXIS2_PLACEMENT_3D('',#461,#382,#383);
#319=AXIS2_PLACEMENT_3D('',#462,#384,#385);
#320=AXIS2_PLACEMENT_3D('',#463,#386,#387);
#321=AXIS2_PLACEMENT_3D('',#466,#388,#389);
#322=AXIS2_PLACEMENT_3D('',#467,#390,#391);
#323=AXIS2_PLACEMENT_3D('',#470,#393,#394);
#324=AXIS2_PLACEMENT_3D('',#473,#396,#397);
#325=AXIS2_PLACEMENT_3D('',#474,#398,#399);
#326=AXIS2_PLACEMENT_3D('',#475,#400,#401);
#327=AXIS2_PLACEMENT_3D('',#476,#402,#403);
#328=AXIS2_PLACEMENT_3D('',#479,#404,#405);
#329=AXIS2_PLACEMENT_3D('',#480,#406,#407);
#330=AXIS2_PLACEMENT_3D('',#489,#412,#413);
#331=AXIS2_PLACEMENT_3D('',#490,#414,#415);
#332=AXIS2_PLACEMENT_3D('',#493,#416,#417);
#333=AXIS2_PLACEMENT_3D('',#494,#418,#419);
#334=AXIS2_PLACEMENT_3D('',#497,#422,#423);
#335=AXIS2_PLACEMENT_3D('',#498,#424,#425);
#336=DIRECTION('',(0.,0.,1.));
#337=DIRECTION('',(1.,0.,0.));
#338=DIRECTION('',(0.,0.,1.));
#339=DIRECTION('',(1.,0.,0.));
#340=DIRECTION('',(0.,0.,1.));
#341=DIRECTION('',(1.,0.,0.));
#342=DIRECTION('',(0.,0.,1.));
#343=DIRECTION('',(1.,0.,0.));
#344=DIRECTION('',(0.,0.,1.));
#345=DIRECTION('',(-1.,0.,0.));
#346=DIRECTION('',(0.,0.,-1.));
#347=DIRECTION('',(-1.,0.,0.));
#348=DIRECTION('',(0.,0.,-1.));
#349=DIRECTION('',(-1.,0.,0.));
#350=DIRECTION('',(0.,0.,-1.));
#351=DIRECTION('',(0.,-1.,0.));
#352=DIRECTION('',(0.,0.,-1.));
#353=DIRECTION('',(-1.,0.,0.));
#354=DIRECTION('',(0.,0.,-1.));
#355=DIRECTION('',(-1.,0.,0.));
#356=DIRECTION('',(0.,0.,1.));
#357=DIRECTION('',(-1.,0.,0.));
#358=DIRECTION('',(0.,0.,-1.));
#359=DIRECTION('',(0.,-1.,0.));
#360=DIRECTION('',(0.,0.,-1.));
#361=DIRECTION('',(-0.94673966854674,0.322000000000014,0.));
#362=DIRECTION('',(0.,0.,-1.));
#363=DIRECTION('',(0.,-1.,0.));
#364=DIRECTION('',(0.,0.,-1.));
#365=DIRECTION('',(-0.933577982075045,0.358374317417817,0.));
#366=DIRECTION('',(0.,0.,-1.));
#367=DIRECTION('',(0.,-1.,-4.14962578634445E-17));
#368=DIRECTION('',(0.,0.,-1.));
#369=DIRECTION('',(-0.930813791005031,0.365493757094212,0.));
#370=DIRECTION('',(0.,0.,-1.));
#371=DIRECTION('',(-6.47937227024391E-5,0.999999997900887,0.));
#372=DIRECTION('',(0.,0.,-1.));
#373=DIRECTION('',(-0.930813791005031,0.365493757094212,0.));
#374=DIRECTION('',(0.,0.,-1.));
#375=DIRECTION('',(0.,-1.,0.));
#376=DIRECTION('',(0.,0.,-1.));
#377=DIRECTION('',(-0.933577982075817,0.358374317415807,0.));
#378=DIRECTION('',(0.,0.,-1.));
#379=DIRECTION('',(-6.44853621066812E-5,0.999999997920819,0.));
#380=DIRECTION('',(0.,0.,-1.));
#381=DIRECTION('',(-0.94673966854674,0.322000000000014,0.));
#382=DIRECTION('',(0.,0.,1.));
#383=DIRECTION('',(0.,1.,3.06281903277794E-17));
#384=DIRECTION('',(0.,0.,-1.));
#385=DIRECTION('',(0.,-1.,0.));
#386=DIRECTION('',(0.,0.,-1.));
#387=DIRECTION('',(-1.,0.,0.));
#388=DIRECTION('',(0.,0.,-1.));
#389=DIRECTION('',(-1.,0.,0.));
#390=DIRECTION('',(0.,0.,-1.));
#391=DIRECTION('',(0.,-1.,0.));
#392=DIRECTION('',(0.,0.,1.));
#393=DIRECTION('',(0.,0.,1.));
#394=DIRECTION('',(-1.,0.,0.));
#395=DIRECTION('',(0.,0.,1.));
#396=DIRECTION('',(0.,0.,-1.));
#397=DIRECTION('',(0.,-1.,0.));
#398=DIRECTION('',(0.,0.,1.));
#399=DIRECTION('',(-1.,0.,0.));
#400=DIRECTION('',(0.,0.,-1.));
#401=DIRECTION('',(0.,-1.,0.));
#402=DIRECTION('',(0.,0.,-1.));
#403=DIRECTION('',(0.,1.,0.));
#404=DIRECTION('',(0.,0.,-1.));
#405=DIRECTION('',(0.,-1.,0.));
#406=DIRECTION('',(0.,0.,-1.));
#407=DIRECTION('',(0.,-1.,0.));
#408=DIRECTION('',(0.,0.,1.));
#409=DIRECTION('',(0.,0.,1.));
#410=DIRECTION('',(0.,0.,1.));
#411=DIRECTION('',(0.,0.,1.));
#412=DIRECTION('',(0.,0.,-1.));
#413=DIRECTION('',(0.,-1.,0.));
#414=DIRECTION('',(0.,0.,1.));
#415=DIRECTION('',(-1.,0.,0.));
#416=DIRECTION('',(0.,0.,1.));
#417=DIRECTION('',(-1.,0.,0.));
#418=DIRECTION('',(0.,0.,-1.));
#419=DIRECTION('',(0.,-1.,0.));
#420=DIRECTION('',(-3.82951926350393E-13,0.144306116415197,-0.989533094325381));
#421=DIRECTION('',(3.82953160747093E-13,-0.144306116415197,-0.989533094325381));
#422=DIRECTION('',(0.,0.,-1.));
#423=DIRECTION('',(0.,-1.,2.84835142979602E-16));
#424=DIRECTION('',(0.,0.,-1.));
#425=DIRECTION('',(0.,-1.,2.84835142979602E-16));
#426=CARTESIAN_POINT('',(0.,0.,0.));
#427=CARTESIAN_POINT('',(0.,0.,0.));
#428=CARTESIAN_POINT('',(0.,0.,-65.));
#429=CARTESIAN_POINT('',(0.,0.,0.));
#430=CARTESIAN_POINT('',(0.,0.,-3.2));
#431=CARTESIAN_POINT('',(-25.,0.,-3.2));
#432=CARTESIAN_POINT('',(0.,0.,-3.2));
#433=CARTESIAN_POINT('',(0.,-16.3416641016637,-3.2));
#434=CARTESIAN_POINT('',(1.24149938345436E-11,16.3416641016637,-3.2));
#435=CARTESIAN_POINT('',(0.,0.,-3.2));
#436=CARTESIAN_POINT('',(0.,0.,-3.2));
#437=CARTESIAN_POINT('',(0.,0.,-19.1));
#438=CARTESIAN_POINT('',(0.,-17.5,-19.1));
#439=CARTESIAN_POINT('',(-1.07156594925393E-15,17.5,-19.1));
#440=CARTESIAN_POINT('',(0.,0.,-19.1));
#441=CARTESIAN_POINT('',(0.,0.,-19.1));
#442=CARTESIAN_POINT('',(-25.,0.,-19.1));
#443=CARTESIAN_POINT('',(0.,0.,-19.1));
#444=CARTESIAN_POINT('',(0.,0.,-14.477499074759));
#445=CARTESIAN_POINT('',(-23.6684917136685,8.05000000000034,-14.477499074759));
#446=CARTESIAN_POINT('',(0.,0.,51.145));
#447=CARTESIAN_POINT('',(0.,0.,-13.012499984975));
#448=CARTESIAN_POINT('',(-20.9705394344476,8.04999999999944,-13.012499984975));
#449=CARTESIAN_POINT('',(0.,0.,-13.744999529867));
#450=CARTESIAN_POINT('',(0.,0.,-12.51641567691));
#451=CARTESIAN_POINT('',(-20.5011737468858,8.05000000000002,-12.51641567691));
#452=CARTESIAN_POINT('',(0.,0.,-12.51641567691));
#453=CARTESIAN_POINT('',(0.,0.,-9.683584323034));
#454=CARTESIAN_POINT('',(-20.5011737468858,8.05000000000002,-9.683584323034));
#455=CARTESIAN_POINT('',(0.,0.,51.145));
#456=CARTESIAN_POINT('',(0.,0.,-9.187500014953));
#457=CARTESIAN_POINT('',(-20.9705394345863,8.05000000000086,-9.187500014953));
#458=CARTESIAN_POINT('',(0.,0.,-9.683584323034));
#459=CARTESIAN_POINT('',(0.,0.,-7.72250092524));
#460=CARTESIAN_POINT('',(-23.6684917136685,8.05000000000034,-7.72250092524));
#461=CARTESIAN_POINT('',(0.,0.,-8.4550004701));
#462=CARTESIAN_POINT('',(0.,0.,51.145));
#463=CARTESIAN_POINT('',(0.,0.,-65.));
#464=CARTESIAN_POINT('',(-2.03221286131241E-10,19.25,-65.));
#465=CARTESIAN_POINT('',(0.,-19.25,-65.));
#466=CARTESIAN_POINT('',(0.,0.,-65.));
#467=CARTESIAN_POINT('',(0.,0.,-65.));
#468=CARTESIAN_POINT('',(0.,19.25,-52.7));
#469=CARTESIAN_POINT('',(5.42072255161015E-12,19.25,-35.));
#470=CARTESIAN_POINT('',(0.,0.,-35.));
#471=CARTESIAN_POINT('',(-5.42065554584413E-12,-19.25,-35.));
#472=CARTESIAN_POINT('',(0.,-19.25,-52.7));
#473=CARTESIAN_POINT('',(0.,0.,-33.5));
#474=CARTESIAN_POINT('',(0.,0.,-35.));
#475=CARTESIAN_POINT('',(0.,0.,-33.5));
#476=CARTESIAN_POINT('',(0.,0.,-35.));
#477=CARTESIAN_POINT('',(0.,17.5,-35.));
#478=CARTESIAN_POINT('',(0.,-17.5,-35.));
#479=CARTESIAN_POINT('',(0.,0.,-35.));
#480=CARTESIAN_POINT('',(0.,0.,-35.));
#481=CARTESIAN_POINT('',(0.,17.5,-24.1));
#482=CARTESIAN_POINT('',(0.,17.5,-24.1));
#483=CARTESIAN_POINT('',(0.,-17.5,-24.1));
#484=CARTESIAN_POINT('',(0.,-17.5,-24.1));
#485=CARTESIAN_POINT('',(0.,-17.5,-35.));
#486=CARTESIAN_POINT('',(0.,-17.5,-28.2));
#487=CARTESIAN_POINT('',(0.,17.5,-35.));
#488=CARTESIAN_POINT('',(5.34552942018439E-47,17.5,-28.2));
#489=CARTESIAN_POINT('',(0.,0.,-17.38));
#490=CARTESIAN_POINT('',(0.,0.,47.8));
#491=CARTESIAN_POINT('',(1.89631296808341E-11,8.90420498141354,47.8));
#492=CARTESIAN_POINT('',(-1.89631908060644E-11,-8.90420498141354,47.8));
#493=CARTESIAN_POINT('',(0.,0.,47.8));
#494=CARTESIAN_POINT('',(0.,0.,47.8));
#495=CARTESIAN_POINT('',(0.,16.04999903812,-1.2));
#496=CARTESIAN_POINT('',(0.,-16.04999903812,-1.2));
#497=CARTESIAN_POINT('',(0.,0.,23.04329183492));
#498=CARTESIAN_POINT('',(0.,0.,23.04329183492));
#499=MECHANICAL_DESIGN_GEOMETRIC_PRESENTATION_REPRESENTATION('',(#279,#280,
#281,#282),#500);
#500=(
GEOMETRIC_REPRESENTATION_CONTEXT(3)
GLOBAL_UNCERTAINTY_ASSIGNED_CONTEXT((#501))
GLOBAL_UNIT_ASSIGNED_CONTEXT((#507,#503,#502))
REPRESENTATION_CONTEXT('69871.30A-QTCC.M3','TOP_LEVEL_ASSEMBLY_PART')
);
#501=UNCERTAINTY_MEASURE_WITH_UNIT(LENGTH_MEASURE(2.E-5),#507,
'DISTANCE_ACCURACY_VALUE','Maximum Tolerance applied to model');
#502=(
NAMED_UNIT(*)
SI_UNIT($,.STERADIAN.)
SOLID_ANGLE_UNIT()
);
#503=(
CONVERSION_BASED_UNIT('DEGREE',#505)
NAMED_UNIT(#504)
PLANE_ANGLE_UNIT()
);
#504=DIMENSIONAL_EXPONENTS(0.,0.,0.,0.,0.,0.,0.);
#505=PLANE_ANGLE_MEASURE_WITH_UNIT(PLANE_ANGLE_MEASURE(0.0174532925),#506);
#506=(
NAMED_UNIT(*)
PLANE_ANGLE_UNIT()
SI_UNIT($,.RADIAN.)
);
#507=(
LENGTH_UNIT()
NAMED_UNIT(*)
SI_UNIT(.MILLI.,.METRE.)
);
ENDSEC;
END-ISO-10303-21;
