ISO-10303-21;
HEADER;
/* Generated by software containing ST-Developer
 * from STEP Tools, Inc. (www.steptools.com) 
 */
/* OPTION: using custom schema-name function */

FILE_DESCRIPTION(
/* description */ ('341SD3/4'),
/* implementation_level */ '2;1');

FILE_NAME(
/* name */ 'CAPP~~210909121611~6481045~MOD~TM01_00~ISO~FR.STP',
/* time_stamp */ '2021-09-09T12:16:59+02:00',
/* author */ ('System'),
/* organization */ ('Dormer Pramet'),
/* preprocessor_version */ 'ST-DEVELOPER v16.7',
/* originating_system */ 'SIEMENS PLM Software NX 12.0',
/* authorisation */ '');

FILE_SCHEMA (('AUTOMOTIVE_DESIGN { 1 0 10303 214 3 1 1 1 }'));
ENDSEC;

DATA;
#10=CONSTRUCTIVE_GEOMETRY_REPRESENTATION_RELATIONSHIP(
'supplemental geometry','',#26,#11);
#11=CONSTRUCTIVE_GEOMETRY_REPRESENTATION('supplemental geometry',(#146,
#147,#148),#236);
#12=GEOMETRICALLY_BOUNDED_WIREFRAME_SHAPE_REPRESENTATION(
'CAPP~~210909121611~6481045~MOD~TM01_00~ISO~FR-None',(#27),#236);
#13=SHAPE_REPRESENTATION_RELATIONSHIP('None',
'relationship between CAPP~~210909121611~6481045~MOD~TM01_00~ISO~FR-No
ne and CAPP~~210909121611~6481045~MOD~TM01_00~ISO~FR-None',#26,#15);
#14=SHAPE_REPRESENTATION_RELATIONSHIP('None',
'relationship between CAPP~~210909121611~6481045~MOD~TM01_00~ISO~FR-No
ne and CAPP~~210909121611~6481045~MOD~TM01_00~ISO~FR-None',#26,#12);
#15=ADVANCED_BREP_SHAPE_REPRESENTATION(
'CAPP~~210909121611~6481045~MOD~TM01_00~ISO~FR-None',(#39,#40),#236);
#16=SHAPE_DEFINITION_REPRESENTATION(#17,#26);
#17=PRODUCT_DEFINITION_SHAPE('','',#18);
#18=PRODUCT_DEFINITION(' ','',#20,#19);
#19=PRODUCT_DEFINITION_CONTEXT('part definition',#25,'design');
#20=PRODUCT_DEFINITION_FORMATION_WITH_SPECIFIED_SOURCE(' ',' ',#22,
 .NOT_KNOWN.);
#21=PRODUCT_RELATED_PRODUCT_CATEGORY('part','',(#22));
#22=PRODUCT('CAPP~~210909121611~6481045~MOD~TM01_00~ISO~FR',
'CAPP~~210909121611~6481045~MOD~TM01_00~ISO~FR',' ',(#23));
#23=PRODUCT_CONTEXT(' ',#25,'mechanical');
#24=APPLICATION_PROTOCOL_DEFINITION('international standard',
'automotive_design',2010,#25);
#25=APPLICATION_CONTEXT(
'core data for automotive mechanical design processes');
#26=SHAPE_REPRESENTATION(
'CAPP~~210909121611~6481045~MOD~TM01_00~ISO~FR-None',(#145),#236);
#27=GEOMETRIC_CURVE_SET('None',(#200,#123));
#28=CYLINDRICAL_SURFACE('',#159,6.34999999999999);
#29=SURFACE_STYLE_USAGE(.BOTH.,#31);
#30=SURFACE_STYLE_USAGE(.BOTH.,#32);
#31=SURFACE_SIDE_STYLE('',(#33));
#32=SURFACE_SIDE_STYLE('',(#34));
#33=SURFACE_STYLE_FILL_AREA(#35);
#34=SURFACE_STYLE_FILL_AREA(#36);
#35=FILL_AREA_STYLE('',(#37));
#36=FILL_AREA_STYLE('',(#38));
#37=FILL_AREA_STYLE_COLOUR('',#143);
#38=FILL_AREA_STYLE_COLOUR('',#144);
#39=MANIFOLD_SOLID_BREP('CUT',#41);
#40=MANIFOLD_SOLID_BREP('NOCUT',#42);
#41=CLOSED_SHELL('',(#50,#51,#52,#53));
#42=CLOSED_SHELL('',(#54,#55,#56,#57));
#43=PLANE('',#155);
#44=PLANE('',#157);
#45=PLANE('',#162);
#46=FACE_OUTER_BOUND('',#77,.T.);
#47=FACE_OUTER_BOUND('',#78,.T.);
#48=FACE_OUTER_BOUND('',#83,.T.);
#49=VERTEX_LOOP('',#99);
#50=ADVANCED_FACE('',(#62,#63),#58,.T.);
#51=ADVANCED_FACE('',(#64,#65),#59,.T.);
#52=ADVANCED_FACE('',(#66,#67),#60,.T.);
#53=ADVANCED_FACE('',(#46),#43,.F.);
#54=ADVANCED_FACE('',(#47),#44,.T.);
#55=ADVANCED_FACE('',(#68,#69),#28,.T.);
#56=ADVANCED_FACE('',(#70,#71),#61,.T.);
#57=ADVANCED_FACE('',(#48),#45,.F.);
#58=CONICAL_SURFACE('',#151,9.525,0.000813037501147394);
#59=CONICAL_SURFACE('',#153,9.52399999999999,89.8999999999999);
#60=CONICAL_SURFACE('',#154,4.28624999999999,59.0000000000003);
#61=CONICAL_SURFACE('',#161,6.35,45.0000000000001);
#62=FACE_BOUND('',#72,.T.);
#63=FACE_BOUND('',#73,.T.);
#64=FACE_BOUND('',#74,.T.);
#65=FACE_BOUND('',#75,.T.);
#66=FACE_BOUND('',#76,.T.);
#67=FACE_BOUND('',#49,.T.);
#68=FACE_BOUND('',#79,.T.);
#69=FACE_BOUND('',#80,.T.);
#70=FACE_BOUND('',#81,.T.);
#71=FACE_BOUND('',#82,.T.);
#72=EDGE_LOOP('',(#84));
#73=EDGE_LOOP('',(#85));
#74=EDGE_LOOP('',(#86));
#75=EDGE_LOOP('',(#87));
#76=EDGE_LOOP('',(#88));
#77=EDGE_LOOP('',(#89));
#78=EDGE_LOOP('',(#90));
#79=EDGE_LOOP('',(#91));
#80=EDGE_LOOP('',(#92));
#81=EDGE_LOOP('',(#93));
#82=EDGE_LOOP('',(#94));
#83=EDGE_LOOP('',(#95));
#84=ORIENTED_EDGE('',*,*,#103,.F.);
#85=ORIENTED_EDGE('',*,*,#104,.T.);
#86=ORIENTED_EDGE('',*,*,#105,.F.);
#87=ORIENTED_EDGE('',*,*,#103,.T.);
#88=ORIENTED_EDGE('',*,*,#104,.F.);
#89=ORIENTED_EDGE('',*,*,#105,.T.);
#90=ORIENTED_EDGE('',*,*,#106,.T.);
#91=ORIENTED_EDGE('',*,*,#107,.F.);
#92=ORIENTED_EDGE('',*,*,#106,.F.);
#93=ORIENTED_EDGE('',*,*,#108,.F.);
#94=ORIENTED_EDGE('',*,*,#107,.T.);
#95=ORIENTED_EDGE('',*,*,#108,.T.);
#96=VERTEX_POINT('',#215);
#97=VERTEX_POINT('',#217);
#98=VERTEX_POINT('',#220);
#99=VERTEX_POINT('',#222);
#100=VERTEX_POINT('',#226);
#101=VERTEX_POINT('',#229);
#102=VERTEX_POINT('',#232);
#103=EDGE_CURVE('',#96,#96,#109,.T.);
#104=EDGE_CURVE('',#97,#97,#110,.T.);
#105=EDGE_CURVE('',#98,#98,#111,.T.);
#106=EDGE_CURVE('',#100,#100,#112,.T.);
#107=EDGE_CURVE('',#101,#101,#113,.T.);
#108=EDGE_CURVE('',#102,#102,#114,.T.);
#109=CIRCLE('',#149,9.52399999999999);
#110=CIRCLE('',#150,9.525);
#111=CIRCLE('',#152,6.34999999999999);
#112=CIRCLE('',#156,6.34999999999999);
#113=CIRCLE('',#158,6.35);
#114=CIRCLE('',#160,4.51691289532294);
#115=CURVE_STYLE('',#119,POSITIVE_LENGTH_MEASURE(0.18),#141);
#116=CURVE_STYLE('',#120,POSITIVE_LENGTH_MEASURE(0.13),#142);
#117=CURVE_STYLE('',#121,POSITIVE_LENGTH_MEASURE(0.13),#142);
#118=CURVE_STYLE('',#122,POSITIVE_LENGTH_MEASURE(0.13),#142);
#119=DRAUGHTING_PRE_DEFINED_CURVE_FONT('continuous');
#120=DRAUGHTING_PRE_DEFINED_CURVE_FONT('continuous');
#121=DRAUGHTING_PRE_DEFINED_CURVE_FONT('continuous');
#122=DRAUGHTING_PRE_DEFINED_CURVE_FONT('continuous');
#123=B_SPLINE_CURVE_WITH_KNOTS('CUTTING PART LINE',3,(#201,#202,#203,#204,
#205,#206,#207,#208,#209,#210),.UNSPECIFIED.,.F.,.F.,(4,3,3,4),(0.,0.131105678545039,
0.962551907808425,1.),.UNSPECIFIED.);
#124=PRESENTATION_LAYER_ASSIGNMENT('1','Layer 1',(#200,#123,#146,#147,#148,
#39,#40));
#125=STYLED_ITEM('',(#132),#200);
#126=STYLED_ITEM('',(#133),#123);
#127=STYLED_ITEM('',(#134),#146);
#128=STYLED_ITEM('',(#135),#147);
#129=STYLED_ITEM('',(#136),#148);
#130=STYLED_ITEM('',(#137),#39);
#131=STYLED_ITEM('',(#138),#40);
#132=PRESENTATION_STYLE_ASSIGNMENT((#139));
#133=PRESENTATION_STYLE_ASSIGNMENT((#115));
#134=PRESENTATION_STYLE_ASSIGNMENT((#116));
#135=PRESENTATION_STYLE_ASSIGNMENT((#117));
#136=PRESENTATION_STYLE_ASSIGNMENT((#118));
#137=PRESENTATION_STYLE_ASSIGNMENT((#29));
#138=PRESENTATION_STYLE_ASSIGNMENT((#30));
#139=POINT_STYLE('',#140,POSITIVE_LENGTH_MEASURE(3.),#141);
#140=PRE_DEFINED_POINT_MARKER_SYMBOL('plus');
#141=COLOUR_RGB('BLUE',0.,0.,0.998992904554818);
#142=COLOUR_RGB('Deep Lemon',1.,0.909788662546731,0.384298466468299);
#143=COLOUR_RGB('LIGHT GREY',0.8,0.8,0.8);
#144=COLOUR_RGB('GREY',0.499992370489052,0.499992370489052,0.499992370489052);
#145=AXIS2_PLACEMENT_3D('',#199,#163,#164);
#146=AXIS2_PLACEMENT_3D('PCS',#211,#165,#166);
#147=AXIS2_PLACEMENT_3D('CIP',#212,#167,#168);
#148=AXIS2_PLACEMENT_3D('MCS',#213,#169,#170);
#149=AXIS2_PLACEMENT_3D('',#214,#171,#172);
#150=AXIS2_PLACEMENT_3D('',#216,#173,#174);
#151=AXIS2_PLACEMENT_3D('',#218,#175,#176);
#152=AXIS2_PLACEMENT_3D('',#219,#177,#178);
#153=AXIS2_PLACEMENT_3D('',#221,#179,#180);
#154=AXIS2_PLACEMENT_3D('',#223,#181,#182);
#155=AXIS2_PLACEMENT_3D('',#224,#183,#184);
#156=AXIS2_PLACEMENT_3D('',#225,#185,#186);
#157=AXIS2_PLACEMENT_3D('',#227,#187,#188);
#158=AXIS2_PLACEMENT_3D('',#228,#189,#190);
#159=AXIS2_PLACEMENT_3D('',#230,#191,#192);
#160=AXIS2_PLACEMENT_3D('',#231,#193,#194);
#161=AXIS2_PLACEMENT_3D('',#233,#195,#196);
#162=AXIS2_PLACEMENT_3D('',#234,#197,#198);
#163=DIRECTION('',(0.,0.,1.));
#164=DIRECTION('',(1.,0.,0.));
#165=DIRECTION('',(0.,0.,1.));
#166=DIRECTION('',(1.,0.,0.));
#167=DIRECTION('',(0.,0.,1.));
#168=DIRECTION('',(1.,0.,0.));
#169=DIRECTION('',(0.,0.,1.));
#170=DIRECTION('',(1.,0.,0.));
#171=DIRECTION('',(0.,0.,1.));
#172=DIRECTION('',(0.969593010941492,0.244723094810056,0.));
#173=DIRECTION('',(0.,0.,1.));
#174=DIRECTION('',(0.969593010941492,0.244723094810056,0.));
#175=DIRECTION('',(0.,0.,-1.));
#176=DIRECTION('',(-0.969593010941492,-0.244723094810056,-8.72890940048394E-15));
#177=DIRECTION('',(0.,0.,1.));
#178=DIRECTION('',(0.969593010941492,0.244723094810056,0.));
#179=DIRECTION('',(0.,0.,-1.));
#180=DIRECTION('',(-0.969593010941492,-0.244723094810056,1.93767447959208E-19));
#181=DIRECTION('',(0.,0.,1.));
#182=DIRECTION('',(0.969593010941492,0.244723094810056,3.3268782976298E-17));
#183=DIRECTION('',(0.,0.,-1.));
#184=DIRECTION('',(-0.969593010941492,-0.244723094810056,0.));
#185=DIRECTION('',(0.,0.,-1.));
#186=DIRECTION('',(-0.969593010941492,-0.244723094810056,0.));
#187=DIRECTION('',(0.,0.,-1.));
#188=DIRECTION('',(-0.969593010941492,-0.244723094810056,0.));
#189=DIRECTION('',(0.,0.,1.));
#190=DIRECTION('',(0.969593010941492,0.244723094810056,0.));
#191=DIRECTION('',(0.,0.,1.));
#192=DIRECTION('',(0.969593010941492,0.244723094810056,0.));
#193=DIRECTION('',(0.,0.,1.));
#194=DIRECTION('',(0.969593010941492,0.244723094810056,0.));
#195=DIRECTION('',(0.,0.,-1.));
#196=DIRECTION('',(-0.969593010941492,-0.244723094810056,5.51608796455087E-17));
#197=DIRECTION('',(0.,0.,-1.));
#198=DIRECTION('',(-0.969593010941492,-0.244723094810056,0.));
#199=CARTESIAN_POINT('',(0.,0.,0.));
#200=CARTESIAN_POINT('CRP',(4.44089209850063E-16,9.525,-146.676802604134));
#201=CARTESIAN_POINT('',(2.89082438392241E-17,-1.2817154435588E-14,-152.4));
#202=CARTESIAN_POINT('',(2.22044604925031E-16,3.17500000000001,-150.492267534587));
#203=CARTESIAN_POINT('',(2.22044604925031E-16,6.35000000000003,-148.584535069175));
#204=CARTESIAN_POINT('',(8.88178419700125E-16,9.52500000000002,-146.676802603948));
#205=CARTESIAN_POINT('',(4.44089209850063E-16,9.52466666666666,-123.186381629807));
#206=CARTESIAN_POINT('',(4.44089209850063E-16,9.52433333333333,-99.695960655481));
#207=CARTESIAN_POINT('',(0.,9.52399999999999,-76.2055396809128));
#208=CARTESIAN_POINT('',(0.,8.46600000000063,-76.2036931204472));
#209=CARTESIAN_POINT('',(2.22044604925031E-16,7.40800000000128,-76.2018465602236));
#210=CARTESIAN_POINT('',(2.22044604925031E-16,6.35000000000192,-76.2));
#211=CARTESIAN_POINT('',(0.,0.,0.));
#212=CARTESIAN_POINT('',(0.,0.,-152.4));
#213=CARTESIAN_POINT('',(0.,0.,-76.2));
#214=CARTESIAN_POINT('',(0.,0.,-76.2055396806708));
#215=CARTESIAN_POINT('',(9.23440383620676,2.33074275497097,-76.2055396806708));
#216=CARTESIAN_POINT('',(0.,0.,-146.676802603762));
#217=CARTESIAN_POINT('',(9.23537342921771,2.33098747806579,-146.676802603762));
#218=CARTESIAN_POINT('',(0.,0.,-146.676802603762));
#219=CARTESIAN_POINT('',(0.,0.,-76.2));
#220=CARTESIAN_POINT('',(6.15691561947846,1.55399165204386,-76.2));
#221=CARTESIAN_POINT('',(0.,0.,-76.2055396806708));
#222=CARTESIAN_POINT('',(0.,0.,-152.4));
#223=CARTESIAN_POINT('',(0.,0.,-149.824561171693));
#224=CARTESIAN_POINT('',(0.,0.,-76.2));
#225=CARTESIAN_POINT('',(0.,0.,-76.2));
#226=CARTESIAN_POINT('',(-6.15691561947847,-1.55399165204386,-76.2));
#227=CARTESIAN_POINT('',(0.,0.,-76.2));
#228=CARTESIAN_POINT('',(0.,0.,-1.83308710467706));
#229=CARTESIAN_POINT('',(6.15691561947847,1.55399165204386,-1.83308710467706));
#230=CARTESIAN_POINT('',(0.,0.,-152.4));
#231=CARTESIAN_POINT('',(0.,0.,0.));
#232=CARTESIAN_POINT('',(4.37956717433662,1.10539290273088,0.));
#233=CARTESIAN_POINT('',(0.,0.,-1.83308710467706));
#234=CARTESIAN_POINT('',(-1.10539290273088,4.37956717433662,-1.66533453693773E-16));
#235=MECHANICAL_DESIGN_GEOMETRIC_PRESENTATION_REPRESENTATION('',(#125,#126,
#127,#128,#129,#130,#131),#236);
#236=(
GEOMETRIC_REPRESENTATION_CONTEXT(3)
GLOBAL_UNCERTAINTY_ASSIGNED_CONTEXT((#237))
GLOBAL_UNIT_ASSIGNED_CONTEXT((#243,#239,#238))
REPRESENTATION_CONTEXT('CAPP~~210909121611~6481045~MOD~TM01_00~ISO~FR',
'TOP_LEVEL_ASSEMBLY_PART')
);
#237=UNCERTAINTY_MEASURE_WITH_UNIT(LENGTH_MEASURE(2.E-5),#243,
'DISTANCE_ACCURACY_VALUE','Maximum Tolerance applied to model');
#238=(
NAMED_UNIT(*)
SI_UNIT($,.STERADIAN.)
SOLID_ANGLE_UNIT()
);
#239=(
CONVERSION_BASED_UNIT('DEGREE',#241)
NAMED_UNIT(#240)
PLANE_ANGLE_UNIT()
);
#240=DIMENSIONAL_EXPONENTS(0.,0.,0.,0.,0.,0.,0.);
#241=PLANE_ANGLE_MEASURE_WITH_UNIT(PLANE_ANGLE_MEASURE(0.0174532925),#242);
#242=(
NAMED_UNIT(*)
PLANE_ANGLE_UNIT()
SI_UNIT($,.RADIAN.)
);
#243=(
LENGTH_UNIT()
NAMED_UNIT(*)
SI_UNIT(.MILLI.,.METRE.)
);
ENDSEC;
END-ISO-10303-21;
