ISO-10303-21;
HEADER;
/* Generated by software containing ST-Developer
 * from STEP Tools, Inc. (www.steptools.com) 
 */
/* OPTION: using custom schema-name function */

FILE_DESCRIPTION(
/* description */ (''),
/* implementation_level */ '2;1');

FILE_NAME(
/* name */ '2636_05_25_SIM2.stp',
/* time_stamp */ '2024-09-27T10:08:42+02:00',
/* author */ (''),
/* organization */ (''),
/* preprocessor_version */ 'ST-DEVELOPER v16.7',
/* originating_system */ 'SIEMENS PLM Software NX 12.0',
/* authorisation */ '');

FILE_SCHEMA (('AUTOMOTIVE_DESIGN { 1 0 10303 214 3 1 1 1 }'));
ENDSEC;

DATA;
#10=PROPERTY_DEFINITION_REPRESENTATION(#14,#12);
#11=PROPERTY_DEFINITION_REPRESENTATION(#15,#13);
#12=REPRESENTATION('',(#16),#399);
#13=REPRESENTATION('',(#17),#399);
#14=PROPERTY_DEFINITION('pmi validation property','',#21);
#15=PROPERTY_DEFINITION('pmi validation property','',#21);
#16=VALUE_REPRESENTATION_ITEM('number of annotations',COUNT_MEASURE(0.));
#17=VALUE_REPRESENTATION_ITEM('number of views',COUNT_MEASURE(0.));
#18=SHAPE_REPRESENTATION_RELATIONSHIP('None',
'relationship between fo34186041F6gnln-None and fo34186041F6gnln-None',
#30,#19);
#19=ADVANCED_BREP_SHAPE_REPRESENTATION('fo34186041F6gnln-None',(#48,#49),
#399);
#20=SHAPE_DEFINITION_REPRESENTATION(#21,#30);
#21=PRODUCT_DEFINITION_SHAPE('','',#22);
#22=PRODUCT_DEFINITION(' ','',#24,#23);
#23=PRODUCT_DEFINITION_CONTEXT('part definition',#29,'design');
#24=PRODUCT_DEFINITION_FORMATION_WITH_SPECIFIED_SOURCE(' ',' ',#26,
 .NOT_KNOWN.);
#25=PRODUCT_RELATED_PRODUCT_CATEGORY('part','',(#26));
#26=PRODUCT('fo34186041F6gnln','fo34186041F6gnln',' ',(#27));
#27=PRODUCT_CONTEXT(' ',#29,'mechanical');
#28=APPLICATION_PROTOCOL_DEFINITION('international standard',
'automotive_design',2010,#29);
#29=APPLICATION_CONTEXT(
'core data for automotive mechanical design processes');
#30=SHAPE_REPRESENTATION('fo34186041F6gnln-None',(#245),#399);
#31=PRESENTATION_LAYER_ASSIGNMENT('1','Layer 1',(#48,#49));
#32=STYLED_ITEM('',(#34),#48);
#33=STYLED_ITEM('',(#35),#49);
#34=PRESENTATION_STYLE_ASSIGNMENT((#36));
#35=PRESENTATION_STYLE_ASSIGNMENT((#37));
#36=SURFACE_STYLE_USAGE(.BOTH.,#38);
#37=SURFACE_STYLE_USAGE(.BOTH.,#39);
#38=SURFACE_SIDE_STYLE('',(#40));
#39=SURFACE_SIDE_STYLE('',(#41));
#40=SURFACE_STYLE_FILL_AREA(#42);
#41=SURFACE_STYLE_FILL_AREA(#43);
#42=FILL_AREA_STYLE('',(#44));
#43=FILL_AREA_STYLE('',(#45));
#44=FILL_AREA_STYLE_COLOUR('',#46);
#45=FILL_AREA_STYLE_COLOUR('',#47);
#46=COLOUR_RGB('Medium Gray',0.490196078431373,0.490196078431373,0.490196078431373);
#47=COLOUR_RGB('Powder Gray',0.949004348821241,0.949004348821241,0.949004348821241);
#48=MANIFOLD_SOLID_BREP('NOCUT',#50);
#49=MANIFOLD_SOLID_BREP('CUT',#51);
#50=CLOSED_SHELL('',(#76,#77,#78,#79,#80,#81,#82,#83));
#51=CLOSED_SHELL('',(#84,#85,#86,#87,#88,#89));
#52=SURFACE_OF_REVOLUTION('',#232,#60);
#53=SURFACE_OF_REVOLUTION('',#233,#61);
#54=SURFACE_OF_REVOLUTION('',#234,#62);
#55=SURFACE_OF_REVOLUTION('',#149,#63);
#56=SURFACE_OF_REVOLUTION('',#235,#64);
#57=SURFACE_OF_REVOLUTION('',#152,#65);
#58=SURFACE_OF_REVOLUTION('',#236,#66);
#59=SURFACE_OF_REVOLUTION('',#154,#67);
#60=AXIS1_PLACEMENT('',#371,#309);
#61=AXIS1_PLACEMENT('',#373,#311);
#62=AXIS1_PLACEMENT('',#379,#317);
#63=AXIS1_PLACEMENT('',#383,#322);
#64=AXIS1_PLACEMENT('',#387,#326);
#65=AXIS1_PLACEMENT('',#391,#331);
#66=AXIS1_PLACEMENT('',#395,#335);
#67=AXIS1_PLACEMENT('',#397,#338);
#68=PLANE('',#256);
#69=PLANE('',#260);
#70=FACE_OUTER_BOUND('',#116,.T.);
#71=FACE_OUTER_BOUND('',#117,.T.);
#72=FACE_OUTER_BOUND('',#118,.T.);
#73=FACE_OUTER_BOUND('',#119,.T.);
#74=TOROIDAL_SURFACE('',#252,11.5,1.);
#75=TOROIDAL_SURFACE('',#258,12.7,0.8);
#76=ADVANCED_FACE('',(#92,#93),#90,.T.);
#77=ADVANCED_FACE('',(#94,#95),#74,.T.);
#78=ADVANCED_FACE('',(#70),#91,.T.);
#79=ADVANCED_FACE('',(#71),#68,.T.);
#80=ADVANCED_FACE('',(#72),#75,.F.);
#81=ADVANCED_FACE('',(#73),#69,.F.);
#82=ADVANCED_FACE('',(#96,#97),#52,.T.);
#83=ADVANCED_FACE('',(#98,#99),#53,.T.);
#84=ADVANCED_FACE('',(#100,#101),#54,.T.);
#85=ADVANCED_FACE('',(#102,#103),#55,.T.);
#86=ADVANCED_FACE('',(#104,#105),#56,.T.);
#87=ADVANCED_FACE('',(#106,#107),#57,.T.);
#88=ADVANCED_FACE('',(#108,#109),#58,.T.);
#89=ADVANCED_FACE('',(#110,#111),#59,.T.);
#90=CYLINDRICAL_SURFACE('',#249,11.9);
#91=CYLINDRICAL_SURFACE('',#255,12.5);
#92=FACE_BOUND('',#112,.T.);
#93=FACE_BOUND('',#113,.T.);
#94=FACE_BOUND('',#114,.T.);
#95=FACE_BOUND('',#115,.T.);
#96=FACE_BOUND('',#120,.T.);
#97=FACE_BOUND('',#121,.T.);
#98=FACE_BOUND('',#122,.T.);
#99=FACE_BOUND('',#123,.T.);
#100=FACE_BOUND('',#124,.T.);
#101=FACE_BOUND('',#125,.T.);
#102=FACE_BOUND('',#126,.T.);
#103=FACE_BOUND('',#127,.T.);
#104=FACE_BOUND('',#128,.T.);
#105=FACE_BOUND('',#129,.T.);
#106=FACE_BOUND('',#130,.T.);
#107=FACE_BOUND('',#131,.T.);
#108=FACE_BOUND('',#132,.T.);
#109=FACE_BOUND('',#133,.T.);
#110=FACE_BOUND('',#134,.T.);
#111=FACE_BOUND('',#135,.T.);
#112=EDGE_LOOP('',(#155,#156,#157,#158));
#113=EDGE_LOOP('',(#159,#160,#161));
#114=EDGE_LOOP('',(#162));
#115=EDGE_LOOP('',(#163));
#116=EDGE_LOOP('',(#164,#165,#166,#167,#168));
#117=EDGE_LOOP('',(#169));
#118=EDGE_LOOP('',(#170,#171,#172,#173,#174,#175));
#119=EDGE_LOOP('',(#176));
#120=EDGE_LOOP('',(#177));
#121=EDGE_LOOP('',(#178));
#122=EDGE_LOOP('',(#179));
#123=EDGE_LOOP('',(#180));
#124=EDGE_LOOP('',(#181));
#125=EDGE_LOOP('',(#182));
#126=EDGE_LOOP('',(#183));
#127=EDGE_LOOP('',(#184));
#128=EDGE_LOOP('',(#185));
#129=EDGE_LOOP('',(#186));
#130=EDGE_LOOP('',(#187));
#131=EDGE_LOOP('',(#188));
#132=EDGE_LOOP('',(#189));
#133=EDGE_LOOP('',(#190));
#134=EDGE_LOOP('',(#191));
#135=EDGE_LOOP('',(#192));
#136=CIRCLE('',#246,11.9);
#137=CIRCLE('',#247,11.9);
#138=CIRCLE('',#248,11.9);
#139=CIRCLE('',#250,11.5);
#140=CIRCLE('',#251,12.5);
#141=CIRCLE('',#253,12.5);
#142=CIRCLE('',#254,12.5);
#143=CIRCLE('',#257,0.8);
#144=CIRCLE('',#259,6.19641385350006);
#145=CIRCLE('',#261,16.8839178530475);
#146=CIRCLE('',#262,6.98522003328956);
#147=CIRCLE('',#263,16.5363135036135);
#148=CIRCLE('',#264,5.70690567227218);
#149=CIRCLE('',#265,0.8);
#150=CIRCLE('',#266,2.62443051014888);
#151=CIRCLE('',#267,3.38467398894249);
#152=CIRCLE('',#268,0.8);
#153=CIRCLE('',#269,16.1800346179283);
#154=CIRCLE('',#270,0.8);
#155=ORIENTED_EDGE('',*,*,#210,.F.);
#156=ORIENTED_EDGE('',*,*,#210,.T.);
#157=ORIENTED_EDGE('',*,*,#211,.T.);
#158=ORIENTED_EDGE('',*,*,#212,.T.);
#159=ORIENTED_EDGE('',*,*,#213,.F.);
#160=ORIENTED_EDGE('',*,*,#214,.F.);
#161=ORIENTED_EDGE('',*,*,#213,.T.);
#162=ORIENTED_EDGE('',*,*,#215,.T.);
#163=ORIENTED_EDGE('',*,*,#216,.T.);
#164=ORIENTED_EDGE('',*,*,#216,.F.);
#165=ORIENTED_EDGE('',*,*,#217,.F.);
#166=ORIENTED_EDGE('',*,*,#218,.F.);
#167=ORIENTED_EDGE('',*,*,#219,.F.);
#168=ORIENTED_EDGE('',*,*,#217,.T.);
#169=ORIENTED_EDGE('',*,*,#215,.F.);
#170=ORIENTED_EDGE('',*,*,#219,.T.);
#171=ORIENTED_EDGE('',*,*,#220,.T.);
#172=ORIENTED_EDGE('',*,*,#211,.F.);
#173=ORIENTED_EDGE('',*,*,#212,.F.);
#174=ORIENTED_EDGE('',*,*,#220,.F.);
#175=ORIENTED_EDGE('',*,*,#218,.T.);
#176=ORIENTED_EDGE('',*,*,#221,.F.);
#177=ORIENTED_EDGE('',*,*,#214,.T.);
#178=ORIENTED_EDGE('',*,*,#222,.F.);
#179=ORIENTED_EDGE('',*,*,#222,.T.);
#180=ORIENTED_EDGE('',*,*,#221,.T.);
#181=ORIENTED_EDGE('',*,*,#223,.F.);
#182=ORIENTED_EDGE('',*,*,#224,.T.);
#183=ORIENTED_EDGE('',*,*,#225,.F.);
#184=ORIENTED_EDGE('',*,*,#223,.T.);
#185=ORIENTED_EDGE('',*,*,#226,.F.);
#186=ORIENTED_EDGE('',*,*,#225,.T.);
#187=ORIENTED_EDGE('',*,*,#227,.F.);
#188=ORIENTED_EDGE('',*,*,#226,.T.);
#189=ORIENTED_EDGE('',*,*,#228,.F.);
#190=ORIENTED_EDGE('',*,*,#227,.T.);
#191=ORIENTED_EDGE('',*,*,#224,.F.);
#192=ORIENTED_EDGE('',*,*,#228,.T.);
#193=VERTEX_POINT('',#341);
#194=VERTEX_POINT('',#342);
#195=VERTEX_POINT('',#344);
#196=VERTEX_POINT('',#347);
#197=VERTEX_POINT('',#348);
#198=VERTEX_POINT('',#352);
#199=VERTEX_POINT('',#354);
#200=VERTEX_POINT('',#357);
#201=VERTEX_POINT('',#359);
#202=VERTEX_POINT('',#366);
#203=VERTEX_POINT('',#369);
#204=VERTEX_POINT('',#375);
#205=VERTEX_POINT('',#377);
#206=VERTEX_POINT('',#381);
#207=VERTEX_POINT('',#385);
#208=VERTEX_POINT('',#389);
#209=VERTEX_POINT('',#393);
#210=EDGE_CURVE('',#193,#194,#229,.T.);
#211=EDGE_CURVE('',#194,#195,#136,.T.);
#212=EDGE_CURVE('',#195,#194,#137,.T.);
#213=EDGE_CURVE('',#196,#197,#230,.T.);
#214=EDGE_CURVE('',#196,#196,#138,.T.);
#215=EDGE_CURVE('',#198,#198,#139,.T.);
#216=EDGE_CURVE('',#199,#199,#140,.T.);
#217=EDGE_CURVE('',#200,#199,#231,.T.);
#218=EDGE_CURVE('',#201,#200,#141,.T.);
#219=EDGE_CURVE('',#200,#201,#142,.T.);
#220=EDGE_CURVE('',#201,#195,#143,.T.);
#221=EDGE_CURVE('',#202,#202,#144,.T.);
#222=EDGE_CURVE('',#203,#203,#145,.T.);
#223=EDGE_CURVE('',#204,#204,#146,.T.);
#224=EDGE_CURVE('',#205,#205,#147,.T.);
#225=EDGE_CURVE('',#206,#206,#148,.T.);
#226=EDGE_CURVE('',#207,#207,#150,.T.);
#227=EDGE_CURVE('',#208,#208,#151,.T.);
#228=EDGE_CURVE('',#209,#209,#153,.T.);
#229=LINE('',#340,#237);
#230=LINE('',#346,#238);
#231=LINE('',#356,#239);
#232=LINE('',#370,#240);
#233=LINE('',#372,#241);
#234=LINE('',#378,#242);
#235=LINE('',#386,#243);
#236=LINE('',#394,#244);
#237=VECTOR('',#273,1.);
#238=VECTOR('',#278,1.);
#239=VECTOR('',#289,1.);
#240=VECTOR('',#308,7.24783974391179);
#241=VECTOR('',#310,16.);
#242=VECTOR('',#316,13.7178423959455);
#243=VECTOR('',#325,13.7178423959455);
#244=VECTOR('',#334,13.7178423959455);
#245=AXIS2_PLACEMENT_3D('',#339,#271,#272);
#246=AXIS2_PLACEMENT_3D('',#343,#274,#275);
#247=AXIS2_PLACEMENT_3D('',#345,#276,#277);
#248=AXIS2_PLACEMENT_3D('',#349,#279,#280);
#249=AXIS2_PLACEMENT_3D('',#350,#281,#282);
#250=AXIS2_PLACEMENT_3D('',#351,#283,#284);
#251=AXIS2_PLACEMENT_3D('',#353,#285,#286);
#252=AXIS2_PLACEMENT_3D('',#355,#287,#288);
#253=AXIS2_PLACEMENT_3D('',#358,#290,#291);
#254=AXIS2_PLACEMENT_3D('',#360,#292,#293);
#255=AXIS2_PLACEMENT_3D('',#361,#294,#295);
#256=AXIS2_PLACEMENT_3D('',#362,#296,#297);
#257=AXIS2_PLACEMENT_3D('',#363,#298,#299);
#258=AXIS2_PLACEMENT_3D('',#364,#300,#301);
#259=AXIS2_PLACEMENT_3D('',#365,#302,#303);
#260=AXIS2_PLACEMENT_3D('',#367,#304,#305);
#261=AXIS2_PLACEMENT_3D('',#368,#306,#307);
#262=AXIS2_PLACEMENT_3D('',#374,#312,#313);
#263=AXIS2_PLACEMENT_3D('',#376,#314,#315);
#264=AXIS2_PLACEMENT_3D('',#380,#318,#319);
#265=AXIS2_PLACEMENT_3D('',#382,#320,#321);
#266=AXIS2_PLACEMENT_3D('',#384,#323,#324);
#267=AXIS2_PLACEMENT_3D('',#388,#327,#328);
#268=AXIS2_PLACEMENT_3D('',#390,#329,#330);
#269=AXIS2_PLACEMENT_3D('',#392,#332,#333);
#270=AXIS2_PLACEMENT_3D('',#396,#336,#337);
#271=DIRECTION('',(0.,0.,1.));
#272=DIRECTION('',(1.,0.,0.));
#273=DIRECTION('',(-1.15165061305404E-16,1.17145536458252E-15,1.));
#274=DIRECTION('',(1.15165061305404E-16,-1.17145536458252E-15,-1.));
#275=DIRECTION('',(1.,0.,1.18442254137072E-16));
#276=DIRECTION('',(1.15165061305404E-16,-1.17145536458252E-15,-1.));
#277=DIRECTION('',(1.,0.,1.18442254137072E-16));
#278=DIRECTION('',(-1.15165061305404E-16,1.17145536458252E-15,1.));
#279=DIRECTION('',(0.,0.,-1.));
#280=DIRECTION('',(1.,0.,0.));
#281=DIRECTION('',(1.15165061305404E-16,-1.17145536458252E-15,-1.));
#282=DIRECTION('',(-1.,0.,-1.45775082014858E-16));
#283=DIRECTION('',(1.15165061305404E-16,-1.17145536458252E-15,-1.));
#284=DIRECTION('',(-3.82856869892695E-16,1.,-1.20676415720126E-15));
#285=DIRECTION('',(-1.15165061305404E-16,1.17145536458252E-15,1.));
#286=DIRECTION('',(-3.82856869892695E-16,1.,-1.11022302462516E-15));
#287=DIRECTION('',(-1.15165061305404E-16,1.17145536458252E-15,1.));
#288=DIRECTION('',(1.22464679914735E-16,-1.,1.11022302462516E-15));
#289=DIRECTION('',(-1.15165061305404E-16,1.17145536458252E-15,1.));
#290=DIRECTION('',(1.15165061305404E-16,-1.17145536458252E-15,-1.));
#291=DIRECTION('',(1.,0.,1.15165061305404E-16));
#292=DIRECTION('',(1.15165061305404E-16,-1.17145536458252E-15,-1.));
#293=DIRECTION('',(1.,0.,1.15165061305404E-16));
#294=DIRECTION('',(1.15165061305404E-16,-1.17145536458252E-15,-1.));
#295=DIRECTION('',(-1.,0.,0.));
#296=DIRECTION('',(-1.15165061305404E-16,1.17145536458252E-15,1.));
#297=DIRECTION('',(0.,1.,-1.16573417585641E-15));
#298=DIRECTION('',(-1.,1.22464679914735E-16,-1.15165061305404E-16));
#299=DIRECTION('',(-1.22464679914735E-16,-1.,1.21972744404619E-15));
#300=DIRECTION('',(1.15165061305404E-16,-1.17145536458252E-15,-1.));
#301=DIRECTION('',(0.,-1.,1.17254457172506E-15));
#302=DIRECTION('',(0.,0.,1.));
#303=DIRECTION('',(1.,0.,0.));
#304=DIRECTION('',(0.,0.,1.));
#305=DIRECTION('',(1.,0.,0.));
#306=DIRECTION('',(0.,0.,-1.));
#307=DIRECTION('',(1.,0.,0.));
#308=DIRECTION('',(-0.707106781186548,8.03302479774252E-16,0.707106781186547));
#309=DIRECTION('',(0.,0.,1.));
#310=DIRECTION('',(0.707106781186547,8.40256683676266E-16,0.707106781186548));
#311=DIRECTION('',(0.,0.,1.));
#312=DIRECTION('',(0.,0.,-1.));
#313=DIRECTION('',(-1.,0.,0.));
#314=DIRECTION('',(0.,0.,-1.));
#315=DIRECTION('',(-1.,0.,0.));
#316=DIRECTION('',(-0.707106781186548,-8.21973475740027E-16,-0.707106781186547));
#317=DIRECTION('',(0.,0.,-1.));
#318=DIRECTION('',(0.,0.,-1.));
#319=DIRECTION('',(-1.,0.,0.));
#320=DIRECTION('',(1.22516701648531E-17,1.,-1.12573150904972E-15));
#321=DIRECTION('',(-0.258819045102522,-1.08420217248551E-15,-0.965925826289068));
#322=DIRECTION('',(0.,0.,-1.));
#323=DIRECTION('',(0.,0.,-1.));
#324=DIRECTION('',(-1.,0.,0.));
#325=DIRECTION('',(-0.25881904510252,1.12230993802965E-15,0.965925826289069));
#326=DIRECTION('',(0.,0.,-1.));
#327=DIRECTION('',(0.,0.,-1.));
#328=DIRECTION('',(-1.,0.,0.));
#329=DIRECTION('',(-1.07426510349978E-17,1.,-1.16071271354753E-15));
#330=DIRECTION('',(-0.707106781186548,8.13151629364127E-16,0.707106781186547));
#331=DIRECTION('',(0.,0.,-1.));
#332=DIRECTION('',(0.,0.,-1.));
#333=DIRECTION('',(-1.,0.,0.));
#334=DIRECTION('',(0.965925826289068,-3.16143644515395E-16,-0.25881904510252));
#335=DIRECTION('',(0.,0.,-1.));
#336=DIRECTION('',(3.10491213150143E-17,1.,-1.16313577760047E-15));
#337=DIRECTION('',(0.965925826289068,2.71050543121376E-16,0.25881904510252));
#338=DIRECTION('',(0.,0.,-1.));
#339=CARTESIAN_POINT('',(0.,0.,0.));
#340=CARTESIAN_POINT('',(-11.9,-9.3708539247297E-14,-15.5372983346207));
#341=CARTESIAN_POINT('',(-11.9,9.95390108399934E-9,-2.7386752154332));
#342=CARTESIAN_POINT('',(-11.9,-7.64146931856572E-14,-0.774596669241498));
#343=CARTESIAN_POINT('',(7.65555100066521E-15,-7.78720228766425E-14,-0.774596669241498));
#344=CARTESIAN_POINT('',(5.20400845676559E-15,-11.9000000000001,-0.774596669241484));
#345=CARTESIAN_POINT('',(7.65555100066521E-15,-7.78720228766425E-14,-0.774596669241498));
#346=CARTESIAN_POINT('',(-11.9,-9.3708539247297E-14,-15.5372983346207));
#347=CARTESIAN_POINT('',(-11.9,-1.01802449918905E-13,-22.4465762433804));
#348=CARTESIAN_POINT('',(-11.9,9.95390072714682E-9,-6.06132478456679));
#349=CARTESIAN_POINT('',(0.,0.,-22.4465762433804));
#350=CARTESIAN_POINT('',(9.35569844299201E-15,-9.51658689382824E-14,-15.5372983346207));
#351=CARTESIAN_POINT('',(3.08148791101958E-32,2.11343716688029E-30,65.7));
#352=CARTESIAN_POINT('',(-4.40285400376599E-15,11.5,65.7));
#353=CARTESIAN_POINT('',(1.15165061305404E-16,-1.17145536458252E-15,64.7));
#354=CARTESIAN_POINT('',(-12.5,3.5935313435167E-16,64.7));
#355=CARTESIAN_POINT('',(1.15165061305404E-16,-1.17145536458252E-15,64.7));
#356=CARTESIAN_POINT('',(-12.5,-3.92944109567668E-14,30.85));
#357=CARTESIAN_POINT('',(-12.5,-7.54338089541376E-14,0.));
#358=CARTESIAN_POINT('',(7.56634452776506E-15,-7.69646174530718E-14,0.));
#359=CARTESIAN_POINT('',(5.04132317591659E-15,-12.5000000000001,1.38777878078145E-14));
#360=CARTESIAN_POINT('',(7.56634452776506E-15,-7.69646174530718E-14,0.));
#361=CARTESIAN_POINT('',(4.01350238649334E-15,-4.0825219455701E-14,30.85));
#362=CARTESIAN_POINT('',(5.75,2.9403577521307E-30,65.7));
#363=CARTESIAN_POINT('',(5.1060367128338E-15,-12.7000000000001,-0.774596669241484));
#364=CARTESIAN_POINT('',(6.66133814775094E-15,-7.78720228766425E-14,-0.774596669241498));
#365=CARTESIAN_POINT('',(0.,0.,-38.8852813742386));
#366=CARTESIAN_POINT('',(6.19641385350006,0.,-38.8852813742386));
#367=CARTESIAN_POINT('',(0.,0.,-38.8852813742386));
#368=CARTESIAN_POINT('',(0.,0.,-27.5715728752538));
#369=CARTESIAN_POINT('',(16.8839178530475,0.,-27.5715728752538));
#370=CARTESIAN_POINT('',(16.5582813742386,3.29999999999992,-27.5715728752538));
#371=CARTESIAN_POINT('',(0.,0.,0.));
#372=CARTESIAN_POINT('',(5.24457287525382,3.29999999999991,-38.8852813742386));
#373=CARTESIAN_POINT('',(0.,0.,0.));
#374=CARTESIAN_POINT('',(0.,0.,-38.757239325396));
#375=CARTESIAN_POINT('',(-6.98522003328956,0.,-38.757239325396));
#376=CARTESIAN_POINT('',(0.,0.,-29.0572599439746));
#377=CARTESIAN_POINT('',(-16.5363135036135,0.,-29.0572599439746));
#378=CARTESIAN_POINT('',(16.430239325396,-1.8700000000001,-29.0572599439746));
#379=CARTESIAN_POINT('',(0.,0.,0.));
#380=CARTESIAN_POINT('',(0.,0.,-38.3986091365287));
#381=CARTESIAN_POINT('',(-5.70690567227218,0.,-38.3986091365287));
#382=CARTESIAN_POINT('',(6.1645745190254,-1.87000000000011,-38.1915539004467));
#383=CARTESIAN_POINT('',(0.,0.,0.));
#384=CARTESIAN_POINT('',(0.,0.,-25.1481908853218));
#385=CARTESIAN_POINT('',(-2.62443051014888,0.,-25.1481908853218));
#386=CARTESIAN_POINT('',(5.39183385799414,-1.87000000000011,-38.3986091365287));
#387=CARTESIAN_POINT('',(0.,0.,0.));
#388=CARTESIAN_POINT('',(0.,0.,-24.1683949882086));
#389=CARTESIAN_POINT('',(-3.38467398894249,0.,-24.1683949882086));
#390=CARTESIAN_POINT('',(2.61413564923991,-1.8700000000001,-24.9411356492398));
#391=CARTESIAN_POINT('',(0.,0.,0.));
#392=CARTESIAN_POINT('',(0.,0.,-27.7188338579941));
#393=CARTESIAN_POINT('',(-16.1800346179283,0.,-27.7188338579941));
#394=CARTESIAN_POINT('',(2.82119088532193,-1.8700000000001,-24.1683949882086));
#395=CARTESIAN_POINT('',(0.,0.,0.));
#396=CARTESIAN_POINT('',(15.8645539004468,-1.8700000000001,-28.4915745190253));
#397=CARTESIAN_POINT('',(0.,0.,0.));
#398=MECHANICAL_DESIGN_GEOMETRIC_PRESENTATION_REPRESENTATION('',(#32,#33),
#399);
#399=(
GEOMETRIC_REPRESENTATION_CONTEXT(3)
GLOBAL_UNCERTAINTY_ASSIGNED_CONTEXT((#400))
GLOBAL_UNIT_ASSIGNED_CONTEXT((#406,#402,#401))
REPRESENTATION_CONTEXT('2636_05_25_SIM2','TOP_LEVEL_ASSEMBLY_PART')
);
#400=UNCERTAINTY_MEASURE_WITH_UNIT(LENGTH_MEASURE(2.E-5),#406,
'DISTANCE_ACCURACY_VALUE','Maximum Tolerance applied to model');
#401=(
NAMED_UNIT(*)
SI_UNIT($,.STERADIAN.)
SOLID_ANGLE_UNIT()
);
#402=(
CONVERSION_BASED_UNIT('DEGREE',#404)
NAMED_UNIT(#403)
PLANE_ANGLE_UNIT()
);
#403=DIMENSIONAL_EXPONENTS(0.,0.,0.,0.,0.,0.,0.);
#404=PLANE_ANGLE_MEASURE_WITH_UNIT(PLANE_ANGLE_MEASURE(0.0174532925),#405);
#405=(
NAMED_UNIT(*)
PLANE_ANGLE_UNIT()
SI_UNIT($,.RADIAN.)
);
#406=(
LENGTH_UNIT()
NAMED_UNIT(*)
SI_UNIT(.MILLI.,.METRE.)
);
ENDSEC;
END-ISO-10303-21;
