ISO-10303-21;
HEADER;
/* Generated by software containing ST-Developer
 * from STEP Tools, Inc. (www.steptools.com) 
 */
/* OPTION: using custom schema-name function */

FILE_DESCRIPTION(
/* description */ (''),
/* implementation_level */ '2;1');

FILE_NAME(
/* name */ 'ax_step_export_ax_temp_1.stp',
/* time_stamp */ '2020-03-06T12:29:22+01:00',
/* author */ (''),
/* organization */ (''),
/* preprocessor_version */ 'ST-DEVELOPER v16.7',
/* originating_system */ 'SIEMENS PLM Software NX 12.0',
/* authorisation */ '');

FILE_SCHEMA (('AUTOMOTIVE_DESIGN { 1 0 10303 214 3 1 1 1 }'));
ENDSEC;

DATA;
#10=SHAPE_REPRESENTATION_RELATIONSHIP('None',
'relationship between ax_temp_1-None and ax_temp_1-None',#22,#11);
#11=ADVANCED_BREP_SHAPE_REPRESENTATION('ax_temp_1-None',(#205,#206),#676);
#12=SHAPE_DEFINITION_REPRESENTATION(#13,#22);
#13=PRODUCT_DEFINITION_SHAPE('','',#14);
#14=PRODUCT_DEFINITION(' ','',#16,#15);
#15=PRODUCT_DEFINITION_CONTEXT('part definition',#21,'design');
#16=PRODUCT_DEFINITION_FORMATION_WITH_SPECIFIED_SOURCE(' ',' ',#18,
 .NOT_KNOWN.);
#17=PRODUCT_RELATED_PRODUCT_CATEGORY('part','',(#18));
#18=PRODUCT('ax_temp_1','ax_temp_1',' ',(#19));
#19=PRODUCT_CONTEXT(' ',#21,'mechanical');
#20=APPLICATION_PROTOCOL_DEFINITION('international standard',
'automotive_design',2010,#21);
#21=APPLICATION_CONTEXT(
'core data for automotive mechanical design processes');
#22=SHAPE_REPRESENTATION('ax_temp_1-None',(#461),#676);
#23=SURFACE_OF_REVOLUTION('',#460,#24);
#24=AXIS1_PLACEMENT('',#674,#602);
#25=OVER_RIDING_STYLED_ITEM('',(#54),#232,#51);
#26=OVER_RIDING_STYLED_ITEM('',(#55),#233,#51);
#27=OVER_RIDING_STYLED_ITEM('',(#56),#234,#51);
#28=OVER_RIDING_STYLED_ITEM('',(#57),#235,#51);
#29=OVER_RIDING_STYLED_ITEM('',(#58),#236,#51);
#30=OVER_RIDING_STYLED_ITEM('',(#59),#237,#51);
#31=OVER_RIDING_STYLED_ITEM('',(#60),#238,#51);
#32=OVER_RIDING_STYLED_ITEM('',(#61),#239,#51);
#33=OVER_RIDING_STYLED_ITEM('',(#62),#240,#51);
#34=OVER_RIDING_STYLED_ITEM('',(#63),#241,#51);
#35=OVER_RIDING_STYLED_ITEM('',(#64),#242,#51);
#36=OVER_RIDING_STYLED_ITEM('',(#65),#243,#51);
#37=OVER_RIDING_STYLED_ITEM('',(#66),#244,#51);
#38=OVER_RIDING_STYLED_ITEM('',(#67),#245,#51);
#39=OVER_RIDING_STYLED_ITEM('',(#68),#246,#51);
#40=OVER_RIDING_STYLED_ITEM('',(#69),#247,#51);
#41=OVER_RIDING_STYLED_ITEM('',(#70),#248,#51);
#42=OVER_RIDING_STYLED_ITEM('',(#71),#249,#51);
#43=OVER_RIDING_STYLED_ITEM('',(#72),#250,#51);
#44=OVER_RIDING_STYLED_ITEM('',(#73),#251,#51);
#45=OVER_RIDING_STYLED_ITEM('',(#74),#252,#51);
#46=OVER_RIDING_STYLED_ITEM('',(#75),#253,#51);
#47=OVER_RIDING_STYLED_ITEM('',(#76),#254,#51);
#48=INVISIBILITY((#49,#50));
#49=PRESENTATION_LAYER_ASSIGNMENT('14','Layer 14',(#205));
#50=PRESENTATION_LAYER_ASSIGNMENT('96','Layer 96',(#206));
#51=STYLED_ITEM('',(#53),#205);
#52=STYLED_ITEM('',(#77),#206);
#53=PRESENTATION_STYLE_ASSIGNMENT((#78));
#54=PRESENTATION_STYLE_ASSIGNMENT((#79));
#55=PRESENTATION_STYLE_ASSIGNMENT((#80));
#56=PRESENTATION_STYLE_ASSIGNMENT((#81));
#57=PRESENTATION_STYLE_ASSIGNMENT((#82));
#58=PRESENTATION_STYLE_ASSIGNMENT((#83));
#59=PRESENTATION_STYLE_ASSIGNMENT((#84));
#60=PRESENTATION_STYLE_ASSIGNMENT((#85));
#61=PRESENTATION_STYLE_ASSIGNMENT((#86));
#62=PRESENTATION_STYLE_ASSIGNMENT((#87));
#63=PRESENTATION_STYLE_ASSIGNMENT((#88));
#64=PRESENTATION_STYLE_ASSIGNMENT((#89));
#65=PRESENTATION_STYLE_ASSIGNMENT((#90));
#66=PRESENTATION_STYLE_ASSIGNMENT((#91));
#67=PRESENTATION_STYLE_ASSIGNMENT((#92));
#68=PRESENTATION_STYLE_ASSIGNMENT((#93));
#69=PRESENTATION_STYLE_ASSIGNMENT((#94));
#70=PRESENTATION_STYLE_ASSIGNMENT((#95));
#71=PRESENTATION_STYLE_ASSIGNMENT((#96));
#72=PRESENTATION_STYLE_ASSIGNMENT((#97));
#73=PRESENTATION_STYLE_ASSIGNMENT((#98));
#74=PRESENTATION_STYLE_ASSIGNMENT((#99));
#75=PRESENTATION_STYLE_ASSIGNMENT((#100));
#76=PRESENTATION_STYLE_ASSIGNMENT((#101));
#77=PRESENTATION_STYLE_ASSIGNMENT((#102));
#78=SURFACE_STYLE_USAGE(.BOTH.,#103);
#79=SURFACE_STYLE_USAGE(.BOTH.,#104);
#80=SURFACE_STYLE_USAGE(.BOTH.,#105);
#81=SURFACE_STYLE_USAGE(.BOTH.,#106);
#82=SURFACE_STYLE_USAGE(.BOTH.,#107);
#83=SURFACE_STYLE_USAGE(.BOTH.,#108);
#84=SURFACE_STYLE_USAGE(.BOTH.,#109);
#85=SURFACE_STYLE_USAGE(.BOTH.,#110);
#86=SURFACE_STYLE_USAGE(.BOTH.,#111);
#87=SURFACE_STYLE_USAGE(.BOTH.,#112);
#88=SURFACE_STYLE_USAGE(.BOTH.,#113);
#89=SURFACE_STYLE_USAGE(.BOTH.,#114);
#90=SURFACE_STYLE_USAGE(.BOTH.,#115);
#91=SURFACE_STYLE_USAGE(.BOTH.,#116);
#92=SURFACE_STYLE_USAGE(.BOTH.,#117);
#93=SURFACE_STYLE_USAGE(.BOTH.,#118);
#94=SURFACE_STYLE_USAGE(.BOTH.,#119);
#95=SURFACE_STYLE_USAGE(.BOTH.,#120);
#96=SURFACE_STYLE_USAGE(.BOTH.,#121);
#97=SURFACE_STYLE_USAGE(.BOTH.,#122);
#98=SURFACE_STYLE_USAGE(.BOTH.,#123);
#99=SURFACE_STYLE_USAGE(.BOTH.,#124);
#100=SURFACE_STYLE_USAGE(.BOTH.,#125);
#101=SURFACE_STYLE_USAGE(.BOTH.,#126);
#102=SURFACE_STYLE_USAGE(.BOTH.,#127);
#103=SURFACE_SIDE_STYLE('',(#128));
#104=SURFACE_SIDE_STYLE('',(#129));
#105=SURFACE_SIDE_STYLE('',(#130));
#106=SURFACE_SIDE_STYLE('',(#131));
#107=SURFACE_SIDE_STYLE('',(#132));
#108=SURFACE_SIDE_STYLE('',(#133));
#109=SURFACE_SIDE_STYLE('',(#134));
#110=SURFACE_SIDE_STYLE('',(#135));
#111=SURFACE_SIDE_STYLE('',(#136));
#112=SURFACE_SIDE_STYLE('',(#137));
#113=SURFACE_SIDE_STYLE('',(#138));
#114=SURFACE_SIDE_STYLE('',(#139));
#115=SURFACE_SIDE_STYLE('',(#140));
#116=SURFACE_SIDE_STYLE('',(#141));
#117=SURFACE_SIDE_STYLE('',(#142));
#118=SURFACE_SIDE_STYLE('',(#143));
#119=SURFACE_SIDE_STYLE('',(#144));
#120=SURFACE_SIDE_STYLE('',(#145));
#121=SURFACE_SIDE_STYLE('',(#146));
#122=SURFACE_SIDE_STYLE('',(#147));
#123=SURFACE_SIDE_STYLE('',(#148));
#124=SURFACE_SIDE_STYLE('',(#149));
#125=SURFACE_SIDE_STYLE('',(#150));
#126=SURFACE_SIDE_STYLE('',(#151));
#127=SURFACE_SIDE_STYLE('',(#152));
#128=SURFACE_STYLE_FILL_AREA(#153);
#129=SURFACE_STYLE_FILL_AREA(#154);
#130=SURFACE_STYLE_FILL_AREA(#155);
#131=SURFACE_STYLE_FILL_AREA(#156);
#132=SURFACE_STYLE_FILL_AREA(#157);
#133=SURFACE_STYLE_FILL_AREA(#158);
#134=SURFACE_STYLE_FILL_AREA(#159);
#135=SURFACE_STYLE_FILL_AREA(#160);
#136=SURFACE_STYLE_FILL_AREA(#161);
#137=SURFACE_STYLE_FILL_AREA(#162);
#138=SURFACE_STYLE_FILL_AREA(#163);
#139=SURFACE_STYLE_FILL_AREA(#164);
#140=SURFACE_STYLE_FILL_AREA(#165);
#141=SURFACE_STYLE_FILL_AREA(#166);
#142=SURFACE_STYLE_FILL_AREA(#167);
#143=SURFACE_STYLE_FILL_AREA(#168);
#144=SURFACE_STYLE_FILL_AREA(#169);
#145=SURFACE_STYLE_FILL_AREA(#170);
#146=SURFACE_STYLE_FILL_AREA(#171);
#147=SURFACE_STYLE_FILL_AREA(#172);
#148=SURFACE_STYLE_FILL_AREA(#173);
#149=SURFACE_STYLE_FILL_AREA(#174);
#150=SURFACE_STYLE_FILL_AREA(#175);
#151=SURFACE_STYLE_FILL_AREA(#176);
#152=SURFACE_STYLE_FILL_AREA(#177);
#153=FILL_AREA_STYLE('',(#178));
#154=FILL_AREA_STYLE('',(#179));
#155=FILL_AREA_STYLE('',(#180));
#156=FILL_AREA_STYLE('',(#181));
#157=FILL_AREA_STYLE('',(#182));
#158=FILL_AREA_STYLE('',(#183));
#159=FILL_AREA_STYLE('',(#184));
#160=FILL_AREA_STYLE('',(#185));
#161=FILL_AREA_STYLE('',(#186));
#162=FILL_AREA_STYLE('',(#187));
#163=FILL_AREA_STYLE('',(#188));
#164=FILL_AREA_STYLE('',(#189));
#165=FILL_AREA_STYLE('',(#190));
#166=FILL_AREA_STYLE('',(#191));
#167=FILL_AREA_STYLE('',(#192));
#168=FILL_AREA_STYLE('',(#193));
#169=FILL_AREA_STYLE('',(#194));
#170=FILL_AREA_STYLE('',(#195));
#171=FILL_AREA_STYLE('',(#196));
#172=FILL_AREA_STYLE('',(#197));
#173=FILL_AREA_STYLE('',(#198));
#174=FILL_AREA_STYLE('',(#199));
#175=FILL_AREA_STYLE('',(#200));
#176=FILL_AREA_STYLE('',(#201));
#177=FILL_AREA_STYLE('',(#202));
#178=FILL_AREA_STYLE_COLOUR('',#203);
#179=FILL_AREA_STYLE_COLOUR('',#204);
#180=FILL_AREA_STYLE_COLOUR('',#204);
#181=FILL_AREA_STYLE_COLOUR('',#204);
#182=FILL_AREA_STYLE_COLOUR('',#204);
#183=FILL_AREA_STYLE_COLOUR('',#204);
#184=FILL_AREA_STYLE_COLOUR('',#204);
#185=FILL_AREA_STYLE_COLOUR('',#204);
#186=FILL_AREA_STYLE_COLOUR('',#204);
#187=FILL_AREA_STYLE_COLOUR('',#204);
#188=FILL_AREA_STYLE_COLOUR('',#204);
#189=FILL_AREA_STYLE_COLOUR('',#204);
#190=FILL_AREA_STYLE_COLOUR('',#204);
#191=FILL_AREA_STYLE_COLOUR('',#204);
#192=FILL_AREA_STYLE_COLOUR('',#204);
#193=FILL_AREA_STYLE_COLOUR('',#204);
#194=FILL_AREA_STYLE_COLOUR('',#204);
#195=FILL_AREA_STYLE_COLOUR('',#204);
#196=FILL_AREA_STYLE_COLOUR('',#204);
#197=FILL_AREA_STYLE_COLOUR('',#204);
#198=FILL_AREA_STYLE_COLOUR('',#204);
#199=FILL_AREA_STYLE_COLOUR('',#204);
#200=FILL_AREA_STYLE_COLOUR('',#204);
#201=FILL_AREA_STYLE_COLOUR('',#204);
#202=FILL_AREA_STYLE_COLOUR('',#203);
#203=COLOUR_RGB('Light grey',0.8,0.8,0.8);
#204=COLOUR_RGB('Medium grey',0.6,0.6,0.6);
#205=MANIFOLD_SOLID_BREP('',#207);
#206=MANIFOLD_SOLID_BREP('',#208);
#207=CLOSED_SHELL('',(#232,#233,#234,#235,#236,#237,#238,#239,#240,#241,
#242,#243,#244,#245,#246,#247,#248,#249,#250,#251,#252,#253,#254));
#208=CLOSED_SHELL('',(#255));
#209=VERTEX_LOOP('',#413);
#210=VERTEX_LOOP('',#415);
#211=FACE_OUTER_BOUND('',#314,.T.);
#212=TOROIDAL_SURFACE('',#472,8.19955701065368,3.70044298934632);
#213=TOROIDAL_SURFACE('',#480,3.33491601207118,3.);
#214=TOROIDAL_SURFACE('',#481,8.9,3.);
#215=TOROIDAL_SURFACE('',#482,13.5,3.);
#216=TOROIDAL_SURFACE('',#486,6.44999999999999,0.399999999999999);
#217=TOROIDAL_SURFACE('',#490,6.44999999999999,0.4);
#218=CYLINDRICAL_SURFACE('',#470,11.9);
#219=CYLINDRICAL_SURFACE('',#479,10.5);
#220=CYLINDRICAL_SURFACE('',#488,6.04999999999999);
#221=CYLINDRICAL_SURFACE('',#496,6.);
#222=CYLINDRICAL_SURFACE('',#498,6.24999999999999);
#223=CYLINDRICAL_SURFACE('',#505,2.);
#224=CONICAL_SURFACE('',#467,10.5,35.);
#225=CONICAL_SURFACE('',#474,6.63568222682558,65.0000000000001);
#226=CONICAL_SURFACE('',#484,7.24907116054874,75.);
#227=CONICAL_SURFACE('',#499,6.,45.);
#228=CONICAL_SURFACE('',#500,6.24999999999999,45.);
#229=CONICAL_SURFACE('',#501,10.,45.);
#230=CONICAL_SURFACE('',#503,2.,60.);
#231=CONICAL_SURFACE('',#506,2.57735,30.);
#232=ADVANCED_FACE('',(#259,#260),#256,.T.);
#233=ADVANCED_FACE('',(#261,#262),#224,.T.);
#234=ADVANCED_FACE('',(#263,#264),#218,.T.);
#235=ADVANCED_FACE('',(#265,#266),#212,.T.);
#236=ADVANCED_FACE('',(#267,#268),#225,.F.);
#237=ADVANCED_FACE('',(#211),#257,.T.);
#238=ADVANCED_FACE('',(#269,#270),#219,.T.);
#239=ADVANCED_FACE('',(#271,#272),#213,.F.);
#240=ADVANCED_FACE('',(#273,#274),#214,.T.);
#241=ADVANCED_FACE('',(#275,#276),#215,.F.);
#242=ADVANCED_FACE('',(#277,#278),#226,.F.);
#243=ADVANCED_FACE('',(#279,#280),#216,.F.);
#244=ADVANCED_FACE('',(#281,#282),#220,.T.);
#245=ADVANCED_FACE('',(#283,#284),#217,.F.);
#246=ADVANCED_FACE('',(#285,#286),#258,.F.);
#247=ADVANCED_FACE('',(#287,#288),#221,.T.);
#248=ADVANCED_FACE('',(#289,#290),#222,.T.);
#249=ADVANCED_FACE('',(#291,#292),#227,.T.);
#250=ADVANCED_FACE('',(#293,#294),#228,.T.);
#251=ADVANCED_FACE('',(#295,#296),#229,.T.);
#252=ADVANCED_FACE('',(#297,#298),#230,.F.);
#253=ADVANCED_FACE('',(#299,#300),#223,.F.);
#254=ADVANCED_FACE('',(#301,#302),#231,.F.);
#255=ADVANCED_FACE('',(#303),#23,.F.);
#256=PLANE('',#464);
#257=PLANE('',#476);
#258=PLANE('',#493);
#259=FACE_BOUND('',#304,.T.);
#260=FACE_BOUND('',#305,.T.);
#261=FACE_BOUND('',#306,.T.);
#262=FACE_BOUND('',#307,.T.);
#263=FACE_BOUND('',#308,.T.);
#264=FACE_BOUND('',#309,.T.);
#265=FACE_BOUND('',#310,.T.);
#266=FACE_BOUND('',#311,.T.);
#267=FACE_BOUND('',#312,.T.);
#268=FACE_BOUND('',#313,.T.);
#269=FACE_BOUND('',#315,.T.);
#270=FACE_BOUND('',#316,.T.);
#271=FACE_BOUND('',#317,.T.);
#272=FACE_BOUND('',#318,.T.);
#273=FACE_BOUND('',#319,.T.);
#274=FACE_BOUND('',#320,.T.);
#275=FACE_BOUND('',#321,.T.);
#276=FACE_BOUND('',#322,.T.);
#277=FACE_BOUND('',#323,.T.);
#278=FACE_BOUND('',#324,.T.);
#279=FACE_BOUND('',#325,.T.);
#280=FACE_BOUND('',#326,.T.);
#281=FACE_BOUND('',#327,.T.);
#282=FACE_BOUND('',#328,.T.);
#283=FACE_BOUND('',#329,.T.);
#284=FACE_BOUND('',#330,.T.);
#285=FACE_BOUND('',#331,.T.);
#286=FACE_BOUND('',#332,.T.);
#287=FACE_BOUND('',#333,.T.);
#288=FACE_BOUND('',#334,.T.);
#289=FACE_BOUND('',#335,.T.);
#290=FACE_BOUND('',#336,.T.);
#291=FACE_BOUND('',#337,.T.);
#292=FACE_BOUND('',#338,.T.);
#293=FACE_BOUND('',#339,.T.);
#294=FACE_BOUND('',#340,.T.);
#295=FACE_BOUND('',#341,.T.);
#296=FACE_BOUND('',#342,.T.);
#297=FACE_BOUND('',#343,.T.);
#298=FACE_BOUND('',#209,.T.);
#299=FACE_BOUND('',#344,.T.);
#300=FACE_BOUND('',#345,.T.);
#301=FACE_BOUND('',#346,.T.);
#302=FACE_BOUND('',#347,.T.);
#303=FACE_BOUND('',#210,.T.);
#304=EDGE_LOOP('',(#348));
#305=EDGE_LOOP('',(#349));
#306=EDGE_LOOP('',(#350));
#307=EDGE_LOOP('',(#351));
#308=EDGE_LOOP('',(#352));
#309=EDGE_LOOP('',(#353));
#310=EDGE_LOOP('',(#354));
#311=EDGE_LOOP('',(#355));
#312=EDGE_LOOP('',(#356));
#313=EDGE_LOOP('',(#357));
#314=EDGE_LOOP('',(#358));
#315=EDGE_LOOP('',(#359));
#316=EDGE_LOOP('',(#360));
#317=EDGE_LOOP('',(#361));
#318=EDGE_LOOP('',(#362));
#319=EDGE_LOOP('',(#363));
#320=EDGE_LOOP('',(#364));
#321=EDGE_LOOP('',(#365));
#322=EDGE_LOOP('',(#366));
#323=EDGE_LOOP('',(#367));
#324=EDGE_LOOP('',(#368));
#325=EDGE_LOOP('',(#369));
#326=EDGE_LOOP('',(#370));
#327=EDGE_LOOP('',(#371));
#328=EDGE_LOOP('',(#372));
#329=EDGE_LOOP('',(#373));
#330=EDGE_LOOP('',(#374));
#331=EDGE_LOOP('',(#375));
#332=EDGE_LOOP('',(#376));
#333=EDGE_LOOP('',(#377));
#334=EDGE_LOOP('',(#378));
#335=EDGE_LOOP('',(#379));
#336=EDGE_LOOP('',(#380));
#337=EDGE_LOOP('',(#381));
#338=EDGE_LOOP('',(#382));
#339=EDGE_LOOP('',(#383));
#340=EDGE_LOOP('',(#384));
#341=EDGE_LOOP('',(#385));
#342=EDGE_LOOP('',(#386));
#343=EDGE_LOOP('',(#387));
#344=EDGE_LOOP('',(#388));
#345=EDGE_LOOP('',(#389));
#346=EDGE_LOOP('',(#390));
#347=EDGE_LOOP('',(#391));
#348=ORIENTED_EDGE('',*,*,#416,.T.);
#349=ORIENTED_EDGE('',*,*,#417,.T.);
#350=ORIENTED_EDGE('',*,*,#418,.T.);
#351=ORIENTED_EDGE('',*,*,#419,.T.);
#352=ORIENTED_EDGE('',*,*,#420,.T.);
#353=ORIENTED_EDGE('',*,*,#421,.T.);
#354=ORIENTED_EDGE('',*,*,#422,.T.);
#355=ORIENTED_EDGE('',*,*,#421,.F.);
#356=ORIENTED_EDGE('',*,*,#423,.T.);
#357=ORIENTED_EDGE('',*,*,#422,.F.);
#358=ORIENTED_EDGE('',*,*,#424,.T.);
#359=ORIENTED_EDGE('',*,*,#425,.T.);
#360=ORIENTED_EDGE('',*,*,#426,.T.);
#361=ORIENTED_EDGE('',*,*,#424,.F.);
#362=ORIENTED_EDGE('',*,*,#423,.F.);
#363=ORIENTED_EDGE('',*,*,#420,.F.);
#364=ORIENTED_EDGE('',*,*,#418,.F.);
#365=ORIENTED_EDGE('',*,*,#419,.F.);
#366=ORIENTED_EDGE('',*,*,#426,.F.);
#367=ORIENTED_EDGE('',*,*,#427,.F.);
#368=ORIENTED_EDGE('',*,*,#417,.F.);
#369=ORIENTED_EDGE('',*,*,#428,.F.);
#370=ORIENTED_EDGE('',*,*,#427,.T.);
#371=ORIENTED_EDGE('',*,*,#429,.F.);
#372=ORIENTED_EDGE('',*,*,#428,.T.);
#373=ORIENTED_EDGE('',*,*,#430,.T.);
#374=ORIENTED_EDGE('',*,*,#429,.T.);
#375=ORIENTED_EDGE('',*,*,#431,.T.);
#376=ORIENTED_EDGE('',*,*,#432,.T.);
#377=ORIENTED_EDGE('',*,*,#433,.T.);
#378=ORIENTED_EDGE('',*,*,#434,.F.);
#379=ORIENTED_EDGE('',*,*,#435,.T.);
#380=ORIENTED_EDGE('',*,*,#430,.F.);
#381=ORIENTED_EDGE('',*,*,#432,.F.);
#382=ORIENTED_EDGE('',*,*,#433,.F.);
#383=ORIENTED_EDGE('',*,*,#434,.T.);
#384=ORIENTED_EDGE('',*,*,#435,.F.);
#385=ORIENTED_EDGE('',*,*,#425,.F.);
#386=ORIENTED_EDGE('',*,*,#416,.F.);
#387=ORIENTED_EDGE('',*,*,#436,.T.);
#388=ORIENTED_EDGE('',*,*,#436,.F.);
#389=ORIENTED_EDGE('',*,*,#437,.T.);
#390=ORIENTED_EDGE('',*,*,#437,.F.);
#391=ORIENTED_EDGE('',*,*,#431,.F.);
#392=VERTEX_POINT('',#605);
#393=VERTEX_POINT('',#607);
#394=VERTEX_POINT('',#610);
#395=VERTEX_POINT('',#612);
#396=VERTEX_POINT('',#615);
#397=VERTEX_POINT('',#617);
#398=VERTEX_POINT('',#620);
#399=VERTEX_POINT('',#623);
#400=VERTEX_POINT('',#626);
#401=VERTEX_POINT('',#629);
#402=VERTEX_POINT('',#631);
#403=VERTEX_POINT('',#637);
#404=VERTEX_POINT('',#640);
#405=VERTEX_POINT('',#643);
#406=VERTEX_POINT('',#646);
#407=VERTEX_POINT('',#649);
#408=VERTEX_POINT('',#651);
#409=VERTEX_POINT('',#654);
#410=VERTEX_POINT('',#656);
#411=VERTEX_POINT('',#659);
#412=VERTEX_POINT('',#665);
#413=VERTEX_POINT('',#666);
#414=VERTEX_POINT('',#669);
#415=VERTEX_POINT('',#672);
#416=EDGE_CURVE('',#392,#392,#438,.T.);
#417=EDGE_CURVE('',#393,#393,#439,.T.);
#418=EDGE_CURVE('',#394,#394,#440,.T.);
#419=EDGE_CURVE('',#395,#395,#441,.T.);
#420=EDGE_CURVE('',#396,#396,#442,.T.);
#421=EDGE_CURVE('',#397,#397,#443,.T.);
#422=EDGE_CURVE('',#398,#398,#444,.T.);
#423=EDGE_CURVE('',#399,#399,#445,.T.);
#424=EDGE_CURVE('',#400,#400,#446,.T.);
#425=EDGE_CURVE('',#401,#401,#447,.T.);
#426=EDGE_CURVE('',#402,#402,#448,.T.);
#427=EDGE_CURVE('',#403,#403,#449,.T.);
#428=EDGE_CURVE('',#404,#404,#450,.T.);
#429=EDGE_CURVE('',#405,#405,#451,.T.);
#430=EDGE_CURVE('',#406,#406,#452,.T.);
#431=EDGE_CURVE('',#407,#407,#453,.T.);
#432=EDGE_CURVE('',#408,#408,#454,.T.);
#433=EDGE_CURVE('',#409,#409,#455,.T.);
#434=EDGE_CURVE('',#410,#410,#456,.T.);
#435=EDGE_CURVE('',#411,#411,#457,.T.);
#436=EDGE_CURVE('',#412,#412,#458,.T.);
#437=EDGE_CURVE('',#414,#414,#459,.T.);
#438=CIRCLE('',#462,10.);
#439=CIRCLE('',#463,7.24907116054874);
#440=CIRCLE('',#465,11.357456132867);
#441=CIRCLE('',#466,11.042543867133);
#442=CIRCLE('',#468,11.9);
#443=CIRCLE('',#469,11.9);
#444=CIRCLE('',#471,6.63568222682558);
#445=CIRCLE('',#473,4.60277079729328);
#446=CIRCLE('',#475,3.33491601207118);
#447=CIRCLE('',#477,10.5);
#448=CIRCLE('',#478,10.5);
#449=CIRCLE('',#483,6.553527618041);
#450=CIRCLE('',#485,6.04999999999999);
#451=CIRCLE('',#487,6.04999999999999);
#452=CIRCLE('',#489,6.24999999999999);
#453=CIRCLE('',#491,2.57735);
#454=CIRCLE('',#492,5.);
#455=CIRCLE('',#494,6.);
#456=CIRCLE('',#495,6.);
#457=CIRCLE('',#497,6.24999999999999);
#458=CIRCLE('',#502,2.);
#459=CIRCLE('',#504,2.);
#460=CIRCLE('',#507,5.);
#461=AXIS2_PLACEMENT_3D('',#603,#508,#509);
#462=AXIS2_PLACEMENT_3D('',#604,#510,#511);
#463=AXIS2_PLACEMENT_3D('',#606,#512,#513);
#464=AXIS2_PLACEMENT_3D('',#608,#514,#515);
#465=AXIS2_PLACEMENT_3D('',#609,#516,#517);
#466=AXIS2_PLACEMENT_3D('',#611,#518,#519);
#467=AXIS2_PLACEMENT_3D('',#613,#520,#521);
#468=AXIS2_PLACEMENT_3D('',#614,#522,#523);
#469=AXIS2_PLACEMENT_3D('',#616,#524,#525);
#470=AXIS2_PLACEMENT_3D('',#618,#526,#527);
#471=AXIS2_PLACEMENT_3D('',#619,#528,#529);
#472=AXIS2_PLACEMENT_3D('',#621,#530,#531);
#473=AXIS2_PLACEMENT_3D('',#622,#532,#533);
#474=AXIS2_PLACEMENT_3D('',#624,#534,#535);
#475=AXIS2_PLACEMENT_3D('',#625,#536,#537);
#476=AXIS2_PLACEMENT_3D('',#627,#538,#539);
#477=AXIS2_PLACEMENT_3D('',#628,#540,#541);
#478=AXIS2_PLACEMENT_3D('',#630,#542,#543);
#479=AXIS2_PLACEMENT_3D('',#632,#544,#545);
#480=AXIS2_PLACEMENT_3D('',#633,#546,#547);
#481=AXIS2_PLACEMENT_3D('',#634,#548,#549);
#482=AXIS2_PLACEMENT_3D('',#635,#550,#551);
#483=AXIS2_PLACEMENT_3D('',#636,#552,#553);
#484=AXIS2_PLACEMENT_3D('',#638,#554,#555);
#485=AXIS2_PLACEMENT_3D('',#639,#556,#557);
#486=AXIS2_PLACEMENT_3D('',#641,#558,#559);
#487=AXIS2_PLACEMENT_3D('',#642,#560,#561);
#488=AXIS2_PLACEMENT_3D('',#644,#562,#563);
#489=AXIS2_PLACEMENT_3D('',#645,#564,#565);
#490=AXIS2_PLACEMENT_3D('',#647,#566,#567);
#491=AXIS2_PLACEMENT_3D('',#648,#568,#569);
#492=AXIS2_PLACEMENT_3D('',#650,#570,#571);
#493=AXIS2_PLACEMENT_3D('',#652,#572,#573);
#494=AXIS2_PLACEMENT_3D('',#653,#574,#575);
#495=AXIS2_PLACEMENT_3D('',#655,#576,#577);
#496=AXIS2_PLACEMENT_3D('',#657,#578,#579);
#497=AXIS2_PLACEMENT_3D('',#658,#580,#581);
#498=AXIS2_PLACEMENT_3D('',#660,#582,#583);
#499=AXIS2_PLACEMENT_3D('',#661,#584,#585);
#500=AXIS2_PLACEMENT_3D('',#662,#586,#587);
#501=AXIS2_PLACEMENT_3D('',#663,#588,#589);
#502=AXIS2_PLACEMENT_3D('',#664,#590,#591);
#503=AXIS2_PLACEMENT_3D('',#667,#592,#593);
#504=AXIS2_PLACEMENT_3D('',#668,#594,#595);
#505=AXIS2_PLACEMENT_3D('',#670,#596,#597);
#506=AXIS2_PLACEMENT_3D('',#671,#598,#599);
#507=AXIS2_PLACEMENT_3D('',#673,#600,#601);
#508=DIRECTION('',(0.,0.,1.));
#509=DIRECTION('',(1.,0.,0.));
#510=DIRECTION('',(0.,0.,1.));
#511=DIRECTION('',(1.,0.,0.));
#512=DIRECTION('',(0.,0.,-1.));
#513=DIRECTION('',(-1.,0.,0.));
#514=DIRECTION('',(0.,0.,1.));
#515=DIRECTION('',(1.,0.,0.));
#516=DIRECTION('',(0.,0.,1.));
#517=DIRECTION('',(1.,0.,0.));
#518=DIRECTION('',(0.,0.,-1.));
#519=DIRECTION('',(-1.,0.,0.));
#520=DIRECTION('',(0.,0.,-1.));
#521=DIRECTION('',(-1.,0.,-1.5621376796169E-16));
#522=DIRECTION('',(0.,0.,-1.));
#523=DIRECTION('',(-1.,0.,0.));
#524=DIRECTION('',(0.,0.,1.));
#525=DIRECTION('',(1.,0.,0.));
#526=DIRECTION('',(0.,0.,1.));
#527=DIRECTION('',(1.,0.,0.));
#528=DIRECTION('',(0.,0.,1.));
#529=DIRECTION('',(1.,0.,0.));
#530=DIRECTION('',(0.,0.,1.));
#531=DIRECTION('',(1.,0.,0.));
#532=DIRECTION('',(0.,0.,1.));
#533=DIRECTION('',(-1.,0.,0.));
#534=DIRECTION('',(0.,0.,-1.));
#535=DIRECTION('',(-1.,0.,1.45155521200046E-17));
#536=DIRECTION('',(0.,0.,-1.));
#537=DIRECTION('',(-1.,0.,0.));
#538=DIRECTION('',(0.,0.,-1.));
#539=DIRECTION('',(-1.,0.,0.));
#540=DIRECTION('',(0.,0.,-1.));
#541=DIRECTION('',(1.,0.,0.));
#542=DIRECTION('',(0.,0.,1.));
#543=DIRECTION('',(1.,0.,0.));
#544=DIRECTION('',(0.,0.,1.));
#545=DIRECTION('',(1.,0.,0.));
#546=DIRECTION('',(0.,0.,-1.));
#547=DIRECTION('',(-1.,0.,0.));
#548=DIRECTION('',(0.,0.,-1.));
#549=DIRECTION('',(-1.,0.,0.));
#550=DIRECTION('',(0.,0.,1.));
#551=DIRECTION('',(1.,0.,0.));
#552=DIRECTION('',(0.,0.,1.));
#553=DIRECTION('',(-1.,0.,0.));
#554=DIRECTION('',(0.,0.,1.));
#555=DIRECTION('',(1.,0.,-7.75973862008373E-19));
#556=DIRECTION('',(0.,0.,1.));
#557=DIRECTION('',(-1.,0.,0.));
#558=DIRECTION('',(0.,0.,-1.));
#559=DIRECTION('',(-1.,0.,0.));
#560=DIRECTION('',(0.,0.,1.));
#561=DIRECTION('',(-1.,0.,0.));
#562=DIRECTION('',(0.,0.,-1.));
#563=DIRECTION('',(-1.,0.,0.));
#564=DIRECTION('',(0.,0.,-1.));
#565=DIRECTION('',(-1.,0.,0.));
#566=DIRECTION('',(0.,0.,-1.));
#567=DIRECTION('',(-1.,0.,0.));
#568=DIRECTION('',(0.,0.,-1.));
#569=DIRECTION('',(-1.,0.,0.));
#570=DIRECTION('',(0.,0.,1.));
#571=DIRECTION('',(-1.,0.,0.));
#572=DIRECTION('',(0.,0.,-1.));
#573=DIRECTION('',(-1.,0.,0.));
#574=DIRECTION('',(0.,0.,-1.));
#575=DIRECTION('',(-1.,0.,0.));
#576=DIRECTION('',(0.,0.,-1.));
#577=DIRECTION('',(-1.,0.,0.));
#578=DIRECTION('',(0.,0.,-1.));
#579=DIRECTION('',(-1.,0.,0.));
#580=DIRECTION('',(0.,0.,-1.));
#581=DIRECTION('',(-1.,0.,0.));
#582=DIRECTION('',(0.,0.,-1.));
#583=DIRECTION('',(-1.,0.,0.));
#584=DIRECTION('',(0.,0.,-1.));
#585=DIRECTION('',(-1.,0.,2.06925265524073E-17));
#586=DIRECTION('',(0.,0.,-1.));
#587=DIRECTION('',(-1.,0.,3.44789759200359E-17));
#588=DIRECTION('',(0.,0.,-1.));
#589=DIRECTION('',(-1.,0.,0.));
#590=DIRECTION('',(0.,0.,1.));
#591=DIRECTION('',(-1.,0.,0.));
#592=DIRECTION('',(0.,0.,1.));
#593=DIRECTION('',(1.,0.,-4.00155166943205E-18));
#594=DIRECTION('',(0.,0.,1.));
#595=DIRECTION('',(-1.,0.,0.));
#596=DIRECTION('',(0.,0.,-1.));
#597=DIRECTION('',(-1.,0.,0.));
#598=DIRECTION('',(0.,0.,1.));
#599=DIRECTION('',(1.,0.,3.58953100747475E-17));
#600=DIRECTION('',(-0.00872653549837392,-0.999923847578196,0.00872620321864147));
#601=DIRECTION('',(0.999960492363473,-0.00871142893194181,0.00176768723619604));
#602=DIRECTION('',(0.,0.,-1.));
#603=CARTESIAN_POINT('',(0.,0.,0.));
#604=CARTESIAN_POINT('',(0.,0.,0.));
#605=CARTESIAN_POINT('',(10.,0.,0.));
#606=CARTESIAN_POINT('',(0.,0.,2.9015989681051E-15));
#607=CARTESIAN_POINT('',(-7.24907116054874,0.,2.9015989681051E-15));
#608=CARTESIAN_POINT('',(0.,0.,0.));
#609=CARTESIAN_POINT('',(0.,0.,-24.8004655676858));
#610=CARTESIAN_POINT('',(11.357456132867,0.,-24.8004655676858));
#611=CARTESIAN_POINT('',(0.,0.,-24.3507242430793));
#612=CARTESIAN_POINT('',(-11.042543867133,0.,-24.3507242430793));
#613=CARTESIAN_POINT('',(0.,0.,-23.5758913006631));
#614=CARTESIAN_POINT('',(0.,0.,-26.521194876739));
#615=CARTESIAN_POINT('',(-11.9,0.,-26.521194876739));
#616=CARTESIAN_POINT('',(0.,0.,-27.375298510102));
#617=CARTESIAN_POINT('',(11.9,0.,-27.375298510102));
#618=CARTESIAN_POINT('',(0.,0.,0.));
#619=CARTESIAN_POINT('',(0.,0.,-30.7290388068318));
#620=CARTESIAN_POINT('',(6.63568222682558,0.,-30.7290388068318));
#621=CARTESIAN_POINT('',(0.,0.,-27.375298510102));
#622=CARTESIAN_POINT('',(0.,0.,-29.78107663889));
#623=CARTESIAN_POINT('',(-4.60277079729328,0.,-29.78107663889));
#624=CARTESIAN_POINT('',(0.,0.,-30.7290388068318));
#625=CARTESIAN_POINT('',(0.,0.,-29.5));
#626=CARTESIAN_POINT('',(-3.33491601207118,0.,-29.5));
#627=CARTESIAN_POINT('',(4.,0.,-29.5));
#628=CARTESIAN_POINT('',(0.,0.,-0.5));
#629=CARTESIAN_POINT('',(10.5,0.,-0.5));
#630=CARTESIAN_POINT('',(0.,0.,-22.6299949340261));
#631=CARTESIAN_POINT('',(10.5,0.,-22.6299949340261));
#632=CARTESIAN_POINT('',(0.,0.,0.));
#633=CARTESIAN_POINT('',(0.,0.,-32.5));
#634=CARTESIAN_POINT('',(0.,0.,-26.521194876739));
#635=CARTESIAN_POINT('',(0.,0.,-22.6299949340261));
#636=CARTESIAN_POINT('',(0.,0.,-0.186370330515627));
#637=CARTESIAN_POINT('',(-6.553527618041,0.,-0.186370330515627));
#638=CARTESIAN_POINT('',(0.,0.,2.9015989681051E-15));
#639=CARTESIAN_POINT('',(0.,0.,0.2));
#640=CARTESIAN_POINT('',(-6.04999999999999,0.,0.2));
#641=CARTESIAN_POINT('',(0.,0.,0.2));
#642=CARTESIAN_POINT('',(0.,0.,1.15358983848623));
#643=CARTESIAN_POINT('',(-6.04999999999999,0.,1.15358983848623));
#644=CARTESIAN_POINT('',(0.,0.,0.));
#645=CARTESIAN_POINT('',(0.,0.,1.5));
#646=CARTESIAN_POINT('',(-6.24999999999999,0.,1.5));
#647=CARTESIAN_POINT('',(0.,0.,1.15358983848623));
#648=CARTESIAN_POINT('',(0.,0.,22.));
#649=CARTESIAN_POINT('',(-2.57735,0.,22.));
#650=CARTESIAN_POINT('',(0.,0.,22.));
#651=CARTESIAN_POINT('',(-5.,0.,22.));
#652=CARTESIAN_POINT('',(0.,0.,22.));
#653=CARTESIAN_POINT('',(0.,0.,21.));
#654=CARTESIAN_POINT('',(-6.,0.,21.));
#655=CARTESIAN_POINT('',(0.,0.,5.));
#656=CARTESIAN_POINT('',(-6.,0.,5.));
#657=CARTESIAN_POINT('',(0.,0.,-32.));
#658=CARTESIAN_POINT('',(0.,0.,4.75));
#659=CARTESIAN_POINT('',(-6.24999999999999,0.,4.75));
#660=CARTESIAN_POINT('',(0.,0.,-32.));
#661=CARTESIAN_POINT('',(0.,0.,21.));
#662=CARTESIAN_POINT('',(0.,0.,4.75));
#663=CARTESIAN_POINT('',(0.,0.,0.));
#664=CARTESIAN_POINT('',(0.,0.,-14.));
#665=CARTESIAN_POINT('',(-2.,0.,-14.));
#666=CARTESIAN_POINT('',(0.,0.,-15.1547005383793));
#667=CARTESIAN_POINT('',(0.,0.,-14.));
#668=CARTESIAN_POINT('',(0.,0.,21.0000004662501));
#669=CARTESIAN_POINT('',(-2.,0.,21.0000004662501));
#670=CARTESIAN_POINT('',(0.,0.,-14.));
#671=CARTESIAN_POINT('',(0.,0.,22.));
#672=CARTESIAN_POINT('',(12.475,0.0437064212619668,-26.9913597460986));
#673=CARTESIAN_POINT('',(7.47519753818264,0.0872635659216758,-27.0001981822796));
#674=CARTESIAN_POINT('',(0.,0.,0.));
#675=MECHANICAL_DESIGN_GEOMETRIC_PRESENTATION_REPRESENTATION('',(#51,#25,
#26,#27,#28,#29,#30,#31,#32,#33,#34,#35,#36,#37,#38,#39,#40,#41,#42,#43,
#44,#45,#46,#47,#52),#676);
#676=(
GEOMETRIC_REPRESENTATION_CONTEXT(3)
GLOBAL_UNCERTAINTY_ASSIGNED_CONTEXT((#677))
GLOBAL_UNIT_ASSIGNED_CONTEXT((#683,#679,#678))
REPRESENTATION_CONTEXT('ax_step_export_ax_temp_1',
'TOP_LEVEL_ASSEMBLY_PART')
);
#677=UNCERTAINTY_MEASURE_WITH_UNIT(LENGTH_MEASURE(2.E-5),#683,
'DISTANCE_ACCURACY_VALUE','Maximum Tolerance applied to model');
#678=(
NAMED_UNIT(*)
SI_UNIT($,.STERADIAN.)
SOLID_ANGLE_UNIT()
);
#679=(
CONVERSION_BASED_UNIT('DEGREE',#681)
NAMED_UNIT(#680)
PLANE_ANGLE_UNIT()
);
#680=DIMENSIONAL_EXPONENTS(0.,0.,0.,0.,0.,0.,0.);
#681=PLANE_ANGLE_MEASURE_WITH_UNIT(PLANE_ANGLE_MEASURE(0.0174532925),#682);
#682=(
NAMED_UNIT(*)
PLANE_ANGLE_UNIT()
SI_UNIT($,.RADIAN.)
);
#683=(
LENGTH_UNIT()
NAMED_UNIT(*)
SI_UNIT(.MILLI.,.METRE.)
);
ENDSEC;
END-ISO-10303-21;
