  0
SECTION
  2
HEADER
  9
$ACADVER
  1
AC1015
  9
$ACADMAINTVER
 70
    20
  9
$DWGCODEPAGE
  3
ANSI_1250
  9
$INSBASE
 10
0.0
 20
0.0
 30
0.0
  9
$EXTMIN
 10
162.7959811000234
 20
117.872275
 30
0.0
  9
$EXTMAX
 10
277.14995
 20
208.1698448999766
 30
0.0
  9
$LIMMIN
 10
-0.5
 20
-0.5
  9
$LIMMAX
 10
5.0
 20
5.0
  9
$ORTHOMODE
 70
     0
  9
$REGENMODE
 70
     1
  9
$FILLMODE
 70
     1
  9
$QTEXTMODE
 70
     0
  9
$MIRRTEXT
 70
     1
  9
$LTSCALE
 40
1.0
  9
$ATTMODE
 70
     1
  9
$TEXTSIZE
 40
0.2
  9
$TRACEWID
 40
0.05
  9
$TEXTSTYLE
  7
Standard
  9
$CLAYER
  8
0
  9
$CELTYPE
  6
BYLAYER
  9
$CECOLOR
 62
   256
  9
$CELTSCALE
 40
1.0
  9
$DISPSILH
 70
     0
  9
$DIMSCALE
 40
1.0
  9
$DIMASZ
 40
0.18
  9
$DIMEXO
 40
0.0625
  9
$DIMDLI
 40
0.38
  9
$DIMRND
 40
0.0
  9
$DIMDLE
 40
0.0
  9
$DIMEXE
 40
0.18
  9
$DIMTP
 40
0.0
  9
$DIMTM
 40
0.0
  9
$DIMTXT
 40
0.18
  9
$DIMCEN
 40
0.09
  9
$DIMTSZ
 40
0.0
  9
$DIMTOL
 70
     0
  9
$DIMLIM
 70
     0
  9
$DIMTIH
 70
     1
  9
$DIMTOH
 70
     1
  9
$DIMSE1
 70
     0
  9
$DIMSE2
 70
     0
  9
$DIMTAD
 70
     0
  9
$DIMZIN
 70
     0
  9
$DIMBLK
  1

  9
$DIMASO
 70
     1
  9
$DIMSHO
 70
     1
  9
$DIMPOST
  1

  9
$DIMAPOST
  1

  9
$DIMALT
 70
     0
  9
$DIMALTD
 70
     2
  9
$DIMALTF
 40
25.4
  9
$DIMLFAC
 40
1.0
  9
$DIMTOFL
 70
     0
  9
$DIMTVP
 40
0.0
  9
$DIMTIX
 70
     0
  9
$DIMSOXD
 70
     0
  9
$DIMSAH
 70
     0
  9
$DIMBLK1
  1

  9
$DIMBLK2
  1

  9
$DIMSTYLE
  2
Standard
  9
$DIMCLRD
 70
     0
  9
$DIMCLRE
 70
     0
  9
$DIMCLRT
 70
     0
  9
$DIMTFAC
 40
1.0
  9
$DIMGAP
 40
0.09
  9
$DIMJUST
 70
     0
  9
$DIMSD1
 70
     0
  9
$DIMSD2
 70
     0
  9
$DIMTOLJ
 70
     1
  9
$DIMTZIN
 70
     0
  9
$DIMALTZ
 70
     0
  9
$DIMALTTZ
 70
     0
  9
$DIMUPT
 70
     0
  9
$DIMDEC
 70
     4
  9
$DIMTDEC
 70
     4
  9
$DIMALTU
 70
     2
  9
$DIMALTTD
 70
     2
  9
$DIMTXSTY
  7
Standard
  9
$DIMAUNIT
 70
     0
  9
$DIMADEC
 70
     0
  9
$DIMALTRND
 40
0.0
  9
$DIMAZIN
 70
     0
  9
$DIMDSEP
 70
    46
  9
$DIMATFIT
 70
     3
  9
$DIMFRAC
 70
     0
  9
$DIMLDRBLK
  1

  9
$DIMLUNIT
 70
     2
  9
$DIMLWD
 70
    -2
  9
$DIMLWE
 70
    -2
  9
$DIMTMOVE
 70
     0
  9
$LUNITS
 70
     2
  9
$LUPREC
 70
     4
  9
$SKETCHINC
 40
0.1
  9
$FILLETRAD
 40
0.5
  9
$AUNITS
 70
     0
  9
$AUPREC
 70
     0
  9
$MENU
  1
.
  9
$ELEVATION
 40
0.0
  9
$PELEVATION
 40
0.0
  9
$THICKNESS
 40
0.0
  9
$LIMCHECK
 70
     0
  9
$CHAMFERA
 40
0.0
  9
$CHAMFERB
 40
0.0
  9
$CHAMFERC
 40
0.0
  9
$CHAMFERD
 40
0.0
  9
$SKPOLY
 70
     0
  9
$TDCREATE
 40
2457889.578852650
  9
$TDUCREATE
 40
2457889.495519317
  9
$TDUPDATE
 40
2457889.580976725
  9
$TDUUPDATE
 40
2457889.497643391
  9
$TDINDWG
 40
0.0020040856
  9
$TDUSRTIMER
 40
0.0020040625
  9
$USRTIMER
 70
     1
  9
$ANGBASE
 50
0.0
  9
$ANGDIR
 70
     0
  9
$PDMODE
 70
     0
  9
$PDSIZE
 40
0.0
  9
$PLINEWID
 40
0.0
  9
$SPLFRAME
 70
     0
  9
$SPLINETYPE
 70
     6
  9
$SPLINESEGS
 70
     8
  9
$HANDSEED
  5
3C1
  9
$SURFTAB1
 70
     6
  9
$SURFTAB2
 70
     6
  9
$SURFTYPE
 70
     6
  9
$SURFU
 70
     6
  9
$SURFV
 70
     6
  9
$UCSBASE
  2

  9
$UCSNAME
  2

  9
$UCSORG
 10
0.0
 20
0.0
 30
0.0
  9
$UCSXDIR
 10
1.0
 20
0.0
 30
0.0
  9
$UCSYDIR
 10
0.0
 20
1.0
 30
0.0
  9
$UCSORTHOREF
  2

  9
$UCSORTHOVIEW
 70
     0
  9
$UCSORGTOP
 10
0.0
 20
0.0
 30
0.0
  9
$UCSORGBOTTOM
 10
0.0
 20
0.0
 30
0.0
  9
$UCSORGLEFT
 10
0.0
 20
0.0
 30
0.0
  9
$UCSORGRIGHT
 10
0.0
 20
0.0
 30
0.0
  9
$UCSORGFRONT
 10
0.0
 20
0.0
 30
0.0
  9
$UCSORGBACK
 10
0.0
 20
0.0
 30
0.0
  9
$PUCSBASE
  2

  9
$PUCSNAME
  2

  9
$PUCSORG
 10
0.0
 20
0.0
 30
0.0
  9
$PUCSXDIR
 10
1.0
 20
0.0
 30
0.0
  9
$PUCSYDIR
 10
0.0
 20
1.0
 30
0.0
  9
$PUCSORTHOREF
  2

  9
$PUCSORTHOVIEW
 70
     0
  9
$PUCSORGTOP
 10
0.0
 20
0.0
 30
0.0
  9
$PUCSORGBOTTOM
 10
0.0
 20
0.0
 30
0.0
  9
$PUCSORGLEFT
 10
0.0
 20
0.0
 30
0.0
  9
$PUCSORGRIGHT
 10
0.0
 20
0.0
 30
0.0
  9
$PUCSORGFRONT
 10
0.0
 20
0.0
 30
0.0
  9
$PUCSORGBACK
 10
0.0
 20
0.0
 30
0.0
  9
$USERI1
 70
     0
  9
$USERI2
 70
     0
  9
$USERI3
 70
     0
  9
$USERI4
 70
     0
  9
$USERI5
 70
     0
  9
$USERR1
 40
0.0
  9
$USERR2
 40
0.0
  9
$USERR3
 40
0.0
  9
$USERR4
 40
0.0
  9
$USERR5
 40
0.0
  9
$WORLDVIEW
 70
     1
  9
$SHADEDGE
 70
     3
  9
$SHADEDIF
 70
    70
  9
$TILEMODE
 70
     1
  9
$MAXACTVP
 70
    64
  9
$PINSBASE
 10
0.0
 20
0.0
 30
0.0
  9
$PLIMCHECK
 70
     0
  9
$PEXTMIN
 10
-0.5
 20
-0.5
 30
-0.5
  9
$PEXTMAX
 10
5.0
 20
5.0
 30
5.0
  9
$PLIMMIN
 10
-0.5
 20
-0.5
  9
$PLIMMAX
 10
5.0
 20
5.0
  9
$UNITMODE
 70
     0
  9
$VISRETAIN
 70
     1
  9
$PLINEGEN
 70
     0
  9
$PSLTSCALE
 70
     1
  9
$TREEDEPTH
 70
  3020
  9
$CMLSTYLE
  2
Standard
  9
$CMLJUST
 70
     0
  9
$CMLSCALE
 40
1.0
  9
$PROXYGRAPHICS
 70
     1
  9
$MEASUREMENT
 70
     1
  9
$CELWEIGHT
370
    13
  9
$ENDCAPS
280
     0
  9
$JOINSTYLE
280
     0
  9
$LWDISPLAY
290
     1
  9
$INSUNITS
 70
     4
  9
$HYPERLINKBASE
  1

  9
$STYLESHEET
  1

  9
$XEDIT
290
     1
  9
$CEPSNTYPE
380
     0
  9
$PSTYLEMODE
290
     1
  9
$FINGERPRINTGUID
  2
{1B582418-8113-4BE2-8E11-0EAC232A8D8B}
  9
$VERSIONGUID
  2
{9F149F59-D39E-4B50-9927-5AE4DC4BE0FE}
  9
$EXTNAMES
290
     1
  9
$PSVPSCALE
 40
0.0
  9
$OLESTARTUP
290
     0
  0
ENDSEC
  0
SECTION
  2
CLASSES
  0
CLASS
  1
ACDBDICTIONARYWDFLT
  2
AcDbDictionaryWithDefault
  3
ObjectDBX Classes
 90
        0
280
     0
281
     0
  0
CLASS
  1
VISUALSTYLE
  2
AcDbVisualStyle
  3
ObjectDBX Classes
 90
     4095
280
     0
281
     0
  0
CLASS
  1
MATERIAL
  2
AcDbMaterial
  3
ObjectDBX Classes
 90
     1153
280
     0
281
     0
  0
CLASS
  1
SCALE
  2
AcDbScale
  3
ObjectDBX Classes
 90
     1153
280
     0
281
     0
  0
CLASS
  1
SUN
  2
AcDbSun
  3
SCENEOE
 90
    33921
280
     0
281
     0
  0
CLASS
  1
DICTIONARYVAR
  2
AcDbDictionaryVar
  3
ObjectDBX Classes
 90
        0
280
     0
281
     0
  0
CLASS
  1
ACDBPLACEHOLDER
  2
AcDbPlaceHolder
  3
ObjectDBX Classes
 90
        0
280
     0
281
     0
  0
CLASS
  1
LAYOUT
  2
AcDbLayout
  3
ObjectDBX Classes
 90
        0
280
     0
281
     0
  0
CLASS
  1
TABLESTYLE
  2
AcDbTableStyle
  3
ObjectDBX Classes
 90
     4095
280
     0
281
     0
  0
CLASS
  1
MLEADERSTYLE
  2
AcDbMLeaderStyle
  3
ACDB_MLEADERSTYLE_CLASS
 90
     4095
280
     0
281
     0
  0
CLASS
  1
ACDBSECTIONVIEWSTYLE
  2
AcDbSectionViewStyle
  3
ObjectDBX Classes
 90
     1025
280
     0
281
     0
  0
CLASS
  1
ACDBDETAILVIEWSTYLE
  2
AcDbDetailViewStyle
  3
ObjectDBX Classes
 90
     1025
280
     0
281
     0
  0
CLASS
  1
SORTENTSTABLE
  2
AcDbSortentsTable
  3
ObjectDBX Classes
 90
        0
280
     0
281
     0
  0
CLASS
  1
CELLSTYLEMAP
  2
AcDbCellStyleMap
  3
ObjectDBX Classes
 90
     1152
280
     0
281
     0
  0
ENDSEC
  0
SECTION
  2
TABLES
  0
TABLE
  2
VPORT
  5
8
330
0
100
AcDbSymbolTable
 70
    17
  0
VPORT
  5
29
330
8
100
AcDbSymbolTableRecord
100
AcDbViewportTableRecord
  2
DUMMY
 70
     0
 10
0.0
 20
0.0
 11
1.0
 21
1.0
 12
10.429907
 22
4.5
 13
0.0
 23
0.0
 14
0.5
 24
0.5
 15
0.5
 25
0.5
 16
0.0
 26
0.0
 36
1.0
 17
0.0
 27
0.0
 37
0.0
 40
9.0
 41
1.972972999999999
 42
50.0
 43
0.0
 44
0.0
 50
0.0
 51
0.0
 71
     0
 72
   100
 73
     1
 74
     3
 75
     0
 76
     0
 77
     0
 78
     0
281
     0
 65
     1
110
0.0
120
0.0
130
0.0
111
1.0
121
0.0
131
0.0
112
0.0
122
1.0
132
0.0
 79
     0
146
0.0
  0
VPORT
  5
233
330
8
100
AcDbSymbolTableRecord
100
AcDbViewportTableRecord
  2
*ACTIVE
 70
     0
 10
0.0
 20
0.0
 11
1.0
 21
1.0
 12
234.2878425892485
 22
164.9956506119617
 13
0.0
 23
0.0
 14
0.5
 24
0.5
 15
0.5
 25
0.5
 16
0.0
 26
0.0
 36
1.0
 17
0.0
 27
0.0
 37
0.0
 40
88.04118599141862
 41
2.037154989384288
 42
50.0
 43
210.274108
 44
-210.274108
 50
0.0
 51
0.0
 71
     0
 72
   100
 73
     1
 74
     3
 75
     0
 76
     0
 77
     0
 78
     0
281
     0
 65
     1
110
0.0
120
0.0
130
0.0
111
1.0
121
0.0
131
0.0
112
0.0
122
1.0
132
0.0
 79
     0
146
0.0
1001
ACAD_NAV_VCDISPLAY
1070
     3
  0
VPORT
  5
235
330
8
100
AcDbSymbolTableRecord
100
AcDbViewportTableRecord
  2
L1
 70
     0
 10
0.0
 20
0.0
 11
1.0
 21
1.0
 12
220.12729
 22
162.429233
 13
0.0
 23
0.0
 14
0.5
 24
0.5
 15
0.5
 25
0.5
 16
0.0
 26
0.0
 36
1.0
 17
0.0
 27
0.0
 37
0.0
 40
264.583333
 41
0.067112
 42
50.0
 43
210.274108
 44
-210.274108
 50
0.0
 51
0.0
 71
     0
 72
   100
 73
     1
 74
     3
 75
     0
 76
     0
 77
     0
 78
     0
281
     0
 65
     1
110
0.0
120
0.0
130
0.0
111
1.0
121
0.0
131
0.0
112
0.0
122
1.0
132
0.0
 79
     0
146
0.0
  0
VPORT
  5
236
330
8
100
AcDbSymbolTableRecord
100
AcDbViewportTableRecord
  2
L2
 70
     0
 10
0.0
 20
0.0
 11
0.5
 21
1.0
 12
0.0
 22
0.0
 13
0.0
 23
0.0
 14
0.5
 24
0.5
 15
0.5
 25
0.5
 16
0.0
 26
-1.0
 36
0.0
 17
0.0
 27
0.0
 37
0.0
 40
1602.038428
 41
0.011084
 42
50.0
 43
823.3602069999999
 44
-823.3602069999999
 50
0.0
 51
0.0
 71
     0
 72
   100
 73
     1
 74
     3
 75
     0
 76
     0
 77
     0
 78
     0
281
     0
 65
     1
110
0.0
120
0.0
130
0.0
111
1.0
121
0.0
131
0.0
112
0.0
122
1.0
132
0.0
 79
     0
146
0.0
  0
VPORT
  5
237
330
8
100
AcDbSymbolTableRecord
100
AcDbViewportTableRecord
  2
L2
 70
     0
 10
0.5
 20
0.0
 11
1.0
 21
1.0
 12
0.0
 22
0.0
 13
0.0
 23
0.0
 14
0.5
 24
0.5
 15
0.5
 25
0.5
 16
1.0
 26
0.0
 36
0.0
 17
0.0
 27
0.0
 37
0.0
 40
1602.038428
 41
0.011084
 42
50.0
 43
811.8699809999998
 44
-811.8699809999998
 50
0.0
 51
0.0
 71
     0
 72
   100
 73
     1
 74
     3
 75
     0
 76
     0
 77
     0
 78
     0
281
     0
 65
     1
110
0.0
120
0.0
130
0.0
111
1.0
121
0.0
131
0.0
112
0.0
122
1.0
132
0.0
 79
     0
146
0.0
  0
VPORT
  5
238
330
8
100
AcDbSymbolTableRecord
100
AcDbViewportTableRecord
  2
L3
 70
     0
 10
0.0
 20
0.5
 11
1.0
 21
1.0
 12
220.12729
 22
162.429233
 13
0.0
 23
0.0
 14
0.5
 24
0.5
 15
0.5
 25
0.5
 16
0.0
 26
0.0
 36
1.0
 17
0.0
 27
0.0
 37
0.0
 40
264.583333
 41
0.067112
 42
50.0
 43
210.274108
 44
-210.274108
 50
0.0
 51
0.0
 71
     0
 72
   100
 73
     1
 74
     3
 75
     0
 76
     0
 77
     0
 78
     0
281
     0
 65
     1
110
0.0
120
0.0
130
0.0
111
1.0
121
0.0
131
0.0
112
0.0
122
1.0
132
0.0
 79
     0
146
0.0
  0
VPORT
  5
239
330
8
100
AcDbSymbolTableRecord
100
AcDbViewportTableRecord
  2
L3
 70
     0
 10
0.0
 20
0.0
 11
1.0
 21
0.5
 12
0.0
 22
0.0
 13
0.0
 23
0.0
 14
0.5
 24
0.5
 15
0.5
 25
0.5
 16
0.0
 26
-1.0
 36
0.0
 17
0.0
 27
0.0
 37
0.0
 40
1602.038428
 41
0.011084
 42
50.0
 43
823.3602069999999
 44
-823.3602069999999
 50
0.0
 51
0.0
 71
     0
 72
   100
 73
     1
 74
     3
 75
     0
 76
     0
 77
     0
 78
     0
281
     0
 65
     1
110
0.0
120
0.0
130
0.0
111
1.0
121
0.0
131
0.0
112
0.0
122
1.0
132
0.0
 79
     0
146
0.0
  0
VPORT
  5
23A
330
8
100
AcDbSymbolTableRecord
100
AcDbViewportTableRecord
  2
L4
 70
     0
 10
0.0
 20
0.5
 11
0.5
 21
1.0
 12
220.12729
 22
162.429233
 13
0.0
 23
0.0
 14
0.5
 24
0.5
 15
0.5
 25
0.5
 16
0.0
 26
0.0
 36
1.0
 17
0.0
 27
0.0
 37
0.0
 40
264.583333
 41
0.067112
 42
50.0
 43
210.274108
 44
-210.274108
 50
0.0
 51
0.0
 71
     0
 72
   100
 73
     1
 74
     3
 75
     0
 76
     0
 77
     0
 78
     0
281
     0
 65
     1
110
0.0
120
0.0
130
0.0
111
1.0
121
0.0
131
0.0
112
0.0
122
1.0
132
0.0
 79
     0
146
0.0
  0
VPORT
  5
23B
330
8
100
AcDbSymbolTableRecord
100
AcDbViewportTableRecord
  2
L4
 70
     0
 10
0.0
 20
0.0
 11
0.5
 21
0.5
 12
0.0
 22
0.0
 13
0.0
 23
0.0
 14
0.5
 24
0.5
 15
0.5
 25
0.5
 16
0.0
 26
-1.0
 36
0.0
 17
0.0
 27
0.0
 37
0.0
 40
1602.038428
 41
0.011084
 42
50.0
 43
823.3602069999999
 44
-823.3602069999999
 50
0.0
 51
0.0
 71
     0
 72
   100
 73
     1
 74
     3
 75
     0
 76
     0
 77
     0
 78
     0
281
     0
 65
     1
110
0.0
120
0.0
130
0.0
111
1.0
121
0.0
131
0.0
112
0.0
122
1.0
132
0.0
 79
     0
146
0.0
  0
VPORT
  5
23C
330
8
100
AcDbSymbolTableRecord
100
AcDbViewportTableRecord
  2
L4
 70
     0
 10
0.5
 20
0.0
 11
1.0
 21
0.5
 12
0.0
 22
0.0
 13
0.0
 23
0.0
 14
0.5
 24
0.5
 15
0.5
 25
0.5
 16
1.0
 26
0.0
 36
0.0
 17
0.0
 27
0.0
 37
0.0
 40
1602.038428
 41
0.011084
 42
50.0
 43
811.8699809999998
 44
-811.8699809999998
 50
0.0
 51
0.0
 71
     0
 72
   100
 73
     1
 74
     3
 75
     0
 76
     0
 77
     0
 78
     0
281
     0
 65
     1
110
0.0
120
0.0
130
0.0
111
1.0
121
0.0
131
0.0
112
0.0
122
1.0
132
0.0
 79
     0
146
0.0
  0
VPORT
  5
23D
330
8
100
AcDbSymbolTableRecord
100
AcDbViewportTableRecord
  2
L4
 70
     0
 10
0.5
 20
0.5
 11
1.0
 21
1.0
 12
0.0
 22
0.0
 13
0.0
 23
0.0
 14
0.5
 24
0.5
 15
0.5
 25
0.5
 16
0.5773502691896259
 26
-0.5773502691896259
 36
0.5773502691896259
 17
0.0
 27
0.0
 37
0.0
 40
1571.617191
 41
0.011298
 42
50.0
 43
818.286245
 44
-818.286245
 50
0.0
 51
0.0
 71
     0
 72
   100
 73
     1
 74
     3
 75
     0
 76
     0
 77
     0
 78
     0
281
     0
 65
     1
110
0.0
120
0.0
130
0.0
111
1.0
121
0.0
131
0.0
112
0.0
122
1.0
132
0.0
 79
     0
146
0.0
  0
VPORT
  5
23E
330
8
100
AcDbSymbolTableRecord
100
AcDbViewportTableRecord
  2
L6
 70
     0
 10
0.0
 20
0.5
 11
0.333333
 21
1.0
 12
0.0
 22
0.0
 13
0.0
 23
0.0
 14
0.5
 24
0.5
 15
0.5
 25
0.5
 16
0.7188730927569434
 26
-0.5850486126764433
 36
0.3754192287502549
 17
0.0
 27
0.0
 37
0.0
 40
1658.494684
 41
0.010707
 42
50.0
 43
858.6703250000001
 44
-858.6703250000001
 50
0.0
 51
0.0
 71
     0
 72
   100
 73
     1
 74
     3
 75
     0
 76
     0
 77
     0
 78
     0
281
     0
 65
     1
110
0.0
120
0.0
130
0.0
111
1.0
121
0.0
131
0.0
112
0.0
122
1.0
132
0.0
 79
     0
146
0.0
  0
VPORT
  5
23F
330
8
100
AcDbSymbolTableRecord
100
AcDbViewportTableRecord
  2
L6
 70
     0
 10
0.0
 20
0.0
 11
0.333333
 21
0.5
 12
0.0
 22
0.0
 13
0.0
 23
0.0
 14
0.5
 24
0.5
 15
0.5
 25
0.5
 16
-1.0
 26
0.0
 36
0.0
 17
0.0
 27
0.0
 37
0.0
 40
1602.038428
 41
0.011084
 42
50.0
 43
811.8699809999998
 44
-811.8699809999998
 50
0.0
 51
0.0
 71
     0
 72
   100
 73
     1
 74
     3
 75
     0
 76
     0
 77
     0
 78
     0
281
     0
 65
     1
110
0.0
120
0.0
130
0.0
111
1.0
121
0.0
131
0.0
112
0.0
122
1.0
132
0.0
 79
     0
146
0.0
  0
VPORT
  5
240
330
8
100
AcDbSymbolTableRecord
100
AcDbViewportTableRecord
  2
L6
 70
     0
 10
0.333333
 20
0.5
 11
0.666667
 21
1.0
 12
220.12729
 22
162.429233
 13
0.0
 23
0.0
 14
0.5
 24
0.5
 15
0.5
 25
0.5
 16
0.0
 26
0.0
 36
1.0
 17
0.0
 27
0.0
 37
0.0
 40
264.583333
 41
0.067112
 42
50.0
 43
210.274108
 44
-210.274108
 50
0.0
 51
0.0
 71
     0
 72
   100
 73
     1
 74
     3
 75
     0
 76
     0
 77
     0
 78
     0
281
     0
 65
     1
110
0.0
120
0.0
130
0.0
111
1.0
121
0.0
131
0.0
112
0.0
122
1.0
132
0.0
 79
     0
146
0.0
  0
VPORT
  5
241
330
8
100
AcDbSymbolTableRecord
100
AcDbViewportTableRecord
  2
L6
 70
     0
 10
0.333333
 20
0.0
 11
0.666667
 21
0.5
 12
0.0
 22
0.0
 13
0.0
 23
0.0
 14
0.5
 24
0.5
 15
0.5
 25
0.5
 16
0.0
 26
-1.0
 36
0.0
 17
0.0
 27
0.0
 37
0.0
 40
1602.038428
 41
0.011084
 42
50.0
 43
823.3602069999999
 44
-823.3602069999999
 50
0.0
 51
0.0
 71
     0
 72
   100
 73
     1
 74
     3
 75
     0
 76
     0
 77
     0
 78
     0
281
     0
 65
     1
110
0.0
120
0.0
130
0.0
111
1.0
121
0.0
131
0.0
112
0.0
122
1.0
132
0.0
 79
     0
146
0.0
  0
VPORT
  5
242
330
8
100
AcDbSymbolTableRecord
100
AcDbViewportTableRecord
  2
L6
 70
     0
 10
0.666667
 20
0.5
 11
1.0
 21
1.0
 12
0.0
 22
0.0
 13
0.0
 23
0.0
 14
0.5
 24
0.5
 15
0.5
 25
0.5
 16
0.5773502691896259
 26
-0.5773502691896259
 36
0.5773502691896259
 17
0.0
 27
0.0
 37
0.0
 40
1571.617191
 41
0.011298
 42
50.0
 43
818.286245
 44
-818.286245
 50
0.0
 51
0.0
 71
     0
 72
   100
 73
     1
 74
     3
 75
     0
 76
     0
 77
     0
 78
     0
281
     0
 65
     1
110
0.0
120
0.0
130
0.0
111
1.0
121
0.0
131
0.0
112
0.0
122
1.0
132
0.0
 79
     0
146
0.0
  0
VPORT
  5
243
330
8
100
AcDbSymbolTableRecord
100
AcDbViewportTableRecord
  2
L6
 70
     0
 10
0.666667
 20
0.0
 11
1.0
 21
0.5
 12
0.0
 22
0.0
 13
0.0
 23
0.0
 14
0.5
 24
0.5
 15
0.5
 25
0.5
 16
1.0
 26
0.0
 36
0.0
 17
0.0
 27
0.0
 37
0.0
 40
1602.038428
 41
0.011084
 42
50.0
 43
811.8699809999998
 44
-811.8699809999998
 50
0.0
 51
0.0
 71
     0
 72
   100
 73
     1
 74
     3
 75
     0
 76
     0
 77
     0
 78
     0
281
     0
 65
     1
110
0.0
120
0.0
130
0.0
111
1.0
121
0.0
131
0.0
112
0.0
122
1.0
132
0.0
 79
     0
146
0.0
  0
ENDTAB
  0
TABLE
  2
LTYPE
  5
5
330
0
100
AcDbSymbolTable
 70
     6
  0
LTYPE
  5
14
330
5
100
AcDbSymbolTableRecord
100
AcDbLinetypeTableRecord
  2
BYBLOCK
 70
     0
  3

 72
    65
 73
     0
 40
0.0
  0
LTYPE
  5
15
330
5
100
AcDbSymbolTableRecord
100
AcDbLinetypeTableRecord
  2
BYLAYER
 70
     0
  3

 72
    65
 73
     0
 40
0.0
  0
LTYPE
  5
16
330
5
100
AcDbSymbolTableRecord
100
AcDbLinetypeTableRecord
  2
CONTINUOUS
 70
     0
  3
Solid line
 72
    65
 73
     0
 40
0.0
  0
LTYPE
  5
6A
330
5
100
AcDbSymbolTableRecord
100
AcDbLinetypeTableRecord
  2
CENTER2
 70
     0
  3
Center (.5x) ___ _ ___ _ ___ _ ___ _ ___ _ ___
 72
    65
 73
     4
 40
28.575
 49
19.05
 74
     4
 75
     0
340
0
 46
0.0
 50
0.0
 44
0.0
 45
0.0
 49
-3.174999999999999
 74
     4
 75
     0
340
0
 46
0.0
 50
0.0
 44
0.0
 45
0.0
 49
3.174999999999999
 74
     4
 75
     0
340
0
 46
0.0
 50
0.0
 44
0.0
 45
0.0
 49
-3.174999999999999
 74
     4
 75
     0
340
0
 46
0.0
 50
0.0
 44
0.0
 45
0.0
  0
LTYPE
  5
6B
330
5
100
AcDbSymbolTableRecord
100
AcDbLinetypeTableRecord
  2
DASHDOT
 70
     0
  3
_._._._._._._._._._._._._._._._.
 72
    65
 73
     4
 40
70.0
 49
31.0
 74
     4
 75
     0
340
0
 46
0.0
 50
0.0
 44
0.0
 45
0.0
 49
-13.0
 74
     4
 75
     0
340
0
 46
0.0
 50
0.0
 44
0.0
 45
0.0
 49
13.0
 74
     4
 75
     0
340
0
 46
0.0
 50
0.0
 44
0.0
 45
0.0
 49
-13.0
 74
     4
 75
     0
340
0
 46
0.0
 50
0.0
 44
0.0
 45
0.0
  0
LTYPE
  5
6C
330
5
100
AcDbSymbolTableRecord
100
AcDbLinetypeTableRecord
  2
DASHED
 70
     0
  3
__ __ __ __ __ __ __ __ __
 72
    65
 73
     2
 40
25.72
 49
12.86
 74
     4
 75
     0
340
0
 46
0.0
 50
0.0
 44
0.0
 45
0.0
 49
-12.86
 74
     4
 75
     0
340
0
 46
0.0
 50
0.0
 44
0.0
 45
0.0
  0
LTYPE
  5
6D
330
5
100
AcDbSymbolTableRecord
100
AcDbLinetypeTableRecord
  2
DOT
 70
     0
  3
.........................
 72
    65
 73
     2
 40
10.0
 49
0.0
 74
     4
 75
     0
340
0
 46
0.0
 50
0.0
 44
0.0
 45
0.0
 49
-10.0
 74
     4
 75
     0
340
0
 46
0.0
 50
0.0
 44
0.0
 45
0.0
  0
LTYPE
  5
6E
330
5
100
AcDbSymbolTableRecord
100
AcDbLinetypeTableRecord
  2
PHANTOM
 70
     0
  3
____ _ _ ____ _ _ _____ _ _ ____
 72
    65
 73
     6
 40
50.5
 49
18.0
 74
     4
 75
     0
340
0
 46
0.0
 50
0.0
 44
0.0
 45
0.0
 49
-6.5
 74
     4
 75
     0
340
0
 46
0.0
 50
0.0
 44
0.0
 45
0.0
 49
6.5
 74
     4
 75
     0
340
0
 46
0.0
 50
0.0
 44
0.0
 45
0.0
 49
-6.5
 74
     4
 75
     0
340
0
 46
0.0
 50
0.0
 44
0.0
 45
0.0
 49
6.5
 74
     4
 75
     0
340
0
 46
0.0
 50
0.0
 44
0.0
 45
0.0
 49
-6.5
 74
     4
 75
     0
340
0
 46
0.0
 50
0.0
 44
0.0
 45
0.0
  0
ENDTAB
  0
TABLE
  2
LAYER
  5
2
330
0
100
AcDbSymbolTable
 70
    19
  0
LAYER
  5
10
102
{ACAD_XDICTIONARY
360
355
102
}
330
2
100
AcDbSymbolTableRecord
100
AcDbLayerTableRecord
  2
0
 70
     0
 62
     7
  6
CONTINUOUS
370
    -3
390
F
  0
LAYER
  5
349
102
{ACAD_XDICTIONARY
360
357
102
}
330
2
100
AcDbSymbolTableRecord
100
AcDbLayerTableRecord
  2
1
 70
     0
 62
     4
  6
CONTINUOUS
370
    -3
390
F
  0
LAYER
  5
34A
102
{ACAD_XDICTIONARY
360
359
102
}
330
2
100
AcDbSymbolTableRecord
100
AcDbLayerTableRecord
  2
2
 70
     0
 62
     7
  6
CONTINUOUS
370
    -3
390
F
  0
LAYER
  5
34B
102
{ACAD_XDICTIONARY
360
35B
102
}
330
2
100
AcDbSymbolTableRecord
100
AcDbLayerTableRecord
  2
4
 70
     0
 62
     2
  6
CENTER2
370
    -3
390
F
  0
LAYER
  5
34C
102
{ACAD_XDICTIONARY
360
35D
102
}
330
2
100
AcDbSymbolTableRecord
100
AcDbLayerTableRecord
  2
SK1
 70
     0
 62
     4
  6
CONTINUOUS
370
    -3
390
F
  0
LAYER
  5
34D
102
{ACAD_XDICTIONARY
360
35F
102
}
330
2
100
AcDbSymbolTableRecord
100
AcDbLayerTableRecord
  2
SK2
 70
     0
 62
     7
  6
CONTINUOUS
370
    -3
390
F
  0
LAYER
  5
34F
102
{ACAD_XDICTIONARY
360
361
102
}
330
2
100
AcDbSymbolTableRecord
100
AcDbLayerTableRecord
  2
SK4
 70
     0
 62
     2
  6
CENTER2
370
    -3
390
F
  0
LAYER
  5
350
102
{ACAD_XDICTIONARY
360
363
102
}
330
2
100
AcDbSymbolTableRecord
100
AcDbLayerTableRecord
  2
SK6
 70
     0
 62
     5
  6
CONTINUOUS
370
    -3
390
F
  0
LAYER
  5
351
102
{ACAD_XDICTIONARY
360
365
102
}
330
2
100
AcDbSymbolTableRecord
100
AcDbLayerTableRecord
  2
CUT
 70
     0
 62
     1
  6
CONTINUOUS
370
    -3
390
F
  0
LAYER
  5
352
102
{ACAD_XDICTIONARY
360
367
102
}
330
2
100
AcDbSymbolTableRecord
100
AcDbLayerTableRecord
  2
NOCUT
 70
     0
 62
     7
  6
CONTINUOUS
370
    -3
390
F
  0
LAYER
  5
353
102
{ACAD_XDICTIONARY
360
369
102
}
330
2
100
AcDbSymbolTableRecord
100
AcDbLayerTableRecord
  2
80
 70
     0
 62
     6
  6
CONTINUOUS
370
    -3
390
F
  0
LAYER
  5
354
102
{ACAD_XDICTIONARY
360
36B
102
}
330
2
100
AcDbSymbolTableRecord
100
AcDbLayerTableRecord
  2
81
 70
     0
 62
     3
  6
CONTINUOUS
370
    -3
390
F
  0
ENDTAB
  0
TABLE
  2
STYLE
  5
3
330
0
100
AcDbSymbolTable
 70
     2
  0
STYLE
  5
11
330
3
100
AcDbSymbolTableRecord
100
AcDbTextStyleTableRecord
  2
Standard
 70
     0
 40
0.0
 41
1.0
 50
0.0
 71
     0
 42
0.2
  3
txt
  4

  0
STYLE
  5
1FE
330
3
100
AcDbSymbolTableRecord
100
AcDbTextStyleTableRecord
  2
cesky
 70
     0
 40
0.0
 41
1.0
 50
0.0
 71
     0
 42
0.2
  3
Monospac821 BT
  4

1001
ACAD
1000
Monospac821 BT
1071
        0
  0
ENDTAB
  0
TABLE
  2
VIEW
  5
6
330
0
100
AcDbSymbolTable
 70
     0
  0
ENDTAB
  0
TABLE
  2
UCS
  5
7
330
0
100
AcDbSymbolTable
 70
     0
  0
ENDTAB
  0
TABLE
  2
APPID
  5
9
330
0
100
AcDbSymbolTable
 70
     3
  0
APPID
  5
12
330
9
100
AcDbSymbolTableRecord
100
AcDbRegAppTableRecord
  2
ACAD
 70
     0
  0
APPID
  5
36D
330
9
100
AcDbSymbolTableRecord
100
AcDbRegAppTableRecord
  2
ACAD_NAV_VCDISPLAY
 70
     0
  0
APPID
  5
3BC
330
9
100
AcDbSymbolTableRecord
100
AcDbRegAppTableRecord
  2
ACAD_MLEADERVER
 70
     0
  0
ENDTAB
  0
TABLE
  2
DIMSTYLE
  5
A
330
0
100
AcDbSymbolTable
 70
     1
100
AcDbDimStyleTable
 71
     0
  0
DIMSTYLE
105
27
330
A
100
AcDbSymbolTableRecord
100
AcDbDimStyleTableRecord
  2
Standard
 70
     0
340
11
  0
ENDTAB
  0
TABLE
  2
BLOCK_RECORD
  5
1
330
0
100
AcDbSymbolTable
 70
     3
  0
BLOCK_RECORD
  5
1F
102
{ACAD_XDICTIONARY
360
2B2
102
}
330
1
100
AcDbSymbolTableRecord
100
AcDbBlockTableRecord
  2
*Model_Space
340
22
  0
BLOCK_RECORD
  5
1B
330
1
100
AcDbSymbolTableRecord
100
AcDbBlockTableRecord
  2
*Paper_Space
340
1E
  0
BLOCK_RECORD
  5
23
330
1
100
AcDbSymbolTableRecord
100
AcDbBlockTableRecord
  2
*Paper_Space0
340
26
  0
BLOCK_RECORD
  5
218
330
1
100
AcDbSymbolTableRecord
100
AcDbBlockTableRecord
  2
DimnDraft3D1
340
0
  0
BLOCK_RECORD
  5
223
330
1
100
AcDbSymbolTableRecord
100
AcDbBlockTableRecord
  2
DimnDraft3D2
340
0
  0
ENDTAB
  0
ENDSEC
  0
SECTION
  2
BLOCKS
  0
BLOCK
  5
20
330
1F
100
AcDbEntity
  8
0
100
AcDbBlockBegin
  2
*Model_Space
 70
     0
 10
0.0
 20
0.0
 30
0.0
  3
*Model_Space
  1
*Model_Space
  0
ENDBLK
  5
21
330
1F
100
AcDbEntity
  8
0
100
AcDbBlockEnd
  0
BLOCK
  5
1C
330
1B
100
AcDbEntity
 67
     1
  8
0
100
AcDbBlockBegin
  2
*Paper_Space
 70
     0
 10
0.0
 20
0.0
 30
0.0
  3
*Paper_Space
  1
*Paper_Space
  0
ENDBLK
  5
1D
330
1B
100
AcDbEntity
 67
     1
  8
0
100
AcDbBlockEnd
  0
BLOCK
  5
24
330
23
100
AcDbEntity
 67
     1
  8
0
100
AcDbBlockBegin
  2
*Paper_Space0
 70
     0
 10
0.0
 20
0.0
 30
0.0
  3
*Paper_Space0
  1
*Paper_Space0
  0
ENDBLK
  5
25
330
23
100
AcDbEntity
 67
     1
  8
0
100
AcDbBlockEnd
  0
BLOCK
  5
220
330
218
100
AcDbEntity
  8
0
100
AcDbBlockBegin
  2
DimnDraft3D1
 70
     0
 10
0.0
 20
0.0
 30
0.0
  3
DimnDraft3D1
  1
DimnDraft3D1
  0
ENDBLK
  5
221
330
218
100
AcDbEntity
  8
0
100
AcDbBlockEnd
  0
BLOCK
  5
22B
330
223
100
AcDbEntity
  8
0
100
AcDbBlockBegin
  2
DimnDraft3D2
 70
     0
 10
0.0
 20
0.0
 30
0.0
  3
DimnDraft3D2
  1
DimnDraft3D2
  0
ENDBLK
  5
22C
330
223
100
AcDbEntity
  8
0
100
AcDbBlockEnd
  0
ENDSEC
  0
SECTION
  2
ENTITIES
  0
POINT
  5
6F
330
1F
100
AcDbEntity
  8
SK6
 60
     1
100
AcDbPoint
 10
242.505716
 20
185.689434
 30
0.0
  0
POINT
  5
71
330
1F
100
AcDbEntity
  8
SK4
 60
     1
100
AcDbPoint
 10
188.5057139999999
 20
173.2145379999999
 30
0.0
  0
POINT
  5
72
330
1F
100
AcDbEntity
  8
SK4
 60
     1
100
AcDbPoint
 10
210.505714
 20
173.2145379999999
 30
0.0
  0
POINT
  5
73
330
1F
100
AcDbEntity
  8
4
 60
     1
100
AcDbPoint
 10
210.505714
 20
173.2145379999999
 30
0.0
  0
POINT
  5
74
330
1F
100
AcDbEntity
  8
4
 60
     1
100
AcDbPoint
 10
241.159429
 20
173.2145379999999
 30
0.0
  0
LINE
  5
85
330
1F
100
AcDbEntity
  8
1
100
AcDbLine
 10
210.505714
 20
163.214538
 30
0.0
 11
211.005714
 21
162.7145379999999
 31
0.0
  0
LINE
  5
87
330
1F
100
AcDbEntity
  8
SK1
100
AcDbLine
 10
205.755714
 20
179.4645379999999
 30
0.0
 11
205.505714
 21
179.214538
 31
0.0
  0
LINE
  5
88
330
1F
100
AcDbEntity
  8
SK1
100
AcDbLine
 10
205.505714
 20
167.214538
 30
0.0
 11
205.755714
 21
166.9645379999999
 31
0.0
  0
LINE
  5
89
330
1F
100
AcDbEntity
  8
SK1
100
AcDbLine
 10
209.005714
 20
179.4645379999999
 30
0.0
 11
205.755714
 21
179.4645379999999
 31
0.0
  0
LINE
  5
8A
330
1F
100
AcDbEntity
  8
1
100
AcDbLine
 10
211.005714
 20
183.7145379999999
 30
0.0
 11
210.505714
 21
183.214538
 31
0.0
  0
LINE
  5
8B
330
1F
100
AcDbEntity
  8
1
100
AcDbLine
 10
241.039813
 20
178.295251
 30
0.0
 11
237.51315
 21
178.296699
 31
0.0
  0
LINE
  5
8C
330
1F
100
AcDbEntity
  8
SK1
100
AcDbLine
 10
189.505714
 20
167.214538
 30
0.0
 11
189.505714
 21
179.214538
 31
0.0
  0
LINE
  5
8D
330
1F
100
AcDbEntity
  8
SK1
100
AcDbLine
 10
209.005714
 20
166.9645379999999
 30
0.0
 11
209.005714
 21
179.4645379999999
 31
0.0
  0
LINE
  5
8E
330
1F
100
AcDbEntity
  8
SK1
100
AcDbLine
 10
205.505714
 20
167.214538
 30
0.0
 11
205.505714
 21
179.214538
 31
0.0
  0
LINE
  5
8F
330
1F
100
AcDbEntity
  8
1
100
AcDbLine
 10
211.005714
 20
183.7145379999999
 30
0.0
 11
211.005714
 21
162.7145379999999
 31
0.0
  0
LINE
  5
90
330
1F
100
AcDbEntity
  8
1
100
AcDbLine
 10
213.505714
 20
178.705212
 30
0.0
 11
213.505714
 21
167.723865
 31
0.0
  0
LINE
  5
91
330
1F
100
AcDbEntity
  8
1
100
AcDbLine
 10
210.505714
 20
183.214538
 30
0.0
 11
210.505714
 21
163.214538
 31
0.0
  0
LINE
  5
92
330
1F
100
AcDbEntity
  8
SK1
100
AcDbLine
 10
205.755714
 20
166.9645379999999
 30
0.0
 11
205.755714
 21
179.4645379999999
 31
0.0
  0
LINE
  5
93
330
1F
100
AcDbEntity
  8
SK1
100
AcDbLine
 10
189.505714
 20
179.214538
 30
0.0
 11
188.5057139999999
 21
178.214538
 31
0.0
  0
LINE
  5
94
330
1F
100
AcDbEntity
  8
1
100
AcDbLine
 10
214.005714
 20
166.981762
 30
0.0
 11
223.005714
 21
166.981762
 31
0.0
  0
LINE
  5
95
330
1F
100
AcDbEntity
  8
1
100
AcDbLine
 10
223.505714
 20
167.723865
 30
0.0
 11
223.505714
 21
178.705212
 31
0.0
  0
LINE
  5
96
330
1F
100
AcDbEntity
  8
1
100
AcDbLine
 10
223.005714
 20
179.447315
 30
0.0
 11
214.005714
 21
179.447315
 31
0.0
  0
LINE
  5
97
330
1F
100
AcDbEntity
  8
SK1
100
AcDbLine
 10
188.5057139999999
 20
168.2145379999999
 30
0.0
 11
188.5057139999999
 21
178.214538
 31
0.0
  0
LINE
  5
98
330
1F
100
AcDbEntity
  8
1
100
AcDbLine
 10
232.805914
 20
183.416723
 30
0.0
 11
232.805914
 21
182.2157629999999
 31
0.0
  0
LINE
  5
99
330
1F
100
AcDbEntity
  8
1
100
AcDbLine
 10
232.805914
 20
179.147944
 30
0.0
 11
232.805914
 21
179.002695
 31
0.0
  0
LINE
  5
9A
330
1F
100
AcDbEntity
  8
SK1
100
AcDbLine
 10
205.755714
 20
166.9645379999999
 30
0.0
 11
209.005714
 21
166.9645379999999
 31
0.0
  0
LINE
  5
9B
330
1F
100
AcDbEntity
  8
1
100
AcDbLine
 10
236.565571
 20
182.8885169999999
 30
0.0
 11
236.503368
 21
182.861967
 31
0.0
  0
LINE
  5
9D
330
1F
100
AcDbEntity
  8
SK1
100
AcDbLine
 10
210.305714
 20
179.264538
 30
0.0
 11
209.352125
 21
179.264538
 31
0.0
  0
LINE
  5
9E
330
1F
100
AcDbEntity
  8
SK1
100
AcDbLine
 10
209.352125
 20
167.164538
 30
0.0
 11
210.305714
 21
167.164538
 31
0.0
  0
LINE
  5
9F
330
1F
100
AcDbEntity
  8
1
100
AcDbLine
 10
238.387673
 20
178.447287
 30
0.0
 11
238.449876
 21
178.473837
 31
0.0
  0
LINE
  5
A0
330
1F
100
AcDbEntity
  8
SK1
100
AcDbLine
 10
188.5057139999999
 20
168.2145379999999
 30
0.0
 11
189.505714
 21
167.214538
 31
0.0
  0
LINE
  5
A1
330
1F
100
AcDbEntity
  8
1
100
AcDbLine
 10
241.209429
 20
165.435218
 30
0.0
 11
241.209429
 21
167.10175
 31
0.0
  0
LINE
  5
A3
330
1F
100
AcDbEntity
  8
1
100
AcDbLine
 10
241.067796
 20
167.303939
 30
0.0
 11
240.702305
 21
167.542076
 31
0.0
  0
LINE
  5
A4
330
1F
100
AcDbEntity
  8
1
100
AcDbLine
 10
232.805914
 20
169.793433
 30
0.0
 11
232.805914
 21
170.40318
 31
0.0
  0
LINE
  5
A5
330
1F
100
AcDbEntity
  8
1
100
AcDbLine
 10
234.374371
 20
176.035317
 30
0.0
 11
234.374371
 21
176.358592
 31
0.0
  0
LINE
  5
A6
330
1F
100
AcDbEntity
  8
1
100
AcDbLine
 10
241.039813
 20
165.082225
 30
0.0
 11
237.51315
 21
164.742264
 31
0.0
  0
LINE
  5
A7
330
1F
100
AcDbEntity
  8
1
100
AcDbLine
 10
232.511122
 20
178.943959
 30
0.0
 11
232.511122
 21
183.606929
 31
0.0
  0
LINE
  5
A8
330
1F
100
AcDbEntity
  8
1
100
AcDbLine
 10
232.511122
 20
167.936624
 30
0.0
 11
232.610226
 21
168.026841
 31
0.0
  0
LINE
  5
A9
330
1F
100
AcDbEntity
  8
1
100
AcDbLine
 10
232.610226
 20
183.60163
 30
0.0
 11
232.610226
 21
181.277542
 31
0.0
  0
LINE
  5
AA
330
1F
100
AcDbEntity
  8
1
100
AcDbLine
 10
232.610226
 20
180.137938
 30
0.0
 11
232.610226
 21
178.923632
 31
0.0
  0
LINE
  5
AB
330
1F
100
AcDbEntity
  8
1
100
AcDbLine
 10
241.209429
 20
172.217226
 30
0.0
 11
241.209429
 21
173.606384
 31
0.0
  0
LINE
  5
AC
330
1F
100
AcDbEntity
  8
1
100
AcDbLine
 10
238.920216
 20
170.8284459999999
 30
0.0
 11
241.067796
 21
172.045357
 31
0.0
  0
LINE
  5
AD
330
1F
100
AcDbEntity
  8
1
100
AcDbLine
 10
235.541147
 20
170.394495
 30
0.0
 11
238.578285
 21
170.726308
 31
0.0
  0
LINE
  5
AE
330
1F
100
AcDbEntity
  8
1
100
AcDbLine
 10
233.305426
 20
171.081221
 30
0.0
 11
233.619231
 21
170.971974
 31
0.0
  0
LINE
  5
AF
330
1F
100
AcDbEntity
  8
1
100
AcDbLine
 10
233.692939
 20
170.946313
 30
0.0
 11
233.776202
 21
170.917326
 31
0.0
  0
LINE
  5
B0
330
1F
100
AcDbEntity
  8
1
100
AcDbLine
 10
233.848471
 20
170.892166
 30
0.0
 11
235.199216
 21
170.42192
 31
0.0
  0
LINE
  5
B1
330
1F
100
AcDbEntity
  8
1
100
AcDbLine
 10
232.511122
 20
183.606929
 30
0.0
 11
232.610226
 21
183.601637
 31
0.0
  0
LINE
  5
B2
330
1F
100
AcDbEntity
  8
SK1
100
AcDbLine
 10
205.505714
 20
179.214538
 30
0.0
 11
189.505714
 21
179.214538
 31
0.0
  0
LINE
  5
B3
330
1F
100
AcDbEntity
  8
1
100
AcDbLine
 10
211.005714
 20
162.7145379999999
 30
0.0
 11
232.424863
 21
162.7145379999999
 31
0.0
  0
LINE
  5
B4
330
1F
100
AcDbEntity
  8
SK1
100
AcDbLine
 10
188.951433
 20
167.769038
 30
0.0
 11
205.505714
 21
167.769038
 31
0.0
  0
LINE
  5
B5
330
1F
100
AcDbEntity
  8
1
100
AcDbLine
 10
241.195765
 20
165.373856
 30
0.0
 11
241.261273
 21
165.515156
 31
0.0
  0
LINE
  5
B6
330
1F
100
AcDbEntity
  8
1
100
AcDbLine
 10
241.159429
 20
164.977674
 30
0.0
 11
241.159429
 21
165.046333
 31
0.0
  0
LINE
  5
B7
330
1F
100
AcDbEntity
  8
1
100
AcDbLine
 10
232.580078
 20
180.71206
 30
0.0
 11
232.580225
 21
180.665706
 31
0.0
  0
LINE
  5
B8
330
1F
100
AcDbEntity
  8
1
100
AcDbLine
 10
241.159429
 20
165.046333
 30
0.0
 11
241.159429
 21
166.188796
 31
0.0
  0
LINE
  5
B9
330
1F
100
AcDbEntity
  8
1
100
AcDbLine
 10
236.670614
 20
179.822624
 30
0.0
 11
236.573281
 21
179.78108
 31
0.0
  0
LINE
  5
BA
330
1F
100
AcDbEntity
  8
SK1
100
AcDbLine
 10
188.951433
 20
178.660038
 30
0.0
 11
205.505714
 21
178.660038
 31
0.0
  0
LINE
  5
BB
330
1F
100
AcDbEntity
  8
1
100
AcDbLine
 10
232.580078
 20
180.71206
 30
0.0
 11
232.580225
 21
180.665706
 31
0.0
  0
LINE
  5
BD
330
1F
100
AcDbEntity
  8
1
100
AcDbLine
 10
242.467641
 20
169.76612
 30
0.0
 11
242.176404
 21
170.803495
 31
0.0
  0
LINE
  5
BE
330
1F
100
AcDbEntity
  8
1
100
AcDbLine
 10
237.926377
 20
177.24186
 30
0.0
 11
237.548021
 21
177.458405
 31
0.0
  0
LINE
  5
BF
330
1F
100
AcDbEntity
  8
1
100
AcDbLine
 10
238.114669
 20
179.783683
 30
0.0
 11
237.953771
 21
179.715007
 31
0.0
  0
LINE
  5
C0
330
1F
100
AcDbEntity
  8
1
100
AcDbLine
 10
235.238995
 20
177.140647
 30
0.0
 11
234.933195
 21
176.829951
 31
0.0
  0
LINE
  5
C1
330
1F
100
AcDbEntity
  8
1
100
AcDbLine
 10
232.349724
 20
183.7145379999999
 30
0.0
 11
211.005714
 21
183.7145379999999
 31
0.0
  0
LINE
  5
C2
330
1F
100
AcDbEntity
  8
1
100
AcDbLine
 10
242.108154
 20
167.944658
 30
0.0
 11
242.444014
 21
169.067904
 31
0.0
  0
LINE
  5
C3
330
1F
100
AcDbEntity
  8
1
100
AcDbLine
 10
237.391048
 20
161.811162
 30
0.0
 11
237.722893
 21
161.962312
 31
0.0
  0
LINE
  5
C4
330
1F
100
AcDbEntity
  8
1
100
AcDbLine
 10
236.293113
 20
180.359957
 30
0.0
 11
236.331352
 21
180.376278
 31
0.0
  0
LINE
  5
C5
330
1F
100
AcDbEntity
  8
1
100
AcDbLine
 10
241.159429
 20
173.009836
 30
0.0
 11
241.159429
 21
178.192712
 31
0.0
  0
LINE
  5
C6
330
1F
100
AcDbEntity
  8
1
100
AcDbLine
 10
238.236893
 20
181.493659
 30
0.0
 11
238.390814
 21
181.559356
 31
0.0
  0
LINE
  5
C7
330
1F
100
AcDbEntity
  8
SK1
100
AcDbLine
 10
189.505714
 20
167.214538
 30
0.0
 11
205.505714
 21
167.214538
 31
0.0
  0
LINE
  5
C8
330
1F
100
AcDbEntity
  8
1
100
AcDbLine
 10
241.266986
 20
173.493233
 30
0.0
 11
241.201099
 21
173.646457
 31
0.0
  0
LINE
  5
C9
330
1F
100
AcDbEntity
  8
1
100
AcDbLine
 10
238.730076
 20
181.005702
 30
0.0
 11
238.576998
 21
180.940365
 31
0.0
  0
LINE
  5
CA
330
1F
100
AcDbEntity
  8
1
100
AcDbLine
 10
235.069328
 20
162.350272
 30
0.0
 11
235.344012
 21
162.110446
 31
0.0
  0
LINE
  5
CB
330
1F
100
AcDbEntity
  8
1
100
AcDbLine
 10
236.78586
 20
181.5296209999999
 30
0.0
 11
236.946758
 21
181.598297
 31
0.0
  0
LINE
  5
CC
330
1F
100
AcDbEntity
  8
NOCUT
100
AcDbLine
 10
224.505714
 20
171.2145379999999
 30
0.0
 11
225.660415
 21
173.2145379999999
 31
0.0
  0
LINE
  5
CE
330
1F
100
AcDbEntity
  8
NOCUT
100
AcDbLine
 10
188.5057139999999
 20
170.637188
 30
0.0
 11
189.505714
 21
171.2145379999999
 31
0.0
  0
LINE
  5
CF
330
1F
100
AcDbEntity
  8
NOCUT
100
AcDbLine
 10
224.505714
 20
175.2145379999999
 30
0.0
 11
189.505714
 21
175.2145379999999
 31
0.0
  0
LINE
  5
D0
330
1F
100
AcDbEntity
  8
NOCUT
100
AcDbLine
 10
205.505714
 20
167.214538
 30
0.0
 11
205.755714
 21
166.9645379999999
 31
0.0
  0
LINE
  5
D1
330
1F
100
AcDbEntity
  8
NOCUT
100
AcDbLine
 10
210.692085
 20
166.661011
 30
0.0
 11
210.505714
 21
165.965467
 31
0.0
  0
LINE
  5
D2
330
1F
100
AcDbEntity
  8
NOCUT
100
AcDbLine
 10
188.5057139999999
 20
175.791888
 30
0.0
 11
188.5057139999999
 21
178.214538
 31
0.0
  0
LINE
  5
D3
330
1F
100
AcDbEntity
  8
NOCUT
100
AcDbLine
 10
234.315112
 20
162.446589
 30
0.0
 11
235.507733
 21
161.758029
 31
0.0
  0
LINE
  5
D4
330
1F
100
AcDbEntity
  8
NOCUT
100
AcDbLine
 10
189.505714
 20
175.2145379999999
 30
0.0
 11
188.5057139999999
 21
175.791888
 31
0.0
  0
LINE
  5
D5
330
1F
100
AcDbEntity
  8
NOCUT
100
AcDbLine
 10
236.507733
 20
161.49008
 30
0.0
 11
237.671835
 21
161.49008
 31
0.0
  0
LINE
  5
D6
330
1F
100
AcDbEntity
  8
NOCUT
100
AcDbLine
 10
209.005714
 20
166.9645379999999
 30
0.0
 11
205.755714
 21
166.9645379999999
 31
0.0
  0
LINE
  5
D7
330
1F
100
AcDbEntity
  8
NOCUT
100
AcDbLine
 10
205.505714
 20
167.214538
 30
0.0
 11
189.505714
 21
167.214538
 31
0.0
  0
LINE
  5
D8
330
1F
100
AcDbEntity
  8
NOCUT
100
AcDbLine
 10
188.5057139999999
 20
168.2145379999999
 30
0.0
 11
189.505714
 21
167.214538
 31
0.0
  0
LINE
  5
D9
330
1F
100
AcDbEntity
  8
NOCUT
100
AcDbLine
 10
188.5057139999999
 20
168.2145379999999
 30
0.0
 11
188.5057139999999
 21
170.637188
 31
0.0
  0
LINE
  5
DA
330
1F
100
AcDbEntity
  8
NOCUT
100
AcDbLine
 10
189.505714
 20
171.2145379999999
 30
0.0
 11
224.505714
 21
171.2145379999999
 31
0.0
  0
LINE
  5
DB
330
1F
100
AcDbEntity
  8
NOCUT
100
AcDbLine
 10
210.505714
 20
165.965467
 30
0.0
 11
210.505714
 21
163.214538
 31
0.0
  0
LINE
  5
DC
330
1F
100
AcDbEntity
  8
NOCUT
100
AcDbLine
 10
209.352125
 20
167.164538
 30
0.0
 11
210.305714
 21
167.164538
 31
0.0
  0
LINE
  5
DD
330
1F
100
AcDbEntity
  8
NOCUT
100
AcDbLine
 10
210.505714
 20
163.214538
 30
0.0
 11
211.005714
 21
162.7145379999999
 31
0.0
  0
LINE
  5
DE
330
1F
100
AcDbEntity
  8
NOCUT
100
AcDbLine
 10
225.660415
 20
173.2145379999999
 30
0.0
 11
224.505714
 21
175.2145379999999
 31
0.0
  0
LINE
  5
DF
330
1F
100
AcDbEntity
  8
NOCUT
100
AcDbLine
 10
211.005714
 20
162.7145379999999
 30
0.0
 11
233.315112
 21
162.7145379999999
 31
0.0
  0
LINE
  5
E0
330
1F
100
AcDbEntity
  8
NOCUT
100
AcDbLine
 10
189.505714
 20
179.214538
 30
0.0
 11
188.5057139999999
 21
178.214538
 31
0.0
  0
LINE
  5
E1
330
1F
100
AcDbEntity
  8
NOCUT
100
AcDbLine
 10
205.755714
 20
179.4645379999999
 30
0.0
 11
209.005714
 21
179.4645379999999
 31
0.0
  0
LINE
  5
E2
330
1F
100
AcDbEntity
  8
NOCUT
100
AcDbLine
 10
233.315112
 20
183.7145379999999
 30
0.0
 11
211.005714
 21
183.7145379999999
 31
0.0
  0
LINE
  5
E3
330
1F
100
AcDbEntity
  8
NOCUT
100
AcDbLine
 10
238.264898
 20
176.655747
 30
0.0
 11
240.376499
 21
179.249562
 31
0.0
  0
LINE
  5
E4
330
1F
100
AcDbEntity
  8
NOCUT
100
AcDbLine
 10
205.755714
 20
179.4645379999999
 30
0.0
 11
205.505714
 21
179.214538
 31
0.0
  0
LINE
  5
E5
330
1F
100
AcDbEntity
  8
NOCUT
100
AcDbLine
 10
210.505714
 20
183.214538
 30
0.0
 11
210.505714
 21
180.46361
 31
0.0
  0
LINE
  5
E6
330
1F
100
AcDbEntity
  8
NOCUT
100
AcDbLine
 10
189.505714
 20
179.214538
 30
0.0
 11
205.505714
 21
179.214538
 31
0.0
  0
LINE
  5
E7
330
1F
100
AcDbEntity
  8
1
100
AcDbLine
 10
188.951433
 20
167.769038
 30
0.0
 11
205.505714
 21
167.769038
 31
0.0
  0
LINE
  5
E8
330
1F
100
AcDbEntity
  8
NOCUT
100
AcDbLine
 10
210.305714
 20
179.264538
 30
0.0
 11
209.352125
 21
179.264538
 31
0.0
  0
LINE
  5
E9
330
1F
100
AcDbEntity
  8
NOCUT
100
AcDbLine
 10
210.505714
 20
180.46361
 30
0.0
 11
210.692085
 21
179.768066
 31
0.0
  0
LINE
  5
EA
330
1F
100
AcDbEntity
  8
NOCUT
100
AcDbLine
 10
240.376499
 20
167.179515
 30
0.0
 11
238.264898
 21
169.77333
 31
0.0
  0
LINE
  5
EB
330
1F
100
AcDbEntity
  8
NOCUT
100
AcDbLine
 10
237.671835
 20
184.938997
 30
0.0
 11
236.507733
 21
184.938997
 31
0.0
  0
LINE
  5
EC
330
1F
100
AcDbEntity
  8
1
100
AcDbLine
 10
188.951433
 20
178.660038
 30
0.0
 11
205.505714
 21
178.660038
 31
0.0
  0
LINE
  5
ED
330
1F
100
AcDbEntity
  8
NOCUT
100
AcDbLine
 10
211.005714
 20
183.7145379999999
 30
0.0
 11
210.505714
 21
183.214538
 31
0.0
  0
LINE
  5
EE
330
1F
100
AcDbEntity
  8
NOCUT
100
AcDbLine
 10
237.905714
 20
170.783466
 30
0.0
 11
237.905714
 21
175.645611
 31
0.0
  0
LINE
  5
EF
330
1F
100
AcDbEntity
  8
NOCUT
100
AcDbLine
 10
235.507733
 20
184.671048
 30
0.0
 11
234.315112
 21
183.982488
 31
0.0
  0
LINE
  5
F0
102
{ACAD_REACTORS
330
22E
102
}
330
1F
100
AcDbEntity
  8
81
100
AcDbLine
 10
242.505716
 20
182.689434
 30
0.0
 11
242.505716
 21
188.689434
 31
0.0
  0
LINE
  5
F1
102
{ACAD_REACTORS
330
22E
102
}
330
1F
100
AcDbEntity
  8
81
100
AcDbLine
 10
239.505716
 20
185.689434
 30
0.0
 11
245.505716
 21
185.689434
 31
0.0
  0
LINE
  5
F2
102
{ACAD_REACTORS
330
22F
102
}
330
1F
100
AcDbEntity
  8
80
100
AcDbLine
 10
209.005714
 20
173.2145379999999
 30
0.0
 11
212.005714
 21
173.2145379999999
 31
0.0
  0
LINE
  5
F3
102
{ACAD_REACTORS
330
22F
102
}
330
1F
100
AcDbEntity
  8
80
100
AcDbLine
 10
210.505714
 20
171.714538
 30
0.0
 11
210.505714
 21
174.714538
 31
0.0
  0
LINE
  5
F4
102
{ACAD_REACTORS
330
230
102
}
330
1F
100
AcDbEntity
  8
2
100
AcDbLine
 10
251.255716
 20
192.897833
 30
0.0
 11
228.792884
 21
192.897833
 31
0.0
  0
LINE
  5
F5
102
{ACAD_REACTORS
330
230
102
}
330
1F
100
AcDbEntity
  8
2
100
AcDbLine
 10
237.542884
 20
186.689434
 30
0.0
 11
237.542884
 21
194.897833
 31
0.0
  0
LINE
  5
F6
102
{ACAD_REACTORS
330
230
102
}
330
1F
100
AcDbEntity
  8
2
100
AcDbLine
 10
242.505716
 20
186.689434
 30
0.0
 11
242.505716
 21
194.897833
 31
0.0
  0
LINE
  5
F7
330
1F
100
AcDbEntity
  8
2
 60
     1
100
AcDbLine
 10
237.542884
 20
192.897833
 30
0.0
 11
235.042886
 21
192.457016
 31
0.0
  0
LINE
  5
F8
330
1F
100
AcDbEntity
  8
2
 60
     1
100
AcDbLine
 10
235.042886
 20
192.457016
 30
0.0
 11
235.042883
 21
193.33865
 31
0.0
  0
LINE
  5
F9
330
1F
100
AcDbEntity
  8
2
 60
     1
100
AcDbLine
 10
235.042883
 20
193.33865
 30
0.0
 11
237.542884
 21
192.897833
 31
0.0
  0
LINE
  5
FA
330
1F
100
AcDbEntity
  8
2
 60
     1
100
AcDbLine
 10
242.505716
 20
192.897833
 30
0.0
 11
245.005714
 21
193.33865
 31
0.0
  0
LINE
  5
FB
330
1F
100
AcDbEntity
  8
2
 60
     1
100
AcDbLine
 10
245.005714
 20
193.33865
 30
0.0
 11
245.005717
 21
192.457016
 31
0.0
  0
LINE
  5
FC
330
1F
100
AcDbEntity
  8
2
 60
     1
100
AcDbLine
 10
245.005717
 20
192.457016
 30
0.0
 11
242.505716
 21
192.897833
 31
0.0
  0
LINE
  5
FE
102
{ACAD_REACTORS
330
231
102
}
330
1F
100
AcDbEntity
  8
2
100
AcDbLine
 10
210.505714
 20
201.736196
 30
0.0
 11
242.505716
 21
201.736196
 31
0.0
  0
LINE
  5
FF
102
{ACAD_REACTORS
330
231
102
}
330
1F
100
AcDbEntity
  8
2
100
AcDbLine
 10
242.505716
 20
186.689434
 30
0.0
 11
242.505716
 21
203.736196
 31
0.0
  0
LINE
  5
100
102
{ACAD_REACTORS
330
231
102
}
330
1F
100
AcDbEntity
  8
2
100
AcDbLine
 10
210.505714
 20
184.214538
 30
0.0
 11
210.505714
 21
203.736196
 31
0.0
  0
LINE
  5
101
330
1F
100
AcDbEntity
  8
2
 60
     1
100
AcDbLine
 10
242.505716
 20
201.736196
 30
0.0
 11
240.005717
 21
201.295378
 31
0.0
  0
LINE
  5
102
330
1F
100
AcDbEntity
  8
2
 60
     1
100
AcDbLine
 10
240.005717
 20
201.295378
 30
0.0
 11
240.005714
 21
202.177013
 31
0.0
  0
LINE
  5
103
330
1F
100
AcDbEntity
  8
2
 60
     1
100
AcDbLine
 10
240.005714
 20
202.177013
 30
0.0
 11
242.505716
 21
201.736196
 31
0.0
  0
LINE
  5
104
330
1F
100
AcDbEntity
  8
2
 60
     1
100
AcDbLine
 10
210.505714
 20
201.736196
 30
0.0
 11
213.005713
 21
202.177013
 31
0.0
  0
LINE
  5
105
330
1F
100
AcDbEntity
  8
2
 60
     1
100
AcDbLine
 10
213.005713
 20
202.177013
 30
0.0
 11
213.005716
 21
201.295378
 31
0.0
  0
LINE
  5
106
330
1F
100
AcDbEntity
  8
2
 60
     1
100
AcDbLine
 10
213.005716
 20
201.295378
 30
0.0
 11
210.505714
 21
201.736196
 31
0.0
  0
LINE
  5
107
102
{ACAD_REACTORS
330
232
102
}
330
1F
100
AcDbEntity
  8
2
100
AcDbLine
 10
254.75471
 20
185.689434
 30
0.0
 11
254.75471
 21
163.914223
 31
0.0
  0
LINE
  5
108
102
{ACAD_REACTORS
330
232
102
}
330
1F
100
AcDbEntity
  8
2
100
AcDbLine
 10
238.51123
 20
185.689434
 30
0.0
 11
256.75471
 21
185.689434
 31
0.0
  0
LINE
  5
109
330
1F
100
AcDbEntity
  8
2
 60
     1
100
AcDbLine
 10
254.75471
 20
185.689434
 30
0.0
 11
255.195528
 21
183.189436
 31
0.0
  0
LINE
  5
10A
330
1F
100
AcDbEntity
  8
2
 60
     1
100
AcDbLine
 10
255.195528
 20
183.189436
 30
0.0
 11
254.313893
 21
183.189432
 31
0.0
  0
LINE
  5
10B
330
1F
100
AcDbEntity
  8
2
 60
     1
100
AcDbLine
 10
254.313893
 20
183.189432
 30
0.0
 11
254.75471
 21
185.689434
 31
0.0
  0
ARC
  5
10C
330
1F
100
AcDbEntity
  8
SK1
100
AcDbCircle
 10
-209.352125
 20
166.764538
 30
0.0
 40
0.4000000000000001
210
0.0
220
0.0
230
-1.0
100
AcDbArc
 50
30.0
 51
90.0
  0
ARC
  5
10D
330
1F
100
AcDbEntity
  8
SK1
100
AcDbCircle
 10
-209.352125
 20
179.664538
 30
0.0
 40
0.4000000000000001
210
0.0
220
0.0
230
-1.0
100
AcDbArc
 50
270.0
 51
330.0
  0
ARC
  5
10E
330
1F
100
AcDbEntity
  8
SK1
100
AcDbCircle
 10
-210.305714
 20
179.664538
 30
0.0
 40
0.3999999999999995
210
0.0
220
0.0
230
-1.0
100
AcDbArc
 50
239.99907
 51
270.0
  0
ARC
  5
10F
330
1F
100
AcDbEntity
  8
SK1
100
AcDbCircle
 10
-210.305714
 20
166.764538
 30
0.0
 40
0.3999999999999995
210
0.0
220
0.0
230
-1.0
100
AcDbArc
 50
90.0
 51
120.00093
  0
ARC
  5
110
330
1F
100
AcDbEntity
  8
1
100
AcDbCircle
 10
233.386401
 20
178.983312
 30
0.0
 40
0.5
100
AcDbArc
 50
200.355382
 51
204.316008
  0
ARC
  5
111
330
1F
100
AcDbEntity
  8
1
100
AcDbCircle
 10
240.807652
 20
173.295717
 30
0.0
 40
0.5
100
AcDbArc
 50
19.947569
 51
23.268031
  0
ARC
  5
112
330
1F
100
AcDbEntity
  8
1
100
AcDbCircle
 10
233.386401
 20
178.983312
 30
0.0
 40
0.5
100
AcDbArc
 50
200.355382
 51
204.316008
  0
ARC
  5
113
330
1F
100
AcDbEntity
  8
1
100
AcDbCircle
 10
237.671835
 20
164.977674
 30
0.0
 40
3.487593740623581
100
AcDbArc
 50
332.262162
 51
344.750253
  0
ARC
  5
114
330
1F
100
AcDbEntity
  8
1
100
AcDbCircle
 10
237.671835
 20
164.977674
 30
0.0
 40
3.487593740623581
100
AcDbArc
 50
358.002004
 51
0.0
  0
ARC
  5
115
330
1F
100
AcDbEntity
  8
1
100
AcDbCircle
 10
240.807652
 20
165.72546
 30
0.0
 40
0.5
100
AcDbArc
 50
335.126953
 51
339.485506
  0
ARC
  5
116
330
1F
100
AcDbEntity
  8
NOCUT
100
AcDbCircle
 10
233.315112
 20
160.7145379999999
 30
0.0
 40
2.0
100
AcDbArc
 50
60.0
 51
90.0
  0
ARC
  5
117
330
1F
100
AcDbEntity
  8
NOCUT
100
AcDbCircle
 10
-210.305714
 20
166.764538
 30
0.0
 40
0.3999999999999995
210
0.0
220
0.0
230
-1.0
100
AcDbArc
 50
90.0
 51
195.0
  0
ARC
  5
118
330
1F
100
AcDbEntity
  8
NOCUT
100
AcDbCircle
 10
239.505714
 20
175.645611
 30
0.0
 40
1.6
100
AcDbArc
 50
140.851289
 51
180.0
  0
ARC
  5
119
330
1F
100
AcDbEntity
  8
NOCUT
100
AcDbCircle
 10
236.507733
 20
182.938997
 30
0.0
 40
2.0
100
AcDbArc
 50
90.0
 51
120.0
  0
ARC
  5
11A
330
1F
100
AcDbEntity
  8
NOCUT
100
AcDbCircle
 10
237.671835
 20
164.977674
 30
0.0
 40
3.487593740623581
100
AcDbArc
 50
270.0
 51
39.148711
  0
ARC
  5
11B
330
1F
100
AcDbEntity
  8
NOCUT
100
AcDbCircle
 10
-209.352125
 20
166.764538
 30
0.0
 40
0.4000000000000001
210
0.0
220
0.0
230
-1.0
100
AcDbArc
 50
30.0
 51
90.0
  0
ARC
  5
11C
330
1F
100
AcDbEntity
  8
NOCUT
100
AcDbCircle
 10
239.505714
 20
170.783466
 30
0.0
 40
1.6
100
AcDbArc
 50
180.0
 51
219.148711
  0
ARC
  5
11D
330
1F
100
AcDbEntity
  8
NOCUT
100
AcDbCircle
 10
237.671835
 20
181.451403
 30
0.0
 40
3.487593740623581
100
AcDbArc
 50
320.851289
 51
90.0
  0
ARC
  5
11E
330
1F
100
AcDbEntity
  8
NOCUT
100
AcDbCircle
 10
-210.305714
 20
179.664538
 30
0.0
 40
0.3999999999999995
210
0.0
220
0.0
230
-1.0
100
AcDbArc
 50
165.0
 51
270.0
  0
ARC
  5
11F
330
1F
100
AcDbEntity
  8
NOCUT
100
AcDbCircle
 10
-209.352125
 20
179.664538
 30
0.0
 40
0.4000000000000001
210
0.0
220
0.0
230
-1.0
100
AcDbArc
 50
270.0
 51
330.0
  0
ARC
  5
120
330
1F
100
AcDbEntity
  8
NOCUT
100
AcDbCircle
 10
236.507733
 20
163.49008
 30
0.0
 40
2.0
100
AcDbArc
 50
240.0
 51
270.0
  0
ARC
  5
121
330
1F
100
AcDbEntity
  8
NOCUT
100
AcDbCircle
 10
233.315112
 20
185.714538
 30
0.0
 40
2.0
100
AcDbArc
 50
270.0
 51
300.0
  0
ELLIPSE
  5
122
330
1F
100
AcDbEntity
  8
1
100
AcDbEllipse
 10
237.542884
 20
180.696185
 30
0.0
 11
-1.962817595750255
 21
4.598624477581658
 31
0.0
210
0.0
220
0.0
230
1.0
 40
0.9912059999999998
 41
1.170558477862766
 42
1.644349919381979
  0
ELLIPSE
  5
123
330
1F
100
AcDbEntity
  8
1
100
AcDbEllipse
 10
237.542884
 20
180.696185
 30
0.0
 11
-1.962817595750255
 21
4.598624477581658
 31
0.0
210
0.0
220
0.0
230
1.0
 40
0.9912059999999998
 41
3.551492925156098
 42
6.283185307179585
  0
ELLIPSE
  5
124
330
1F
100
AcDbEntity
  8
1
100
AcDbEllipse
 10
237.542884
 20
180.696185
 30
0.0
 11
-1.962817595750255
 21
4.598624477581658
 31
0.0
210
0.0
220
0.0
230
1.0
 40
0.9912059999999998
 41
0.0
 42
1.170558434491687
  0
ELLIPSE
  5
125
330
1F
100
AcDbEntity
  8
1
100
AcDbEllipse
 10
240.700091
 20
165.493454
 30
0.0
 11
-0.5075451223347937
 21
0.0809549549207648
 31
0.0
210
0.0
220
0.0
230
0.9999999999999998
 40
0.527353
 41
2.778707590389519
 42
3.225509493617311
  0
ELLIPSE
  5
126
330
1F
100
AcDbEntity
  8
1
100
AcDbEllipse
 10
237.773474
 20
179.449084
 30
0.0
 11
0.033454912599283
 21
-0.0783804772830216
 31
0.0
210
0.0
220
0.0
230
1.0
 40
0.9912059999999998
 41
0.2435177561920711
 42
1.42597966777523
  0
ELLIPSE
  5
127
330
1F
100
AcDbEntity
  8
1
100
AcDbEllipse
 10
236.704069
 20
181.648346
 30
0.0
 11
0.0334549125992829
 21
-0.0783804772830212
 31
0.0
210
0.0
220
0.0
230
1.0
 40
0.9912059999999998
 41
5.091171096963339
 42
5.750034232948196
  0
ELLIPSE
  5
128
330
1F
100
AcDbEntity
  8
1
100
AcDbEllipse
 10
237.936886
 20
181.884678
 30
0.0
 11
0.0334549125992829
 21
-0.0783804772830212
 31
0.0
210
0.0
220
0.0
230
1.0
 40
0.9912059999999998
 41
4.043973545766781
 42
4.702836681751608
  0
ELLIPSE
  5
129
330
1F
100
AcDbEntity
  8
1
100
AcDbEllipse
 10
237.936886
 20
179.492089
 30
0.0
 11
0.033454912599283
 21
-0.0783804772830214
 31
0.0
210
0.0
220
0.0
230
1.0
 40
0.9912059999999998
 41
3.908709185380193
 42
4.567572321365044
  0
ELLIPSE
  5
12A
330
1F
100
AcDbEntity
  8
1
100
AcDbEllipse
 10
238.763531
 20
180.438836
 30
0.0
 11
0.033454912599283
 21
-0.0783804772830214
 31
0.0
210
0.0
220
0.0
230
1.0
 40
0.9912059999999998
 41
4.955906736576769
 42
5.614769872561621
  0
ELLIPSE
  5
12B
330
1F
100
AcDbEntity
  8
1
100
AcDbEllipse
 10
240.700091
 20
167.14827
 30
0.0
 11
-0.5081707340860115
 21
0.06491424514537
 31
0.0
210
0.0
220
0.0
230
0.9999999999999998
 40
0.530778
 41
3.209291131464556
 42
3.973502846198901
  0
ELLIPSE
  5
12C
330
1F
100
AcDbEntity
  8
1
100
AcDbEllipse
 10
237.773474
 20
181.92978
 30
0.0
 11
0.0334549125992829
 21
-0.0783804772830213
 31
0.0
210
0.0
220
0.0
230
0.9999999999999998
 40
0.9912059999999998
 41
0.9023808921769054
 42
2.0848428037601
  0
ELLIPSE
  5
12D
330
1F
100
AcDbEntity
  8
1
100
AcDbEllipse
 10
238.719745
 20
180.274707
 30
0.0
 11
0.033454912599283
 21
-0.0783804772830216
 31
0.0
210
0.0
220
0.0
230
1.0
 40
0.9912059999999998
 41
1.290715307388686
 42
2.473177218971828
  0
ELLIPSE
  5
12E
330
1F
100
AcDbEntity
  8
1
100
AcDbEllipse
 10
228.089884
 20
179.181541
 30
0.0
 11
-16.06100977084157
 21
0.5245073411064079
 31
0.0
210
0.0
220
0.0
230
1.0
 40
0.044371
 41
1.97248432783371
 42
2.19924316734871
  0
ELLIPSE
  5
12F
330
1F
100
AcDbEntity
  8
1
100
AcDbEllipse
 10
233.351059
 20
178.522812
 30
0.0
 11
-0.1031121525244367
 21
0.7459074014055519
 31
0.0
210
0.0
220
0.0
230
1.0
 40
0.9222319999999998
 41
0.7518496351984071
 42
0.9488863889373281
  0
ELLIPSE
  5
130
330
1F
100
AcDbEntity
  8
1
100
AcDbEllipse
 10
233.266437
 20
178.522809
 30
0.0
 11
-0.7073553982527799
 21
-0.2387290032871843
 31
0.0
210
0.0
220
0.0
230
1.0
 40
0.010392
 41
1.292538893389074
 42
1.316023198442235
  0
ELLIPSE
  5
131
330
1F
100
AcDbEntity
  8
1
100
AcDbEllipse
 10
237.569118
 20
180.159479
 30
0.0
 11
-6.073229247802408
 21
-2.099012994502826
 31
0.0
210
0.0
220
0.0
230
0.9999999999999998
 40
0.110656
 41
5.574799177452726
 42
5.628152109870103
  0
ELLIPSE
  5
132
330
1F
100
AcDbEntity
  8
CUT
100
AcDbEllipse
 10
237.542884
 20
180.696185
 30
0.0
 11
1.962817595750255
 21
-4.59862447758166
 31
0.0
210
0.0
220
0.0
230
0.9999999999999998
 40
0.9912059999999998
 41
0.0
 42
6.283185307179585
  0
ELLIPSE
  5
133
330
1F
100
AcDbEntity
  8
1
100
AcDbEllipse
 10
237.469861
 20
180.665017
 30
0.0
 11
-1.07954967766264
 21
2.52924346266991
 31
0.0
210
0.0
220
0.0
230
1.0
 40
0.9912059999999998
 41
3.271853367119063
 42
6.283185307179585
  0
ELLIPSE
  5
134
330
1F
100
AcDbEntity
  8
1
100
AcDbEllipse
 10
237.469861
 20
180.665017
 30
0.0
 11
-1.07954967766264
 21
2.52924346266991
 31
0.0
210
0.0
220
0.0
230
1.0
 40
0.9912059999999998
 41
0.0
 42
0.3900310630727568
  0
ELLIPSE
  5
135
330
1F
100
AcDbEntity
  8
1
100
AcDbEllipse
 10
237.542884
 20
180.696185
 30
0.0
 11
-1.962817595750255
 21
4.598624477581658
 31
0.0
210
0.0
220
0.0
230
1.0
 40
0.9912059999999998
 41
1.170558477862762
 42
1.644410122230869
  0
ELLIPSE
  5
136
330
1F
100
AcDbEntity
  8
1
100
AcDbEllipse
 10
237.542884
 20
180.696185
 30
0.0
 11
-1.962817595750255
 21
4.598624477581658
 31
0.0
210
0.0
220
0.0
230
1.0
 40
0.9912059999999998
 41
3.551455045138198
 42
6.283185307179585
  0
ELLIPSE
  5
137
330
1F
100
AcDbEntity
  8
1
100
AcDbEllipse
 10
237.542884
 20
180.696185
 30
0.0
 11
-1.962817595750255
 21
4.598624477581658
 31
0.0
210
0.0
220
0.0
230
1.0
 40
0.9912059999999998
 41
0.0
 42
1.170558434491687
  0
ELLIPSE
  5
138
330
1F
100
AcDbEntity
  8
1
100
AcDbEllipse
 10
237.542884
 20
180.696185
 30
0.0
 11
1.091893707022355
 21
-2.558163906265115
 31
0.0
210
0.0
220
0.0
230
1.0
 40
0.991206
 41
0.1272173941873122
 42
1.170558434481627
  0
ELLIPSE
  5
139
330
1F
100
AcDbEntity
  8
1
100
AcDbEllipse
 10
237.542884
 20
180.696185
 30
0.0
 11
1.091893707022355
 21
-2.558163906265115
 31
0.0
210
0.0
220
0.0
230
1.0
 40
0.991206
 41
1.170558434481629
 42
5.351391461277184
  0
ELLIPSE
  5
13A
330
1F
100
AcDbEntity
  8
1
100
AcDbEllipse
 10
236.704069
 20
179.744244
 30
0.0
 11
0.033454912599283
 21
-0.0783804772830214
 31
0.0
210
0.0
220
0.0
230
1.0
 40
0.9912059999999998
 41
2.861511634183588
 42
3.520374770168446
  0
ELLIPSE
  5
13B
330
1F
100
AcDbEntity
  8
1
100
AcDbEllipse
 10
236.584443
 20
179.865368
 30
0.0
 11
0.033454912599283
 21
-0.0783804772830216
 31
0.0
210
0.0
220
0.0
230
1.0
 40
0.9912059999999998
 41
5.479505512175074
 42
6.661967423758186
  0
ELLIPSE
  5
13C
330
1F
100
AcDbEntity
  8
1
100
AcDbEllipse
 10
237.287953
 20
179.4522
 30
0.0
 11
0.0334549125992829
 21
-0.0783804772830213
 31
0.0
210
0.0
220
0.0
230
0.9999999999999998
 40
0.9912059999999998
 41
4.04397354576674
 42
5.226435457349963
  0
ELLIPSE
  5
13D
330
1F
100
AcDbEntity
  8
1
100
AcDbEllipse
 10
238.719745
 20
181.0920129999999
 30
0.0
 11
0.0334549125992829
 21
-0.0783804772830213
 31
0.0
210
0.0
220
0.0
230
0.9999999999999998
 40
0.9912059999999998
 41
6.138368648159976
 42
7.320830559743116
  0
ELLIPSE
  5
13E
330
1F
100
AcDbEntity
  8
1
100
AcDbEllipse
 10
238.763531
 20
180.927322
 30
0.0
 11
0.0334549125992829
 21
-0.0783804772830212
 31
0.0
210
0.0
220
0.0
230
1.0
 40
0.9912059999999998
 41
2.996775994570142
 42
3.65563913055499
  0
ELLIPSE
  5
13F
330
1F
100
AcDbEntity
  8
1
100
AcDbEllipse
 10
237.124542
 20
179.497302
 30
0.0
 11
0.0334549125992829
 21
-0.0783804772830212
 31
0.0
210
0.0
220
0.0
230
1.0
 40
0.9912059999999998
 41
0.9023808921769298
 42
1.561244028161804
  0
ELLIPSE
  5
140
330
1F
100
AcDbEntity
  8
1
100
AcDbEllipse
 10
236.297897
 20
180.454658
 30
0.0
 11
0.0334549125992829
 21
-0.0783804772830212
 31
0.0
210
0.0
220
0.0
230
1.0
 40
0.9912059999999998
 41
6.138368648159976
 42
6.797231784144814
  0
ELLIPSE
  5
141
330
1F
100
AcDbEntity
  8
1
100
AcDbEllipse
 10
235.97865
 20
180.70095
 30
0.0
 11
0.1920765204949316
 21
-0.4500101235230087
 31
0.0
210
0.0
220
0.0
230
1.0
 40
0.9912059999999998
 41
0.5140464769652134
 42
1.814314082986976
  0
ELLIPSE
  5
142
330
1F
100
AcDbEntity
  8
1
100
AcDbEllipse
 10
236.297897
 20
180.943144
 30
0.0
 11
0.033454912599283
 21
-0.0783804772830214
 31
0.0
210
0.0
220
0.0
230
1.0
 40
0.9912059999999998
 41
1.814314082986975
 42
2.473177218971833
  0
ELLIPSE
  5
143
330
1F
100
AcDbEntity
  8
1
100
AcDbEllipse
 10
236.341683
 20
181.107273
 30
0.0
 11
0.033454912599283
 21
-0.0783804772830216
 31
0.0
210
0.0
220
0.0
230
1.0
 40
0.9912059999999998
 41
4.432307960978459
 42
5.61476987256166
  0
ELLIPSE
  5
144
330
1F
100
AcDbEntity
  8
1
100
AcDbEllipse
 10
238.306746
 20
179.333673
 30
0.0
 11
0.1920765204949316
 21
-0.4500101235230087
 31
0.0
210
0.0
220
0.0
230
1.0
 40
0.9912059999999998
 41
2.608441579358404
 42
3.90870918538018
  0
ELLIPSE
  5
145
330
1F
100
AcDbEntity
  8
1
100
AcDbEllipse
 10
236.341683
 20
180.289967
 30
0.0
 11
0.0334549125992829
 21
-0.0783804772830213
 31
0.0
210
0.0
220
0.0
230
0.9999999999999998
 40
0.9912059999999998
 41
2.996775994570142
 42
4.17923790615328
  0
ELLIPSE
  5
146
330
1F
100
AcDbEntity
  8
1
100
AcDbEllipse
 10
236.739539
 20
181.155643
 30
0.0
 11
0.1920765204949316
 21
-0.4500101235230088
 31
0.0
210
0.0
220
0.0
230
1.0
 40
0.9912059999999998
 41
3.132040354956709
 42
4.432307960978474
  0
ELLIPSE
  5
147
330
1F
100
AcDbEntity
  8
1
100
AcDbEllipse
 10
236.584443
 20
181.528757
 30
0.0
 11
0.0334549125992829
 21
-0.0783804772830213
 31
0.0
210
0.0
220
0.0
230
0.9999999999999998
 40
0.9912059999999998
 41
1.949578443373584
 42
3.132040354956701
  0
ELLIPSE
  5
148
330
1F
100
AcDbEntity
  8
1
100
AcDbEllipse
 10
236.754682
 20
182.048307
 30
0.0
 11
0.1920765204949316
 21
-0.4500101235230087
 31
0.0
210
0.0
220
0.0
230
1.0
 40
0.9912059999999998
 41
5.75003423294819
 42
7.050301838969971
  0
ELLIPSE
  5
149
330
1F
100
AcDbEntity
  8
1
100
AcDbEllipse
 10
237.530714
 20
180.69099
 30
0.0
 11
-0.7066143344700925
 21
1.655504811929398
 31
0.0
210
0.0
220
0.0
230
1.0
 40
0.9912059999999998
 41
0.0
 42
6.283185307179585
  0
ELLIPSE
  5
14A
330
1F
100
AcDbEntity
  8
1
100
AcDbEllipse
 10
237.507724
 20
180.681177
 30
0.0
 11
-0.9421524459601226
 21
2.207339749239195
 31
0.0
210
0.0
220
0.0
230
1.0
 40
0.9912059999999998
 41
1.170558344351845
 42
2.639154736155819
  0
ELLIPSE
  5
14B
330
1F
100
AcDbEntity
  8
1
100
AcDbEllipse
 10
237.507724
 20
180.681177
 30
0.0
 11
-0.9421524459601226
 21
2.207339749239195
 31
0.0
210
0.0
220
0.0
230
1.0
 40
0.9912059999999998
 41
2.842278288967854
 42
6.283185307179585
  0
ELLIPSE
  5
14C
330
1F
100
AcDbEntity
  8
1
100
AcDbEllipse
 10
237.507724
 20
180.681177
 30
0.0
 11
-0.9421524459601226
 21
2.207339749239195
 31
0.0
210
0.0
220
0.0
230
1.0
 40
0.9912059999999998
 41
0.0
 42
1.170558668135788
  0
ELLIPSE
  5
14D
330
1F
100
AcDbEntity
  8
1
100
AcDbEllipse
 10
237.542884
 20
180.696185
 30
0.0
 11
1.091893707022355
 21
-2.558163906265115
 31
0.0
210
0.0
220
0.0
230
1.0
 40
0.991206
 41
0.1272551111452053
 42
1.170558434481623
  0
ELLIPSE
  5
14E
330
1F
100
AcDbEntity
  8
1
100
AcDbEllipse
 10
237.542884
 20
180.696185
 30
0.0
 11
1.091893707022355
 21
-2.558163906265115
 31
0.0
210
0.0
220
0.0
230
1.0
 40
0.991206
 41
1.170558434481622
 42
5.351330872047995
  0
ELLIPSE
  5
14F
330
1F
100
AcDbEntity
  8
1
100
AcDbEllipse
 10
237.469861
 20
180.665017
 30
0.0
 11
-1.07954967766264
 21
2.52924346266991
 31
0.0
210
0.0
220
0.0
230
1.0
 40
0.9912059999999998
 41
3.271891148277899
 42
6.283185307179585
  0
ELLIPSE
  5
150
330
1F
100
AcDbEntity
  8
1
100
AcDbEllipse
 10
237.469861
 20
180.665017
 30
0.0
 11
-1.07954967766264
 21
2.52924346266991
 31
0.0
210
0.0
220
0.0
230
1.0
 40
0.9912059999999998
 41
0.0
 42
0.3899709749661991
  0
ELLIPSE
  5
151
330
1F
100
AcDbEntity
  8
1
100
AcDbEllipse
 10
237.124542
 20
181.889891
 30
0.0
 11
0.033454912599283
 21
-0.0783804772830214
 31
0.0
210
0.0
220
0.0
230
1.0
 40
0.9912059999999998
 41
0.7671165317904082
 42
1.425979667775278
  0
ELLIPSE
  5
152
330
1F
100
AcDbEntity
  8
1
100
AcDbEllipse
 10
236.43537
 20
162.424821
 30
0.0
 11
-1.33579889302535
 21
0.1952980219875526
 31
0.0
210
0.0
220
0.0
230
1.0
 40
0.54059
 41
0.0
 42
6.283185307179585
  0
ELLIPSE
  5
153
330
1F
100
AcDbEntity
  8
1
100
AcDbEllipse
 10
237.542884
 20
169.99999
 30
0.0
 11
-4.947403307501295
 21
0.7233260073613059
 31
0.0
210
0.0
220
0.0
230
1.0
 40
0.54059
 41
3.062561954312133
 42
3.141592712313943
  0
ELLIPSE
  5
154
330
1F
100
AcDbEntity
  8
1
100
AcDbEllipse
 10
237.542884
 20
169.99999
 30
0.0
 11
-4.947403307501295
 21
0.7233260073613059
 31
0.0
210
0.0
220
0.0
230
1.0
 40
0.54059
 41
3.141592712313939
 42
3.469987360640824
  0
ELLIPSE
  5
155
330
1F
100
AcDbEntity
  8
1
100
AcDbEllipse
 10
236.484052
 20
162.757796
 30
0.0
 11
-1.731591157625453
 21
0.2531641025764571
 31
0.0
210
0.0
220
0.0
230
0.9999999999999998
 40
0.54059
 41
2.44366796751481
 42
2.769510237139316
  0
ELLIPSE
  5
156
330
1F
100
AcDbEntity
  8
1
100
AcDbEllipse
 10
236.484052
 20
162.757796
 30
0.0
 11
-1.731591157625453
 21
0.2531641025764571
 31
0.0
210
0.0
220
0.0
230
0.9999999999999998
 40
0.54059
 41
0.2622251156061342
 42
0.6978265976681861
  0
ELLIPSE
  5
157
330
1F
100
AcDbEntity
  8
1
100
AcDbEllipse
 10
236.754682
 20
179.343633
 30
0.0
 11
0.1920765204949316
 21
-0.4500101235230087
 31
0.0
210
0.0
220
0.0
230
1.0
 40
0.9912059999999998
 41
1.561244028161804
 42
2.861511634183575
  0
ELLIPSE
  5
158
330
1F
100
AcDbEntity
  8
1
100
AcDbEllipse
 10
237.530714
 20
179.771839
 30
0.0
 11
0.1920765204949316
 21
-0.4500101235230088
 31
0.0
210
0.0
220
0.0
230
1.0
 40
0.9912059999999998
 41
5.226435457349897
 42
6.526703063371669
  0
ELLIPSE
  5
159
330
1F
100
AcDbEntity
  8
1
100
AcDbEllipse
 10
238.357359
 20
179.733634
 30
0.0
 11
0.0334549125992829
 21
-0.0783804772830212
 31
0.0
210
0.0
220
0.0
230
1.0
 40
0.9912059999999998
 41
1.94957844337352
 42
2.608441579358414
  0
ELLIPSE
  5
15A
330
1F
100
AcDbEntity
  8
1
100
AcDbEllipse
 10
236.739539
 20
180.236492
 30
0.0
 11
0.1920765204949316
 21
-0.4500101235230088
 31
0.0
210
0.0
220
0.0
230
1.0
 40
0.9912059999999998
 41
4.179237906153298
 42
5.479505512175066
  0
ELLIPSE
  5
15B
330
1F
100
AcDbEntity
  8
1
100
AcDbEllipse
 10
238.476984
 20
179.853223
 30
0.0
 11
0.0334549125992829
 21
-0.0783804772830213
 31
0.0
210
0.0
220
0.0
230
0.9999999999999998
 40
0.9912059999999998
 41
5.091171096963365
 42
6.273633008546494
  0
ELLIPSE
  5
15C
330
1F
100
AcDbEntity
  8
1
100
AcDbEllipse
 10
239.082777
 20
180.68103
 30
0.0
 11
0.1920765204949316
 21
-0.4500101235230087
 31
0.0
210
0.0
220
0.0
230
1.0
 40
0.9912059999999998
 41
3.655639130555002
 42
4.955906736576775
  0
ELLIPSE
  5
15D
330
1F
100
AcDbEntity
  8
1
100
AcDbEllipse
 10
238.321889
 20
181.145488
 30
0.0
 11
0.1920765204949316
 21
-0.4500101235230088
 31
0.0
210
0.0
220
0.0
230
1.0
 40
0.9912059999999998
 41
1.037645252563504
 42
2.337912858585275
  0
ELLIPSE
  5
15E
330
1F
100
AcDbEntity
  8
1
100
AcDbEllipse
 10
238.476984
 20
181.516612
 30
0.0
 11
0.033454912599283
 21
-0.0783804772830216
 31
0.0
210
0.0
220
0.0
230
1.0
 40
0.9912059999999998
 41
2.337912858585281
 42
3.520374770168396
  0
ELLIPSE
  5
15F
330
1F
100
AcDbEntity
  8
1
100
AcDbEllipse
 10
238.357359
 20
181.637736
 30
0.0
 11
0.033454912599283
 21
-0.0783804772830214
 31
0.0
210
0.0
220
0.0
230
1.0
 40
0.9912059999999998
 41
6.003104287773385
 42
6.661967423758256
  0
ELLIPSE
  5
160
330
1F
100
AcDbEntity
  8
1
100
AcDbEllipse
 10
237.287953
 20
181.932896
 30
0.0
 11
0.033454912599283
 21
-0.0783804772830216
 31
0.0
210
0.0
220
0.0
230
1.0
 40
0.9912059999999998
 41
3.385110409781866
 42
4.567572321365028
  0
ELLIPSE
  5
161
330
1F
100
AcDbEntity
  8
1
100
AcDbEllipse
 10
238.306746
 20
182.038347
 30
0.0
 11
0.1920765204949316
 21
-0.4500101235230087
 31
0.0
210
0.0
220
0.0
230
1.0
 40
0.9912059999999998
 41
4.702836681751601
 42
6.003104287773367
  0
ELLIPSE
  5
162
330
1F
100
AcDbEntity
  8
1
100
AcDbEllipse
 10
237.530714
 20
181.610141
 30
0.0
 11
0.1920765204949316
 21
-0.4500101235230088
 31
0.0
210
0.0
220
0.0
230
1.0
 40
0.9912059999999998
 41
2.084842803760103
 42
3.38511040978187
  0
ELLIPSE
  5
163
330
1F
100
AcDbEntity
  8
1
100
AcDbEllipse
 10
238.321889
 20
180.226337
 30
0.0
 11
0.1920765204949316
 21
-0.4500101235230088
 31
0.0
210
0.0
220
0.0
230
1.0
 40
0.9912059999999998
 41
6.273633008546495
 42
7.573900614568268
  0
ELLIPSE
  5
164
330
1F
100
AcDbEntity
  8
1
100
AcDbEllipse
 10
237.44552
 20
180.654627
 30
0.0
 11
-0.9421524459601224
 21
2.207339749239194
 31
0.0
210
0.0
220
0.0
230
1.0
 40
0.9912059999999998
 41
1.170558344351845
 42
2.55924042439149
  0
ELLIPSE
  5
165
330
1F
100
AcDbEntity
  8
1
100
AcDbEllipse
 10
237.44552
 20
180.654627
 30
0.0
 11
-0.9421524459601224
 21
2.207339749239194
 31
0.0
210
0.0
220
0.0
230
1.0
 40
0.9912059999999998
 41
2.921211092870584
 42
3.1415151436288
  0
ELLIPSE
  5
166
330
1F
100
AcDbEntity
  8
1
100
AcDbEllipse
 10
237.44552
 20
180.654627
 30
0.0
 11
-0.9421524459601224
 21
2.207339749239194
 31
0.0
210
0.0
220
0.0
230
1.0
 40
0.9912059999999998
 41
0.0000206919436938
 42
1.170558344351845
  0
ELLIPSE
  5
167
330
1F
100
AcDbEntity
  8
1
100
AcDbEllipse
 10
175.269209
 20
173.214539
 30
0.0
 11
-95.61735531745858
 21
-10.47846536599675
 31
0.0
210
0.0
220
0.0
230
0.9999999999999998
 40
0.055008
 41
2.259842413520698
 42
2.275801187454681
  0
ELLIPSE
  5
168
330
1F
100
AcDbEntity
  8
1
100
AcDbEllipse
 10
235.361717
 20
172.497218
 30
0.0
 11
-1.246861598738052
 21
11.36612553912818
 31
0.0
210
0.0
220
0.0
230
1.0
 40
0.054925
 41
1.186073570713577
 42
1.248232692385672
  0
ELLIPSE
  5
169
330
1F
100
AcDbEntity
  8
1
100
AcDbEllipse
 10
236.359504
 20
176.575472
 30
0.0
 11
1.981326790705671
 21
0.2726612338268243
 31
0.0
210
0.0
220
0.0
230
1.0
 40
0.450616
 41
2.023888589422902
 42
3.079660264753348
  0
ELLIPSE
  5
16A
330
1F
100
AcDbEntity
  8
1
100
AcDbEllipse
 10
236.359504
 20
176.575472
 30
0.0
 11
1.981326790705671
 21
0.2726612338268243
 31
0.0
210
0.0
220
0.0
230
1.0
 40
0.450616
 41
0.1516955366737491
 42
0.8153572889239262
  0
ELLIPSE
  5
16B
330
1F
100
AcDbEntity
  8
1
100
AcDbEllipse
 10
236.140468
 20
178.167124
 30
0.0
 11
-2.019393711256606
 21
0.0041658573142686
 31
0.0
210
0.0
220
0.0
230
1.0
 40
0.038212
 41
3.171059006848723
 42
5.518963703838341
  0
ELLIPSE
  5
16C
330
1F
100
AcDbEntity
  8
1
100
AcDbEllipse
 10
236.140468
 20
161.459309
 30
0.0
 11
-1.924136648116008
 21
-0.6756500536870903
 31
0.0
210
0.0
220
0.0
230
1.0
 40
0.9071299999999999
 41
2.862607960561092
 42
5.210512657550709
  0
ELLIPSE
  5
16D
330
1F
100
AcDbEntity
  8
1
100
AcDbEllipse
 10
228.089884
 20
185.162229
 30
0.0
 11
-12.47383458227354
 21
19.39618644316126
 31
0.0
210
0.0
220
0.0
230
1.0
 40
0.5216140000000001
 41
2.652497624510575
 42
2.879256464036142
  0
ELLIPSE
  5
16E
330
1F
100
AcDbEntity
  8
1
100
AcDbEllipse
 10
240.700091
 20
172.166463
 30
0.0
 11
-0.5085706252198632
 21
-0.0631918463084227
 31
0.0
210
0.0
220
0.0
230
1.0
 40
0.442123
 41
2.322500622237305
 42
3.086712336984914
  0
ELLIPSE
  5
16F
330
1F
100
AcDbEntity
  8
1
100
AcDbEllipse
 10
235.551823
 20
170.628628
 30
0.0
 11
-0.4973420736427471
 21
-0.0754972938676017
 31
0.0
210
0.0
220
0.0
230
1.0
 40
0.458876
 41
0.7156231991513701
 42
1.47983491389037
  0
ELLIPSE
  5
170
330
1F
100
AcDbEntity
  8
1
100
AcDbEllipse
 10
238.567609
 20
170.958108
 30
0.0
 11
-0.4977000034069363
 21
-0.0629671828161631
 31
0.0
210
0.0
220
0.0
230
0.9999999999999998
 40
0.46139
 41
1.533904897666704
 42
2.298116612402522
  0
ELLIPSE
  5
171
330
1F
100
AcDbEntity
  8
1
100
AcDbEllipse
 10
237.542884
 20
168.94744
 30
0.0
 11
4.953316976764178
 21
0.6816530845670609
 31
0.0
210
0.0
220
0.0
230
0.9999999999999998
 40
0.450616
 41
3.204424387586174
 42
6.283185307179585
  0
ELLIPSE
  5
172
330
1F
100
AcDbEntity
  8
1
100
AcDbEllipse
 10
237.542884
 20
168.94744
 30
0.0
 11
4.953316976764178
 21
0.6816530845670609
 31
0.0
210
0.0
220
0.0
230
0.9999999999999998
 40
0.450616
 41
0.0
 42
0.0619484336425682
  0
ELLIPSE
  5
173
330
1F
100
AcDbEntity
  8
1
100
AcDbEllipse
 10
240.700091
 20
173.545855
 30
0.0
 11
-0.5082619992481636
 21
-0.0752085715159945
 31
0.0
210
0.0
220
0.0
230
0.9999999999999998
 40
0.439863
 41
3.076596864580682
 42
3.523397595780557
  0
ELLIPSE
  5
174
330
1F
100
AcDbEntity
  8
1
100
AcDbEllipse
 10
236.43537
 20
176.995326
 30
0.0
 11
1.337395583726328
 21
0.1840463328331065
 31
0.0
210
0.0
220
0.0
230
0.9999999999999998
 40
0.4506160000000001
 41
0.0
 42
6.283185307179585
  0
ELLIPSE
  5
175
330
1F
100
AcDbEntity
  8
1
100
AcDbEllipse
 10
236.484052
 20
176.641573
 30
0.0
 11
1.733660941867462
 21
0.2385785795984713
 31
0.0
210
0.0
220
0.0
230
1.0
 40
0.450616
 41
2.612430576509984
 42
3.141592900274809
  0
ELLIPSE
  5
176
330
1F
100
AcDbEntity
  8
1
100
AcDbEllipse
 10
236.484052
 20
176.641573
 30
0.0
 11
1.733660941867462
 21
0.2385785795984713
 31
0.0
210
0.0
220
0.0
230
1.0
 40
0.450616
 41
3.141592900274856
 42
6.283185307179585
  0
ELLIPSE
  5
177
330
1F
100
AcDbEntity
  8
1
100
AcDbEllipse
 10
236.484052
 20
176.641573
 30
0.0
 11
1.733660941867462
 21
0.2385785795984713
 31
0.0
210
0.0
220
0.0
230
1.0
 40
0.450616
 41
0.0
 42
0.5290636159444709
  0
SPLINE
  5
178
330
1F
100
AcDbEntity
  8
1
100
AcDbSpline
210
0.0
220
0.0
230
1.0
 70
     8
 71
     3
 72
    14
 73
    10
 74
     0
 42
0.000000001
 43
0.0000000001
 40
0.0
 40
0.0
 40
0.0
 40
0.0
 40
0.25
 40
0.25
 40
0.5
 40
0.5
 40
0.75
 40
0.75
 40
1.0
 40
1.0
 40
1.0
 40
1.0
 10
223.00571438055
 20
166.9817622274292
 30
0.0
 10
223.1001774981374
 20
166.9817622274292
 30
0.0
 10
223.1895786196078
 20
167.0204994877833
 30
0.0
 10
223.3229304899581
 20
167.1275991651504
 30
0.0
 10
223.3714304875634
 20
167.1951112840836
 30
0.0
 10
223.4434945726481
 20
167.3365838374223
 30
0.0
 10
223.4677984990228
 20
167.4126696221103
 30
0.0
 10
223.4988078011945
 20
167.5665005738447
 30
0.0
 10
223.50571438055
 20
167.6446225465451
 30
0.0
 10
223.50571438055
 20
167.7238645835932
 30
0.0
  0
SPLINE
  5
179
330
1F
100
AcDbEntity
  8
1
100
AcDbSpline
210
0.0
220
0.0
230
1.0
 70
     8
 71
     3
 72
    12
 73
     8
 74
     0
 42
0.000000001
 43
0.0000000001
 40
0.0
 40
0.0
 40
0.0
 40
0.0
 40
0.5
 40
0.5
 40
0.75
 40
0.75
 40
1.0
 40
1.0
 40
1.0
 40
1.0
 10
223.50571438055
 20
178.7052124061512
 30
0.0
 10
223.50571438055
 20
178.8630132999221
 30
0.0
 10
223.4796563663124
 20
179.0220691143261
 30
0.0
 10
223.3705665000792
 20
179.2353752320596
 30
0.0
 10
223.3220120572543
 20
179.3024635304793
 30
0.0
 10
223.1888053253426
 20
179.4089473100265
 30
0.0
 10
223.0992803716401
 20
179.4473147623153
 30
0.0
 10
223.0057143805501
 20
179.4473147623153
 30
0.0
  0
SPLINE
  5
17A
330
1F
100
AcDbEntity
  8
1
100
AcDbSpline
210
0.0
220
0.0
230
1.0
 70
     8
 71
     3
 72
    10
 73
     6
 74
     0
 42
0.000000001
 43
0.0000000001
 40
0.0
 40
0.0
 40
0.0
 40
0.0
 40
0.5373397090275561
 40
0.5373397090275561
 40
1.0
 40
1.0
 40
1.0
 40
1.0
 10
236.4917129578465
 20
181.5234421513203
 30
0.0
 10
236.4982360509572
 20
181.5162048467994
 30
0.0
 10
236.5060929160234
 20
181.5101134315149
 30
0.0
 10
236.5220910606587
 20
181.501860793754
 30
0.0
 10
236.5302139192692
 20
181.4991868783156
 30
0.0
 10
236.5385456458424
 20
181.4978966058964
 30
0.0
  0
SPLINE
  5
17B
330
1F
100
AcDbEntity
  8
1
100
AcDbSpline
210
0.0
220
0.0
230
1.0
 70
     8
 71
     3
 72
    10
 73
     6
 74
     0
 42
0.000000001
 43
0.0000000001
 40
0.0
 40
0.0
 40
0.0
 40
0.0
 40
0.5386513471140897
 40
0.5386513471140897
 40
1.0
 40
1.0
 40
1.0
 40
1.0
 10
237.7026369586072
 20
181.8421195032375
 30
0.0
 10
237.6996418323882
 20
181.8323556431812
 30
0.0
 10
237.6983146602651
 20
181.8219862233632
 30
0.0
 10
237.6992164111607
 20
181.8031258411314
 30
0.0
 10
237.7009761952109
 20
181.794378786519
 30
0.0
 10
237.7040302675052
 20
181.7861739397106
 30
0.0
  0
SPLINE
  5
17C
330
1F
100
AcDbEntity
  8
1
100
AcDbSpline
210
0.0
220
0.0
230
1.0
 70
     8
 71
     3
 72
    14
 73
    10
 74
     0
 42
0.000000001
 43
0.0000000001
 40
0.0
 40
0.0
 40
0.0
 40
0.0
 40
0.2764527118368676
 40
0.2764527118368676
 40
0.5540765605364263
 40
0.5540765605364263
 40
0.8433732362105825
 40
0.8433732362105825
 40
1.0
 40
1.0
 40
1.0
 40
1.0
 10
238.6546539345596
 20
180.2213098184685
 30
0.0
 10
238.6532870660078
 20
180.2306700076317
 30
0.0
 10
238.6502359628801
 20
180.2398567803481
 30
0.0
 10
238.6414131688479
 20
180.2564361026289
 30
0.0
 10
238.635517074475
 20
180.264046198576
 30
0.0
 10
238.6215241797084
 20
180.2770660893064
 30
0.0
 10
238.6131632192943
 20
180.2825471616138
 30
0.0
 10
238.5993727029111
 20
180.2886573736529
 30
0.0
 10
238.5942851511588
 20
180.2903902531733
 30
0.0
 10
238.5890948512686
 20
180.2916616920671
 30
0.0
  0
SPLINE
  5
17D
330
1F
100
AcDbEntity
  8
1
100
AcDbSpline
210
0.0
220
0.0
230
1.0
 70
     8
 71
     3
 72
    10
 73
     6
 74
     0
 42
0.000000001
 43
0.0000000001
 40
0.0
 40
0.0
 40
0.0
 40
0.0
 40
0.5275641435890669
 40
0.5275641435890669
 40
1.0
 40
1.0
 40
1.0
 40
1.0
 10
238.5413501327488
 20
180.3216609196759
 30
0.0
 10
238.5476838533653
 20
180.3138462299551
 30
0.0
 10
238.555496719657
 20
180.30711350785
 30
0.0
 10
238.5718013839888
 20
180.2973060883033
 30
0.0
 10
238.5803182502004
 20
180.2938116472122
 30
0.0
 10
238.5890948512686
 20
180.2916616920671
 30
0.0
  0
SPLINE
  5
17E
330
1F
100
AcDbEntity
  8
1
100
AcDbSpline
210
0.0
220
0.0
230
1.0
 70
     8
 71
     3
 72
    14
 73
    10
 74
     0
 42
0.000000001
 43
0.0000000001
 40
0.0
 40
0.0
 40
0.0
 40
0.0
 40
0.3040655795356315
 40
0.3040655795356315
 40
0.6107538131668998
 40
0.6107538131668998
 40
0.908132810757684
 40
0.908132810757684
 40
1.0
 40
1.0
 40
1.0
 40
1.0
 10
237.7026369586072
 20
181.8421195032375
 30
0.0
 10
237.7056351996569
 20
181.8518935173802
 30
0.0
 10
237.7069613275773
 20
181.8622750150613
 30
0.0
 10
237.7059824356302
 20
181.8826584825725
 30
0.0
 10
237.7036258419653
 20
181.8929505678116
 30
0.0
 10
237.6955432955571
 20
181.9114990205072
 30
0.0
 10
237.6897943580626
 20
181.9200771435947
 30
0.0
 10
237.680505012571
 20
181.9294906052633
 30
0.0
 10
237.6781477194624
 20
181.9316161291618
 30
0.0
 10
237.675671922413
 20
181.9335967982492
 30
0.0
  0
SPLINE
  5
17F
330
1F
100
AcDbEntity
  8
1
100
AcDbSpline
210
0.0
220
0.0
230
1.0
 70
     8
 71
     3
 72
    10
 73
     6
 74
     0
 42
0.000000001
 43
0.0000000001
 40
0.0
 40
0.0
 40
0.0
 40
0.0
 40
0.5281910294147043
 40
0.5281910294147043
 40
1.0
 40
1.0
 40
1.0
 40
1.0
 10
237.7040302675052
 20
179.459407524333
 30
0.0
 10
237.7005452510177
 20
179.4503890434919
 30
0.0
 10
237.6987499419849
 20
179.4406716637675
 30
0.0
 10
237.6986576783709
 20
179.4224667895617
 30
0.0
 10
237.7000049908253
 20
179.4137557595835
 30
0.0
 10
237.7026369586072
 20
179.4054773937655
 30
0.0
  0
SPLINE
  5
180
330
1F
100
AcDbEntity
  8
1
100
AcDbSpline
210
0.0
220
0.0
230
1.0
 70
     8
 71
     3
 72
    14
 73
    10
 74
     0
 42
0.000000001
 43
0.0000000001
 40
0.0
 40
0.0
 40
0.0
 40
0.0
 40
0.2759548436939029
 40
0.2759548436939029
 40
0.5535523911871846
 40
0.5535523911871846
 40
0.842818882912906
 40
0.842818882912906
 40
1.0
 40
1.0
 40
1.0
 40
1.0
 10
237.675671922413
 20
179.3174137527032
 30
0.0
 10
237.6830024665073
 20
179.3230329432741
 30
0.0
 10
237.6893278707666
 20
179.3299603085056
 30
0.0
 10
237.6990680548999
 20
179.3452151908645
 30
0.0
 10
237.7026010184853
 20
179.3537522893975
 30
0.0
 10
237.7066530814352
 20
179.3715881164132
 30
0.0
 10
237.7070987053575
 20
179.3811395098342
 30
0.0
 10
237.7053127962596
 20
179.3954999794367
 30
0.0
 10
237.7042009736556
 20
179.4005580749181
 30
0.0
 10
237.7026369586072
 20
179.4054773937655
 30
0.0
  0
SPLINE
  5
181
330
1F
100
AcDbEntity
  8
1
100
AcDbSpline
210
0.0
220
0.0
230
1.0
 70
     8
 71
     3
 72
     8
 73
     4
 74
     0
 42
0.000000001
 43
0.0000000001
 40
0.0
 40
0.0
 40
0.0
 40
0.0
 40
1.0
 40
1.0
 40
1.0
 40
1.0
 10
224.5747195727413
 20
183.2460062708563
 30
0.0
 10
224.456673832692
 20
183.2930209309025
 30
0.0
 10
224.3386280926428
 20
183.3365774863883
 30
0.0
 10
224.2205823525936
 20
183.3766309138936
 30
0.0
  0
SPLINE
  5
182
330
1F
100
AcDbEntity
  8
1
100
AcDbSpline
210
0.0
220
0.0
230
1.0
 70
     8
 71
     3
 72
    12
 73
     8
 74
     0
 42
0.000000001
 43
0.0000000001
 40
0.0
 40
0.0
 40
0.0
 40
0.0
 40
0.2597735798094155
 40
0.2597735798094155
 40
0.6298867899047078
 40
0.6298867899047078
 40
1.0
 40
1.0
 40
1.0
 40
1.0
 10
231.5526800319149
 20
178.7802100495142
 30
0.0
 10
231.7884945565962
 20
178.7032267368892
 30
0.0
 10
232.026277716418
 20
178.6362215380371
 30
0.0
 10
232.6071931948004
 20
178.4971191880383
 30
0.0
 10
232.9521771155755
 20
178.4349609148588
 30
0.0
 10
233.6485249918773
 20
178.3489640656282
 30
0.0
 10
234.0000738366424
 20
178.3253506782182
 30
0.0
 10
234.3478775925387
 20
178.3205508191785
 30
0.0
  0
SPLINE
  5
183
330
1F
100
AcDbEntity
  8
1
100
AcDbSpline
210
0.0
220
0.0
230
1.0
 70
     8
 71
     2
 72
    12
 73
     9
 74
     0
 42
0.000000001
 43
0.0000000001
 40
0.0
 40
0.0
 40
0.0
 40
0.25
 40
0.25
 40
0.5
 40
0.5
 40
0.75
 40
0.75
 40
1.0
 40
1.0
 40
1.0
 10
238.1589887950871
 20
178.1652337856689
 30
0.0
 10
238.8339385935207
 20
178.1661379031856
 30
0.0
 10
239.4124244678943
 20
178.1774041992886
 30
0.0
 10
239.9714419993012
 20
178.1882913398649
 30
0.0
 10
240.358743460899
 20
178.2072924142344
 30
0.0
 10
240.72349810213
 20
178.2251873378323
 30
0.0
 10
240.8972149311941
 20
178.2483690751223
 30
0.0
 10
241.0595573782158
 20
178.2700329517781
 30
0.0
 10
241.045374273377
 20
178.2948630918116
 30
0.0
  0
SPLINE
  5
184
330
1F
100
AcDbEntity
  8
1
100
AcDbSpline
210
0.0
220
0.0
230
1.0
 70
     8
 71
     3
 72
    10
 73
     6
 74
     0
 42
0.000000001
 43
0.0000000001
 40
0.0
 40
0.0
 40
0.0
 40
0.0
 40
0.8425535826269713
 40
0.8425535826269713
 40
1.0
 40
1.0
 40
1.0
 40
1.0
 10
233.3151120560125
 20
183.1845886890354
 30
0.0
 10
233.16081229866
 20
183.1797741427751
 30
0.0
 10
233.005697825139
 20
183.1910593061559
 30
0.0
 10
232.8480346402103
 20
183.2193062184614
 30
0.0
 10
232.8241135625233
 20
183.2241620130666
 30
0.0
 10
232.8011993216756
 20
183.2293663807642
 30
0.0
  0
SPLINE
  5
185
330
1F
100
AcDbEntity
  8
1
100
AcDbSpline
210
0.0
220
0.0
230
1.0
 70
    24
 71
     1
 72
     4
 73
     2
 74
     0
 42
0.000000001
 43
0.0000000001
 40
0.0
 40
0.0
 40
1.0
 40
1.0
 10
234.3764065099649
 20
178.2237788933306
 30
0.0
 10
234.3151120560125
 20
178.155533619704
 30
0.0
  0
SPLINE
  5
186
330
1F
100
AcDbEntity
  8
1
100
AcDbSpline
210
0.0
220
0.0
230
1.0
 70
     8
 71
     3
 72
    10
 73
     6
 74
     0
 42
0.000000001
 43
0.0000000001
 40
0.0
 40
0.0
 40
0.0
 40
0.0
 40
0.5
 40
0.5
 40
1.0
 40
1.0
 40
1.0
 40
1.0
 10
232.6598620964476
 20
178.6154985266124
 30
0.0
 10
232.6642106043534
 20
178.662806680305
 30
0.0
 10
232.6725833263004
 20
178.7088387748807
 30
0.0
 10
232.6967352349316
 20
178.7972281795927
 30
0.0
 10
232.7127218467928
 20
178.8400773719355
 30
0.0
 10
232.7318848109278
 20
178.8800802369039
 30
0.0
  0
SPLINE
  5
187
330
1F
100
AcDbEntity
  8
1
100
AcDbSpline
210
0.0
220
0.0
230
1.0
 70
     8
 71
     3
 72
    15
 73
    11
 74
     0
 42
0.000000001
 43
0.0000000001
 40
0.0
 40
0.0
 40
0.0
 40
0.0
 40
0.1331440832223315
 40
0.2638552028767649
 40
0.3921893764814601
 40
0.5181998898346727
 40
0.6419377150047226
 40
0.7634519708179269
 40
0.8827904202795446
 40
1.0
 40
1.0
 40
1.0
 40
1.0
 10
234.3151120560125
 20
178.155533619704
 30
0.0
 10
234.275130827685
 20
178.1589020574243
 30
0.0
 10
234.1958989545421
 20
178.1655773808527
 30
0.0
 10
234.0720210250665
 20
178.1771499997979
 30
0.0
 10
233.9467387319826
 20
178.1899136226174
 30
0.0
 10
233.8202644260381
 20
178.2040495285196
 30
0.0
 10
233.6933719633353
 20
178.2195581929273
 30
0.0
 10
233.5666299328558
 20
178.2364902673755
 30
0.0
 10
233.4406641472539
 20
178.2546620540506
 30
0.0
 10
233.3567109007499
 20
178.2680443041918
 30
0.0
 10
233.3151120560125
 20
178.2746752109053
 30
0.0
  0
SPLINE
  5
188
330
1F
100
AcDbEntity
  8
1
100
AcDbSpline
210
0.0
220
0.0
230
1.0
 70
     8
 71
     3
 72
     8
 73
     4
 74
     0
 42
0.000000001
 43
0.0000000001
 40
0.0
 40
0.0
 40
0.0
 40
0.0
 40
1.0
 40
1.0
 40
1.0
 40
1.0
 10
234.4268117860108
 20
178.1489604671287
 30
0.0
 10
234.389578542678
 20
178.1512349037683
 30
0.0
 10
234.3523452993451
 20
178.1534259136078
 30
0.0
 10
234.3151120560125
 20
178.155533619704
 30
0.0
  0
SPLINE
  5
189
330
1F
100
AcDbEntity
  8
1
100
AcDbSpline
210
0.0
220
0.0
230
1.0
 70
    24
 71
     1
 72
     4
 73
     2
 74
     0
 42
0.000000001
 43
0.0000000001
 40
0.0
 40
0.0
 40
1.0
 40
1.0
 10
234.3764065099649
 20
162.4969126781724
 30
0.0
 10
234.3151120560125
 20
162.4584225040965
 30
0.0
  0
SPLINE
  5
18A
330
1F
100
AcDbEntity
  8
1
100
AcDbSpline
210
0.0
220
0.0
230
1.0
 70
    24
 71
     1
 72
     4
 73
     2
 74
     0
 42
0.000000001
 43
0.0000000001
 40
0.0
 40
0.0
 40
1.0
 40
1.0
 10
241.045374273377
 20
165.0734184371086
 30
0.0
 10
241.0398113458077
 20
165.0822273972499
 30
0.0
  0
SPLINE
  5
18B
330
1F
100
AcDbEntity
  8
1
100
AcDbSpline
210
0.0
220
0.0
230
1.0
 70
     8
 71
     3
 72
     8
 73
     4
 74
     0
 42
0.000000001
 43
0.0000000001
 40
0.0
 40
0.0
 40
0.0
 40
0.0
 40
1.0
 40
1.0
 40
1.0
 40
1.0
 10
234.4859262740689
 20
162.4348379516539
 30
0.0
 10
234.4651451837252
 20
162.4223468318338
 30
0.0
 10
234.4454275484718
 20
162.4093851872045
 30
0.0
 10
234.4268117861792
 20
162.3959855889564
 30
0.0
  0
SPLINE
  5
18C
330
1F
100
AcDbEntity
  8
1
100
AcDbSpline
210
0.0
220
0.0
230
1.0
 70
    24
 71
     1
 72
     4
 73
     2
 74
     0
 42
0.000000001
 43
0.0000000001
 40
0.0
 40
0.0
 40
1.0
 40
1.0
 10
241.045374273377
 20
178.2948630918116
 30
0.0
 10
241.0398113458077
 20
178.2952513820806
 30
0.0
  0
SPLINE
  5
18D
330
1F
100
AcDbEntity
  8
1
100
AcDbSpline
210
0.0
220
0.0
230
1.0
 70
     8
 71
     3
 72
     8
 73
     4
 74
     0
 42
0.000000001
 43
0.0000000001
 40
0.0
 40
0.0
 40
0.0
 40
0.0
 40
1.0
 40
1.0
 40
1.0
 40
1.0
 10
238.1674711096657
 20
161.5754852811295
 30
0.0
 10
238.1658100426049
 20
161.592958634947
 30
0.0
 10
238.1629815841132
 20
161.6105349524783
 30
0.0
 10
238.1589896402525
 20
161.6281758422824
 30
0.0
  0
SPLINE
  5
18E
330
1F
100
AcDbEntity
  8
1
100
AcDbSpline
210
0.0
220
0.0
230
1.0
 70
     8
 71
     3
 72
     8
 73
     4
 74
     0
 42
0.000000001
 43
0.0000000001
 40
0.0
 40
0.0
 40
0.0
 40
0.0
 40
1.0
 40
1.0
 40
1.0
 40
1.0
 10
234.4859262740689
 20
178.2176200558073
 30
0.0
 10
234.4651451837252
 20
178.1949068481406
 30
0.0
 10
234.4454275484718
 20
178.1720087716995
 30
0.0
 10
234.4268117861792
 20
178.1489604669673
 30
0.0
  0
SPLINE
  5
18F
330
1F
100
AcDbEntity
  8
1
100
AcDbSpline
210
0.0
220
0.0
230
1.0
 70
     8
 71
     3
 72
     8
 73
     4
 74
     0
 42
0.000000001
 43
0.0000000001
 40
0.0
 40
0.0
 40
0.0
 40
0.0
 40
1.0
 40
1.0
 40
1.0
 40
1.0
 10
234.3764065099649
 20
162.4969126781724
 30
0.0
 10
234.4128804768942
 20
162.4763002299163
 30
0.0
 10
234.4493877267793
 20
162.4556088042335
 30
0.0
 10
234.4859262740849
 20
162.4348379516601
 30
0.0
  0
SPLINE
  5
190
330
1F
100
AcDbEntity
  8
1
100
AcDbSpline
210
0.0
220
0.0
230
1.0
 70
     8
 71
     3
 72
     8
 73
     4
 74
     0
 42
0.000000001
 43
0.0000000001
 40
0.0
 40
0.0
 40
0.0
 40
0.0
 40
1.0
 40
1.0
 40
1.0
 40
1.0
 10
234.4268117860108
 20
162.3959855885809
 30
0.0
 10
234.389578542678
 20
162.4167685501377
 30
0.0
 10
234.3523452993451
 20
162.4375810050444
 30
0.0
 10
234.3151120560125
 20
162.4584225040965
 30
0.0
  0
SPLINE
  5
191
330
1F
100
AcDbEntity
  8
1
100
AcDbSpline
210
0.0
220
0.0
230
1.0
 70
     8
 71
     3
 72
     8
 73
     4
 74
     0
 42
0.000000001
 43
0.0000000001
 40
0.0
 40
0.0
 40
0.0
 40
0.0
 40
1.0
 40
1.0
 40
1.0
 40
1.0
 10
238.1674711096657
 20
178.0987457761312
 30
0.0
 10
238.1658100426049
 20
178.1210606353991
 30
0.0
 10
238.1629815841132
 20
178.1432337138416
 30
0.0
 10
238.1589896402525
 20
178.1652337713743
 30
0.0
  0
SPLINE
  5
192
330
1F
100
AcDbEntity
  8
1
100
AcDbSpline
210
0.0
220
0.0
230
1.0
 70
     8
 71
     3
 72
    25
 73
    21
 74
     0
 42
0.000000001
 43
0.0000000001
 40
0.0
 40
0.0
 40
0.0
 40
0.0
 40
0.0332494398405261
 40
0.0664579441825461
 40
0.0996580099891899
 40
0.1328822150252763
 40
0.1661631108921957
 40
0.1995331166371261
 40
0.2330244144837104
 40
0.2666688491557611
 40
0.3004978321417708
 40
0.3345422520832963
 40
0.496667700355963
 40
0.6672704015693306
 40
0.7203141479760616
 40
0.7742567907753372
 40
0.8291498805615066
 40
0.8850417903852523
 40
0.9419777664736596
 40
1.0
 40
1.0
 40
1.0
 40
1.0
 10
227.0640709109248
 20
182.0764312989958
 30
0.0
 10
227.1009387502677
 20
182.030013117744
 30
0.0
 10
227.1746290386134
 20
181.9372339036134
 30
0.0
 10
227.2937218380839
 20
181.7932871273631
 30
0.0
 10
227.4193042900542
 20
181.6463869802048
 30
0.0
 10
227.5522610249111
 20
181.4964803350179
 30
0.0
 10
227.6927116551069
 20
181.3440122879744
 30
0.0
 10
227.840975740267
 20
181.1893262358399
 30
0.0
 10
227.9973139767125
 20
181.0328244147976
 30
0.0
 10
228.1619877420578
 20
180.8749298557437
 30
0.0
 10
228.3352696707791
 20
180.7160810236707
 30
0.0
 10
228.7451369449785
 20
180.3574832928745
 30
0.0
 10
229.4802993755167
 20
179.7964797583847
 30
0.0
 10
230.38089960522
 20
179.2812555279521
 30
0.0
 10
231.0750777421604
 20
178.9685475080862
 30
0.0
 10
231.491850629611
 20
178.8034380391849
 30
0.0
 10
231.9267874839199
 20
178.6545467980972
 30
0.0
 10
232.3794602653883
 20
178.5245372814388
 30
0.0
 10
232.8486478683936
 20
178.4132937849052
 30
0.0
 10
233.1698710879879
 20
178.3593947664344
 30
0.0
 10
233.3320003410778
 20
178.332190607227
 30
0.0
  0
SPLINE
  5
193
330
1F
100
AcDbEntity
  8
1
100
AcDbSpline
210
0.0
220
0.0
230
1.0
 70
     8
 71
     3
 72
     8
 73
     4
 74
     0
 42
0.000000001
 43
0.0000000001
 40
0.0
 40
0.0
 40
0.0
 40
0.0
 40
1.0
 40
1.0
 40
1.0
 40
1.0
 10
227.0640646291502
 20
182.0764268813788
 30
0.0
 10
227.0253731905165
 20
182.0965944282276
 30
0.0
 10
226.9866480997379
 20
182.1169613500361
 30
0.0
 10
226.9478919923858
 20
182.1375232875313
 30
0.0
  0
SPLINE
  5
194
330
1F
100
AcDbEntity
  8
1
100
AcDbSpline
210
0.0
220
0.0
230
1.0
 70
     8
 71
     3
 72
     8
 73
     4
 74
     0
 42
0.000000001
 43
0.0000000001
 40
0.0
 40
0.0
 40
0.0
 40
0.0
 40
1.0
 40
1.0
 40
1.0
 40
1.0
 10
234.9293580251071
 20
162.5161814839974
 30
0.0
 10
234.8430385801941
 20
162.5560579589512
 30
0.0
 10
234.7567900984914
 20
162.5959865811388
 30
0.0
 10
234.6706169627432
 20
162.6359700869879
 30
0.0
  0
SPLINE
  5
195
330
1F
100
AcDbEntity
  8
1
100
AcDbSpline
210
0.0
220
0.0
230
1.0
 70
     8
 71
     3
 72
    13
 73
     9
 74
     0
 42
0.000000001
 43
0.0000000001
 40
0.0
 40
0.0
 40
0.0
 40
0.0
 40
0.124866188241442
 40
0.2495566333531508
 40
0.37464900907214
 40
0.5007143973818743
 40
0.7497195511478162
 40
1.0
 40
1.0
 40
1.0
 40
1.0
 10
233.3319965043611
 20
178.3321903865218
 30
0.0
 10
233.3782631776169
 20
178.325345579114
 30
0.0
 10
233.4707314060202
 20
178.3116655980343
 30
0.0
 10
233.6082554711058
 20
178.2937137304021
 30
0.0
 10
233.7444847354527
 20
178.2775518532575
 30
0.0
 10
233.9223428802008
 20
178.2587161714766
 30
0.0
 10
234.138792569084
 20
178.2394023694561
 30
0.0
 10
234.2970671059717
 20
178.2289955791846
 30
0.0
 10
234.3764065099649
 20
178.2237788933306
 30
0.0
  0
SPLINE
  5
196
330
1F
100
AcDbEntity
  8
1
100
AcDbSpline
210
0.0
220
0.0
230
1.0
 70
     8
 71
     3
 72
     8
 73
     4
 74
     0
 42
0.000000001
 43
0.0000000001
 40
0.0
 40
0.0
 40
0.0
 40
0.0
 40
1.0
 40
1.0
 40
1.0
 40
1.0
 10
234.3764065099649
 20
178.2237788933306
 30
0.0
 10
234.4128804768941
 20
178.221544263492
 30
0.0
 10
234.4493877267792
 20
178.2194911428894
 30
0.0
 10
234.4859262740848
 20
178.2176200557766
 30
0.0
  0
SPLINE
  5
197
330
1F
100
AcDbEntity
  8
1
100
AcDbSpline
210
0.0
220
0.0
230
1.0
 70
     8
 71
     2
 72
     6
 73
     3
 74
     0
 42
0.000000001
 43
0.0000000001
 40
0.0
 40
0.0
 40
0.0
 40
1.0
 40
1.0
 40
1.0
 10
232.5111222237027
 20
183.6069293480852
 30
0.0
 10
228.7241192415403
 20
183.6077443387475
 30
0.0
 10
224.969158798462
 20
183.5670044649738
 30
0.0
  0
SPLINE
  5
198
330
1F
100
AcDbEntity
  8
1
100
AcDbSpline
210
0.0
220
0.0
230
1.0
 70
    24
 71
     1
 72
     4
 73
     2
 74
     0
 42
0.000000001
 43
0.0000000001
 40
0.0
 40
0.0
 40
1.0
 40
1.0
 10
233.3319965043611
 20
178.3321903865218
 30
0.0
 10
233.3151120560125
 20
178.2746752109053
 30
0.0
  0
SPLINE
  5
199
330
1F
100
AcDbEntity
  8
1
100
AcDbSpline
210
0.0
220
0.0
230
1.0
 70
     8
 71
     3
 72
    21
 73
    17
 74
     0
 42
0.000000001
 43
0.0000000001
 40
0.0
 40
0.0
 40
0.0
 40
0.0
 40
0.0514741032206714
 40
0.1018042684906505
 40
0.1514448011134717
 40
0.200869027126955
 40
0.2505564544625981
 40
0.3131471631421893
 40
0.3757777911579587
 40
0.5007376741150612
 40
0.6255712079868462
 40
0.6881215322401989
 40
0.7506554812218819
 40
0.8333070795828936
 40
0.9156517335686819
 40
1.0
 40
1.0
 40
1.0
 40
1.0
 10
224.2205823525936
 20
183.3766309138936
 30
0.0
 10
224.1977349951564
 20
183.3847398573296
 30
0.0
 10
224.1525480299582
 20
183.4007775345902
 30
0.0
 10
224.0968596170731
 20
183.4252756163321
 30
0.0
 10
224.0514105218659
 20
183.4495294648972
 30
0.0
 10
224.017016373004
 20
183.4734941332103
 30
0.0
 10
223.9913206692385
 20
183.4989388751614
 30
0.0
 10
223.9789591955243
 20
183.525374372458
 30
0.0
 10
223.9881383082552
 20
183.5606409223881
 30
0.0
 10
224.0489107105354
 20
183.5989234249516
 30
0.0
 10
224.1758212385326
 20
183.6272601492751
 30
0.0
 10
224.3072380206173
 20
183.6443125786133
 30
0.0
 10
224.431819351299
 20
183.655589619451
 30
0.0
 10
224.5835703852244
 20
183.6646809835392
 30
0.0
 10
224.7638564328176
 20
183.6713014728181
 30
0.0
 10
224.8910071574619
 20
183.6732002912287
 30
0.0
 10
224.9553466817343
 20
183.6741611121249
 30
0.0
  0
SPLINE
  5
19A
330
1F
100
AcDbEntity
  8
1
100
AcDbSpline
210
0.0
220
0.0
230
1.0
 70
     8
 71
     3
 72
    16
 73
    12
 74
     0
 42
0.000000001
 43
0.0000000001
 40
0.0
 40
0.0
 40
0.0
 40
0.0
 40
0.1069767193562551
 40
0.2148827962544888
 40
0.3237647774956062
 40
0.4336679689801164
 40
0.5446364248401173
 40
0.6567129420560734
 40
0.7699390601480732
 40
0.8843550655164204
 40
1.0
 40
1.0
 40
1.0
 40
1.0
 10
226.9478830748349
 20
182.1375298714959
 30
0.0
 10
226.8552371216301
 20
182.1834223256882
 30
0.0
 10
226.6691403558468
 20
182.2756059236072
 30
0.0
 10
226.3959413464431
 20
182.4107732226728
 30
0.0
 10
226.1256047548911
 20
182.5435944167791
 30
0.0
 10
225.858648713356
 20
182.6731778865196
 30
0.0
 10
225.594941298254
 20
182.7988716641183
 30
0.0
 10
225.3344841013387
 20
182.9199872694194
 30
0.0
 10
225.0774055811274
 20
183.035570127301
 30
0.0
 10
224.8231812428423
 20
183.1456203537258
 30
0.0
 10
224.6578345432802
 20
183.2124253465173
 30
0.0
 10
224.5747195727413
 20
183.2460062708563
 30
0.0
  0
SPLINE
  5
19B
330
1F
100
AcDbEntity
  8
1
100
AcDbSpline
210
0.0
220
0.0
230
1.0
 70
     8
 71
     3
 72
    17
 73
    13
 74
     0
 42
0.000000001
 43
0.0000000001
 40
0.0
 40
0.0
 40
0.0
 40
0.0
 40
0.0638947120351133
 40
0.1248417561157112
 40
0.1828598645312502
 40
0.2379707902284608
 40
0.2901999529894202
 40
0.3395772580787024
 40
0.5129272734178231
 40
0.6751716871956234
 40
0.839989632293
 40
1.0
 40
1.0
 40
1.0
 40
1.0
 10
224.9691588029047
 20
183.567004204499
 30
0.0
 10
224.9366903737859
 20
183.5676722585768
 30
0.0
 10
224.8732513882985
 20
183.5689775472556
 30
0.0
 10
224.7822428848404
 20
183.5697203082109
 30
0.0
 10
224.6976907486925
 20
183.5696721300574
 30
0.0
 10
224.6199126361109
 20
183.5688231985282
 30
0.0
 10
224.5489703322324
 20
183.5672215274219
 30
0.0
 10
224.4300627888526
 20
183.5628146917851
 30
0.0
 10
224.2823834088053
 20
183.5505410865279
 30
0.0
 10
224.1474144850481
 20
183.5223142859388
 30
0.0
 10
224.0830685506788
 20
183.4807194210814
 30
0.0
 10
224.0869117423081
 20
183.4458428146101
 30
0.0
 10
224.0992843803367
 20
183.4274254619661
 30
0.0
  0
SPLINE
  5
19C
330
1F
100
AcDbEntity
  8
1
100
AcDbSpline
210
0.0
220
0.0
230
1.0
 70
     8
 71
     3
 72
    25
 73
    21
 74
     0
 42
0.000000001
 43
0.0000000001
 40
0.0
 40
0.0
 40
0.0
 40
0.0
 40
0.031260591363923
 40
0.0624052046940231
 40
0.0934683989956734
 40
0.1244850052696495
 40
0.1554900113471589
 40
0.1865184440987387
 40
0.2176052509844903
 40
0.2487851829388583
 40
0.3734370792744009
 40
0.4982880916692296
 40
0.5587283668290864
 40
0.6193499179687196
 40
0.6803955171006032
 40
0.7421029194741003
 40
0.8047023274955455
 40
0.8684142622375333
 40
0.9334479148264847
 40
1.0
 40
1.0
 40
1.0
 40
1.0
 10
233.3151115185549
 20
178.2747212647678
 30
0.0
 10
233.2257820019196
 20
178.2892087438533
 30
0.0
 10
233.0474543846987
 20
178.3181299529022
 30
0.0
 10
232.7826252016126
 20
178.3710579952552
 30
0.0
 10
232.5205296083753
 20
178.4307742607458
 30
0.0
 10
232.2613086109932
 20
178.4978818637576
 30
0.0
 10
232.0049252408711
 20
178.5720978901255
 30
0.0
 10
231.7513928682519
 20
178.6533561211445
 30
0.0
 10
231.5007007275067
 20
178.7415257348681
 30
0.0
 10
231.0056762091959
 20
178.9311054898063
 30
0.0
 10
230.2903574389631
 20
179.2629028817056
 30
0.0
 10
229.5675116506464
 20
179.6977316217499
 30
0.0
 10
229.0401637118412
 20
180.0691375927381
 30
0.0
 10
228.6731122993665
 20
180.3540267088864
 30
0.0
 10
228.3284758533864
 20
180.6473173333965
 30
0.0
 10
228.0062750242744
 20
180.9465091947993
 30
0.0
 10
227.7063570579872
 20
181.2489398221621
 30
0.0
 10
227.4293318213002
 20
181.5511622962065
 30
0.0
 10
227.172820591207
 20
181.8513627947822
 30
0.0
 10
227.0234411982818
 20
182.0414107637991
 30
0.0
 10
226.9478896206551
 20
182.1375312768284
 30
0.0
  0
SPLINE
  5
19D
330
1F
100
AcDbEntity
  8
1
100
AcDbSpline
210
0.0
220
0.0
230
1.0
 70
    24
 71
     1
 72
     4
 73
     2
 74
     0
 42
0.000000001
 43
0.0000000001
 40
0.0
 40
0.0
 40
1.0
 40
1.0
 10
224.9691588029047
 20
183.567004204499
 30
0.0
 10
224.9553466817344
 20
183.6741611121249
 30
0.0
  0
SPLINE
  5
19E
330
1F
100
AcDbEntity
  8
1
100
AcDbSpline
210
0.0
220
0.0
230
1.0
 70
     8
 71
     3
 72
     8
 73
     4
 74
     0
 42
0.000000001
 43
0.0000000001
 40
0.0
 40
0.0
 40
0.0
 40
0.0
 40
1.0
 40
1.0
 40
1.0
 40
1.0
 10
232.6575582517251
 20
178.5166674427358
 30
0.0
 10
232.6560807159158
 20
178.5494211051111
 30
0.0
 10
232.6568233694974
 20
178.5824397016709
 30
0.0
 10
232.6598620964481
 20
178.6154985266123
 30
0.0
  0
SPLINE
  5
19F
330
1F
100
AcDbEntity
  8
1
100
AcDbSpline
210
0.0
220
0.0
230
1.0
 70
     8
 71
     3
 72
    11
 73
     7
 74
     0
 42
0.000000001
 43
0.0000000001
 40
0.0
 40
0.0
 40
0.0
 40
0.0
 40
0.2412637251358268
 40
0.4989467814221755
 40
0.9804155530006624
 40
1.0
 40
1.0
 40
1.0
 40
1.0
 10
224.9553466772918
 20
183.6741611153025
 30
0.0
 10
225.5618426967953
 20
183.6803306107041
 30
0.0
 10
226.8161101450257
 20
183.6930894697985
 30
0.0
 10
229.2808402993905
 20
183.7094452977042
 30
0.0
 10
231.1883554762054
 20
183.7147138345743
 30
0.0
 10
232.4480721118937
 20
183.714529697006
 30
0.0
 10
232.4973101025324
 20
183.7145224997018
 30
0.0
  0
SPLINE
  5
1A0
330
1F
100
AcDbEntity
  8
1
100
AcDbSpline
210
0.0
220
0.0
230
1.0
 70
     8
 71
     3
 72
    10
 73
     6
 74
     0
 42
0.000000001
 43
0.0000000001
 40
0.0
 40
0.0
 40
0.0
 40
0.0
 40
0.8474640852713271
 40
0.8474640852713271
 40
1.0
 40
1.0
 40
1.0
 40
1.0
 10
232.9238968130509
 20
178.7934121657811
 30
0.0
 10
232.9630991057927
 20
178.7057633806048
 30
0.0
 10
233.0074417971424
 20
178.6133530856034
 30
0.0
 10
233.0688029014505
 20
178.495987785553
 30
0.0
 10
233.078395680164
 20
178.4778765819508
 30
0.0
 10
233.088256145317
 20
178.4595248023804
 30
0.0
  0
SPLINE
  5
1A1
330
1F
100
AcDbEntity
  8
1
100
AcDbSpline
210
0.0
220
0.0
230
1.0
 70
     8
 71
     3
 72
    14
 73
    10
 74
     0
 42
0.000000001
 43
0.0000000001
 40
0.0
 40
0.0
 40
0.0
 40
0.0
 40
0.25
 40
0.25
 40
0.5
 40
0.5
 40
0.75
 40
0.75
 40
1.0
 40
1.0
 40
1.0
 40
1.0
 10
213.50571438055
 20
167.7238645835932
 30
0.0
 10
213.50571438055
 20
167.6439499389499
 30
0.0
 10
213.5127553308622
 20
167.5656809783396
 30
0.0
 10
213.5436556282981
 20
167.4126975871073
 30
0.0
 10
213.5676252412318
 20
167.337185076665
 30
0.0
 10
213.6403268935157
 20
167.1944714257011
 30
0.0
 10
213.6890218928691
 20
167.1270971465411
 30
0.0
 10
213.821880521801
 20
167.0205569079936
 30
0.0
 10
213.9111786332151
 20
166.9817622274292
 30
0.0
 10
214.00571438055
 20
166.9817622274292
 30
0.0
  0
SPLINE
  5
1A2
330
1F
100
AcDbEntity
  8
1
100
AcDbSpline
210
0.0
220
0.0
230
1.0
 70
     8
 71
     3
 72
    14
 73
    10
 74
     0
 42
0.000000001
 43
0.0000000001
 40
0.0
 40
0.0
 40
0.0
 40
0.0
 40
0.1249999999999999
 40
0.1249999999999999
 40
0.2499999999999999
 40
0.2499999999999999
 40
0.4999999999999999
 40
0.4999999999999999
 40
1.0
 40
1.0
 40
1.0
 40
1.0
 10
214.0057143805501
 20
179.4473147623153
 30
0.0
 10
213.9589387638954
 20
179.4473147623153
 30
0.0
 10
213.9119614567598
 20
179.438013193332
 30
0.0
 10
213.826789006804
 20
179.4050769281946
 30
0.0
 10
213.7890646996888
 20
179.3821831809958
 30
0.0
 10
213.6886614424752
 20
179.3017339937656
 30
0.0
 10
213.6404251119069
 20
179.2346003346632
 30
0.0
 10
213.5321923163438
 20
179.0227299513058
 30
0.0
 10
213.50571438055
 20
178.8651669292996
 30
0.0
 10
213.50571438055
 20
178.7052124061512
 30
0.0
  0
SPLINE
  5
1A3
330
1F
100
AcDbEntity
  8
1
100
AcDbSpline
210
0.0
220
0.0
230
1.0
 70
     8
 71
     3
 72
    13
 73
     9
 74
     0
 42
0.000000001
 43
0.0000000001
 40
0.0
 40
0.0
 40
0.0
 40
0.0
 40
0.2159666301107919
 40
0.4253517851659326
 40
0.6532706601767641
 40
0.7510883107506956
 40
0.8708176467460095
 40
1.0
 40
1.0
 40
1.0
 40
1.0
 10
241.1593109888034
 20
166.2006201822765
 30
0.0
 10
241.1586648912359
 20
166.296672230709
 30
0.0
 10
241.1366445301666
 20
166.4879481249532
 30
0.0
 10
241.0412251719696
 20
166.7827724549262
 30
0.0
 10
240.9123838492243
 20
167.0235310366443
 30
0.0
 10
240.7750341451766
 20
167.2200999267288
 30
0.0
 10
240.6523581087951
 20
167.3708271561019
 30
0.0
 10
240.5523161349049
 20
167.476934766019
 30
0.0
 10
240.4966311733962
 20
167.5309309899508
 30
0.0
  0
SPLINE
  5
1A4
330
1F
100
AcDbEntity
  8
1
100
AcDbSpline
210
0.0
220
0.0
230
1.0
 70
     8
 71
     3
 72
    24
 73
    20
 74
     0
 42
0.000000001
 43
0.0000000001
 40
0.0
 40
0.0
 40
0.0
 40
0.0
 40
0.0336940902829599
 40
0.0788044938226563
 40
0.1241015895394685
 40
0.1695736748934573
 40
0.215209602865549
 40
0.2609992855789829
 40
0.306934232824379
 40
0.3530081173117664
 40
0.3992173555908654
 40
0.4455616904160089
 40
0.4920447570082864
 40
0.6183059738460165
 40
0.7458491656517025
 40
0.8091616351954531
 40
0.8725403350700883
 40
0.9361074390992335
 40
1.0
 40
1.0
 40
1.0
 40
1.0
 10
241.1588711349258
 20
178.1781587834535
 30
0.0
 10
241.1589981943088
 20
178.1769943443739
 30
0.0
 10
241.1585257701526
 20
178.1742686459744
 30
0.0
 10
241.1464333102191
 20
178.1699425536244
 30
0.0
 10
241.1221692658862
 20
178.1651549169568
 30
0.0
 10
241.0852824359998
 20
178.16029301858
 30
0.0
 10
241.0355173956884
 20
178.1553658080389
 30
0.0
 10
240.9723299328148
 20
178.150392780909
 30
0.0
 10
240.8953229164978
 20
178.1454040809292
 30
0.0
 10
240.8041374007662
 20
178.1404389712526
 30
0.0
 10
240.6985001632117
 20
178.1355451919855
 30
0.0
 10
240.5781942896421
 20
178.1307729619945
 30
0.0
 10
240.3660888380735
 20
178.1235670573342
 30
0.0
 10
240.0174550641965
 20
178.1145736771142
 30
0.0
 10
239.5664114649181
 20
178.1072654511695
 30
0.0
 10
239.1646201975645
 20
178.1027802609945
 30
0.0
 10
238.8463037625431
 20
178.1003632888956
 30
0.0
 10
238.513341161848
 20
178.0989293377024
 30
0.0
 10
238.2829569480674
 20
178.0988088465456
 30
0.0
 10
238.1674707084194
 20
178.0987484471356
 30
0.0
  0
SPLINE
  5
1A5
330
1F
100
AcDbEntity
  8
1
100
AcDbSpline
210
0.0
220
0.0
230
1.0
 70
     8
 71
     3
 72
     8
 73
     4
 74
     0
 42
0.000000001
 43
0.0000000001
 40
0.0
 40
0.0
 40
0.0
 40
0.0
 40
1.0
 40
1.0
 40
1.0
 40
1.0
 10
238.1116700417548
 20
161.9594278225561
 30
0.0
 10
237.9818686902931
 20
161.9532238607324
 30
0.0
 10
237.849850842601
 20
161.9524300275384
 30
0.0
 10
237.7155084733254
 20
161.9573099963559
 30
0.0
  0
SPLINE
  5
1A6
330
1F
100
AcDbEntity
  8
1
100
AcDbSpline
210
0.0
220
0.0
230
1.0
 70
     8
 71
     3
 72
    18
 73
    14
 74
     0
 42
0.000000001
 43
0.0000000001
 40
0.0
 40
0.0
 40
0.0
 40
0.0
 40
0.0584137220158279
 40
0.0584137220158279
 40
0.121186140548106
 40
0.121186140548106
 40
0.2467309776126623
 40
0.2467309776126623
 40
0.497820651741775
 40
0.497820651741775
 40
0.7489103258708875
 40
0.7489103258708875
 40
1.0
 40
1.0
 40
1.0
 40
1.0
 10
232.5802522976711
 20
180.6591555885644
 30
0.0
 10
232.5805824152144
 20
180.5897664786759
 30
0.0
 10
232.5824270722269
 20
180.5193918229238
 30
0.0
 10
232.5886459617543
 20
180.3821691478886
 30
0.0
 10
232.5931871024073
 20
180.3146448844819
 30
0.0
 10
232.6087466506473
 20
180.1284178874657
 30
0.0
 10
232.6219179413265
 20
180.0207665383699
 30
0.0
 10
232.6632802594785
 20
179.7344625595092
 30
0.0
 10
232.6943373002352
 20
179.5829266701865
 30
0.0
 10
232.757788054657
 20
179.3125413413296
 30
0.0
 10
232.7903393293314
 20
179.1955465249649
 30
0.0
 10
232.8564214008762
 20
178.9809722468283
 30
0.0
 10
232.8899696490149
 20
178.883821831553
 30
0.0
 10
232.9238968130509
 20
178.7934121657811
 30
0.0
  0
SPLINE
  5
1A7
330
1F
100
AcDbEntity
  8
1
100
AcDbSpline
210
0.0
220
0.0
230
1.0
 70
     8
 71
     3
 72
    10
 73
     6
 74
     0
 42
0.000000001
 43
0.0000000001
 40
0.0
 40
0.0
 40
0.0
 40
0.0
 40
0.4077594890579627
 40
0.4077594890579627
 40
1.0
 40
1.0
 40
1.0
 40
1.0
 10
238.5770343203236
 20
180.9403720557249
 30
0.0
 10
238.5713863698716
 20
180.9379624190853
 30
0.0
 10
238.5659632002613
 20
180.9349873257911
 30
0.0
 10
238.5535901798014
 20
180.9264522027969
 30
0.0
 10
238.5469071398323
 20
180.9202213785777
 30
0.0
 10
238.5413501327488
 20
180.9131739780776
 30
0.0
  0
SPLINE
  5
1A8
330
1F
100
AcDbEntity
  8
1
100
AcDbSpline
210
0.0
220
0.0
230
1.0
 70
     8
 71
     3
 72
    14
 73
    10
 74
     0
 42
0.000000001
 43
0.0000000001
 40
0.0
 40
0.0
 40
0.0
 40
0.0
 40
0.0247747757943109
 40
0.0247747757943109
 40
0.4545441739832254
 40
0.4545441739832254
 40
0.8712682772677986
 40
0.8712682772677986
 40
1.0
 40
1.0
 40
1.0
 40
1.0
 10
238.6157864171772
 20
180.9566057323601
 30
0.0
 10
238.6162906637293
 20
180.9569389211609
 30
0.0
 10
238.6167912866384
 20
180.9572770247998
 30
0.0
 10
238.6259000904414
 20
180.9635645251539
 30
0.0
 10
238.6336190020019
 20
180.9711447008003
 30
0.0
 10
238.6455863364427
 20
180.9881067321434
 30
0.0
 10
238.650101773851
 20
180.997682063825
 30
0.0
 10
238.6535468629461
 20
181.0107587301549
 30
0.0
 10
238.6541931277581
 20
181.0139352744941
 30
0.0
 10
238.6546539345596
 20
181.0171360059953
 30
0.0
  0
SPLINE
  5
1A9
330
1F
100
AcDbEntity
  8
1
100
AcDbSpline
210
0.0
220
0.0
230
1.0
 70
     8
 71
     3
 72
     8
 73
     4
 74
     0
 42
0.000000001
 43
0.0000000001
 40
0.0
 40
0.0
 40
0.0
 40
0.0
 40
1.0
 40
1.0
 40
1.0
 40
1.0
 10
238.2131853763297
 20
181.4871500396064
 30
0.0
 10
238.2213181608973
 20
181.4882231063288
 30
0.0
 10
238.2293521437179
 20
181.4904505595155
 30
0.0
 10
238.2368783104099
 20
181.493655909342
 30
0.0
  0
SPLINE
  5
1AA
330
1F
100
AcDbEntity
  8
1
100
AcDbSpline
210
0.0
220
0.0
230
1.0
 70
     8
 71
     3
 72
    10
 73
     6
 74
     0
 42
0.000000001
 43
0.0000000001
 40
0.0
 40
0.0
 40
0.0
 40
0.0
 40
0.5
 40
0.5
 40
1.0
 40
1.0
 40
1.0
 40
1.0
 10
238.6546539345596
 20
181.0171360059953
 30
0.0
 10
238.669909413585
 20
181.123099485961
 30
0.0
 10
238.6496938348634
 20
181.2315326182083
 30
0.0
 10
238.5433073906584
 20
181.4177386926897
 30
0.0
 10
238.4598651004475
 20
181.4904799425461
 30
0.0
 10
238.3606930954205
 20
181.531287758712
 30
0.0
  0
SPLINE
  5
1AB
330
1F
100
AcDbEntity
  8
1
100
AcDbSpline
210
0.0
220
0.0
230
1.0
 70
     8
 71
     3
 72
     8
 73
     4
 74
     0
 42
0.000000001
 43
0.0000000001
 40
0.0
 40
0.0
 40
0.0
 40
0.0
 40
1.0
 40
1.0
 40
1.0
 40
1.0
 10
238.3606930954205
 20
181.531287758712
 30
0.0
 10
238.3533356031201
 20
181.5343152581879
 30
0.0
 10
238.3454716774057
 20
181.5363050511681
 30
0.0
 10
238.3375703915433
 20
181.5372012497264
 30
0.0
  0
SPLINE
  5
1AC
330
1F
100
AcDbEntity
  8
1
100
AcDbSpline
210
0.0
220
0.0
230
1.0
 70
     8
 71
     3
 72
    10
 73
     6
 74
     0
 42
0.000000001
 43
0.0000000001
 40
0.0
 40
0.0
 40
0.0
 40
0.0
 40
0.846476700099339
 40
0.846476700099339
 40
1.0
 40
1.0
 40
1.0
 40
1.0
 10
232.9238968130509
 20
178.7934121657811
 30
0.0
 10
232.9630991057927
 20
178.7057633806048
 30
0.0
 10
233.0074417971424
 20
178.6133530856034
 30
0.0
 10
233.0688744770113
 20
178.4958508830759
 30
0.0
 10
233.0785424085825
 20
178.4775995716413
 30
0.0
 10
233.0884824055965
 20
178.4591037438501
 30
0.0
  0
SPLINE
  5
1AD
330
1F
100
AcDbEntity
  8
1
100
AcDbSpline
210
0.0
220
0.0
230
1.0
 70
     8
 71
     3
 72
    10
 73
     6
 74
     0
 42
0.000000001
 43
0.0000000001
 40
0.0
 40
0.0
 40
0.0
 40
0.0
 40
0.5
 40
0.5
 40
1.0
 40
1.0
 40
1.0
 40
1.0
 10
237.7040302675052
 20
181.7861739397106
 30
0.0
 10
237.7404873183648
 20
181.6882310986204
 30
0.0
 10
237.809542752464
 20
181.6030499067826
 30
0.0
 10
237.9960230068361
 20
181.4933808831239
 30
0.0
 10
238.1067354302845
 20
181.4731046786657
 30
0.0
 10
238.2131853763297
 20
181.4871500396064
 30
0.0
  0
SPLINE
  5
1AE
330
1F
100
AcDbEntity
  8
1
100
AcDbSpline
210
0.0
220
0.0
230
1.0
 70
     8
 71
     3
 72
    18
 73
    14
 74
     0
 42
0.000000001
 43
0.0000000001
 40
0.0
 40
0.0
 40
0.0
 40
0.0
 40
0.0584137219993339
 40
0.0584137219993339
 40
0.1211861405327116
 40
0.1211861405327116
 40
0.2467309775994669
 40
0.2467309775994669
 40
0.497820651732978
 40
0.497820651732978
 40
0.7489103258664889
 40
0.7489103258664889
 40
1.0
 40
1.0
 40
1.0
 40
1.0
 10
232.5802522976714
 20
180.659155588502
 30
0.0
 10
232.5805824152155
 20
180.5897664786336
 30
0.0
 10
232.5824270722278
 20
180.5193918229039
 30
0.0
 10
232.5886459617543
 20
180.3821691478886
 30
0.0
 10
232.5931871024073
 20
180.3146448844819
 30
0.0
 10
232.6087466506473
 20
180.1284178874657
 30
0.0
 10
232.6219179413265
 20
180.0207665383699
 30
0.0
 10
232.6632802594785
 20
179.7344625595092
 30
0.0
 10
232.6943373002352
 20
179.5829266701865
 30
0.0
 10
232.757788054657
 20
179.3125413413296
 30
0.0
 10
232.7903393293314
 20
179.1955465249649
 30
0.0
 10
232.8564214008762
 20
178.9809722468283
 30
0.0
 10
232.8899696490149
 20
178.883821831553
 30
0.0
 10
232.9238968130509
 20
178.7934121657811
 30
0.0
  0
SPLINE
  5
1AF
330
1F
100
AcDbEntity
  8
1
100
AcDbSpline
210
0.0
220
0.0
230
1.0
 70
     8
 71
     3
 72
    10
 73
     6
 74
     0
 42
0.000000001
 43
0.0000000001
 40
0.0
 40
0.0
 40
0.0
 40
0.0
 40
0.5
 40
0.5
 40
1.0
 40
1.0
 40
1.0
 40
1.0
 10
238.5413501327488
 20
180.9131739780776
 30
0.0
 10
238.4750154708406
 20
180.8290483107035
 30
0.0
 10
238.4362936615809
 20
180.7241108066418
 30
0.0
 10
238.4361633280762
 20
180.5073859150552
 30
0.0
 10
238.4749880464805
 20
180.4035399833131
 30
0.0
 10
238.5413501327488
 20
180.3216609196759
 30
0.0
  0
SPLINE
  5
1B0
330
1F
100
AcDbEntity
  8
1
100
AcDbSpline
210
0.0
220
0.0
230
1.0
 70
     8
 71
     3
 72
     8
 73
     4
 74
     0
 42
0.000000001
 43
0.0000000001
 40
0.0
 40
0.0
 40
0.0
 40
0.0
 40
1.0
 40
1.0
 40
1.0
 40
1.0
 10
236.5385456458424
 20
181.4978966058964
 30
0.0
 10
236.6200789005129
 20
181.4852701582059
 30
0.0
 10
236.7057786745659
 20
181.4956725219271
 30
0.0
 10
236.7855294329596
 20
181.5295128418934
 30
0.0
  0
SPLINE
  5
1B1
330
1F
100
AcDbEntity
  8
1
100
AcDbSpline
210
0.0
220
0.0
230
1.0
 70
     8
 71
     3
 72
    10
 73
     6
 74
     0
 42
0.000000001
 43
0.0000000001
 40
0.0
 40
0.0
 40
0.0
 40
0.0
 40
0.1510100553928422
 40
0.1510100553928422
 40
1.0
 40
1.0
 40
1.0
 40
1.0
 10
237.9545391438932
 20
179.715302630653
 30
0.0
 10
237.9369893785514
 20
179.7078544698343
 30
0.0
 10
237.9198577483383
 20
179.6993686831034
 30
0.0
 10
237.8099510382084
 20
179.6363161043835
 30
0.0
 10
237.7405020374864
 20
179.553788701581
 30
0.0
 10
237.7040302675052
 20
179.459407524333
 30
0.0
  0
SPLINE
  5
1B2
330
1F
100
AcDbEntity
  8
1
100
AcDbSpline
210
0.0
220
0.0
230
1.0
 70
     8
 71
     3
 72
    10
 73
     6
 74
     0
 42
0.000000001
 43
0.0000000001
 40
0.0
 40
0.0
 40
0.0
 40
0.0
 40
0.7163205516355884
 40
0.7163205516355884
 40
1.0
 40
1.0
 40
1.0
 40
1.0
 10
236.4917129578465
 20
181.5234421513203
 30
0.0
 10
236.4851831114742
 20
181.5306869485152
 30
0.0
 10
236.4773155849315
 20
181.536783406315
 30
0.0
 10
236.4653257252268
 20
181.5429646672374
 30
0.0
 10
236.4617742811721
 20
181.5444744959019
 30
0.0
 10
236.4581206966272
 20
181.5457207942738
 30
0.0
  0
SPLINE
  5
1B3
330
1F
100
AcDbEntity
  8
1
100
AcDbSpline
210
0.0
220
0.0
230
1.0
 70
     8
 71
     3
 72
    10
 73
     6
 74
     0
 42
0.000000001
 43
0.0000000001
 40
0.0
 40
0.0
 40
0.0
 40
0.0
 40
0.3894941956929079
 40
0.3894941956929079
 40
1.0
 40
1.0
 40
1.0
 40
1.0
 10
238.4614665075658
 20
179.7674064573824
 30
0.0
 10
238.5162026872284
 20
179.8071500656041
 30
0.0
 10
238.5623838246073
 20
179.8579258329818
 30
0.0
 10
238.6496065898336
 20
180.0092571858789
 30
0.0
 10
238.6699098093266
 20
180.1168390019601
 30
0.0
 10
238.6546539345596
 20
180.2213098184685
 30
0.0
  0
SPLINE
  5
1B4
330
1F
100
AcDbEntity
  8
1
100
AcDbSpline
210
0.0
220
0.0
230
1.0
 70
     8
 71
     3
 72
    10
 73
     6
 74
     0
 42
0.000000001
 43
0.0000000001
 40
0.0
 40
0.0
 40
0.0
 40
0.0
 40
0.7352208946799294
 40
0.7352208946799294
 40
1.0
 40
1.0
 40
1.0
 40
1.0
 10
237.675671922413
 20
181.9335967982492
 30
0.0
 10
237.5937103708917
 20
181.9991670805529
 30
0.0
 10
237.4912551146468
 20
182.0357058367685
 30
0.0
 10
237.3464766215292
 20
182.0366783589846
 30
0.0
 10
237.3083621315331
 20
182.0322685362471
 30
0.0
 10
237.2712702532818
 20
182.0235072514094
 30
0.0
  0
SPLINE
  5
1B5
330
1F
100
AcDbEntity
  8
1
100
AcDbSpline
210
0.0
220
0.0
230
1.0
 70
     8
 71
     3
 72
     8
 73
     4
 74
     0
 42
0.000000001
 43
0.0000000001
 40
0.0
 40
0.0
 40
0.0
 40
0.0
 40
1.0
 40
1.0
 40
1.0
 40
1.0
 10
234.6827348654485
 20
178.2235281630702
 30
0.0
 10
234.6101936579122
 20
178.2207861305573
 30
0.0
 10
234.5447157173001
 20
178.2189664860105
 30
0.0
 10
234.4857624138604
 20
178.2176163021111
 30
0.0
  0
SPLINE
  5
1B6
330
1F
100
AcDbEntity
  8
1
100
AcDbSpline
210
0.0
220
0.0
230
1.0
 70
     8
 71
     3
 72
     8
 73
     4
 74
     0
 42
0.000000001
 43
0.0000000001
 40
0.0
 40
0.0
 40
0.0
 40
0.0
 40
1.0
 40
1.0
 40
1.0
 40
1.0
 10
235.5077333828747
 20
175.8198524310997
 30
0.0
 10
235.1286513761159
 20
175.890622411716
 30
0.0
 10
234.7507415130626
 20
175.9623561522754
 30
0.0
 10
234.374371228222
 20
176.0353165217538
 30
0.0
  0
SPLINE
  5
1B7
330
1F
100
AcDbEntity
  8
1
100
AcDbSpline
210
0.0
220
0.0
230
1.0
 70
     8
 71
     3
 72
     8
 73
     4
 74
     0
 42
0.000000001
 43
0.0000000001
 40
0.0
 40
0.0
 40
0.0
 40
0.0
 40
1.0
 40
1.0
 40
1.0
 40
1.0
 10
238.1735166392467
 20
178.035815641309
 30
0.0
 10
238.2252784081596
 20
177.4254087769637
 30
0.0
 10
238.2822763930091
 20
176.7952472654153
 30
0.0
 10
238.3446365923551
 20
176.1448557524909
 30
0.0
  0
SPLINE
  5
1B8
330
1F
100
AcDbEntity
  8
1
100
AcDbSpline
210
0.0
220
0.0
230
1.0
 70
     8
 71
     3
 72
     8
 73
     4
 74
     0
 42
0.000000001
 43
0.0000000001
 40
0.0
 40
0.0
 40
0.0
 40
0.0
 40
1.0
 40
1.0
 40
1.0
 40
1.0
 10
234.3151120560125
 20
177.647357916679
 30
0.0
 10
234.2813186648314
 20
177.409528024899
 30
0.0
 10
234.2741850946582
 20
177.1742948028303
 30
0.0
 10
234.2941864007126
 20
176.9412651457036
 30
0.0
  0
SPLINE
  5
1B9
330
1F
100
AcDbEntity
  8
1
100
AcDbSpline
210
0.0
220
0.0
230
1.0
 70
     8
 71
     3
 72
    10
 73
     6
 74
     0
 42
0.000000001
 43
0.0000000001
 40
0.0
 40
0.0
 40
0.0
 40
0.0
 40
0.5
 40
0.5
 40
1.0
 40
1.0
 40
1.0
 40
1.0
 10
236.5077333828747
 20
175.8170269732974
 30
0.0
 10
236.3319995821871
 20
175.7896700588107
 30
0.0
 10
236.1582763622705
 20
175.7761175802142
 30
0.0
 10
235.8152613887571
 20
175.7773961609979
 30
0.0
 10
235.6559461935047
 20
175.792182909602
 30
0.0
 10
235.5077333828747
 20
175.8198524310997
 30
0.0
  0
SPLINE
  5
1BA
330
1F
100
AcDbEntity
  8
1
100
AcDbSpline
210
0.0
220
0.0
230
1.0
 70
     8
 71
     3
 72
     8
 73
     4
 74
     0
 42
0.000000001
 43
0.0000000001
 40
0.0
 40
0.0
 40
0.0
 40
0.0
 40
1.0
 40
1.0
 40
1.0
 40
1.0
 10
233.3151120560125
 20
171.0818938675734
 30
0.0
 10
233.4272322938111
 20
171.0709734673468
 30
0.0
 10
233.5336653729808
 20
171.0298423519654
 30
0.0
 10
233.6259184114128
 20
170.9678047302662
 30
0.0
  0
SPLINE
  5
1BB
330
1F
100
AcDbEntity
  8
1
100
AcDbSpline
210
0.0
220
0.0
230
1.0
 70
     8
 71
     3
 72
     8
 73
     4
 74
     0
 42
0.000000001
 43
0.0000000001
 40
0.0
 40
0.0
 40
0.0
 40
0.0
 40
1.0
 40
1.0
 40
1.0
 40
1.0
 10
234.2941864007126
 20
176.9412651457034
 30
0.0
 10
234.3010717415222
 20
176.8610459538338
 30
0.0
 10
234.3080470868086
 20
176.780447547011
 30
0.0
 10
234.3151120560124
 20
176.699471528642
 30
0.0
  0
SPLINE
  5
1BC
330
1F
100
AcDbEntity
  8
1
100
AcDbSpline
210
0.0
220
0.0
230
1.0
 70
     8
 71
     3
 72
    14
 73
    10
 74
     0
 42
0.000000001
 43
0.0000000001
 40
0.0
 40
0.0
 40
0.0
 40
0.0
 40
0.25
 40
0.25
 40
0.5
 40
0.5
 40
0.75
 40
0.75
 40
1.0
 40
1.0
 40
1.0
 40
1.0
 10
233.3151120560125
 20
171.0818938675734
 30
0.0
 10
233.16081229866
 20
171.0969225112709
 30
0.0
 10
233.005697825139
 20
171.0624456741425
 30
0.0
 10
232.7400184625189
 20
170.9098458308913
 30
0.0
 10
232.6330216700716
 20
170.7933752592282
 30
0.0
 10
232.5027153460409
 20
170.524374538889
 30
0.0
 10
232.4793380688053
 20
170.3702962092753
 30
0.0
 10
232.5251335031307
 20
170.080794070321
 30
0.0
 10
232.5942652032079
 20
169.9430194863374
 30
0.0
 10
232.700326286799
 20
169.8364596374981
 30
0.0
  0
SPLINE
  5
1BD
330
1F
100
AcDbEntity
  8
1
100
AcDbSpline
210
0.0
220
0.0
230
1.0
 70
     8
 71
     3
 72
     8
 73
     4
 74
     0
 42
0.000000001
 43
0.0000000001
 40
0.0
 40
0.0
 40
0.0
 40
0.0
 40
1.0
 40
1.0
 40
1.0
 40
1.0
 10
238.344636592352
 20
176.1448557524981
 30
0.0
 10
238.1268597574015
 20
176.084340016787
 30
0.0
 10
237.9027734325103
 20
176.0354313885178
 30
0.0
 10
237.6718349980129
 20
175.9991280854256
 30
0.0
  0
SPLINE
  5
1BE
330
1F
100
AcDbEntity
  8
1
100
AcDbSpline
210
0.0
220
0.0
230
1.0
 70
     8
 71
     3
 72
    20
 73
    16
 74
     0
 42
0.000000001
 43
0.0000000001
 40
0.0
 40
0.0
 40
0.0
 40
0.0
 40
0.0473471030601913
 40
0.092509932429816
 40
0.1355023690641385
 40
0.1763405322784801
 40
0.2150432585775164
 40
0.2516327082871773
 40
0.3800881121900958
 40
0.5003140704095022
 40
0.6224470605078851
 40
0.7484096976928829
 40
0.8251985352692589
 40
0.9089725493658436
 40
1.0
 40
1.0
 40
1.0
 40
1.0
 10
224.9691588029047
 20
167.1528030496667
 30
0.0
 10
224.9366903737848
 20
167.1483387328452
 30
0.0
 10
224.8732513882957
 20
167.1396160524529
 30
0.0
 10
224.7822428848359
 20
167.1187075456087
 30
0.0
 10
224.6976907486875
 20
167.0934597858481
 30
0.0
 10
224.6199126361067
 20
167.0642263031898
 30
0.0
 10
224.54897033223
 20
167.0320225604935
 30
0.0
 10
224.4300627888495
 20
166.9683620057935
 30
0.0
 10
224.2823834088034
 20
166.8573955333273
 30
0.0
 10
224.1474144850478
 20
166.6803431468421
 30
0.0
 10
224.0817506904291
 20
166.4879117692478
 30
0.0
 10
224.0888760157817
 20
166.3181614483331
 30
0.0
 10
224.1382395715147
 20
166.1795219482111
 30
0.0
 10
224.2063070098567
 20
166.0655751627468
 30
0.0
 10
224.2749392716338
 20
165.9973034213804
 30
0.0
 10
224.3106793601419
 20
165.9617510730261
 30
0.0
  0
SPLINE
  5
1BF
330
1F
100
AcDbEntity
  8
1
100
AcDbSpline
210
0.0
220
0.0
230
1.0
 70
     8
 71
     3
 72
    20
 73
    16
 74
     0
 42
0.000000001
 43
0.0000000001
 40
0.0
 40
0.0
 40
0.0
 40
0.0
 40
0.1249999999999998
 40
0.1249999999999998
 40
0.2499999999999995
 40
0.2499999999999995
 40
0.4999999999999998
 40
0.4999999999999998
 40
0.6249999999999999
 40
0.6249999999999999
 40
0.7499999999999999
 40
0.7499999999999999
 40
0.8749999999999998
 40
0.8749999999999998
 40
1.0
 40
1.0
 40
1.0
 40
1.0
 10
227.0608240267471
 20
164.0753383471448
 30
0.0
 10
227.2667237173476
 20
164.2118462923934
 30
0.0
 10
227.4896967108571
 20
164.3369074023927
 30
0.0
 10
227.9693668266522
 20
164.5658851617726
 30
0.0
 10
228.2270606535652
 20
164.6701282214928
 30
0.0
 10
229.0458319557121
 20
164.9485138680378
 30
0.0
 10
229.6375321681988
 20
165.0847831407164
 30
0.0
 10
230.5894529139846
 20
165.2130917811024
 30
0.0
 10
230.919720212109
 20
165.2429440260906
 30
0.0
 10
231.5868199599784
 20
165.2733407926256
 30
0.0
 10
231.9245165743534
 20
165.27418852299
 30
0.0
 10
232.6071931948004
 20
165.2457441749644
 30
0.0
 10
232.9521771155755
 20
165.2164490391345
 30
0.0
 10
233.6485249918773
 20
165.1248811064547
 30
0.0
 10
234.0000738366424
 20
165.0623628134557
 30
0.0
 10
234.3478775925387
 20
164.9831419778529
 30
0.0
  0
SPLINE
  5
1C0
330
1F
100
AcDbEntity
  8
1
100
AcDbSpline
210
0.0
220
0.0
230
1.0
 70
     8
 71
     3
 72
     8
 73
     4
 74
     0
 42
0.000000001
 43
0.0000000001
 40
0.0
 40
0.0
 40
0.0
 40
0.0
 40
1.0
 40
1.0
 40
1.0
 40
1.0
 10
234.4857624138644
 20
162.434608568896
 30
0.0
 10
234.5443916140005
 20
162.5166939060203
 30
0.0
 10
234.610227061311
 20
162.5957703260992
 30
0.0
 10
234.6827348654485
 20
162.6698343373875
 30
0.0
  0
SPLINE
  5
1C1
330
1F
100
AcDbEntity
  8
1
100
AcDbSpline
210
0.0
220
0.0
230
1.0
 70
    24
 71
     1
 72
     4
 73
     2
 74
     0
 42
0.000000001
 43
0.0000000001
 40
0.0
 40
0.0
 40
1.0
 40
1.0
 10
235.5782898601759
 20
170.6852632449026
 30
0.0
 10
234.3856685333136
 20
170.8607352817612
 30
0.0
  0
SPLINE
  5
1C2
330
1F
100
AcDbEntity
  8
1
100
AcDbSpline
210
0.0
220
0.0
230
1.0
 70
    24
 71
     1
 72
     4
 73
     2
 74
     0
 42
0.000000001
 43
0.0000000001
 40
0.0
 40
0.0
 40
1.0
 40
1.0
 10
236.5077333828747
 20
170.7601107697654
 30
0.0
 10
236.5215455040451
 20
170.6835012853543
 30
0.0
  0
SPLINE
  5
1C3
330
1F
100
AcDbEntity
  8
1
100
AcDbSpline
210
0.0
220
0.0
230
1.0
 70
    24
 71
     3
 72
     8
 73
     4
 74
     0
 42
0.000000001
 43
0.0000000001
 40
0.0
 40
0.0
 40
0.0
 40
0.0
 40
1.0
 40
1.0
 40
1.0
 40
1.0
 10
232.6102259119476
 20
178.9236315687123
 30
0.0
 10
232.5771911414337
 20
178.9303958382233
 30
0.0
 10
232.5441563709198
 20
178.9371601077343
 30
0.0
 10
232.5111216004059
 20
178.9439243772454
 30
0.0
  0
SPLINE
  5
1C4
330
1F
100
AcDbEntity
  8
1
100
AcDbSpline
210
0.0
220
0.0
230
1.0
 70
     8
 71
     3
 72
    17
 73
    13
 74
     0
 42
0.000000001
 43
0.0000000001
 40
0.0
 40
0.0
 40
0.0
 40
0.0
 40
0.0959119067694943
 40
0.1926099799686197
 40
0.2901422593939661
 40
0.3885555626713172
 40
0.4878954612349268
 40
0.5882062630990418
 40
0.6895310020196628
 40
0.7919114326049392
 40
0.8953880309054838
 40
1.0
 40
1.0
 40
1.0
 40
1.0
 10
224.6648165802896
 20
165.632949092721
 30
0.0
 10
224.7343011536222
 20
165.570887470002
 30
0.0
 10
224.8738398483317
 20
165.4462555206294
 30
0.0
 10
225.0893579831621
 20
165.2681417472224
 30
0.0
 10
225.3108126834408
 20
165.0956992796341
 30
0.0
 10
225.538881640969
 20
164.9297419079254
 30
0.0
 10
225.7737592954508
 20
164.7701979551469
 30
0.0
 10
226.0157798330322
 20
164.6172510325769
 30
0.0
 10
226.2651968713446
 20
164.4709523996437
 30
0.0
 10
226.5224292542181
 20
164.3316180231438
 30
0.0
 10
226.7872810095301
 20
164.1986111177628
 30
0.0
 10
226.9693114050514
 20
164.1165795260043
 30
0.0
 10
227.0608231990385
 20
164.0753399401432
 30
0.0
  0
SPLINE
  5
1C5
330
1F
100
AcDbEntity
  8
1
100
AcDbSpline
210
0.0
220
0.0
230
1.0
 70
     8
 71
     2
 72
     6
 73
     3
 74
     0
 42
0.000000001
 43
0.0000000001
 40
0.0
 40
0.0
 40
0.0
 40
1.0
 40
1.0
 40
1.0
 10
232.8059140944905
 20
169.7934338067293
 30
0.0
 10
232.708454683043
 20
168.8721655360251
 30
0.0
 10
232.6102258781894
 20
168.0268403760362
 30
0.0
  0
SPLINE
  5
1C6
330
1F
100
AcDbEntity
  8
1
100
AcDbSpline
210
0.0
220
0.0
230
1.0
 70
     8
 71
     2
 72
     6
 73
     3
 74
     0
 42
0.000000001
 43
0.0000000001
 40
0.0
 40
0.0
 40
0.0
 40
1.0
 40
1.0
 40
1.0
 10
232.8059140944905
 20
183.4167231081888
 30
0.0
 10
232.7084546830429
 20
183.5999804977141
 30
0.0
 10
232.6102258781894
 20
183.6016366874449
 30
0.0
  0
SPLINE
  5
1C7
330
1F
100
AcDbEntity
  8
1
100
AcDbSpline
210
0.0
220
0.0
230
1.0
 70
    24
 71
     1
 72
     4
 73
     2
 74
     0
 42
0.000000001
 43
0.0000000001
 40
0.0
 40
0.0
 40
1.0
 40
1.0
 10
232.6102258781894
 20
183.6016366874449
 30
0.0
 10
232.4973143355242
 20
183.7145258546636
 30
0.0
  0
SPLINE
  5
1C8
330
1F
100
AcDbEntity
  8
1
100
AcDbSpline
210
0.0
220
0.0
230
1.0
 70
     8
 71
     3
 72
    10
 73
     6
 74
     0
 42
0.000000001
 43
0.0000000001
 40
0.0
 40
0.0
 40
0.0
 40
0.0
 40
0.2977643430545339
 40
0.6310976672976434
 40
1.0
 40
1.0
 40
1.0
 40
1.0
 10
224.9553466772918
 20
167.1880334049423
 30
0.0
 10
225.7038795715513
 20
167.2651070302448
 30
0.0
 10
227.2903602045807
 20
167.4284609921048
 30
0.0
 10
229.8043589851409
 20
167.6921286356403
 30
0.0
 10
231.5698516810588
 20
167.8811308867373
 30
0.0
 10
232.4973101025324
 20
167.9804185982427
 30
0.0
  0
SPLINE
  5
1C9
330
1F
100
AcDbEntity
  8
1
100
AcDbSpline
210
0.0
220
0.0
230
1.0
 70
    24
 71
     1
 72
     4
 73
     2
 74
     0
 42
0.000000001
 43
0.0000000001
 40
0.0
 40
0.0
 40
1.0
 40
1.0
 10
232.7318848109278
 20
169.8224178865945
 30
0.0
 10
232.8059136586712
 20
169.7934327380303
 30
0.0
  0
SPLINE
  5
1CA
330
1F
100
AcDbEntity
  8
1
100
AcDbSpline
210
0.0
220
0.0
230
1.0
 70
     8
 71
     3
 72
     9
 73
     5
 74
     0
 42
0.000000001
 43
0.0000000001
 40
0.0
 40
0.0
 40
0.0
 40
0.0
 40
0.4995509154147875
 40
1.0
 40
1.0
 40
1.0
 40
1.0
 10
233.7550641984628
 20
170.9124043016612
 30
0.0
 10
233.7351594164097
 20
170.9225820378339
 30
0.0
 10
233.6953140644367
 20
170.9429558092729
 30
0.0
 10
233.6490641425079
 20
170.9595167984129
 30
0.0
 10
233.6259184114165
 20
170.9678047302678
 30
0.0
  0
SPLINE
  5
1CB
330
1F
100
AcDbEntity
  8
1
100
AcDbSpline
210
0.0
220
0.0
230
1.0
 70
     8
 71
     2
 72
     6
 73
     3
 74
     0
 42
0.000000001
 43
0.0000000001
 40
0.0
 40
0.0
 40
0.0
 40
1.0
 40
1.0
 40
1.0
 10
232.3757999374116
 20
178.5631557393287
 30
0.0
 10
232.3970658450453
 20
178.767740168165
 30
0.0
 10
232.5111374231892
 20
178.9439488199065
 30
0.0
  0
SPLINE
  5
1CC
330
1F
100
AcDbEntity
  8
1
100
AcDbSpline
210
0.0
220
0.0
230
1.0
 70
    24
 71
     1
 72
     4
 73
     2
 74
     0
 42
0.000000001
 43
0.0000000001
 40
0.0
 40
0.0
 40
1.0
 40
1.0
 10
224.2205823525936
 20
165.8451723229324
 30
0.0
 10
224.3106793601419
 20
165.9617510730261
 30
0.0
  0
SPLINE
  5
1CD
330
1F
100
AcDbEntity
  8
1
100
AcDbSpline
210
0.0
220
0.0
230
1.0
 70
     8
 71
     2
 72
     6
 73
     3
 74
     0
 42
0.000000001
 43
0.0000000001
 40
0.0
 40
0.0
 40
0.0
 40
1.0
 40
1.0
 40
1.0
 10
232.5111222237027
 20
167.9366238175645
 30
0.0
 10
228.7241192415403
 20
167.5335640578595
 30
0.0
 10
224.9691587984621
 20
167.1528029307788
 30
0.0
  0
SPLINE
  5
1CE
330
1F
100
AcDbEntity
  8
1
100
AcDbSpline
210
0.0
220
0.0
230
1.0
 70
     8
 71
     3
 72
    13
 73
     9
 74
     0
 42
0.000000001
 43
0.0000000001
 40
0.0
 40
0.0
 40
0.0
 40
0.0
 40
0.1248661882357435
 40
0.2495566333455504
 40
0.3746490090664227
 40
0.5007143973817236
 40
0.7497195511400344
 40
1.0
 40
1.0
 40
1.0
 40
1.0
 10
233.3319965043611
 20
162.7724069594729
 30
0.0
 10
233.3782631776148
 20
162.7715880356462
 30
0.0
 10
233.4707314060153
 20
162.7699513405886
 30
0.0
 10
233.6082554710987
 20
162.7559807190007
 30
0.0
 10
233.7444847354475
 20
162.7336861106357
 30
0.0
 10
233.9223428801964
 20
162.691970467214
 30
0.0
 10
234.1387925690821
 20
162.6208338165652
 30
0.0
 10
234.2970671059694
 20
162.538290003198
 30
0.0
 10
234.3764065099649
 20
162.4969126781724
 30
0.0
  0
SPLINE
  5
1CF
330
1F
100
AcDbEntity
  8
1
100
AcDbSpline
210
0.0
220
0.0
230
1.0
 70
     8
 71
     3
 72
     8
 73
     4
 74
     0
 42
0.000000001
 43
0.0000000001
 40
0.0
 40
0.0
 40
0.0
 40
0.0
 40
1.0
 40
1.0
 40
1.0
 40
1.0
 10
226.9479181666359
 20
163.9600507340578
 30
0.0
 10
226.9866542101774
 20
163.9749472077847
 30
0.0
 10
227.0253699490452
 20
163.9899637662501
 30
0.0
 10
227.0640646291502
 20
164.0050974414495
 30
0.0
  0
SPLINE
  5
1D0
330
1F
100
AcDbEntity
  8
1
100
AcDbSpline
210
0.0
220
0.0
230
1.0
 70
     8
 71
     3
 72
     8
 73
     4
 74
     0
 42
0.000000001
 43
0.0000000001
 40
0.0
 40
0.0
 40
0.0
 40
0.0
 40
1.0
 40
1.0
 40
1.0
 40
1.0
 10
241.045374273377
 20
178.2948630918116
 30
0.0
 10
241.0832047836552
 20
178.2566257615452
 30
0.0
 10
241.1209587022704
 20
178.2181376457764
 30
0.0
 10
241.1586290066396
 20
178.1793986486778
 30
0.0
  0
SPLINE
  5
1D1
330
1F
100
AcDbEntity
  8
1
100
AcDbSpline
210
0.0
220
0.0
230
1.0
 70
     8
 71
     3
 72
    25
 73
    21
 74
     0
 42
0.000000001
 43
0.0000000001
 40
0.0
 40
0.0
 40
0.0
 40
0.0
 40
0.0332494398405251
 40
0.0664579441825446
 40
0.0996580099891872
 40
0.1328822150252723
 40
0.1661631108921896
 40
0.1995331166371189
 40
0.2330244144837009
 40
0.2666688491557491
 40
0.3004978321417568
 40
0.3345422520832796
 40
0.4966677003689209
 40
0.6672704015695313
 40
0.7203141479851464
 40
0.7742567907897914
 40
0.8291498805777672
 40
0.8850417903997197
 40
0.9419777664827122
 40
1.0
 40
1.0
 40
1.0
 40
1.0
 10
227.0640709109248
 20
164.0050955157903
 30
0.0
 10
227.1009387502677
 20
163.964459278789
 30
0.0
 10
227.1746290386134
 20
163.8832368346401
 30
0.0
 10
227.2937218380839
 20
163.7704331450047
 30
0.0
 10
227.4193042900542
 20
163.6642730426117
 30
0.0
 10
227.5522610249111
 20
163.5652827721359
 30
0.0
 10
227.6927116551069
 20
163.4731640190014
 30
0.0
 10
227.840975740267
 20
163.3878243966139
 30
0.0
 10
227.9973139767125
 20
163.3091011864979
 30
0.0
 10
228.1619877420578
 20
163.2368324355062
 30
0.0
 10
228.335269670779
 20
163.1708466981688
 30
0.0
 10
228.7451369450019
 20
163.0359570256797
 30
0.0
 10
229.4802993755378
 20
162.8861962763767
 30
0.0
 10
230.38089960527
 20
162.8156636174611
 30
0.0
 10
231.0750777422219
 20
162.7896151449464
 30
0.0
 10
231.4918506297166
 20
162.779815788518
 30
0.0
 10
231.9267874840421
 20
162.7742470810605
 30
0.0
 10
232.3794602654976
 20
162.7718701504088
 30
0.0
 10
232.8486478684592
 20
162.7716414363007
 30
0.0
 10
233.1698710880132
 20
162.77217555627
 30
0.0
 10
233.3320003410777
 20
162.7724451397446
 30
0.0
  0
SPLINE
  5
1D2
330
1F
100
AcDbEntity
  8
1
100
AcDbSpline
210
0.0
220
0.0
230
1.0
 70
     8
 71
     3
 72
     8
 73
     4
 74
     0
 42
0.000000001
 43
0.0000000001
 40
0.0
 40
0.0
 40
0.0
 40
0.0
 40
1.0
 40
1.0
 40
1.0
 40
1.0
 10
234.3151120560125
 20
170.9403451531403
 30
0.0
 10
234.7126524982999
 20
170.882372205615
 30
0.0
 10
235.1101929405873
 20
170.823794666389
 30
0.0
 10
235.5077333828747
 20
170.7646131076636
 30
0.0
  0
SPLINE
  5
1D3
330
1F
100
AcDbEntity
  8
1
100
AcDbSpline
210
0.0
220
0.0
230
1.0
 70
     8
 71
     2
 72
     6
 73
     3
 74
     0
 42
0.000000001
 43
0.0000000001
 40
0.0
 40
0.0
 40
0.0
 40
1.0
 40
1.0
 40
1.0
 10
240.2826497363616
 20
167.2033576271078
 30
0.0
 10
240.2171993641465
 20
167.2851098160286
 30
0.0
 10
240.1531671062731
 20
167.3651605276146
 30
0.0
  0
SPLINE
  5
1D4
330
1F
100
AcDbEntity
  8
1
100
AcDbSpline
210
0.0
220
0.0
230
1.0
 70
     8
 71
     3
 72
    25
 73
    21
 74
     0
 42
0.000000001
 43
0.0000000001
 40
0.0
 40
0.0
 40
0.0
 40
0.0
 40
0.0312605913607753
 40
0.0624052046886251
 40
0.0934683989889221
 40
0.1244850052624387
 40
0.1554900113403752
 40
0.1865184440932597
 40
0.217605250981181
 40
0.2487851829385674
 40
0.3734370792584323
 40
0.4982880916687881
 40
0.5587283668248173
 40
0.6193499179616313
 40
0.6803955170917709
 40
0.7421029194646558
 40
0.8047023274866603
 40
0.8684142622304008
 40
0.9334479148223149
 40
1.0
 40
1.0
 40
1.0
 40
1.0
 10
233.3151115185549
 20
162.7167992291857
 30
0.0
 10
233.2257820019286
 20
162.7164760350149
 30
0.0
 10
233.0474543847231
 20
162.7158308457365
 30
0.0
 10
232.7826252016561
 20
162.7150260600345
 30
0.0
 10
232.5205296084305
 20
162.7145260774605
 30
0.0
 10
232.2613086110523
 20
162.7145031435049
 30
0.0
 10
232.0049252409264
 20
162.7151477247719
 30
0.0
 10
231.7513928682957
 20
162.7166727066688
 30
0.0
 10
231.5007007275317
 20
162.7193106586495
 30
0.0
 10
231.0056762092414
 20
162.7273199403504
 30
0.0
 10
230.2903574390026
 20
162.7513896037915
 30
0.0
 10
229.5675116506952
 20
162.8149095962808
 30
0.0
 10
229.0401637118518
 20
162.896495945972
 30
0.0
 10
228.6731122993879
 20
162.9741822319721
 30
0.0
 10
228.3284758534136
 20
163.0718856125225
 30
0.0
 10
228.0062750243037
 20
163.192339163093
 30
0.0
 10
227.7063570580148
 20
163.3381372909652
 30
0.0
 10
227.4293318213221
 20
163.5127736516165
 30
0.0
 10
227.1728205912193
 20
163.7165279958385
 30
0.0
 10
227.0234411982863
 20
163.8782624727039
 30
0.0
 10
226.9478896206551
 20
163.9600628779984
 30
0.0
  0
SPLINE
  5
1D5
330
1F
100
AcDbEntity
  8
1
100
AcDbSpline
210
0.0
220
0.0
230
1.0
 70
     8
 71
     3
 72
    16
 73
    12
 74
     0
 42
0.000000001
 43
0.0000000001
 40
0.0
 40
0.0
 40
0.0
 40
0.0
 40
0.1069767193562548
 40
0.2148827962544862
 40
0.3237647774956031
 40
0.4336679689801112
 40
0.5446364248401127
 40
0.6567129420560695
 40
0.7699390601480724
 40
0.8843550655164195
 40
1.0
 40
1.0
 40
1.0
 40
1.0
 10
226.9478830748349
 20
163.9600616184557
 30
0.0
 10
226.8552371216301
 20
164.0022319274107
 30
0.0
 10
226.6691403558468
 20
164.0869388988125
 30
0.0
 10
226.3959413464431
 20
164.2258032566384
 30
0.0
 10
226.1256047548911
 20
164.3745149099082
 30
0.0
 10
225.858648713356
 20
164.5343136810232
 30
0.0
 10
225.594941298254
 20
164.7054378591006
 30
0.0
 10
225.3344841013387
 20
164.8883061711027
 30
0.0
 10
225.0774055811274
 20
165.083566718025
 30
0.0
 10
224.8231812428423
 20
165.2906633046948
 30
0.0
 10
224.6578345432802
 20
165.4384763559204
 30
0.0
 10
224.5747195727413
 20
165.5127776720665
 30
0.0
  0
SPLINE
  5
1D6
330
1F
100
AcDbEntity
  8
1
100
AcDbSpline
210
0.0
220
0.0
230
1.0
 70
     8
 71
     3
 72
     8
 73
     4
 74
     0
 42
0.000000001
 43
0.0000000001
 40
0.0
 40
0.0
 40
0.0
 40
0.0
 40
1.0
 40
1.0
 40
1.0
 40
1.0
 10
224.5747195727413
 20
165.5127776720665
 30
0.0
 10
224.456673832692
 20
165.6209590942503
 30
0.0
 10
224.3386280926428
 20
165.7317955008959
 30
0.0
 10
224.2205823525936
 20
165.8451723229324
 30
0.0
  0
SPLINE
  5
1D7
330
1F
100
AcDbEntity
  8
1
100
AcDbSpline
210
0.0
220
0.0
230
1.0
 70
    24
 71
     1
 72
     4
 73
     2
 74
     0
 42
0.000000001
 43
0.0000000001
 40
0.0
 40
0.0
 40
1.0
 40
1.0
 10
232.6102258781894
 20
168.0268403760362
 30
0.0
 10
232.4973143355242
 20
167.980424340701
 30
0.0
  0
SPLINE
  5
1D8
330
1F
100
AcDbEntity
  8
1
100
AcDbSpline
210
0.0
220
0.0
230
1.0
 70
    24
 71
     1
 72
     4
 73
     2
 74
     0
 42
0.000000001
 43
0.0000000001
 40
0.0
 40
0.0
 40
1.0
 40
1.0
 10
232.4973101025324
 20
167.9804185982427
 30
0.0
 10
232.5111222237027
 20
167.9366238175645
 30
0.0
  0
SPLINE
  5
1D9
330
1F
100
AcDbEntity
  8
1
100
AcDbSpline
210
0.0
220
0.0
230
1.0
 70
     8
 71
     3
 72
     8
 73
     4
 74
     0
 42
0.000000001
 43
0.0000000001
 40
0.0
 40
0.0
 40
0.0
 40
0.0
 40
1.0
 40
1.0
 40
1.0
 40
1.0
 10
227.0608463139841
 20
164.0753446137722
 30
0.0
 10
227.0619241971796
 20
164.0519304908174
 30
0.0
 10
227.0630018870704
 20
164.0285161897093
 30
0.0
 10
227.0640793837413
 20
164.0051017104334
 30
0.0
  0
SPLINE
  5
1DA
330
1F
100
AcDbEntity
  8
1
100
AcDbSpline
210
0.0
220
0.0
230
1.0
 70
     8
 71
     3
 72
     8
 73
     4
 74
     0
 42
0.000000001
 43
0.0000000001
 40
0.0
 40
0.0
 40
0.0
 40
0.0
 40
1.0
 40
1.0
 40
1.0
 40
1.0
 10
232.4973100687668
 20
183.7145224996964
 30
0.0
 10
232.5312454339435
 20
183.7139272322395
 30
0.0
 10
232.5651807991202
 20
183.6966650535293
 30
0.0
 10
232.5991161642969
 20
183.6628956608499
 30
0.0
  0
SPLINE
  5
1DB
330
1F
100
AcDbEntity
  8
1
100
AcDbSpline
210
0.0
220
0.0
230
1.0
 70
     8
 71
     3
 72
    22
 73
    18
 74
     0
 42
0.000000001
 43
0.0000000001
 40
0.0
 40
0.0
 40
0.0
 40
0.0
 40
0.0332377727787968
 40
0.0664242133522089
 40
0.0995653371636374
 40
0.1326667577920844
 40
0.165733630309935
 40
0.1987706013032447
 40
0.2317817661598671
 40
0.2647706340740782
 40
0.2977401010587349
 40
0.3306924311017938
 40
0.3636292454572344
 40
0.5465013951387356
 40
0.7258072495694597
 40
0.9055734256032668
 40
1.0
 40
1.0
 40
1.0
 40
1.0
 10
237.6718349980125
 20
170.9064121875234
 30
0.0
 10
237.7353847727031
 20
170.9146377165667
 30
0.0
 10
237.8623861762155
 20
170.9310760711984
 30
0.0
 10
238.0517127160985
 20
170.9616765940123
 30
0.0
 10
238.2392687494084
 20
170.9964717594023
 30
0.0
 10
238.4244857876973
 20
171.0357676290321
 30
0.0
 10
238.6068515153081
 20
171.0793051744328
 30
0.0
 10
238.7858609999343
 20
171.1269566054815
 30
0.0
 10
238.9610308113039
 20
171.1785400459301
 30
0.0
 10
239.1318983201184
 20
171.2338724372799
 30
0.0
 10
239.2980168775576
 20
171.2927500738449
 30
0.0
 10
239.4589816320274
 20
171.3549810427257
 30
0.0
 10
239.8500928407683
 20
171.5193803440445
 30
0.0
 10
240.3966277186631
 20
171.8212942951754
 30
0.0
 10
240.9118260795618
 20
172.2870200221963
 30
0.0
 10
241.1297667141592
 20
172.6917669162973
 30
0.0
 10
241.1604461678312
 20
172.9298258405533
 30
0.0
 10
241.1592505220706
 20
173.0103806452767
 30
0.0
  0
SPLINE
  5
1DC
330
1F
100
AcDbEntity
  8
1
100
AcDbSpline
210
0.0
220
0.0
230
1.0
 70
    24
 71
     1
 72
     4
 73
     2
 74
     0
 42
0.000000001
 43
0.0000000001
 40
0.0
 40
0.0
 40
1.0
 40
1.0
 10
237.6856471191828
 20
170.8283865558915
 30
0.0
 10
236.5215455040451
 20
170.6835012853543
 30
0.0
  0
SPLINE
  5
1DD
330
1F
100
AcDbEntity
  8
1
100
AcDbSpline
210
0.0
220
0.0
230
1.0
 70
     8
 71
     3
 72
    15
 73
    11
 74
     0
 42
0.000000001
 43
0.0000000001
 40
0.0
 40
0.0
 40
0.0
 40
0.0
 40
0.1331440832223686
 40
0.2638552028768341
 40
0.3921893764815446
 40
0.5181998898347641
 40
0.6419377150048082
 40
0.7634519708179944
 40
0.8827904202795874
 40
1.0
 40
1.0
 40
1.0
 40
1.0
 10
234.3151120560125
 20
162.4584225040965
 30
0.0
 10
234.275130827685
 20
162.4797514139666
 30
0.0
 10
234.195898954542
 20
162.5220194870548
 30
0.0
 10
234.0720210250664
 20
162.5752543223003
 30
0.0
 10
233.9467387319826
 20
162.6202487236672
 30
0.0
 10
233.820264426038
 20
162.6564282159704
 30
0.0
 10
233.6933719633352
 20
162.6841559894058
 30
0.0
 10
233.5666299328557
 20
162.703373154136
 30
0.0
 10
233.4406641472538
 20
162.7150452733634
 30
0.0
 10
233.3567109007499
 20
162.71621882497
 30
0.0
 10
233.3151120560125
 20
162.7168003199461
 30
0.0
  0
SPLINE
  5
1DE
330
1F
100
AcDbEntity
  8
1
100
AcDbSpline
210
0.0
220
0.0
230
1.0
 70
     8
 71
     2
 72
     7
 73
     4
 74
     0
 42
0.000000001
 43
0.0000000001
 40
0.0
 40
0.0
 40
0.0
 40
0.5
 40
1.0
 40
1.0
 40
1.0
 10
241.0398128681736
 20
165.0822292405976
 30
0.0
 10
241.033060429189
 20
165.6602261134974
 30
0.0
 10
240.6449460190029
 20
166.7501564752818
 30
0.0
 10
240.2826497363616
 20
167.2033576271078
 30
0.0
  0
SPLINE
  5
1DF
330
1F
100
AcDbEntity
  8
1
100
AcDbSpline
210
0.0
220
0.0
230
1.0
 70
     8
 71
     2
 72
     6
 73
     3
 74
     0
 42
0.000000001
 43
0.0000000001
 40
0.0
 40
0.0
 40
0.0
 40
1.0
 40
1.0
 40
1.0
 10
224.3106793601419
 20
165.9617510730261
 30
0.0
 10
224.4869088458221
 20
165.7934948417645
 30
0.0
 10
224.6648165802896
 20
165.632949092721
 30
0.0
  0
SPLINE
  5
1E0
330
1F
100
AcDbEntity
  8
1
100
AcDbSpline
210
0.0
220
0.0
230
1.0
 70
     8
 71
     3
 72
     8
 73
     4
 74
     0
 42
0.000000001
 43
0.0000000001
 40
0.0
 40
0.0
 40
0.0
 40
0.0
 40
1.0
 40
1.0
 40
1.0
 40
1.0
 10
242.1375673077356
 20
170.9375425377834
 30
0.0
 10
242.1514278144103
 20
170.8907740380275
 30
0.0
 10
242.1649837256909
 20
170.8440868690548
 30
0.0
 10
242.177997160278
 20
170.7979318033766
 30
0.0
  0
SPLINE
  5
1E1
330
1F
100
AcDbEntity
  8
1
100
AcDbSpline
210
0.0
220
0.0
230
1.0
 70
     8
 71
     2
 72
    12
 73
     9
 74
     0
 42
0.000000001
 43
0.0000000001
 40
0.0
 40
0.0
 40
0.0
 40
0.2087042702398272
 40
0.2087042702398272
 40
0.4724695134932181
 40
0.4724695134932181
 40
0.7362347567466091
 40
0.7362347567466091
 40
1.0
 40
1.0
 40
1.0
 10
240.69445380995
 20
172.0949110495096
 30
0.0
 10
240.5245274520419
 20
171.9096800643129
 30
0.0
 10
240.2820294602469
 20
171.7378046783588
 30
0.0
 10
239.9708034145372
 20
171.5172168857368
 30
0.0
 10
239.5640411242127
 20
171.3356319644029
 30
0.0
 10
239.1514580159744
 20
171.1514485407295
 30
0.0
 10
238.6742897072377
 20
171.0222087534017
 30
0.0
 10
238.1933165582666
 20
170.8919384350564
 30
0.0
 10
237.6856471191828
 20
170.8283865558915
 30
0.0
  0
SPLINE
  5
1E2
330
1F
100
AcDbEntity
  8
1
100
AcDbSpline
210
0.0
220
0.0
230
1.0
 70
     8
 71
     3
 72
     8
 73
     4
 74
     0
 42
0.000000001
 43
0.0000000001
 40
0.0
 40
0.0
 40
0.0
 40
0.0
 40
1.0
 40
1.0
 40
1.0
 40
1.0
 10
241.045374273377
 20
165.0734184371086
 30
0.0
 10
241.083204743693
 20
165.0882738690234
 30
0.0
 10
241.1209585727058
 20
165.1035303509054
 30
0.0
 10
241.1586287331534
 20
165.1191866118329
 30
0.0
  0
SPLINE
  5
1E3
330
1F
100
AcDbEntity
  8
1
100
AcDbSpline
210
0.0
220
0.0
230
1.0
 70
     8
 71
     3
 72
    16
 73
    12
 74
     0
 42
0.000000001
 43
0.0000000001
 40
0.0
 40
0.0
 40
0.0
 40
0.0
 40
0.0699772447490442
 40
0.153395264953826
 40
0.2502770114149705
 40
0.4092121143811755
 40
0.5000448548057581
 40
0.6354509179801169
 40
0.7639293617856419
 40
0.8854544197647607
 40
1.0
 40
1.0
 40
1.0
 40
1.0
 10
240.3764986156028
 20
167.2781148326997
 30
0.0
 10
240.4100436871245
 20
167.2351247452412
 30
0.0
 10
240.4835769500077
 20
167.1408873130626
 30
0.0
 10
240.5936811748245
 20
166.97977374346
 30
0.0
 10
240.7304571919085
 20
166.7534616615354
 30
0.0
 10
240.850249949683
 20
166.5107345329735
 30
0.0
 10
240.9607161174021
 20
166.2315942046646
 30
0.0
 10
241.0433610304858
 20
165.9674542809522
 30
0.0
 10
241.1076182077009
 20
165.6739062522321
 30
0.0
 10
241.1471233169345
 20
165.3922739296696
 30
0.0
 10
241.154898566074
 20
165.2085080792394
 30
0.0
 10
241.158671252211
 20
165.1193416919065
 30
0.0
  0
SPLINE
  5
1E4
330
1F
100
AcDbEntity
  8
1
100
AcDbSpline
210
0.0
220
0.0
230
1.0
 70
     8
 71
     2
 72
    12
 73
     9
 74
     0
 42
0.000000001
 43
0.0000000001
 40
0.0
 40
0.0
 40
0.0
 40
0.25
 40
0.25
 40
0.5
 40
0.5
 40
0.75
 40
0.75
 40
1.0
 40
1.0
 40
1.0
 10
238.1589887950871
 20
161.6281757374989
 30
0.0
 10
238.8339385935288
 20
161.7218348679834
 30
0.0
 10
239.4124244678943
 20
162.0561044705246
 30
0.0
 10
239.9714419993128
 20
162.3791245758051
 30
0.0
 10
240.358743460899
 20
162.8803233356272
 30
0.0
 10
240.7234981021364
 20
163.3523447245444
 30
0.0
 10
240.8972149311941
 20
163.9320457371812
 30
0.0
 10
241.0595573782156
 20
164.473789916158
 30
0.0
 10
241.045374273377
 20
165.0734184371086
 30
0.0
  0
SPLINE
  5
1E5
330
1F
100
AcDbEntity
  8
1
100
AcDbSpline
210
0.0
220
0.0
230
1.0
 70
     8
 71
     3
 72
    12
 73
     8
 74
     0
 42
0.000000001
 43
0.0000000001
 40
0.0
 40
0.0
 40
0.0
 40
0.0
 40
0.2138068619949031
 40
0.4210493185030466
 40
0.6217956200679492
 40
0.816120914847105
 40
1.0
 40
1.0
 40
1.0
 40
1.0
 10
232.611384714915
 20
178.9042989462957
 30
0.0
 10
232.5958636440843
 20
178.8810548592635
 30
0.0
 10
232.5652980381224
 20
178.8352803368145
 30
0.0
 10
232.5297160122067
 20
178.7618573606799
 30
0.0
 10
232.5023997511349
 20
178.6877123844314
 30
0.0
 10
232.4837311269055
 20
178.6139499945264
 30
0.0
 10
232.4763592698628
 20
178.5647372034148
 30
0.0
 10
232.4739432808699
 20
178.5406886211769
 30
0.0
  0
SPLINE
  5
1E6
330
1F
100
AcDbEntity
  8
1
100
AcDbSpline
210
0.0
220
0.0
230
1.0
 70
     8
 71
     3
 72
     8
 73
     4
 74
     0
 42
0.000000001
 43
0.0000000001
 40
0.0
 40
0.0
 40
0.0
 40
0.0
 40
1.0
 40
1.0
 40
1.0
 40
1.0
 10
240.2864739338805
 20
167.3906369695668
 30
0.0
 10
240.3164815396952
 20
167.3531290949329
 30
0.0
 10
240.346490077649
 20
167.3156219638163
 30
0.0
 10
240.3764986156028
 20
167.2781148326997
 30
0.0
  0
SPLINE
  5
1E7
330
1F
100
AcDbEntity
  8
1
100
AcDbSpline
210
0.0
220
0.0
230
1.0
 70
     8
 71
     3
 72
    13
 73
     9
 74
     0
 42
0.000000001
 43
0.0000000001
 40
0.0
 40
0.0
 40
0.0
 40
0.0
 40
0.1670075403652832
 40
0.3338012062166032
 40
0.5004385501066745
 40
0.6669777370952086
 40
0.8334779857250497
 40
1.0
 40
1.0
 40
1.0
 40
1.0
 10
233.6259184114107
 20
170.9678047302824
 30
0.0
 10
233.6661342171045
 20
170.9696736815956
 30
0.0
 10
233.7465143270096
 20
170.9734091907913
 30
0.0
 10
233.8652998550845
 20
170.9742226769118
 30
0.0
 10
233.9821149051529
 20
170.9715684513581
 30
0.0
 10
234.0963408884487
 20
170.9650278956646
 30
0.0
 10
234.207918114217
 20
170.9550418628105
 30
0.0
 10
234.2793790889738
 20
170.9452393777912
 30
0.0
 10
234.3151119116228
 20
170.9403378149465
 30
0.0
  0
SPLINE
  5
1E8
330
1F
100
AcDbEntity
  8
1
100
AcDbSpline
210
0.0
220
0.0
230
1.0
 70
    24
 71
     1
 72
     4
 73
     2
 74
     0
 42
0.000000001
 43
0.0000000001
 40
0.0
 40
0.0
 40
1.0
 40
1.0
 10
232.6102259119477
 20
178.923631568712
 30
0.0
 10
232.6113852680221
 20
178.9043113221063
 30
0.0
  0
SPLINE
  5
1E9
330
1F
100
AcDbEntity
  8
1
100
AcDbSpline
210
0.0
220
0.0
230
1.0
 70
     8
 71
     3
 72
     8
 73
     4
 74
     0
 42
0.000000001
 43
0.0000000001
 40
0.0
 40
0.0
 40
0.0
 40
0.0
 40
1.0
 40
1.0
 40
1.0
 40
1.0
 10
236.5077333828747
 20
170.7601107697654
 30
0.0
 10
236.8957672545873
 20
170.80881279086
 30
0.0
 10
237.2838011262999
 20
170.8575812501627
 30
0.0
 10
237.6718349980125
 20
170.9064121875234
 30
0.0
  0
SPLINE
  5
1EA
330
1F
100
AcDbEntity
  8
1
100
AcDbSpline
210
0.0
220
0.0
230
1.0
 70
     8
 71
     3
 72
    24
 73
    20
 74
     0
 42
0.000000001
 43
0.0000000001
 40
0.0
 40
0.0
 40
0.0
 40
0.0
 40
0.044413690947197
 40
0.0890236672386727
 40
0.1338182647267468
 40
0.1787859106848177
 40
0.2239155817430661
 40
0.2691973019233357
 40
0.3146226751904916
 40
0.3601854444343236
 40
0.4058820659459254
 40
0.4517122853227609
 40
0.4976796974496038
 40
0.6225402502151615
 40
0.7486685574516182
 40
0.8112786775751585
 40
0.8739542933690314
 40
0.9368162233796752
 40
1.0
 40
1.0
 40
1.0
 40
1.0
 10
241.1586712634137
 20
165.1193415672904
 30
0.0
 10
241.1589866665126
 20
165.0486166186594
 30
0.0
 10
241.1596188666275
 20
164.9068541540202
 30
0.0
 10
241.1464333890073
 20
164.6940049702366
 30
0.0
 10
241.1221693894756
 20
164.4810653765137
 30
0.0
 10
241.0852826011296
 20
164.2686356997627
 30
0.0
 10
241.0355175986649
 20
164.0573962800287
 30
0.0
 10
240.9723301694571
 20
163.8480841674822
 30
0.0
 10
240.8953231821754
 20
163.6414982692153
 30
0.0
 10
240.8041376904196
 20
163.4384939642085
 30
0.0
 10
240.698500471392
 20
163.2399887553209
 30
0.0
 10
240.5781946105419
 20
163.0469314054063
 30
0.0
 10
240.3660891694209
 20
162.7538944274093
 30
0.0
 10
240.0174553828223
 20
162.3838778973076
 30
0.0
 10
239.5664117283098
 20
162.0618498572073
 30
0.0
 10
239.1646203947977
 20
161.8559984788528
 30
0.0
 10
238.8463039015646
 20
161.7305764261372
 30
0.0
 10
238.5133412346495
 20
161.6326679206825
 30
0.0
 10
238.2829569724698
 20
161.5945743601431
 30
0.0
 10
238.1674707084194
 20
161.5754789455976
 30
0.0
  0
SPLINE
  5
1EB
330
1F
100
AcDbEntity
  8
1
100
AcDbSpline
210
0.0
220
0.0
230
1.0
 70
    24
 71
     1
 72
     4
 73
     2
 74
     0
 42
0.000000001
 43
0.0000000001
 40
0.0
 40
0.0
 40
1.0
 40
1.0
 10
233.7856937301094
 20
170.8958507764108
 30
0.0
 10
233.7550641984628
 20
170.9124043016612
 30
0.0
  0
SPLINE
  5
1EC
330
1F
100
AcDbEntity
  8
1
100
AcDbSpline
210
0.0
220
0.0
230
1.0
 70
     8
 71
     3
 72
    15
 73
    11
 74
     0
 42
0.000000001
 43
0.0000000001
 40
0.0
 40
0.0
 40
0.0
 40
0.0
 40
0.1224226106785984
 40
0.2455023576051061
 40
0.3692789672385429
 40
0.4937923819440793
 40
0.6190823994231777
 40
0.7451882993455902
 40
0.872148463986333
 40
1.0
 40
1.0
 40
1.0
 40
1.0
 10
235.5077333828747
 20
170.7646131076636
 30
0.0
 10
235.5452147413745
 20
170.7595478465109
 30
0.0
 10
235.620378649634
 20
170.7493901350557
 30
0.0
 10
235.7382571653631
 20
170.7389875774551
 30
0.0
 10
235.8597031344246
 20
170.7321983617738
 30
0.0
 10
235.984635315341
 20
170.7294660009189
 30
0.0
 10
236.1124591437348
 20
170.730745948481
 30
0.0
 10
236.2426769844666
 20
170.7362180549744
 30
0.0
 10
236.3747612454201
 20
170.74555436029
 30
0.0
 10
236.4633060891304
 20
170.7552473307623
 30
0.0
 10
236.5077333828747
 20
170.7601107697654
 30
0.0
  0
SPLINE
  5
1ED
330
1F
100
AcDbEntity
  8
1
100
AcDbSpline
210
0.0
220
0.0
230
1.0
 70
     8
 71
     3
 72
    21
 73
    17
 74
     0
 42
0.000000001
 43
0.0000000001
 40
0.0
 40
0.0
 40
0.0
 40
0.0
 40
0.0514741032215759
 40
0.101804268492021
 40
0.1514448011148653
 40
0.2008690271279525
 40
0.2505564544628232
 40
0.3131471631449179
 40
0.3757777911582488
 40
0.5007376741154183
 40
0.6255712079872655
 40
0.6881215322515058
 40
0.7506554812225036
 40
0.8333070795920802
 40
0.9156517335779131
 40
1.0
 40
1.0
 40
1.0
 40
1.0
 10
224.2205823525936
 20
165.8451723229324
 30
0.0
 10
224.1977349951559
 20
165.8684150235719
 30
0.0
 10
224.1525480299571
 20
165.9143838892399
 30
0.0
 10
224.0968596170715
 20
165.988858429447
 30
0.0
 10
224.0514105218642
 20
166.0662400049783
 30
0.0
 10
224.0170163730027
 20
166.1470321455979
 30
0.0
 10
223.9913206692383
 20
166.2379447329873
 30
0.0
 10
223.9789591955241
 20
166.3393060250329
 30
0.0
 10
223.9881383082558
 20
166.4863467026201
 30
0.0
 10
224.0489107105349
 20
166.6698225570009
 30
0.0
 10
224.1758212385385
 20
166.8350854596808
 30
0.0
 10
224.307238020621
 20
166.9485452827315
 30
0.0
 10
224.4318193513112
 20
167.0305451986885
 30
0.0
 10
224.5835703852412
 20
167.1033712365856
 30
0.0
 10
224.7638564328319
 20
167.1613910578484
 30
0.0
 10
224.891007157469
 20
167.1790817234677
 30
0.0
 10
224.9553466817344
 20
167.1880333752427
 30
0.0
  0
SPLINE
  5
1EE
330
1F
100
AcDbEntity
  8
1
100
AcDbSpline
210
0.0
220
0.0
230
1.0
 70
    24
 71
     1
 72
     4
 73
     2
 74
     0
 42
0.000000001
 43
0.0000000001
 40
0.0
 40
0.0
 40
1.0
 40
1.0
 10
232.4973101025324
 20
183.7145224997018
 30
0.0
 10
232.5111222237027
 20
183.6069293480852
 30
0.0
  0
SPLINE
  5
1EF
330
1F
100
AcDbEntity
  8
1
100
AcDbSpline
210
0.0
220
0.0
230
1.0
 70
     8
 71
     3
 72
     8
 73
     4
 74
     0
 42
0.000000001
 43
0.0000000001
 40
0.0
 40
0.0
 40
0.0
 40
0.0
 40
1.0
 40
1.0
 40
1.0
 40
1.0
 10
232.7003257789596
 20
169.8364569219696
 30
0.0
 10
232.7105341092191
 20
169.831502446137
 30
0.0
 10
232.7210599343712
 20
169.8268173458806
 30
0.0
 10
232.7318848109278
 20
169.8224178865945
 30
0.0
  0
SPLINE
  5
1F0
330
1F
100
AcDbEntity
  8
1
100
AcDbSpline
210
0.0
220
0.0
230
1.0
 70
     8
 71
     2
 72
     6
 73
     3
 74
     0
 42
0.000000001
 43
0.0000000001
 40
0.0
 40
0.0
 40
0.0
 40
1.0
 40
1.0
 40
1.0
 10
234.3856551262821
 20
170.8607228558529
 30
0.0
 10
234.1031336512777
 20
170.9022139391634
 30
0.0
 10
233.785697113697
 20
170.8958490470295
 30
0.0
  0
SPLINE
  5
1F1
330
1F
100
AcDbEntity
  8
1
100
AcDbSpline
210
0.0
220
0.0
230
1.0
 70
     8
 71
     2
 72
     7
 73
     4
 74
     0
 42
0.000000001
 43
0.0000000001
 40
0.0
 40
0.0
 40
0.0
 40
0.5
 40
1.0
 40
1.0
 40
1.0
 10
236.5215455040451
 20
170.6835012853543
 30
0.0
 10
236.274121232724
 20
170.6527660630739
 30
0.0
 10
235.7924633690458
 20
170.6535837886161
 30
0.0
 10
235.5782898601759
 20
170.6852632449026
 30
0.0
  0
SPLINE
  5
1F2
330
1F
100
AcDbEntity
  8
1
100
AcDbSpline
210
0.0
220
0.0
230
1.0
 70
     8
 71
     3
 72
     8
 73
     4
 74
     0
 42
0.000000001
 43
0.0000000001
 40
0.0
 40
0.0
 40
0.0
 40
0.0
 40
1.0
 40
1.0
 40
1.0
 40
1.0
 10
232.4973100687668
 20
167.980418600884
 30
0.0
 10
232.5649820897102
 20
168.569969737561
 30
0.0
 10
232.6326541106537
 20
169.1925456409146
 30
0.0
 10
232.7003261315972
 20
169.8364598807778
 30
0.0
  0
SPLINE
  5
1F3
330
1F
100
AcDbEntity
  8
1
100
AcDbSpline
210
0.0
220
0.0
230
1.0
 70
    24
 71
     1
 72
     4
 73
     2
 74
     0
 42
0.000000001
 43
0.0000000001
 40
0.0
 40
0.0
 40
1.0
 40
1.0
 10
233.3151126244161
 20
162.7167944541278
 30
0.0
 10
233.3319970575485
 20
162.7724014535767
 30
0.0
  0
SPLINE
  5
1F4
330
1F
100
AcDbEntity
  8
1
100
AcDbSpline
210
0.0
220
0.0
230
1.0
 70
    24
 71
     1
 72
     4
 73
     2
 74
     0
 42
0.000000001
 43
0.0000000001
 40
0.0
 40
0.0
 40
1.0
 40
1.0
 10
224.9553466773428
 20
167.1880332550611
 30
0.0
 10
224.9691587985131
 20
167.152802930784
 30
0.0
  0
SPLINE
  5
1F5
330
1F
100
AcDbEntity
  8
1
100
AcDbSpline
210
0.0
220
0.0
230
1.0
 70
     8
 71
     3
 72
     8
 73
     4
 74
     0
 42
0.000000001
 43
0.0000000001
 40
0.0
 40
0.0
 40
0.0
 40
0.0
 40
1.0
 40
1.0
 40
1.0
 40
1.0
 10
238.1674706160608
 20
178.0987483119096
 30
0.0
 10
238.16971956422
 20
178.0778066117669
 30
0.0
 10
238.1717347369807
 20
178.0568289373691
 30
0.0
 10
238.1735166392467
 20
178.035815641309
 30
0.0
  0
SPLINE
  5
1F6
330
1F
100
AcDbEntity
  8
1
100
AcDbSpline
210
0.0
220
0.0
230
1.0
 70
     8
 71
     3
 72
     8
 73
     4
 74
     0
 42
0.000000001
 43
0.0000000001
 40
0.0
 40
0.0
 40
0.0
 40
0.0
 40
1.0
 40
1.0
 40
1.0
 40
1.0
 10
234.3151120560125
 20
177.647357916679
 30
0.0
 10
234.3391010656592
 20
177.8161868908899
 30
0.0
 10
234.3762815735356
 20
177.9833273738386
 30
0.0
 10
234.426811786014
 20
178.1489604671214
 30
0.0
  0
SPLINE
  5
1F7
330
1F
100
AcDbEntity
  8
1
100
AcDbSpline
210
0.0
220
0.0
230
1.0
 70
     8
 71
     3
 72
    12
 73
     8
 74
     0
 42
0.000000001
 43
0.0000000001
 40
0.0
 40
0.0
 40
0.0
 40
0.0
 40
0.2201086066745545
 40
0.5287274261125948
 40
0.7704477664670573
 40
0.9567030523944632
 40
1.0
 40
1.0
 40
1.0
 40
1.0
 10
241.2759442360957
 20
165.55023831028
 30
0.0
 10
241.3387877502817
 20
165.7177665684855
 30
0.0
 10
241.4887499257829
 20
166.1232204639712
 30
0.0
 10
241.705522406506
 20
166.7233828037689
 30
0.0
 10
241.9063422736058
 20
167.3098849782084
 30
0.0
 10
242.0325631771057
 20
167.6922523508451
 30
0.0
 10
242.088052287972
 20
167.8803223351908
 30
0.0
 10
242.0983912519111
 20
167.9158605709555
 30
0.0
  0
SPLINE
  5
1F8
330
1F
100
AcDbEntity
  8
1
100
AcDbSpline
210
0.0
220
0.0
230
1.0
 70
    24
 71
     1
 72
     4
 73
     2
 74
     0
 42
0.000000001
 43
0.0000000001
 40
0.0
 40
0.0
 40
1.0
 40
1.0
 10
232.7131442395946
 20
183.5497209618511
 30
0.0
 10
232.5993731157507
 20
183.6628997919656
 30
0.0
  0
SPLINE
  5
1F9
330
1F
100
AcDbEntity
  8
1
100
AcDbSpline
210
0.0
220
0.0
230
1.0
 70
     8
 71
     2
 72
     6
 73
     3
 74
     0
 42
0.000000001
 43
0.0000000001
 40
0.0
 40
0.0
 40
0.0
 40
1.0
 40
1.0
 40
1.0
 10
242.1348586025662
 20
170.9433570094716
 30
0.0
 10
242.0779744931662
 20
171.1440199766756
 30
0.0
 10
242.0100950992169
 20
171.3482372801539
 30
0.0
  0
SPLINE
  5
1FA
330
1F
100
AcDbEntity
  8
1
100
AcDbSpline
210
0.0
220
0.0
230
1.0
 70
     8
 71
     2
 72
     6
 73
     3
 74
     0
 42
0.000000001
 43
0.0000000001
 40
0.0
 40
0.0
 40
0.0
 40
1.0
 40
1.0
 40
1.0
 10
240.69329597724
 20
172.0938784958583
 30
0.0
 10
240.7435163994967
 20
172.1484764500924
 30
0.0
 10
240.7941260302578
 20
172.203310530227
 30
0.0
  0
SPLINE
  5
1FB
330
1F
100
AcDbEntity
  8
1
100
AcDbSpline
210
0.0
220
0.0
230
1.0
 70
     8
 71
     3
 72
    11
 73
     7
 74
     0
 42
0.000000001
 43
0.0000000001
 40
0.0
 40
0.0
 40
0.0
 40
0.0
 40
0.061448550257675
 40
0.3113241427744468
 40
0.6316941683409958
 40
1.0
 40
1.0
 40
1.0
 40
1.0
 10
242.0100950992169
 20
171.3482372801539
 30
0.0
 10
241.9963020860399
 20
171.3924500374787
 30
0.0
 10
241.9258368614725
 20
171.616200154049
 30
0.0
 10
241.7729860545255
 20
172.0679886438835
 30
0.0
 10
241.5426646023475
 20
172.7310206642275
 30
0.0
 10
241.3705611238544
 20
173.211311439682
 30
0.0
 10
241.2776550552873
 20
173.4662968468845
 30
0.0
  0
LINE
  5
1FC
330
1F
100
AcDbEntity
  8
SK4
100
AcDbLine
 10
184.5057139999999
 20
173.2145379999999
 30
0.0
 11
214.505714
 21
173.2145379999999
 31
0.0
  0
MTEXT
  5
1FD
330
1F
100
AcDbEntity
  8
SK6
100
AcDbMText
 10
178.499967
 20
133.336391
 30
0.0
 40
3.5
 41
0.0
 71
     7
 72
     5
  1
\W0.7500;\H5.25;25E3R032M12-SRC10-C\H3.50;
  7
cesky
 73
     2
 44
0.8433729999999998
1001
ACAD
1000
MTEXTBEGIN
1070
    73
1070
     2
1070
    44
1040
0.8433729999999998
1070
    74
1070
     0
1000
MTEXTEND
  0
LINE
  5
1FF
330
1F
100
AcDbEntity
  8
4
100
AcDbLine
 10
207.505714
 20
173.2145379999999
 30
0.0
 11
244.159429
 21
173.2145379999999
 31
0.0
  0
LINE
  5
201
330
1F
100
AcDbEntity
  8
2
 60
     1
100
AcDbLine
 10
237.542884
 20
192.897833
 30
0.0
 11
235.042886
 21
192.457016
 31
0.0
  0
LINE
  5
202
330
1F
100
AcDbEntity
  8
2
 60
     1
100
AcDbLine
 10
235.042886
 20
192.457016
 30
0.0
 11
235.042883
 21
193.33865
 31
0.0
  0
LINE
  5
203
330
1F
100
AcDbEntity
  8
2
 60
     1
100
AcDbLine
 10
235.042883
 20
193.33865
 30
0.0
 11
237.542884
 21
192.897833
 31
0.0
  0
LINE
  5
205
330
1F
100
AcDbEntity
  8
2
 60
     1
100
AcDbLine
 10
242.505716
 20
192.897833
 30
0.0
 11
245.005714
 21
193.33865
 31
0.0
  0
LINE
  5
206
330
1F
100
AcDbEntity
  8
2
 60
     1
100
AcDbLine
 10
245.005714
 20
193.33865
 30
0.0
 11
245.005717
 21
192.457016
 31
0.0
  0
LINE
  5
207
330
1F
100
AcDbEntity
  8
2
 60
     1
100
AcDbLine
 10
245.005717
 20
192.457016
 30
0.0
 11
242.505716
 21
192.897833
 31
0.0
  0
LINE
  5
20A
330
1F
100
AcDbEntity
  8
2
 60
     1
100
AcDbLine
 10
242.505716
 20
201.736196
 30
0.0
 11
240.005717
 21
201.295378
 31
0.0
  0
LINE
  5
20B
330
1F
100
AcDbEntity
  8
2
 60
     1
100
AcDbLine
 10
240.005717
 20
201.295378
 30
0.0
 11
240.005714
 21
202.177013
 31
0.0
  0
LINE
  5
20C
330
1F
100
AcDbEntity
  8
2
 60
     1
100
AcDbLine
 10
240.005714
 20
202.177013
 30
0.0
 11
242.505716
 21
201.736196
 31
0.0
  0
LINE
  5
20E
330
1F
100
AcDbEntity
  8
2
 60
     1
100
AcDbLine
 10
210.505714
 20
201.736196
 30
0.0
 11
213.005713
 21
202.177013
 31
0.0
  0
LINE
  5
20F
330
1F
100
AcDbEntity
  8
2
 60
     1
100
AcDbLine
 10
213.005713
 20
202.177013
 30
0.0
 11
213.005716
 21
201.295378
 31
0.0
  0
LINE
  5
210
330
1F
100
AcDbEntity
  8
2
 60
     1
100
AcDbLine
 10
213.005716
 20
201.295378
 30
0.0
 11
210.505714
 21
201.736196
 31
0.0
  0
LINE
  5
214
330
1F
100
AcDbEntity
  8
2
 60
     1
100
AcDbLine
 10
254.75471
 20
185.689434
 30
0.0
 11
255.195528
 21
183.189436
 31
0.0
  0
LINE
  5
215
330
1F
100
AcDbEntity
  8
2
 60
     1
100
AcDbLine
 10
255.195528
 20
183.189436
 30
0.0
 11
254.313893
 21
183.189432
 31
0.0
  0
LINE
  5
216
330
1F
100
AcDbEntity
  8
2
 60
     1
100
AcDbLine
 10
254.313893
 20
183.189432
 30
0.0
 11
254.75471
 21
185.689434
 31
0.0
  0
LINE
  5
292
330
1F
100
AcDbEntity
  8
2
100
AcDbLine
 10
254.7370072531081
 20
185.5890351208739
 30
0.0
 11
254.7671060654262
 21
185.6191339331919
 31
0.0
  0
LINE
  5
293
330
1F
100
AcDbEntity
  8
2
100
AcDbLine
 10
254.7177828744338
 20
185.4800081809889
 30
0.0
 11
254.7805671382879
 21
185.542792444843
 31
0.0
  0
LINE
  5
294
330
1F
100
AcDbEntity
  8
2
100
AcDbLine
 10
254.6985584957595
 20
185.3709812411039
 30
0.0
 11
254.7940282111497
 21
185.4664509564941
 31
0.0
  0
LINE
  5
295
330
1F
100
AcDbEntity
  8
2
100
AcDbLine
 10
254.6793341170852
 20
185.2619543012188
 30
0.0
 11
254.8074892840116
 21
185.3901094681452
 31
0.0
  0
LINE
  5
296
330
1F
100
AcDbEntity
  8
2
100
AcDbLine
 10
254.6601097384108
 20
185.1529273613338
 30
0.0
 11
254.8209503568734
 21
185.3137679797964
 31
0.0
  0
LINE
  5
297
330
1F
100
AcDbEntity
  8
2
100
AcDbLine
 10
254.6408853597364
 20
185.0439004214488
 30
0.0
 11
254.8344114297352
 21
185.2374264914475
 31
0.0
  0
LINE
  5
298
330
1F
100
AcDbEntity
  8
2
100
AcDbLine
 10
254.6216609810621
 20
184.9348734815637
 30
0.0
 11
254.8478725025969
 21
185.1610850030985
 31
0.0
  0
LINE
  5
299
330
1F
100
AcDbEntity
  8
2
100
AcDbLine
 10
254.6024366023878
 20
184.8258465416787
 30
0.0
 11
254.8613335754587
 21
185.0847435147496
 31
0.0
  0
LINE
  5
29A
330
1F
100
AcDbEntity
  8
2
100
AcDbLine
 10
254.5832122237135
 20
184.7168196017937
 30
0.0
 11
254.8747946483206
 21
185.0084020264008
 31
0.0
  0
LINE
  5
29B
330
1F
100
AcDbEntity
  8
2
100
AcDbLine
 10
254.5639878450392
 20
184.6077926619087
 30
0.0
 11
254.8882557211823
 21
184.9320605380518
 31
0.0
  0
LINE
  5
29C
330
1F
100
AcDbEntity
  8
2
100
AcDbLine
 10
254.5447634663648
 20
184.4987657220237
 30
0.0
 11
254.9017167940442
 21
184.855719049703
 31
0.0
  0
LINE
  5
29D
330
1F
100
AcDbEntity
  8
2
100
AcDbLine
 10
254.5255390876905
 20
184.3897387821387
 30
0.0
 11
254.915177866906
 21
184.7793775613541
 31
0.0
  0
LINE
  5
29E
330
1F
100
AcDbEntity
  8
2
100
AcDbLine
 10
254.5063147090162
 20
184.2807118422536
 30
0.0
 11
254.9286389397678
 21
184.7030360730052
 31
0.0
  0
LINE
  5
29F
330
1F
100
AcDbEntity
  8
2
100
AcDbLine
 10
254.4870903303418
 20
184.1716849023686
 30
0.0
 11
254.9421000126295
 21
184.6266945846563
 31
0.0
  0
LINE
  5
2A0
330
1F
100
AcDbEntity
  8
2
100
AcDbLine
 10
254.4678659516675
 20
184.0626579624835
 30
0.0
 11
254.9555610854913
 21
184.5503530963074
 31
0.0
  0
LINE
  5
2A1
330
1F
100
AcDbEntity
  8
2
100
AcDbLine
 10
254.4486415729931
 20
183.9536310225985
 30
0.0
 11
254.9690221583531
 21
184.4740116079585
 31
0.0
  0
LINE
  5
2A2
330
1F
100
AcDbEntity
  8
2
100
AcDbLine
 10
254.4294171943188
 20
183.8446040827135
 30
0.0
 11
254.9824832312149
 21
184.3976701196096
 31
0.0
  0
LINE
  5
2A3
330
1F
100
AcDbEntity
  8
2
100
AcDbLine
 10
254.4101928156444
 20
183.7355771428285
 30
0.0
 11
254.9959443040767
 21
184.3213286312607
 31
0.0
  0
LINE
  5
2A4
330
1F
100
AcDbEntity
  8
2
100
AcDbLine
 10
254.3909684369701
 20
183.6265502029435
 30
0.0
 11
255.0094053769385
 21
184.2449871429118
 31
0.0
  0
LINE
  5
2A5
330
1F
100
AcDbEntity
  8
2
100
AcDbLine
 10
254.3717440582959
 20
183.5175232630584
 30
0.0
 11
255.0228664498003
 21
184.1686456545629
 31
0.0
  0
LINE
  5
2A6
330
1F
100
AcDbEntity
  8
2
100
AcDbLine
 10
254.3525196796215
 20
183.4084963231734
 30
0.0
 11
255.0363275226621
 21
184.092304166214
 31
0.0
  0
LINE
  5
2A7
330
1F
100
AcDbEntity
  8
2
100
AcDbLine
 10
254.3332953009472
 20
183.2994693832884
 30
0.0
 11
255.0497885955238
 21
184.0159626778651
 31
0.0
  0
LINE
  5
2A8
330
1F
100
AcDbEntity
  8
2
100
AcDbLine
 10
254.3140709222728
 20
183.1904424434034
 30
0.0
 11
255.0632496683856
 21
183.9396211895162
 31
0.0
  0
LINE
  5
2A9
330
1F
100
AcDbEntity
  8
2
100
AcDbLine
 10
254.4028637080019
 20
183.1894326679218
 30
0.0
 11
255.0767107412474
 21
183.8632797011673
 31
0.0
  0
LINE
  5
2AA
330
1F
100
AcDbEntity
  8
2
100
AcDbLine
 10
254.4926665990771
 20
183.1894329977863
 30
0.0
 11
255.0901718141093
 21
183.7869382128184
 31
0.0
  0
LINE
  5
2AB
330
1F
100
AcDbEntity
  8
2
100
AcDbLine
 10
254.5824694901522
 20
183.1894333276506
 30
0.0
 11
255.1036328869711
 21
183.7105967244696
 31
0.0
  0
LINE
  5
2AC
330
1F
100
AcDbEntity
  8
2
100
AcDbLine
 10
254.6722723812273
 20
183.1894336575151
 30
0.0
 11
255.1170939598328
 21
183.6342552361207
 31
0.0
  0
LINE
  5
2AD
330
1F
100
AcDbEntity
  8
2
100
AcDbLine
 10
254.7620752723025
 20
183.1894339873795
 30
0.0
 11
255.1305550326946
 21
183.5579137477717
 31
0.0
  0
LINE
  5
2AE
330
1F
100
AcDbEntity
  8
2
100
AcDbLine
 10
254.8518781633775
 20
183.189434317244
 30
0.0
 11
255.1440161055565
 21
183.4815722594228
 31
0.0
  0
LINE
  5
2AF
330
1F
100
AcDbEntity
  8
2
100
AcDbLine
 10
254.9416810544527
 20
183.1894346471084
 30
0.0
 11
255.1574771784182
 21
183.405230771074
 31
0.0
  0
LINE
  5
2B0
330
1F
100
AcDbEntity
  8
2
100
AcDbLine
 10
255.0314839455278
 20
183.1894349769728
 30
0.0
 11
255.17093825128
 21
183.3288892827251
 31
0.0
  0
LINE
  5
2B1
330
1F
100
AcDbEntity
  8
2
100
AcDbLine
 10
255.1212868366029
 20
183.1894353068373
 30
0.0
 11
255.1843993241419
 21
183.2525477943762
 31
0.0
  0
TEXT
  5
2B4
330
1F
100
AcDbEntity
  8
2
100
AcDbText
 10
252.2963773333334
 20
173.1046437659873
 30
0.0
 40
3.5
  1
25
 50
89.99999999999991
 41
0.75
  7
cesky
100
AcDbText
  0
TEXT
  5
2B5
330
1F
100
AcDbEntity
  8
2
100
AcDbText
 10
252.3868943333333
 20
166.2125384174279
 30
0.0
 40
3.5
  1
\U+00D8
 50
89.99999999999991
  7
cesky
100
AcDbText
  0
LINE
  5
2B6
330
1F
100
AcDbEntity
  8
2
100
AcDbLine
 10
210.5321799680977
 20
201.7315289694482
 30
0.0
 11
210.5435111582245
 21
201.742860159575
 31
0.0
  0
LINE
  5
2B7
330
1F
100
AcDbEntity
  8
2
100
AcDbLine
 10
210.6085214712699
 20
201.7180679114097
 30
0.0
 11
210.6525381283433
 21
201.7620845684831
 31
0.0
  0
LINE
  5
2B8
330
1F
100
AcDbEntity
  8
2
100
AcDbLine
 10
210.6848629744422
 20
201.7046068533712
 30
0.0
 11
210.7615650984621
 21
201.7813089773912
 31
0.0
  0
LINE
  5
2B9
330
1F
100
AcDbEntity
  8
2
100
AcDbLine
 10
210.7612044776144
 20
201.6911457953328
 30
0.0
 11
210.8705920685808
 21
201.8005333862992
 31
0.0
  0
LINE
  5
2BA
330
1F
100
AcDbEntity
  8
2
100
AcDbLine
 10
210.8375459807866
 20
201.6776847372943
 30
0.0
 11
210.9796190386996
 21
201.8197577952073
 31
0.0
  0
LINE
  5
2BB
330
1F
100
AcDbEntity
  8
2
100
AcDbLine
 10
210.9138874839588
 20
201.6642236792558
 30
0.0
 11
211.0886460088183
 21
201.8389822041153
 31
0.0
  0
LINE
  5
2BC
330
1F
100
AcDbEntity
  8
2
100
AcDbLine
 10
210.990228987131
 20
201.6507626212173
 30
0.0
 11
211.1976729789371
 21
201.8582066130234
 31
0.0
  0
LINE
  5
2BD
330
1F
100
AcDbEntity
  8
2
100
AcDbLine
 10
211.0665704903032
 20
201.6373015631788
 30
0.0
 11
211.3066999490558
 21
201.8774310219315
 31
0.0
  0
LINE
  5
2BE
330
1F
100
AcDbEntity
  8
2
100
AcDbLine
 10
211.1429119934754
 20
201.6238405051403
 30
0.0
 11
211.4157269191746
 21
201.8966554308396
 31
0.0
  0
LINE
  5
2BF
330
1F
100
AcDbEntity
  8
2
100
AcDbLine
 10
211.2192534966476
 20
201.6103794471018
 30
0.0
 11
211.5247538892933
 21
201.9158798397476
 31
0.0
  0
LINE
  5
2C0
330
1F
100
AcDbEntity
  8
2
100
AcDbLine
 10
211.2955949998199
 20
201.5969183890634
 30
0.0
 11
211.6337808594122
 21
201.9351042486557
 31
0.0
  0
LINE
  5
2C1
330
1F
100
AcDbEntity
  8
2
100
AcDbLine
 10
211.371936502992
 20
201.5834573310249
 30
0.0
 11
211.7428078295309
 21
201.9543286575637
 31
0.0
  0
LINE
  5
2C2
330
1F
100
AcDbEntity
  8
2
100
AcDbLine
 10
211.4482780061643
 20
201.5699962729864
 30
0.0
 11
211.8518347996497
 21
201.9735530664719
 31
0.0
  0
LINE
  5
2C3
330
1F
100
AcDbEntity
  8
2
100
AcDbLine
 10
211.5246195093364
 20
201.5565352149479
 30
0.0
 11
211.9608617697684
 21
201.9927774753799
 31
0.0
  0
LINE
  5
2C4
330
1F
100
AcDbEntity
  8
2
100
AcDbLine
 10
211.6009610125086
 20
201.5430741569094
 30
0.0
 11
212.0698887398872
 21
202.012001884288
 31
0.0
  0
LINE
  5
2C5
330
1F
100
AcDbEntity
  8
2
100
AcDbLine
 10
211.6773025156809
 20
201.529613098871
 30
0.0
 11
212.178915710006
 21
202.031226293196
 31
0.0
  0
LINE
  5
2C6
330
1F
100
AcDbEntity
  8
2
100
AcDbLine
 10
211.7536440188531
 20
201.5161520408324
 30
0.0
 11
212.2879426801247
 21
202.0504507021041
 31
0.0
  0
LINE
  5
2C7
330
1F
100
AcDbEntity
  8
2
100
AcDbLine
 10
211.8299855220253
 20
201.502690982794
 30
0.0
 11
212.3969696502435
 21
202.0696751110122
 31
0.0
  0
LINE
  5
2C8
330
1F
100
AcDbEntity
  8
2
100
AcDbLine
 10
211.9063270251975
 20
201.4892299247555
 30
0.0
 11
212.5059966203622
 21
202.0888995199202
 31
0.0
  0
LINE
  5
2C9
330
1F
100
AcDbEntity
  8
2
100
AcDbLine
 10
211.9826685283697
 20
201.4757688667171
 30
0.0
 11
212.615023590481
 21
202.1081239288284
 31
0.0
  0
LINE
  5
2CA
330
1F
100
AcDbEntity
  8
2
100
AcDbLine
 10
212.0590100315419
 20
201.4623078086786
 30
0.0
 11
212.7240505605998
 21
202.1273483377364
 31
0.0
  0
LINE
  5
2CB
330
1F
100
AcDbEntity
  8
2
100
AcDbLine
 10
212.1353515347141
 20
201.4488467506401
 30
0.0
 11
212.8330775307186
 21
202.1465727466445
 31
0.0
  0
LINE
  5
2CC
330
1F
100
AcDbEntity
  8
2
100
AcDbLine
 10
212.2116930378864
 20
201.4353856926016
 30
0.0
 11
212.9421045008373
 21
202.1657971555525
 31
0.0
  0
LINE
  5
2CD
330
1F
100
AcDbEntity
  8
2
100
AcDbLine
 10
212.2880345410585
 20
201.4219246345631
 30
0.0
 11
213.0057128987518
 21
202.1396029922564
 31
0.0
  0
LINE
  5
2CE
330
1F
100
AcDbEntity
  8
2
100
AcDbLine
 10
212.3643760442308
 20
201.4084635765247
 30
0.0
 11
213.0057132286138
 21
202.0498007609077
 31
0.0
  0
LINE
  5
2CF
330
1F
100
AcDbEntity
  8
2
100
AcDbLine
 10
212.440717547403
 20
201.3950025184862
 30
0.0
 11
213.0057135584758
 21
201.959998529559
 31
0.0
  0
LINE
  5
2D0
330
1F
100
AcDbEntity
  8
2
100
AcDbLine
 10
212.5170590505752
 20
201.3815414604477
 30
0.0
 11
213.0057138883378
 21
201.8701962982103
 31
0.0
  0
LINE
  5
2D1
330
1F
100
AcDbEntity
  8
2
100
AcDbLine
 10
212.5934005537474
 20
201.3680804024092
 30
0.0
 11
213.0057142181999
 21
201.7803940668617
 31
0.0
  0
LINE
  5
2D2
330
1F
100
AcDbEntity
  8
2
100
AcDbLine
 10
212.6697420569196
 20
201.3546193443707
 30
0.0
 11
213.0057145480619
 21
201.690591835513
 31
0.0
  0
LINE
  5
2D3
330
1F
100
AcDbEntity
  8
2
100
AcDbLine
 10
212.7460835600918
 20
201.3411582863323
 30
0.0
 11
213.0057148779239
 21
201.6007896041643
 31
0.0
  0
LINE
  5
2D4
330
1F
100
AcDbEntity
  8
2
100
AcDbLine
 10
212.8224250632641
 20
201.3276972282938
 30
0.0
 11
213.005715207786
 21
201.5109873728157
 31
0.0
  0
LINE
  5
2D5
330
1F
100
AcDbEntity
  8
2
100
AcDbLine
 10
212.8987665664363
 20
201.3142361702553
 30
0.0
 11
213.005715537648
 21
201.421185141467
 31
0.0
  0
LINE
  5
2D6
330
1F
100
AcDbEntity
  8
2
100
AcDbLine
 10
212.9751080696084
 20
201.3007751122168
 30
0.0
 11
213.00571586751
 21
201.3313829101183
 31
0.0
  0
LINE
  5
2D7
330
1F
100
AcDbEntity
  8
2
100
AcDbLine
 10
240.0057144707924
 20
202.1090336398788
 30
0.0
 11
240.0635039622735
 21
202.1668231313599
 31
0.0
  0
LINE
  5
2D8
330
1F
100
AcDbEntity
  8
2
100
AcDbLine
 10
240.0057148006544
 20
202.0192314085301
 30
0.0
 11
240.1398454654457
 21
202.1533620733215
 31
0.0
  0
LINE
  5
2D9
330
1F
100
AcDbEntity
  8
2
100
AcDbLine
 10
240.0057151305164
 20
201.9294291771815
 30
0.0
 11
240.216186968618
 21
202.139901015283
 31
0.0
  0
LINE
  5
2DA
330
1F
100
AcDbEntity
  8
2
100
AcDbLine
 10
240.0057154603784
 20
201.8396269458328
 30
0.0
 11
240.2925284717901
 21
202.1264399572445
 31
0.0
  0
LINE
  5
2DB
330
1F
100
AcDbEntity
  8
2
100
AcDbLine
 10
240.0057157902404
 20
201.7498247144841
 30
0.0
 11
240.3688699749624
 21
202.112978899206
 31
0.0
  0
LINE
  5
2DC
330
1F
100
AcDbEntity
  8
2
100
AcDbLine
 10
240.0057161201024
 20
201.6600224831354
 30
0.0
 11
240.4452114781346
 21
202.0995178411675
 31
0.0
  0
LINE
  5
2DD
330
1F
100
AcDbEntity
  8
2
100
AcDbLine
 10
240.0057164499645
 20
201.5702202517867
 30
0.0
 11
240.5215529813068
 21
202.086056783129
 31
0.0
  0
LINE
  5
2DE
330
1F
100
AcDbEntity
  8
2
100
AcDbLine
 10
240.0057167798264
 20
201.4804180204381
 30
0.0
 11
240.597894484479
 21
202.0725957250905
 31
0.0
  0
LINE
  5
2DF
330
1F
100
AcDbEntity
  8
2
100
AcDbLine
 10
240.0057171096885
 20
201.3906157890894
 30
0.0
 11
240.6742359876512
 21
202.0591346670521
 31
0.0
  0
LINE
  5
2E0
330
1F
100
AcDbEntity
  8
2
100
AcDbLine
 10
240.0057174395505
 20
201.3008135577407
 30
0.0
 11
240.7505774908234
 21
202.0456736090136
 31
0.0
  0
LINE
  5
2E1
330
1F
100
AcDbEntity
  8
2
100
AcDbLine
 10
240.1081453708699
 20
201.3134389278493
 30
0.0
 11
240.8269189939956
 21
202.0322125509751
 31
0.0
  0
LINE
  5
2E2
330
1F
100
AcDbEntity
  8
2
100
AcDbLine
 10
240.2171723409886
 20
201.3326633367574
 30
0.0
 11
240.9032604971678
 21
202.0187514929366
 31
0.0
  0
LINE
  5
2E3
330
1F
100
AcDbEntity
  8
2
100
AcDbLine
 10
240.3261993111073
 20
201.3518877456655
 30
0.0
 11
240.97960200034
 21
202.0052904348982
 31
0.0
  0
LINE
  5
2E4
330
1F
100
AcDbEntity
  8
2
100
AcDbLine
 10
240.4352262812261
 20
201.3711121545735
 30
0.0
 11
241.0559435035122
 21
201.9918293768597
 31
0.0
  0
LINE
  5
2E5
330
1F
100
AcDbEntity
  8
2
100
AcDbLine
 10
240.5442532513449
 20
201.3903365634817
 30
0.0
 11
241.1322850066844
 21
201.9783683188211
 31
0.0
  0
LINE
  5
2E6
330
1F
100
AcDbEntity
  8
2
100
AcDbLine
 10
240.6532802214636
 20
201.4095609723897
 30
0.0
 11
241.2086265098567
 21
201.9649072607827
 31
0.0
  0
LINE
  5
2E7
330
1F
100
AcDbEntity
  8
2
100
AcDbLine
 10
240.7623071915824
 20
201.4287853812978
 30
0.0
 11
241.2849680130288
 21
201.9514462027442
 31
0.0
  0
LINE
  5
2E8
330
1F
100
AcDbEntity
  8
2
100
AcDbLine
 10
240.8713341617011
 20
201.4480097902058
 30
0.0
 11
241.361309516201
 21
201.9379851447057
 31
0.0
  0
LINE
  5
2E9
330
1F
100
AcDbEntity
  8
2
100
AcDbLine
 10
240.9803611318199
 20
201.4672341991139
 30
0.0
 11
241.4376510193732
 21
201.9245240866672
 31
0.0
  0
LINE
  5
2EA
330
1F
100
AcDbEntity
  8
2
100
AcDbLine
 10
241.0893881019387
 20
201.486458608022
 30
0.0
 11
241.5139925225455
 21
201.9110630286288
 31
0.0
  0
LINE
  5
2EB
330
1F
100
AcDbEntity
  8
2
100
AcDbLine
 10
241.1984150720575
 20
201.50568301693
 30
0.0
 11
241.5903340257177
 21
201.8976019705903
 31
0.0
  0
LINE
  5
2EC
330
1F
100
AcDbEntity
  8
2
100
AcDbLine
 10
241.3074420421762
 20
201.5249074258381
 30
0.0
 11
241.6666755288899
 21
201.8841409125518
 31
0.0
  0
LINE
  5
2ED
330
1F
100
AcDbEntity
  8
2
100
AcDbLine
 10
241.4164690122949
 20
201.5441318347462
 30
0.0
 11
241.7430170320621
 21
201.8706798545133
 31
0.0
  0
LINE
  5
2EE
330
1F
100
AcDbEntity
  8
2
100
AcDbLine
 10
241.5254959824137
 20
201.5633562436542
 30
0.0
 11
241.8193585352343
 21
201.8572187964748
 31
0.0
  0
LINE
  5
2EF
330
1F
100
AcDbEntity
  8
2
100
AcDbLine
 10
241.6345229525325
 20
201.5825806525623
 30
0.0
 11
241.8957000384065
 21
201.8437577384363
 31
0.0
  0
LINE
  5
2F0
330
1F
100
AcDbEntity
  8
2
100
AcDbLine
 10
241.7435499226512
 20
201.6018050614703
 30
0.0
 11
241.9720415415787
 21
201.8302966803978
 31
0.0
  0
LINE
  5
2F1
330
1F
100
AcDbEntity
  8
2
100
AcDbLine
 10
241.8525768927699
 20
201.6210294703784
 30
0.0
 11
242.0483830447509
 21
201.8168356223594
 31
0.0
  0
LINE
  5
2F2
330
1F
100
AcDbEntity
  8
2
100
AcDbLine
 10
241.9616038628887
 20
201.6402538792865
 30
0.0
 11
242.1247245479231
 21
201.8033745643208
 31
0.0
  0
LINE
  5
2F3
330
1F
100
AcDbEntity
  8
2
100
AcDbLine
 10
242.0706308330075
 20
201.6594782881945
 30
0.0
 11
242.2010660510954
 21
201.7899135062824
 31
0.0
  0
LINE
  5
2F4
330
1F
100
AcDbEntity
  8
2
100
AcDbLine
 10
242.1796578031262
 20
201.6787026971026
 30
0.0
 11
242.2774075542675
 21
201.7764524482439
 31
0.0
  0
LINE
  5
2F5
330
1F
100
AcDbEntity
  8
2
100
AcDbLine
 10
242.288684773245
 20
201.6979271060106
 30
0.0
 11
242.3537490574398
 21
201.7629913902054
 31
0.0
  0
LINE
  5
2F6
330
1F
100
AcDbEntity
  8
2
100
AcDbLine
 10
242.3977117433637
 20
201.7171515149187
 30
0.0
 11
242.430090560612
 21
201.7495303321669
 31
0.0
  0
TEXT
  5
2F7
330
1F
100
AcDbEntity
  8
2
100
AcDbText
 10
224.9774955692199
 20
203.3195286666666
 30
0.0
 40
3.5
  1
32
 41
0.75
  7
cesky
100
AcDbText
  0
LINE
  5
2F8
330
1F
100
AcDbEntity
  8
2
100
AcDbLine
 10
242.5507147989384
 20
192.8898984494241
 30
0.0
 11
242.5699810160548
 21
192.9091646665405
 31
0.0
  0
LINE
  5
2F9
330
1F
100
AcDbEntity
  8
2
100
AcDbLine
 10
242.6270563021107
 20
192.8764373913857
 30
0.0
 11
242.6790079861736
 21
192.9283890754486
 31
0.0
  0
LINE
  5
2FA
330
1F
100
AcDbEntity
  8
2
100
AcDbLine
 10
242.7033978052829
 20
192.8629763333472
 30
0.0
 11
242.7880349562923
 21
192.9476134843566
 31
0.0
  0
LINE
  5
2FB
330
1F
100
AcDbEntity
  8
2
100
AcDbLine
 10
242.7797393084551
 20
192.8495152753087
 30
0.0
 11
242.8970619264111
 21
192.9668378932647
 31
0.0
  0
LINE
  5
2FC
330
1F
100
AcDbEntity
  8
2
100
AcDbLine
 10
242.8560808116273
 20
192.8360542172702
 30
0.0
 11
243.0060888965299
 21
192.9860623021728
 31
0.0
  0
LINE
  5
2FD
330
1F
100
AcDbEntity
  8
2
100
AcDbLine
 10
242.9324223147995
 20
192.8225931592317
 30
0.0
 11
243.1151158666486
 21
193.0052867110808
 31
0.0
  0
LINE
  5
2FE
330
1F
100
AcDbEntity
  8
2
100
AcDbLine
 10
243.0087638179717
 20
192.8091321011932
 30
0.0
 11
243.2241428367674
 21
193.0245111199889
 31
0.0
  0
LINE
  5
2FF
330
1F
100
AcDbEntity
  8
2
100
AcDbLine
 10
243.085105321144
 20
192.7956710431548
 30
0.0
 11
243.3331698068862
 21
193.043735528897
 31
0.0
  0
LINE
  5
300
330
1F
100
AcDbEntity
  8
2
100
AcDbLine
 10
243.1614468243162
 20
192.7822099851163
 30
0.0
 11
243.4421967770049
 21
193.0629599378051
 31
0.0
  0
LINE
  5
301
330
1F
100
AcDbEntity
  8
2
100
AcDbLine
 10
243.2377883274884
 20
192.7687489270778
 30
0.0
 11
243.5512237471237
 21
193.0821843467131
 31
0.0
  0
LINE
  5
302
330
1F
100
AcDbEntity
  8
2
100
AcDbLine
 10
243.3141298306606
 20
192.7552878690393
 30
0.0
 11
243.6602507172424
 21
193.1014087556212
 31
0.0
  0
LINE
  5
303
330
1F
100
AcDbEntity
  8
2
100
AcDbLine
 10
243.3904713338328
 20
192.7418268110008
 30
0.0
 11
243.7692776873612
 21
193.1206331645292
 31
0.0
  0
LINE
  5
304
330
1F
100
AcDbEntity
  8
2
100
AcDbLine
 10
243.466812837005
 20
192.7283657529624
 30
0.0
 11
243.8783046574799
 21
193.1398575734373
 31
0.0
  0
LINE
  5
305
330
1F
100
AcDbEntity
  8
2
100
AcDbLine
 10
243.5431543401772
 20
192.7149046949239
 30
0.0
 11
243.9873316275987
 21
193.1590819823454
 31
0.0
  0
LINE
  5
306
330
1F
100
AcDbEntity
  8
2
100
AcDbLine
 10
243.6194958433494
 20
192.7014436368854
 30
0.0
 11
244.0963585977175
 21
193.1783063912534
 31
0.0
  0
LINE
  5
307
330
1F
100
AcDbEntity
  8
2
100
AcDbLine
 10
243.6958373465216
 20
192.6879825788469
 30
0.0
 11
244.2053855678362
 21
193.1975308001615
 31
0.0
  0
LINE
  5
308
330
1F
100
AcDbEntity
  8
2
100
AcDbLine
 10
243.7721788496939
 20
192.6745215208085
 30
0.0
 11
244.314412537955
 21
193.2167552090696
 31
0.0
  0
LINE
  5
309
330
1F
100
AcDbEntity
  8
2
100
AcDbLine
 10
243.8485203528661
 20
192.66106046277
 30
0.0
 11
244.4234395080738
 21
193.2359796179777
 31
0.0
  0
LINE
  5
30A
330
1F
100
AcDbEntity
  8
2
100
AcDbLine
 10
243.9248618560382
 20
192.6475994047315
 30
0.0
 11
244.5324664781925
 21
193.2552040268858
 31
0.0
  0
LINE
  5
30B
330
1F
100
AcDbEntity
  8
2
100
AcDbLine
 10
244.0012033592104
 20
192.634138346693
 30
0.0
 11
244.6414934483112
 21
193.2744284357938
 31
0.0
  0
LINE
  5
30C
330
1F
100
AcDbEntity
  8
2
100
AcDbLine
 10
244.0775448623827
 20
192.6206772886545
 30
0.0
 11
244.75052041843
 21
193.2936528447019
 31
0.0
  0
LINE
  5
30D
330
1F
100
AcDbEntity
  8
2
100
AcDbLine
 10
244.1538863655549
 20
192.607216230616
 30
0.0
 11
244.8595473885488
 21
193.3128772536099
 31
0.0
  0
LINE
  5
30E
330
1F
100
AcDbEntity
  8
2
100
AcDbLine
 10
244.2302278687271
 20
192.5937551725775
 30
0.0
 11
244.9685743586675
 21
193.332101662518
 31
0.0
  0
LINE
  5
30F
330
1F
100
AcDbEntity
  8
2
100
AcDbLine
 10
244.3065693718994
 20
192.5802941145391
 30
0.0
 11
245.0057144385853
 21
193.279439181225
 31
0.0
  0
LINE
  5
310
330
1F
100
AcDbEntity
  8
2
100
AcDbLine
 10
244.3829108750716
 20
192.5668330565006
 30
0.0
 11
245.0057147684473
 21
193.1896369498763
 31
0.0
  0
LINE
  5
311
330
1F
100
AcDbEntity
  8
2
100
AcDbLine
 10
244.4592523782437
 20
192.5533719984621
 30
0.0
 11
245.0057150983093
 21
193.0998347185277
 31
0.0
  0
LINE
  5
312
330
1F
100
AcDbEntity
  8
2
100
AcDbLine
 10
244.5355938814159
 20
192.5399109404237
 30
0.0
 11
245.0057154281713
 21
193.010032487179
 31
0.0
  0
LINE
  5
313
330
1F
100
AcDbEntity
  8
2
100
AcDbLine
 10
244.6119353845881
 20
192.5264498823852
 30
0.0
 11
245.0057157580333
 21
192.9202302558303
 31
0.0
  0
LINE
  5
314
330
1F
100
AcDbEntity
  8
2
100
AcDbLine
 10
244.6882768877604
 20
192.5129888243467
 30
0.0
 11
245.0057160878954
 21
192.8304280244817
 31
0.0
  0
LINE
  5
315
330
1F
100
AcDbEntity
  8
2
100
AcDbLine
 10
244.7646183909327
 20
192.4995277663082
 30
0.0
 11
245.0057164177574
 21
192.740625793133
 31
0.0
  0
LINE
  5
316
330
1F
100
AcDbEntity
  8
2
100
AcDbLine
 10
244.8409598941048
 20
192.4860667082697
 30
0.0
 11
245.0057167476194
 21
192.6508235617843
 31
0.0
  0
LINE
  5
317
330
1F
100
AcDbEntity
  8
2
100
AcDbLine
 10
244.917301397277
 20
192.4726056502312
 30
0.0
 11
245.0057170774814
 21
192.5610213304356
 31
0.0
  0
LINE
  5
318
330
1F
100
AcDbEntity
  8
2
100
AcDbLine
 10
244.9936429004492
 20
192.4591445921927
 30
0.0
 11
245.0057174073434
 21
192.4712190990869
 31
0.0
  0
LINE
  5
319
330
1F
100
AcDbEntity
  8
2
100
AcDbLine
 10
235.0428827141261
 20
193.2846917511528
 30
0.0
 11
235.0887531622131
 21
193.3305621992399
 31
0.0
  0
LINE
  5
31A
330
1F
100
AcDbEntity
  8
2
100
AcDbLine
 10
235.0428830439881
 20
193.1948895198041
 30
0.0
 11
235.1650946653854
 21
193.3171011412014
 31
0.0
  0
LINE
  5
31B
330
1F
100
AcDbEntity
  8
2
100
AcDbLine
 10
235.0428833738501
 20
193.1050872884555
 30
0.0
 11
235.2414361685576
 21
193.3036400831629
 31
0.0
  0
LINE
  5
31C
330
1F
100
AcDbEntity
  8
2
100
AcDbLine
 10
235.0428837037121
 20
193.0152850571068
 30
0.0
 11
235.3177776717298
 21
193.2901790251245
 31
0.0
  0
LINE
  5
31D
330
1F
100
AcDbEntity
  8
2
100
AcDbLine
 10
235.0428840335741
 20
192.9254828257581
 30
0.0
 11
235.394119174902
 21
193.276717967086
 31
0.0
  0
LINE
  5
31E
330
1F
100
AcDbEntity
  8
2
100
AcDbLine
 10
235.0428843634361
 20
192.8356805944094
 30
0.0
 11
235.4704606780742
 21
193.2632569090475
 31
0.0
  0
LINE
  5
31F
330
1F
100
AcDbEntity
  8
2
100
AcDbLine
 10
235.0428846932982
 20
192.7458783630608
 30
0.0
 11
235.5468021812464
 21
193.249795851009
 31
0.0
  0
LINE
  5
320
330
1F
100
AcDbEntity
  8
2
100
AcDbLine
 10
235.0428850231602
 20
192.6560761317121
 30
0.0
 11
235.6231436844186
 21
193.2363347929705
 31
0.0
  0
LINE
  5
321
330
1F
100
AcDbEntity
  8
2
100
AcDbLine
 10
235.0428853530222
 20
192.5662739003634
 30
0.0
 11
235.6994851875909
 21
193.222873734932
 31
0.0
  0
LINE
  5
322
330
1F
100
AcDbEntity
  8
2
100
AcDbLine
 10
235.0428856828842
 20
192.4764716690147
 30
0.0
 11
235.775826690763
 21
193.2094126768935
 31
0.0
  0
LINE
  5
323
330
1F
100
AcDbEntity
  8
2
100
AcDbLine
 10
235.1282914333806
 20
192.4720748583004
 30
0.0
 11
235.8521681939353
 21
193.195951618855
 31
0.0
  0
LINE
  5
324
330
1F
100
AcDbEntity
  8
2
100
AcDbLine
 10
235.2373184034993
 20
192.4912992672085
 30
0.0
 11
235.9285096971075
 21
193.1824905608165
 31
0.0
  0
LINE
  5
325
330
1F
100
AcDbEntity
  8
2
100
AcDbLine
 10
235.3463453736181
 20
192.5105236761165
 30
0.0
 11
236.0048512002796
 21
193.1690295027781
 31
0.0
  0
LINE
  5
326
330
1F
100
AcDbEntity
  8
2
100
AcDbLine
 10
235.4553723437368
 20
192.5297480850246
 30
0.0
 11
236.0811927034518
 21
193.1555684447396
 31
0.0
  0
LINE
  5
327
330
1F
100
AcDbEntity
  8
2
100
AcDbLine
 10
235.5643993138556
 20
192.5489724939327
 30
0.0
 11
236.1575342066241
 21
193.1421073867011
 31
0.0
  0
LINE
  5
328
330
1F
100
AcDbEntity
  8
2
100
AcDbLine
 10
235.6734262839744
 20
192.5681969028407
 30
0.0
 11
236.2338757097962
 21
193.1286463286626
 31
0.0
  0
LINE
  5
329
330
1F
100
AcDbEntity
  8
2
100
AcDbLine
 10
235.7824532540931
 20
192.5874213117488
 30
0.0
 11
236.3102172129685
 21
193.1151852706242
 31
0.0
  0
LINE
  5
32A
330
1F
100
AcDbEntity
  8
2
100
AcDbLine
 10
235.8914802242119
 20
192.6066457206568
 30
0.0
 11
236.3865587161407
 21
193.1017242125856
 31
0.0
  0
LINE
  5
32B
330
1F
100
AcDbEntity
  8
2
100
AcDbLine
 10
236.0005071943306
 20
192.6258701295648
 30
0.0
 11
236.4629002193129
 21
193.0882631545472
 31
0.0
  0
LINE
  5
32C
330
1F
100
AcDbEntity
  8
2
100
AcDbLine
 10
236.1095341644494
 20
192.6450945384729
 30
0.0
 11
236.5392417224851
 21
193.0748020965087
 31
0.0
  0
LINE
  5
32D
330
1F
100
AcDbEntity
  8
2
100
AcDbLine
 10
236.2185611345681
 20
192.664318947381
 30
0.0
 11
236.6155832256573
 21
193.0613410384702
 31
0.0
  0
LINE
  5
32E
330
1F
100
AcDbEntity
  8
2
100
AcDbLine
 10
236.3275881046869
 20
192.6835433562891
 30
0.0
 11
236.6919247288295
 21
193.0478799804317
 31
0.0
  0
LINE
  5
32F
330
1F
100
AcDbEntity
  8
2
100
AcDbLine
 10
236.4366150748057
 20
192.7027677651971
 30
0.0
 11
236.7682662320017
 21
193.0344189223932
 31
0.0
  0
LINE
  5
330
330
1F
100
AcDbEntity
  8
2
100
AcDbLine
 10
236.5456420449244
 20
192.7219921741052
 30
0.0
 11
236.844607735174
 21
193.0209578643548
 31
0.0
  0
LINE
  5
331
330
1F
100
AcDbEntity
  8
2
100
AcDbLine
 10
236.6546690150431
 20
192.7412165830133
 30
0.0
 11
236.9209492383461
 21
193.0074968063163
 31
0.0
  0
LINE
  5
332
330
1F
100
AcDbEntity
  8
2
100
AcDbLine
 10
236.7636959851619
 20
192.7604409919213
 30
0.0
 11
236.9972907415184
 21
192.9940357482778
 31
0.0
  0
LINE
  5
333
330
1F
100
AcDbEntity
  8
2
100
AcDbLine
 10
236.8727229552806
 20
192.7796654008294
 30
0.0
 11
237.0736322446906
 21
192.9805746902393
 31
0.0
  0
LINE
  5
334
330
1F
100
AcDbEntity
  8
2
100
AcDbLine
 10
236.9817499253994
 20
192.7988898097374
 30
0.0
 11
237.1499737478628
 21
192.9671136322008
 31
0.0
  0
LINE
  5
335
330
1F
100
AcDbEntity
  8
2
100
AcDbLine
 10
237.0907768955181
 20
192.8181142186455
 30
0.0
 11
237.2263152510349
 21
192.9536525741623
 31
0.0
  0
LINE
  5
336
330
1F
100
AcDbEntity
  8
2
100
AcDbLine
 10
237.1998038656369
 20
192.8373386275536
 30
0.0
 11
237.3026567542072
 21
192.9401915161239
 31
0.0
  0
LINE
  5
337
330
1F
100
AcDbEntity
  8
2
100
AcDbLine
 10
237.3088308357556
 20
192.8565630364616
 30
0.0
 11
237.3789982573793
 21
192.9267304580853
 31
0.0
  0
LINE
  5
338
330
1F
100
AcDbEntity
  8
2
100
AcDbLine
 10
237.4178578058744
 20
192.8757874453697
 30
0.0
 11
237.4553397605516
 21
192.9132694000469
 31
0.0
  0
LINE
  5
339
330
1F
100
AcDbEntity
  8
2
100
AcDbLine
 10
237.5268847759932
 20
192.8950118542777
 30
0.0
 11
237.5316812637239
 21
192.8998083420084
 31
0.0
  0
TEXT
  5
33A
330
1F
100
AcDbEntity
  8
2
100
AcDbText
 10
239.7419783204497
 20
194.4811666666666
 30
0.0
 40
3.5
  1
5
 41
0.75
  7
cesky
100
AcDbText
  0
MTEXT
  5
33B
330
1F
100
AcDbEntity
  8
SK2
100
AcDbMText
 10
178.184253
 20
174.358288
 30
0.0
 40
3.5
 41
0.0
 71
     7
 72
     5
  1
\W0.7500;12
  7
cesky
 11
0.0000000000000001
 21
1.0
 31
0.0
 73
     2
 44
0.8433729999999998
1001
ACAD
1000
MTEXTBEGIN
1070
    73
1070
     2
1070
    44
1040
0.8433729999999998
1070
    74
1070
     0
1000
MTEXTEND
  0
MTEXT
  5
33C
330
1F
100
AcDbEntity
  8
SK2
100
AcDbMText
 10
178.184253
 20
169.383288
 30
0.0
 40
3.5
 41
0.0
 71
     7
 72
     5
  1
\W0.7500;M
  7
cesky
 11
0.0000000000000001
 21
1.0
 31
0.0
 73
     2
 44
0.8433729999999998
1001
ACAD
1000
MTEXTBEGIN
1070
    73
1070
     2
1070
    44
1040
0.8433729999999998
1070
    74
1070
     0
1000
MTEXTEND
  0
LINE
  5
33D
330
1F
100
AcDbEntity
  8
SK2
100
AcDbLine
 10
188.5057139999999
 20
179.214538
 30
0.0
 11
176.600919
 21
179.214538
 31
0.0
  0
LINE
  5
33E
330
1F
100
AcDbEntity
  8
SK2
100
AcDbLine
 10
188.5057139999999
 20
167.214538
 30
0.0
 11
176.600919
 21
167.214538
 31
0.0
  0
LINE
  5
33F
330
1F
100
AcDbEntity
  8
SK2
100
AcDbLine
 10
178.600919
 20
187.9645379999999
 30
0.0
 11
178.600919
 21
158.4645379999999
 31
0.0
  0
SOLID
  5
340
330
1F
100
AcDbEntity
  8
SK2
100
AcDbTrace
 10
178.600919
 20
179.214538
 30
0.0
 11
178.160102
 21
181.714537
 31
0.0
 12
179.041737
 22
181.71454
 32
0.0
 13
178.600919
 23
179.214538
 33
0.0
  0
SOLID
  5
341
330
1F
100
AcDbEntity
  8
SK2
100
AcDbTrace
 10
178.600919
 20
167.214538
 30
0.0
 11
179.041737
 21
164.71454
 31
0.0
 12
178.160102
 22
164.714537
 32
0.0
 13
178.600919
 23
167.214538
 33
0.0
  0
MTEXT
  5
342
330
1F
100
AcDbEntity
  8
SK2
100
AcDbMText
 10
168.812964
 20
176.2457879999999
 30
0.0
 40
3.5
 41
0.0
 71
     7
 72
     5
  1
\W0.7500;21
  7
cesky
 11
0.0000000000000001
 21
1.0
 31
0.0
 73
     2
 44
0.8433729999999998
1001
ACAD
1000
MTEXTBEGIN
1070
    73
1070
     2
1070
    44
1040
0.8433729999999998
1070
    74
1070
     0
1000
MTEXTEND
  0
MTEXT
  5
343
330
1F
100
AcDbEntity
  8
SK2
100
AcDbMText
 10
168.812964
 20
169.273132
 30
0.0
 40
3.5
 41
0.0
 71
     7
 72
     5
  1
%%c
  7
cesky
 11
0.0000000000000001
 21
1.0
 31
0.0
 73
     2
 44
0.8433729999999998
1001
ACAD
1000
MTEXTBEGIN
1070
    73
1070
     2
1070
    44
1040
0.8433729999999998
1070
    74
1070
     0
1000
MTEXTEND
  0
LINE
  5
344
330
1F
100
AcDbEntity
  8
SK2
100
AcDbLine
 10
210.005714
 20
183.7145379999999
 30
0.0
 11
168.104631
 21
183.7145379999999
 31
0.0
  0
LINE
  5
345
330
1F
100
AcDbEntity
  8
SK2
100
AcDbLine
 10
210.005714
 20
162.7145379999999
 30
0.0
 11
168.104631
 21
162.7145379999999
 31
0.0
  0
LINE
  5
346
330
1F
100
AcDbEntity
  8
SK2
100
AcDbLine
 10
170.104631
 20
183.7145379999999
 30
0.0
 11
170.104631
 21
162.7145379999999
 31
0.0
  0
SOLID
  5
347
330
1F
100
AcDbEntity
  8
SK2
100
AcDbTrace
 10
170.104631
 20
183.7145379999999
 30
0.0
 11
170.545449
 21
181.21454
 31
0.0
 12
169.663814
 22
181.214537
 32
0.0
 13
170.104631
 23
183.7145379999999
 33
0.0
  0
SOLID
  5
348
330
1F
100
AcDbEntity
  8
SK2
100
AcDbTrace
 10
170.104631
 20
162.7145379999999
 30
0.0
 11
169.663814
 21
165.214537
 31
0.0
 12
170.545449
 22
165.21454
 32
0.0
 13
170.104631
 23
162.7145379999999
 33
0.0
  0
ENDSEC
  0
SECTION
  2
OBJECTS
  0
DICTIONARY
  5
C
330
0
100
AcDbDictionary
281
     1
  3
ACAD_CIP_PREVIOUS_PRODUCT_INFO
350
290
  3
ACAD_COLOR
350
285
  3
ACAD_DETAILVIEWSTYLE
350
28B
  3
ACAD_GROUP
350
D
  3
ACAD_LAYOUT
350
1A
  3
ACAD_MATERIAL
350
43
  3
ACAD_MLEADERSTYLE
350
246
  3
ACAD_MLINESTYLE
350
17
  3
ACAD_PLOTSETTINGS
350
19
  3
ACAD_PLOTSTYLENAME
350
E
  3
ACAD_SCALELIST
350
47
  3
ACAD_SECTIONVIEWSTYLE
350
289
  3
ACAD_TABLESTYLE
350
286
  3
ACAD_VISUALSTYLE
350
2A
  3
ACDB_RECOMPOSE_DATA
350
383
  3
AcDbVariableDictionary
350
244
  3
DWGPROPS
350
384
  0
DICTIONARY
  5
355
330
10
100
AcDbDictionary
280
     1
281
     1
  3
ADSK_XREC_LAYER_RECONCILED
360
356
  0
DICTIONARY
  5
357
330
349
100
AcDbDictionary
280
     1
281
     1
  3
ADSK_XREC_LAYER_RECONCILED
360
358
  0
DICTIONARY
  5
359
330
34A
100
AcDbDictionary
280
     1
281
     1
  3
ADSK_XREC_LAYER_RECONCILED
360
35A
  0
DICTIONARY
  5
35B
330
34B
100
AcDbDictionary
280
     1
281
     1
  3
ADSK_XREC_LAYER_RECONCILED
360
35C
  0
DICTIONARY
  5
35D
330
34C
100
AcDbDictionary
280
     1
281
     1
  3
ADSK_XREC_LAYER_RECONCILED
360
35E
  0
DICTIONARY
  5
35F
330
34D
100
AcDbDictionary
280
     1
281
     1
  3
ADSK_XREC_LAYER_RECONCILED
360
360
  0
DICTIONARY
  5
361
330
34F
100
AcDbDictionary
280
     1
281
     1
  3
ADSK_XREC_LAYER_RECONCILED
360
362
  0
DICTIONARY
  5
363
330
350
100
AcDbDictionary
280
     1
281
     1
  3
ADSK_XREC_LAYER_RECONCILED
360
364
  0
DICTIONARY
  5
365
330
351
100
AcDbDictionary
280
     1
281
     1
  3
ADSK_XREC_LAYER_RECONCILED
360
366
  0
DICTIONARY
  5
367
330
352
100
AcDbDictionary
280
     1
281
     1
  3
ADSK_XREC_LAYER_RECONCILED
360
368
  0
DICTIONARY
  5
369
330
353
100
AcDbDictionary
280
     1
281
     1
  3
ADSK_XREC_LAYER_RECONCILED
360
36A
  0
DICTIONARY
  5
36B
330
354
100
AcDbDictionary
280
     1
281
     1
  3
ADSK_XREC_LAYER_RECONCILED
360
36C
  0
DICTIONARY
  5
2B2
330
1F
100
AcDbDictionary
280
     1
281
     1
  3
ACAD_SORTENTS
360
2B3
  0
XRECORD
  5
290
102
{ACAD_REACTORS
330
C
102
}
330
C
100
AcDbXrecord
280
     1
300
AMECH_PP
300
2015
300

  0
DICTIONARY
  5
285
102
{ACAD_REACTORS
330
C
102
}
330
C
100
AcDbDictionary
281
     1
  0
DICTIONARY
  5
28B
102
{ACAD_REACTORS
330
C
102
}
330
C
100
AcDbDictionary
281
     1
  3
Metric50
350
28C
  0
DICTIONARY
  5
D
102
{ACAD_REACTORS
330
C
102
}
330
C
100
AcDbDictionary
281
     1
  3
ASSORTED_PARTS
350
22E
  3
CENTERLINE
350
22F
  3
DIMENSION
350
230
  3
DIMENSION4
350
231
  3
DIMENSION5
350
232
  0
DICTIONARY
  5
1A
102
{ACAD_REACTORS
330
C
102
}
330
C
100
AcDbDictionary
281
     1
  3
Layout1
350
1E
  3
Layout2
350
26
  3
Model
350
22
  0
DICTIONARY
  5
43
102
{ACAD_REACTORS
330
C
102
}
330
C
100
AcDbDictionary
281
     1
  3
ByBlock
350
45
  3
ByLayer
350
44
  3
Global
350
46
  0
DICTIONARY
  5
246
102
{ACAD_REACTORS
330
C
102
}
330
C
100
AcDbDictionary
281
     1
  3
Standard
350
288
  0
DICTIONARY
  5
17
102
{ACAD_REACTORS
330
C
102
}
330
C
100
AcDbDictionary
281
     1
  3
Standard
350
18
  0
DICTIONARY
  5
19
102
{ACAD_REACTORS
330
C
102
}
330
C
100
AcDbDictionary
281
     1
  0
ACDBDICTIONARYWDFLT
  5
E
102
{ACAD_REACTORS
330
C
102
}
330
C
100
AcDbDictionary
281
     1
  3
Normal
350
F
100
AcDbDictionaryWithDefault
340
F
  0
DICTIONARY
  5
47
102
{ACAD_REACTORS
330
C
102
}
330
C
100
AcDbDictionary
281
     1
  3
A0
350
48
  3
A1
350
49
  3
A2
350
4A
  3
A3
350
4B
  3
A4
350
4C
  3
A5
350
4D
  3
A6
350
4E
  3
A7
350
4F
  3
A8
350
50
  3
A9
350
51
  3
B0
350
52
  3
B1
350
53
  3
B2
350
54
  3
B3
350
55
  3
B4
350
56
  3
B5
350
57
  3
B6
350
58
  3
B7
350
59
  3
B8
350
5A
  3
B9
350
5B
  3
C0
350
5C
  3
C1
350
5D
  3
C2
350
5E
  3
C3
350
5F
  3
C4
350
60
  3
C5
350
61
  3
C6
350
62
  3
C7
350
63
  3
C8
350
64
  3
C9
350
65
  3
D0
350
66
  3
D1
350
67
  3
D2
350
68
  0
DICTIONARY
  5
289
102
{ACAD_REACTORS
330
C
102
}
330
C
100
AcDbDictionary
281
     1
  3
Metric50
350
28A
  0
DICTIONARY
  5
286
102
{ACAD_REACTORS
330
C
102
}
330
C
100
AcDbDictionary
281
     1
  3
Standard
350
287
  0
DICTIONARY
  5
2A
102
{ACAD_REACTORS
330
C
102
}
330
C
100
AcDbDictionary
281
     1
  3
2dWireframe
350
2F
  3
Basic
350
32
  3
Brighten
350
36
  3
ColorChange
350
3A
  3
Conceptual
350
34
  3
Dim
350
35
  3
EdgeColorOff
350
3D
  3
Facepattern
350
39
  3
Flat
350
2B
  3
FlatWithEdges
350
2C
  3
Gouraud
350
2D
  3
GouraudWithEdges
350
2E
  3
Hidden
350
31
  3
JitterOff
350
3B
  3
Linepattern
350
38
  3
OverhangOff
350
3C
  3
Realistic
350
33
  3
Shaded
350
42
  3
Shaded with edges
350
41
  3
Shades of Gray
350
3E
  3
Sketchy
350
3F
  3
Thicken
350
37
  3
Wireframe
350
30
  3
X-Ray
350
40
  0
XRECORD
  5
383
102
{ACAD_REACTORS
330
C
102
}
330
C
100
AcDbXrecord
280
     1
 90
        1
330
287
  0
DICTIONARY
  5
244
102
{ACAD_REACTORS
330
C
102
}
330
C
100
AcDbDictionary
281
     1
  3
CANNOSCALE
350
24B
  3
CMLEADERSTYLE
350
37B
  3
CTABLESTYLE
350
37A
  3
CVIEWDETAILSTYLE
350
37C
  3
CVIEWSECTIONSTYLE
350
37D
  3
DIMASSOC
350
249
  3
HIDETEXT
350
24A
  3
INDEXCTL
350
37F
  3
MSLTSCALE
350
24C
  3
SORTENTS
350
37E
  3
XCLIPFRAME
350
380
  0
XRECORD
  5
384
102
{ACAD_REACTORS
330
C
102
}
330
C
100
AcDbXrecord
280
     1
  1
DWGPROPS COOKIE
  2

  3

  4

  6

  7

  8
hm1535
  9

300
=
301
=
302
=
303
=
304
=
305
=
306
=
307
=
308
=
309
=
 40
0.0020031597222222
 41
2457889.57885265
 42
2457889.580976725
  1

 90
        0
  0
XRECORD
  5
356
102
{ACAD_REACTORS
330
355
102
}
330
355
100
AcDbXrecord
280
     1
290
     1
  0
XRECORD
  5
358
102
{ACAD_REACTORS
330
357
102
}
330
357
100
AcDbXrecord
280
     1
290
     1
  0
XRECORD
  5
35A
102
{ACAD_REACTORS
330
359
102
}
330
359
100
AcDbXrecord
280
     1
290
     1
  0
XRECORD
  5
35C
102
{ACAD_REACTORS
330
35B
102
}
330
35B
100
AcDbXrecord
280
     1
290
     1
  0
XRECORD
  5
35E
102
{ACAD_REACTORS
330
35D
102
}
330
35D
100
AcDbXrecord
280
     1
290
     1
  0
XRECORD
  5
360
102
{ACAD_REACTORS
330
35F
102
}
330
35F
100
AcDbXrecord
280
     1
290
     1
  0
XRECORD
  5
362
102
{ACAD_REACTORS
330
361
102
}
330
361
100
AcDbXrecord
280
     1
290
     1
  0
XRECORD
  5
364
102
{ACAD_REACTORS
330
363
102
}
330
363
100
AcDbXrecord
280
     1
290
     1
  0
XRECORD
  5
366
102
{ACAD_REACTORS
330
365
102
}
330
365
100
AcDbXrecord
280
     1
290
     1
  0
XRECORD
  5
368
102
{ACAD_REACTORS
330
367
102
}
330
367
100
AcDbXrecord
280
     1
290
     1
  0
XRECORD
  5
36A
102
{ACAD_REACTORS
330
369
102
}
330
369
100
AcDbXrecord
280
     1
290
     1
  0
XRECORD
  5
36C
102
{ACAD_REACTORS
330
36B
102
}
330
36B
100
AcDbXrecord
280
     1
290
     1
  0
SORTENTSTABLE
  5
2B3
102
{ACAD_REACTORS
330
2B2
102
}
330
2B2
100
AcDbSortentsTable
330
1F
331
318
  5
2CB
331
329
  5
295
331
2A3
  5
32A
331
292
  5
319
331
33A
  5
201
331
2B4
  5
315
331
16C
  5
16C
331
162
  5
162
331
151
  5
151
331
140
  5
140
331
17D
  5
17D
331
18E
  5
18E
331
2C8
  5
305
331
2D9
  5
2D2
331
2EA
  5
2E3
331
2FB
  5
2AC
331
1D2
  5
1D2
331
1C1
  5
1C1
331
1B0
  5
1B0
331
19F
  5
19F
331
CF
  5
CF
331
A6
  5
A6
331
FC
  5
FC
331
1ED
  5
1ED
331
10D
  5
10D
331
206
  5
2A7
331
11E
  5
11E
331
12F
  5
12F
331
E7
  5
E7
331
D6
  5
D6
331
B5
  5
B5
331
94
  5
94
331
85
  5
85
331
308
  5
2BB
331
319
  5
206
331
32A
  5
296
331
33B
  5
342
331
2A4
  5
32B
331
293
  5
31A
331
2B5
  5
314
331
17E
  5
17E
331
16D
  5
16D
331
163
  5
163
331
152
  5
152
331
141
  5
141
331
130
  5
130
331
E8
  5
E8
331
1F8
  5
1F8
331
2B8
  5
2F5
331
2C9
  5
306
331
2DA
  5
2D3
331
2EB
  5
2E4
331
2FC
  5
2AD
331
1D3
  5
1D3
331
1C2
  5
1C2
331
1B1
  5
1B1
331
1A0
  5
1A0
331
18F
  5
18F
331
A7
  5
A7
331
1EE
  5
1EE
331
10E
  5
10E
331
207
  5
2A8
331
11F
  5
11F
331
D7
  5
D7
331
B6
  5
B6
331
95
  5
95
331
120
  5
120
331
309
  5
2BC
331
31A
  5
207
331
32B
  5
297
331
33C
  5
343
331
2A5
  5
32C
331
294
  5
31B
331
2B6
  5
2F3
331
16E
  5
16E
331
164
  5
164
331
153
  5
153
331
142
  5
142
331
131
  5
131
331
E9
  5
E9
331
D8
  5
D8
331
17F
  5
17F
331
1F9
  5
1F9
331
2B9
  5
2F6
331
2CA
  5
307
331
2DB
  5
2D4
331
2EC
  5
2E5
331
2FD
  5
2AE
331
1D4
  5
1D4
331
1C3
  5
1C3
331
1B2
  5
1B2
331
1A1
  5
1A1
331
190
  5
190
331
B8
  5
B8
331
FE
  5
FE
331
1EF
  5
1EF
331
10F
  5
10F
331
B7
  5
B7
331
96
  5
96
331
87
  5
87
331
1F0
  5
1F0
331
110
  5
110
331
121
  5
121
331
30A
  5
2BD
331
31B
  5
20A
331
32C
  5
298
331
33D
  5
344
331
2A6
  5
32D
331
295
  5
31C
331
165
  5
165
331
154
  5
154
331
143
  5
143
331
132
  5
132
331
EA
  5
EA
331
D9
  5
D9
331
C0
  5
C0
331
2B7
  5
2F4
331
16F
  5
16F
331
180
  5
180
331
1FA
  5
1FA
331
2BA
  5
2F7
331
2CB
  5
308
331
2DC
  5
2D5
331
2ED
  5
2E6
331
2FE
  5
2AF
331
1D5
  5
1D5
331
1C4
  5
1C4
331
1B3
  5
1B3
331
1A2
  5
1A2
331
191
  5
191
331
B9
  5
B9
331
98
  5
98
331
FF
  5
FF
331
97
  5
97
331
6F
  5
6F
331
1E0
  5
1E0
331
100
  5
100
331
1F1
  5
1F1
331
111
  5
111
331
20A
  5
2CD
331
122
  5
122
331
30B
  5
2BE
331
31C
  5
20B
331
32D
  5
299
331
33E
  5
345
331
2A7
  5
32E
331
296
  5
31D
331
170
  5
170
331
166
  5
166
331
155
  5
155
331
144
  5
144
331
133
  5
133
331
EB
  5
EB
331
DA
  5
DA
331
C1
  5
C1
331
A8
  5
A8
331
181
  5
181
331
1FB
  5
1FB
331
2BB
  5
2F8
331
2CC
  5
309
331
2DD
  5
2D6
331
2EE
  5
2E7
331
2FF
  5
2B0
331
1D6
  5
1D6
331
1C5
  5
1C5
331
1B4
  5
1B4
331
1A3
  5
1A3
331
192
  5
192
331
BA
  5
BA
331
99
  5
99
331
300
  5
2B1
331
F0
  5
F0
331
1E1
  5
1E1
331
101
  5
101
331
1F2
  5
1F2
331
112
  5
112
331
20B
  5
2CE
331
123
  5
123
331
30C
  5
2BF
331
31D
  5
20C
331
32E
  5
29A
331
33F
  5
346
331
2A8
  5
32F
331
297
  5
31E
331
167
  5
167
331
156
  5
156
331
145
  5
145
331
134
  5
134
331
EC
  5
EC
331
DB
  5
DB
331
C2
  5
C2
331
A9
  5
A9
331
88
  5
88
331
171
  5
171
331
182
  5
182
331
1FC
  5
1FC
331
2BC
  5
2F9
331
2CD
  5
30A
331
2DE
  5
2D7
331
2EF
  5
2E8
331
1D7
  5
1D7
331
1C6
  5
1C6
331
1B5
  5
1B5
331
1A4
  5
1A4
331
193
  5
193
331
BB
  5
BB
331
9A
  5
9A
331
71
  5
71
331
2F0
  5
2E9
331
1D8
  5
1D8
331
301
  5
2B4
331
F1
  5
F1
331
1E2
  5
1E2
331
102
  5
102
331
1F3
  5
1F3
331
113
  5
113
331
20C
  5
2CF
331
124
  5
124
331
30D
  5
2C0
331
31E
  5
20E
331
340
  5
347
331
2A9
  5
330
331
298
  5
31F
331
32F
  5
29B
331
157
  5
157
331
146
  5
146
331
135
  5
135
331
ED
  5
ED
331
DC
  5
DC
331
C3
  5
C3
331
AA
  5
AA
331
89
  5
89
331
172
  5
172
331
1FD
  5
1FD
331
2BD
  5
2FA
331
2CE
  5
30B
331
2DF
  5
2D8
331
1C7
  5
1C7
331
1B6
  5
1B6
331
1A5
  5
1A5
331
194
  5
194
331
183
  5
183
331
9B
  5
9B
331
72
  5
72
331
2E0
  5
2D9
331
2F1
  5
2EA
331
1D9
  5
1D9
331
1C8
  5
1C8
331
302
  5
2B5
331
F2
  5
F2
331
1E3
  5
1E3
331
103
  5
103
331
1F4
  5
1F4
331
114
  5
114
331
125
  5
125
331
30E
  5
2C1
331
31F
  5
20F
331
341
  5
348
331
2AA
  5
331
331
299
  5
320
331
330
  5
29C
331
158
  5
158
331
147
  5
147
331
136
  5
136
331
EE
  5
EE
331
DD
  5
DD
331
C4
  5
C4
331
AB
  5
AB
331
8A
  5
8A
331
184
  5
184
331
173
  5
173
331
2BE
  5
2FB
331
2CF
  5
30C
331
1B7
  5
1B7
331
1A6
  5
1A6
331
195
  5
195
331
BD
  5
BD
331
73
  5
73
331
2D0
  5
30D
331
2E1
  5
2DA
331
2F2
  5
2EB
331
1DA
  5
1DA
331
1C9
  5
1C9
331
1B8
  5
1B8
331
303
  5
2B6
331
F3
  5
F3
331
1E4
  5
1E4
331
104
  5
104
331
1F5
  5
1F5
331
115
  5
115
331
20E
  5
2F0
331
126
  5
126
331
30F
  5
2C2
331
320
  5
210
331
342
  5
33B
331
2AB
  5
332
331
29A
  5
321
331
331
  5
29D
331
159
  5
159
331
148
  5
148
331
137
  5
137
331
EF
  5
EF
331
DE
  5
DE
331
C5
  5
C5
331
AC
  5
AC
331
8B
  5
8B
331
174
  5
174
331
185
  5
185
331
1FF
  5
1FF
331
2BF
  5
2FC
331
1A7
  5
1A7
331
196
  5
196
331
BE
  5
BE
331
9D
  5
9D
331
74
  5
74
331
2C0
  5
2FD
331
2D1
  5
30E
331
2E2
  5
2DB
331
2F3
  5
2EC
331
1DB
  5
1DB
331
1CA
  5
1CA
331
1B9
  5
1B9
331
1A8
  5
1A8
331
304
  5
2B7
331
F4
  5
F4
331
1E5
  5
1E5
331
105
  5
105
331
1F6
  5
1F6
331
116
  5
116
331
20F
  5
2F1
331
310
  5
2C3
331
321
  5
214
331
343
  5
33C
331
2AC
  5
333
331
29B
  5
322
331
332
  5
29E
331
175
  5
175
331
15A
  5
15A
331
149
  5
149
331
138
  5
138
331
127
  5
127
331
DF
  5
DF
331
C6
  5
C6
331
AD
  5
AD
331
186
  5
186
331
197
  5
197
331
BF
  5
BF
331
9E
  5
9E
331
8C
  5
8C
331
2C1
  5
2FE
331
2D2
  5
30F
331
2E3
  5
2DC
331
2F4
  5
2ED
331
1DC
  5
1DC
331
1CB
  5
1CB
331
1BA
  5
1BA
331
1A9
  5
1A9
331
198
  5
198
331
C8
  5
C8
331
305
  5
2B8
331
F5
  5
F5
331
1E6
  5
1E6
331
106
  5
106
331
1F7
  5
1F7
331
117
  5
117
331
210
  5
2F2
331
311
  5
2C4
331
322
  5
215
331
344
  5
33D
331
2AD
  5
334
331
29C
  5
323
331
333
  5
29F
331
176
  5
176
331
15B
  5
15B
331
14A
  5
14A
331
139
  5
139
331
128
  5
128
331
E0
  5
E0
331
C7
  5
C7
331
AE
  5
AE
331
187
  5
187
331
9F
  5
9F
331
8D
  5
8D
331
188
  5
188
331
2C2
  5
2FF
331
2D3
  5
310
331
2E4
  5
2DD
331
2F5
  5
2EE
331
1DD
  5
1DD
331
1CC
  5
1CC
331
1BB
  5
1BB
331
1AA
  5
1AA
331
199
  5
199
331
C9
  5
C9
331
A0
  5
A0
331
306
  5
2B9
331
F6
  5
F6
331
1E7
  5
1E7
331
107
  5
107
331
118
  5
118
331
312
  5
2C5
331
323
  5
216
331
345
  5
33E
331
2AE
  5
335
331
29D
  5
324
331
334
  5
2A0
331
177
  5
177
331
15C
  5
15C
331
14B
  5
14B
331
13A
  5
13A
331
129
  5
129
331
E1
  5
E1
331
D0
  5
D0
331
AF
  5
AF
331
8E
  5
8E
331
178
  5
178
331
189
  5
189
331
2C3
  5
300
331
2D4
  5
311
331
2E5
  5
2DE
331
2F6
  5
2EF
331
1DE
  5
1DE
331
1CD
  5
1CD
331
1BC
  5
1BC
331
1AB
  5
1AB
331
19A
  5
19A
331
CA
  5
CA
331
A1
  5
A1
331
307
  5
2BA
331
F7
  5
F7
331
1E8
  5
1E8
331
108
  5
108
331
201
  5
202
331
119
  5
119
331
313
  5
2C6
331
324
  5
222
331
346
  5
33F
331
2AF
  5
336
331
29E
  5
325
331
335
  5
2A1
331
15D
  5
15D
331
14C
  5
14C
331
13B
  5
13B
331
12A
  5
12A
331
E2
  5
E2
331
D1
  5
D1
331
B0
  5
B0
331
8F
  5
8F
331
2B0
  5
337
331
18A
  5
18A
331
179
  5
179
331
168
  5
168
331
2C4
  5
301
331
2D5
  5
312
331
2E6
  5
2DF
331
2F7
  5
2CC
331
1DF
  5
1DF
331
1CE
  5
1CE
331
1BD
  5
1BD
331
1AC
  5
1AC
331
19B
  5
19B
331
CB
  5
CB
331
F8
  5
F8
331
1E9
  5
1E9
331
109
  5
109
331
202
  5
203
331
11A
  5
11A
331
314
  5
2C7
331
325
  5
22D
331
347
  5
340
331
29F
  5
326
331
336
  5
2A2
331
15E
  5
15E
331
14D
  5
14D
331
13C
  5
13C
331
12B
  5
12B
331
E3
  5
E3
331
D2
  5
D2
331
B1
  5
B1
331
90
  5
90
331
348
  5
341
331
2A0
  5
327
331
2B1
  5
338
331
17A
  5
17A
331
169
  5
169
331
18B
  5
18B
331
2C5
  5
302
331
2D6
  5
313
331
2E7
  5
2E0
331
2F8
  5
2A9
331
1CF
  5
1CF
331
1BE
  5
1BE
331
1AD
  5
1AD
331
19C
  5
19C
331
CC
  5
CC
331
A3
  5
A3
331
F9
  5
F9
331
1EA
  5
1EA
331
10A
  5
10A
331
203
  5
205
331
11B
  5
11B
331
214
  5
316
331
315
  5
2C8
331
326
  5
292
331
337
  5
2A3
331
15F
  5
15F
331
14E
  5
14E
331
13D
  5
13D
331
12C
  5
12C
331
E4
  5
E4
331
D3
  5
D3
331
B2
  5
B2
331
91
  5
91
331
2A1
  5
328
331
338
  5
2A4
331
17B
  5
17B
331
16A
  5
16A
331
160
  5
160
331
2C6
  5
303
331
2D7
  5
2D0
331
2E8
  5
2E1
331
2F9
  5
2AA
331
1D0
  5
1D0
331
1BF
  5
1BF
331
1AE
  5
1AE
331
19D
  5
19D
331
18C
  5
18C
331
A4
  5
A4
331
FA
  5
FA
331
1EB
  5
1EB
331
10B
  5
10B
331
11C
  5
11C
331
215
  5
317
331
316
  5
2C9
331
327
  5
293
331
14F
  5
14F
331
13E
  5
13E
331
12D
  5
12D
331
E5
  5
E5
331
D4
  5
D4
331
B3
  5
B3
331
92
  5
92
331
328
  5
294
331
2A2
  5
329
331
339
  5
2A5
331
17C
  5
17C
331
16B
  5
16B
331
161
  5
161
331
150
  5
150
331
18D
  5
18D
331
2C7
  5
304
331
2D8
  5
2D1
331
2E9
  5
2E2
331
2FA
  5
2AB
331
1D1
  5
1D1
331
1C0
  5
1C0
331
1AF
  5
1AF
331
19E
  5
19E
331
CE
  5
CE
331
A5
  5
A5
331
FB
  5
FB
331
1EC
  5
1EC
331
10C
  5
10C
331
205
  5
2A6
331
11D
  5
11D
331
216
  5
318
331
317
  5
2CA
331
13F
  5
13F
331
12E
  5
12E
331
E6
  5
E6
331
D5
  5
D5
331
B4
  5
B4
331
93
  5
93
  0
ACDBDETAILVIEWSTYLE
  5
28C
102
{ACAD_XDICTIONARY
360
3BF
102
}
102
{ACAD_REACTORS
330
28B
102
}
330
28B
100
AcDbModelDocViewStyle
 70
     0
  3
Metric50
290
     0
100
AcDbDetailViewStyle
 70
     0
 71
     0
 90
        3
 71
     1
340
11
 40
5.0
340
0
 40
5.0
300

 40
0.0
280
     1
 71
     2
340
16
 90
       25
 71
     3
340
11
 40
5.0
 90
        0
 40
15.0
 90
        1
300
%<\AcVar ViewDetailId>% (%<\AcVar ViewScale \f "%sn">%)
 71
     4
340
16
 90
       25
340
16
 90
       25
280
     0
  0
GROUP
  5
22E
102
{ACAD_REACTORS
330
D
102
}
330
D
100
AcDbGroup
300

 70
     0
 71
     1
340
F0
340
F1
  0
GROUP
  5
22F
102
{ACAD_REACTORS
330
D
102
}
330
D
100
AcDbGroup
300

 70
     0
 71
     1
340
F2
340
F3
  0
GROUP
  5
230
102
{ACAD_REACTORS
330
D
102
}
330
D
100
AcDbGroup
300

 70
     0
 71
     1
340
F4
340
F5
340
F6
  0
GROUP
  5
231
102
{ACAD_REACTORS
330
D
102
}
330
D
100
AcDbGroup
300

 70
     0
 71
     1
340
FE
340
FF
340
100
  0
GROUP
  5
232
102
{ACAD_REACTORS
330
D
102
}
330
D
100
AcDbGroup
300

 70
     0
 71
     1
340
107
340
108
  0
LAYOUT
  5
1E
102
{ACAD_XDICTIONARY
360
385
102
}
102
{ACAD_REACTORS
330
1A
102
}
330
1A
100
AcDbPlotSettings
  1

  2
none_device
  4

  6

 40
0.0
 41
0.0
 42
0.0
 43
0.0
 44
0.0
 45
0.0
 46
0.0
 47
0.0
 48
0.0
 49
0.0
140
0.0
141
0.0
142
1.0
143
1.0
 70
   688
 72
     0
 73
     0
 74
     5
  7

 75
    16
147
1.0
148
0.0
149
0.0
100
AcDbLayout
  1
Layout1
 70
     1
 71
     1
 10
-0.5
 20
-0.5
 11
5.0
 21
5.0
 12
0.0
 22
0.0
 32
0.0
 14
-0.5
 24
-0.5
 34
-0.5
 15
5.0
 25
5.0
 35
5.0
146
0.0
 13
0.0
 23
0.0
 33
0.0
 16
1.0
 26
0.0
 36
0.0
 17
0.0
 27
1.0
 37
0.0
 76
     0
330
1B
  0
LAYOUT
  5
26
102
{ACAD_XDICTIONARY
360
389
102
}
102
{ACAD_REACTORS
330
1A
102
}
330
1A
100
AcDbPlotSettings
  1

  2
none_device
  4

  6

 40
0.0
 41
0.0
 42
0.0
 43
0.0
 44
0.0
 45
0.0
 46
0.0
 47
0.0
 48
0.0
 49
0.0
140
0.0
141
0.0
142
1.0
143
1.0
 70
   688
 72
     0
 73
     0
 74
     5
  7

 75
    16
147
1.0
148
0.0
149
0.0
100
AcDbLayout
  1
Layout2
 70
     1
 71
     2
 10
0.0
 20
0.0
 11
0.0
 21
0.0
 12
0.0
 22
0.0
 32
0.0
 14
0.0
 24
0.0
 34
0.0
 15
0.0
 25
0.0
 35
0.0
146
0.0
 13
0.0
 23
0.0
 33
0.0
 16
1.0
 26
0.0
 36
0.0
 17
0.0
 27
1.0
 37
0.0
 76
     0
330
23
  0
LAYOUT
  5
22
102
{ACAD_XDICTIONARY
360
387
102
}
102
{ACAD_REACTORS
330
1A
102
}
330
1A
100
AcDbPlotSettings
  1

  2
none_device
  4
Letter_(8.50_x_11.00_Inches)
  6

 40
6.349999999999999
 41
6.349999999999999
 42
6.350005
 43
6.350005
 44
215.9
 45
279.4
 46
0.0
 47
0.0
 48
0.0
 49
0.0
140
0.0
141
0.0
142
1.0
143
1.0
 70
  1712
 72
     0
 73
     0
 74
     0
  7

 75
     0
147
1.0
148
0.0
149
0.0
100
AcDbLayout
  1
Model
 70
     1
 71
     0
 10
-0.5
 20
-0.5
 11
5.0
 21
5.0
 12
0.0
 22
0.0
 32
0.0
 14
-0.5
 24
-0.5
 34
-0.5
 15
5.0
 25
5.0
 35
5.0
146
0.0
 13
0.0
 23
0.0
 33
0.0
 16
1.0
 26
0.0
 36
0.0
 17
0.0
 27
1.0
 37
0.0
 76
     0
330
1F
331
233
  0
MATERIAL
  5
45
102
{ACAD_XDICTIONARY
360
27F
102
}
102
{ACAD_REACTORS
330
43
102
}
330
43
100
AcDbMaterial
  1
ByBlock
  0
MATERIAL
  5
44
102
{ACAD_XDICTIONARY
360
27D
102
}
102
{ACAD_REACTORS
330
43
102
}
330
43
100
AcDbMaterial
  1
ByLayer
  0
MATERIAL
  5
46
102
{ACAD_XDICTIONARY
360
281
102
}
102
{ACAD_REACTORS
330
43
102
}
330
43
100
AcDbMaterial
  1
Global
  0
MLEADERSTYLE
  5
288
102
{ACAD_REACTORS
330
246
102
}
330
246
100
AcDbMLeaderStyle
170
     2
171
     1
172
     0
 90
        2
 40
0.0
 41
0.0
173
     1
 91
-1056964608
340
14
 92
       -2
290
     1
 42
2.0
291
     1
 43
0.36
  3
Standard
 44
4.0
300

342
11
174
     1
178
     6
175
     1
176
     0
 93
-1056964608
 45
4.0
292
     0
297
     0
 46
4.0
 94
-1056964608
 47
1.0
 49
1.0
140
1.0
293
     1
141
0.0
294
     1
177
     0
142
1.0
295
     0
296
     0
143
0.125
1001
ACAD_MLEADERVER
1070
     2
  0
MLINESTYLE
  5
18
102
{ACAD_REACTORS
330
17
102
}
330
17
100
AcDbMlineStyle
  2
STANDARD
 70
     0
  3

 62
   256
 51
90.0
 52
90.0
 71
     2
 49
0.5
 62
   256
  6
BYLAYER
 49
-0.5
 62
   256
  6
BYLAYER
  0
ACDBPLACEHOLDER
  5
F
102
{ACAD_REACTORS
330
E
102
}
330
E
  0
SCALE
  5
48
102
{ACAD_REACTORS
330
47
102
}
330
47
100
AcDbScale
 70
     0
300
1:1
140
1.0
141
1.0
290
     1
  0
SCALE
  5
49
102
{ACAD_REACTORS
330
47
102
}
330
47
100
AcDbScale
 70
     0
300
1:2
140
1.0
141
2.0
290
     0
  0
SCALE
  5
4A
102
{ACAD_REACTORS
330
47
102
}
330
47
100
AcDbScale
 70
     0
300
1:4
140
1.0
141
4.0
290
     0
  0
SCALE
  5
4B
102
{ACAD_REACTORS
330
47
102
}
330
47
100
AcDbScale
 70
     0
300
1:5
140
1.0
141
5.0
290
     0
  0
SCALE
  5
4C
102
{ACAD_REACTORS
330
47
102
}
330
47
100
AcDbScale
 70
     0
300
1:8
140
1.0
141
8.0
290
     0
  0
SCALE
  5
4D
102
{ACAD_REACTORS
330
47
102
}
330
47
100
AcDbScale
 70
     0
300
1:10
140
1.0
141
10.0
290
     0
  0
SCALE
  5
4E
102
{ACAD_REACTORS
330
47
102
}
330
47
100
AcDbScale
 70
     0
300
1:16
140
1.0
141
16.0
290
     0
  0
SCALE
  5
4F
102
{ACAD_REACTORS
330
47
102
}
330
47
100
AcDbScale
 70
     0
300
1:20
140
1.0
141
20.0
290
     0
  0
SCALE
  5
50
102
{ACAD_REACTORS
330
47
102
}
330
47
100
AcDbScale
 70
     0
300
1:30
140
1.0
141
30.0
290
     0
  0
SCALE
  5
51
102
{ACAD_REACTORS
330
47
102
}
330
47
100
AcDbScale
 70
     0
300
1:40
140
1.0
141
40.0
290
     0
  0
SCALE
  5
52
102
{ACAD_REACTORS
330
47
102
}
330
47
100
AcDbScale
 70
     0
300
1:50
140
1.0
141
50.0
290
     0
  0
SCALE
  5
53
102
{ACAD_REACTORS
330
47
102
}
330
47
100
AcDbScale
 70
     0
300
1:100
140
1.0
141
100.0
290
     0
  0
SCALE
  5
54
102
{ACAD_REACTORS
330
47
102
}
330
47
100
AcDbScale
 70
     0
300
2:1
140
2.0
141
1.0
290
     0
  0
SCALE
  5
55
102
{ACAD_REACTORS
330
47
102
}
330
47
100
AcDbScale
 70
     0
300
4:1
140
4.0
141
1.0
290
     0
  0
SCALE
  5
56
102
{ACAD_REACTORS
330
47
102
}
330
47
100
AcDbScale
 70
     0
300
8:1
140
8.0
141
1.0
290
     0
  0
SCALE
  5
57
102
{ACAD_REACTORS
330
47
102
}
330
47
100
AcDbScale
 70
     0
300
10:1
140
10.0
141
1.0
290
     0
  0
SCALE
  5
58
102
{ACAD_REACTORS
330
47
102
}
330
47
100
AcDbScale
 70
     0
300
100:1
140
100.0
141
1.0
290
     0
  0
SCALE
  5
59
102
{ACAD_REACTORS
330
47
102
}
330
47
100
AcDbScale
 70
     0
300
1/128" = 1'-0"
140
0.007812
141
12.0
290
     0
  0
SCALE
  5
5A
102
{ACAD_REACTORS
330
47
102
}
330
47
100
AcDbScale
 70
     0
300
1/64" = 1'-0"
140
0.015625
141
12.0
290
     0
  0
SCALE
  5
5B
102
{ACAD_REACTORS
330
47
102
}
330
47
100
AcDbScale
 70
     0
300
1/32" = 1'-0"
140
0.03125
141
12.0
290
     0
  0
SCALE
  5
5C
102
{ACAD_REACTORS
330
47
102
}
330
47
100
AcDbScale
 70
     0
300
1/16" = 1'-0"
140
0.0625
141
12.0
290
     0
  0
SCALE
  5
5D
102
{ACAD_REACTORS
330
47
102
}
330
47
100
AcDbScale
 70
     0
300
3/32" = 1'-0"
140
0.09375
141
12.0
290
     0
  0
SCALE
  5
5E
102
{ACAD_REACTORS
330
47
102
}
330
47
100
AcDbScale
 70
     0
300
1/8" = 1'-0"
140
0.125
141
12.0
290
     0
  0
SCALE
  5
5F
102
{ACAD_REACTORS
330
47
102
}
330
47
100
AcDbScale
 70
     0
300
3/16" = 1'-0"
140
0.1875
141
12.0
290
     0
  0
SCALE
  5
60
102
{ACAD_REACTORS
330
47
102
}
330
47
100
AcDbScale
 70
     0
300
1/4" = 1'-0"
140
0.25
141
12.0
290
     0
  0
SCALE
  5
61
102
{ACAD_REACTORS
330
47
102
}
330
47
100
AcDbScale
 70
     0
300
3/8" = 1'-0"
140
0.375
141
12.0
290
     0
  0
SCALE
  5
62
102
{ACAD_REACTORS
330
47
102
}
330
47
100
AcDbScale
 70
     0
300
1/2" = 1'-0"
140
0.5
141
12.0
290
     0
  0
SCALE
  5
63
102
{ACAD_REACTORS
330
47
102
}
330
47
100
AcDbScale
 70
     0
300
3/4" = 1'-0"
140
0.75
141
12.0
290
     0
  0
SCALE
  5
64
102
{ACAD_REACTORS
330
47
102
}
330
47
100
AcDbScale
 70
     0
300
1" = 1'-0"
140
1.0
141
12.0
290
     0
  0
SCALE
  5
65
102
{ACAD_REACTORS
330
47
102
}
330
47
100
AcDbScale
 70
     0
300
1-1/2" = 1'-0"
140
1.5
141
12.0
290
     0
  0
SCALE
  5
66
102
{ACAD_REACTORS
330
47
102
}
330
47
100
AcDbScale
 70
     0
300
3" = 1'-0"
140
3.0
141
12.0
290
     0
  0
SCALE
  5
67
102
{ACAD_REACTORS
330
47
102
}
330
47
100
AcDbScale
 70
     0
300
6" = 1'-0"
140
6.0
141
12.0
290
     0
  0
SCALE
  5
68
102
{ACAD_REACTORS
330
47
102
}
330
47
100
AcDbScale
 70
     0
300
1'-0" = 1'-0"
140
12.0
141
12.0
290
     0
  0
ACDBSECTIONVIEWSTYLE
  5
28A
102
{ACAD_XDICTIONARY
360
3BD
102
}
102
{ACAD_REACTORS
330
289
102
}
330
289
100
AcDbModelDocViewStyle
 70
     0
  3
Metric50
290
     0
100
AcDbSectionViewStyle
 70
     0
 71
     0
 90
      102
 71
     1
340
11
 40
5.0
340
0
340
0
 40
5.0
300
I, O, Q, S, X, Z
 40
10.0
 90
        0
 40
2.5
 90
        0
 71
     2
340
16
 90
       25
340
16
 90
       50
 40
5.0
 40
2.5
 40
5.0
 71
     3
340
11
 40
5.0
 90
        0
 40
15.0
 90
        1
300
%<\AcVar ViewSectionStartId>%-%<\AcVar ViewSectionEndId>% (%<\AcVar ViewScale \f "%sn">%)
 71
     4
300
ANSI31
 40
1.0
 90
        0
290
     0
290
     0
 90
        6
 40
0.0
 40
1.570796326794896
 40
0.2617993877991494
 40
1.308996938995747
 40
-0.2617993877991494
 40
1.832595714594046
  0
TABLESTYLE
  5
287
102
{ACAD_XDICTIONARY
360
381
102
}
102
{ACAD_REACTORS
330
286
102
}
330
286
100
AcDbTableStyle
  3
Standard
 70
     0
 71
     0
 40
1.5
 41
1.5
280
     0
281
     0
  7
Standard
140
4.5
170
     2
 62
     0
 63
     7
283
     0
274
    -2
284
     1
 64
     0
275
    -2
285
     1
 65
     0
276
    -2
286
     1
 66
     0
277
    -2
287
     1
 67
     0
278
    -2
288
     1
 68
     0
279
    -2
289
     1
 69
     0
  7
Standard
140
6.0
170
     5
 62
     0
 63
     7
283
     0
274
    -2
284
     1
 64
     0
275
    -2
285
     1
 65
     0
276
    -2
286
     1
 66
     0
277
    -2
287
     1
 67
     0
278
    -2
288
     1
 68
     0
279
    -2
289
     1
 69
     0
  7
Standard
140
4.5
170
     5
 62
     0
 63
     7
283
     0
274
    -2
284
     1
 64
     0
275
    -2
285
     1
 65
     0
276
    -2
286
     1
 66
     0
277
    -2
287
     1
 67
     0
278
    -2
288
     1
 68
     0
279
    -2
289
     1
 69
     0
  0
VISUALSTYLE
  5
2F
102
{ACAD_XDICTIONARY
360
393
102
}
102
{ACAD_REACTORS
330
2A
102
}
330
2A
100
AcDbVisualStyle
  2

 70
     4
 71
     0
 72
     2
 73
     0
 90
        0
 40
-0.6
 41
-30.0
 62
     5
 63
     7
 74
     1
 91
        4
 64
     7
 65
   257
 75
     1
175
     1
 42
1.0
 92
        0
 66
   257
 43
1.0
 76
     1
 77
     6
 78
     2
 67
     7
 79
     5
170
     0
171
     0
290
     0
174
     0
 93
        1
 44
0.0
173
     0
291
     0
 45
0.0
1001
ACAD
1000
AcDbSavedByObjectVersion
1070
     0
  0
VISUALSTYLE
  5
32
102
{ACAD_XDICTIONARY
360
399
102
}
102
{ACAD_REACTORS
330
2A
102
}
330
2A
100
AcDbVisualStyle
  2

 70
     7
 71
     1
 72
     0
 73
     1
 90
        0
 40
-0.6
 41
-30.0
 62
     5
 63
     7
 74
     0
 91
        4
 64
     7
 65
   257
 75
     1
175
     1
 42
1.0
 92
        8
 66
     7
 43
1.0
 76
     1
 77
     6
 78
     2
 67
     7
 79
     5
170
     0
171
     0
290
     0
174
     0
 93
        1
 44
0.0
173
     0
291
     1
 45
0.0
1001
ACAD
1000
AcDbSavedByObjectVersion
1070
     0
  0
VISUALSTYLE
  5
36
102
{ACAD_XDICTIONARY
360
3A1
102
}
102
{ACAD_REACTORS
330
2A
102
}
330
2A
100
AcDbVisualStyle
  2

 70
    12
 71
     2
 72
     2
 73
     0
 90
        0
 40
-0.6
 41
-30.0
 62
     5
 63
     7
 74
     1
 91
        4
 64
     7
 65
   257
 75
     1
175
     1
 42
1.0
 92
        8
 66
     7
 43
1.0
 76
     1
 77
     6
 78
     2
 67
     7
 79
     5
170
     0
171
     0
290
     0
174
     0
 93
        1
 44
50.0
173
     0
291
     1
 45
0.0
1001
ACAD
1000
AcDbSavedByObjectVersion
1070
     0
  0
VISUALSTYLE
  5
3A
102
{ACAD_XDICTIONARY
360
3A9
102
}
102
{ACAD_REACTORS
330
2A
102
}
330
2A
100
AcDbVisualStyle
  2

 70
    16
 71
     2
 72
     2
 73
     3
 90
        0
 40
-0.6
 41
-30.0
 62
     5
 63
     8
 74
     1
 91
        4
 64
     7
 65
   257
 75
     1
175
     1
 42
1.0
 92
        8
 66
     8
 43
1.0
 76
     1
 77
     6
 78
     2
 67
     7
 79
     5
170
     0
171
     0
290
     0
174
     0
 93
        1
 44
0.0
173
     0
291
     1
 45
0.0
1001
ACAD
1000
AcDbSavedByObjectVersion
1070
     0
  0
VISUALSTYLE
  5
34
102
{ACAD_XDICTIONARY
360
39D
102
}
102
{ACAD_REACTORS
330
2A
102
}
330
2A
100
AcDbVisualStyle
  2

 70
     9
 71
     3
 72
     2
 73
     0
 90
        0
 40
-0.6
 41
-30.0
 62
     5
 63
     7
 74
     2
 91
        2
 64
     7
 65
   257
 75
     1
175
     1
 42
179.0
 92
        8
 66
     7
 43
1.0
 76
     1
 77
     6
 78
     2
 67
     7
 79
     3
170
     0
171
     0
290
     0
174
     0
 93
        1
 44
0.0
173
     0
291
     0
 45
0.0
1001
ACAD
1000
AcDbSavedByObjectVersion
1070
     0
  0
VISUALSTYLE
  5
35
102
{ACAD_XDICTIONARY
360
39F
102
}
102
{ACAD_REACTORS
330
2A
102
}
330
2A
100
AcDbVisualStyle
  2

 70
    11
 71
     2
 72
     2
 73
     0
 90
        0
 40
-0.6
 41
-30.0
 62
     5
 63
     7
 74
     1
 91
        4
 64
     7
 65
   257
 75
     1
175
     1
 42
1.0
 92
        8
 66
     7
 43
1.0
 76
     1
 77
     6
 78
     2
 67
     7
 79
     5
170
     0
171
     0
290
     0
174
     0
 93
        1
 44
-50.0
173
     0
291
     1
 45
0.0
1001
ACAD
1000
AcDbSavedByObjectVersion
1070
     0
  0
VISUALSTYLE
  5
3D
102
{ACAD_XDICTIONARY
360
3AF
102
}
102
{ACAD_REACTORS
330
2A
102
}
330
2A
100
AcDbVisualStyle
  2

 70
    22
 71
     2
 72
     2
 73
     0
 90
        0
 40
-0.6
 41
-30.0
 62
     5
 63
     7
 74
     1
 91
        4
 64
     7
 65
   257
 75
     1
175
     1
 42
1.0
 92
        8
 66
     7
 43
1.0
 76
     1
 77
     6
 78
     2
 67
     7
 79
     5
170
     0
171
     0
290
     0
174
     0
 93
        1
 44
0.0
173
     0
291
     1
 45
0.0
1001
ACAD
1000
AcDbSavedByObjectVersion
1070
     0
  0
VISUALSTYLE
  5
39
102
{ACAD_XDICTIONARY
360
3A7
102
}
102
{ACAD_REACTORS
330
2A
102
}
330
2A
100
AcDbVisualStyle
  2

 70
    15
 71
     2
 72
     2
 73
     0
 90
        0
 40
-0.6
 41
-30.0
 62
     5
 63
     7
 74
     1
 91
        4
 64
     7
 65
   257
 75
     1
175
     1
 42
1.0
 92
        8
 66
     7
 43
1.0
 76
     1
 77
     6
 78
     2
 67
     7
 79
     5
170
     0
171
     0
290
     0
174
     0
 93
        1
 44
0.0
173
     0
291
     1
 45
0.0
1001
ACAD
1000
AcDbSavedByObjectVersion
1070
     0
  0
VISUALSTYLE
  5
2B
102
{ACAD_XDICTIONARY
360
38B
102
}
102
{ACAD_REACTORS
330
2A
102
}
330
2A
100
AcDbVisualStyle
  2

 70
     0
 71
     2
 72
     1
 73
     1
 90
        2
 40
-0.6
 41
30.0
 62
     5
 63
     7
 74
     0
 91
        0
 64
     7
 65
   257
 75
     1
175
     1
 42
1.0
 92
        8
 66
     7
 43
1.0
 76
     1
 77
     6
 78
     2
 67
     7
 79
     5
170
     0
171
     0
290
     0
174
     0
 93
       13
 44
0.0
173
     0
291
     1
 45
0.0
1001
ACAD
1000
AcDbSavedByObjectVersion
1070
     0
  0
VISUALSTYLE
  5
2C
102
{ACAD_XDICTIONARY
360
38D
102
}
102
{ACAD_REACTORS
330
2A
102
}
330
2A
100
AcDbVisualStyle
  2

 70
     1
 71
     2
 72
     1
 73
     1
 90
        2
 40
-0.6
 41
30.0
 62
     5
 63
     7
 74
     1
 91
        0
 64
     7
 65
   257
 75
     1
175
     1
 42
1.0
 92
        0
 66
   257
 43
1.0
 76
     1
 77
     6
 78
     2
 67
     7
 79
     5
170
     0
171
     0
290
     0
174
     0
 93
       13
 44
0.0
173
     0
291
     1
 45
0.0
1001
ACAD
1000
AcDbSavedByObjectVersion
1070
     0
  0
VISUALSTYLE
  5
2D
102
{ACAD_XDICTIONARY
360
38F
102
}
102
{ACAD_REACTORS
330
2A
102
}
330
2A
100
AcDbVisualStyle
  2

 70
     2
 71
     2
 72
     2
 73
     1
 90
        2
 40
-0.6
 41
30.0
 62
     5
 63
     7
 74
     0
 91
        0
 64
     7
 65
   257
 75
     1
175
     1
 42
1.0
 92
        0
 66
     7
 43
1.0
 76
     1
 77
     6
 78
     2
 67
     7
 79
     5
170
     0
171
     0
290
     0
174
     0
 93
       13
 44
0.0
173
     0
291
     1
 45
0.0
1001
ACAD
1000
AcDbSavedByObjectVersion
1070
     0
  0
VISUALSTYLE
  5
2E
102
{ACAD_XDICTIONARY
360
391
102
}
102
{ACAD_REACTORS
330
2A
102
}
330
2A
100
AcDbVisualStyle
  2

 70
     3
 71
     2
 72
     2
 73
     1
 90
        2
 40
-0.6
 41
30.0
 62
     5
 63
     7
 74
     1
 91
        0
 64
     7
 65
   257
 75
     1
175
     1
 42
1.0
 92
        0
 66
   257
 43
1.0
 76
     1
 77
     6
 78
     2
 67
     7
 79
     5
170
     0
171
     0
290
     0
174
     0
 93
       13
 44
0.0
173
     0
291
     1
 45
0.0
1001
ACAD
1000
AcDbSavedByObjectVersion
1070
     0
  0
VISUALSTYLE
  5
31
102
{ACAD_XDICTIONARY
360
397
102
}
102
{ACAD_REACTORS
330
2A
102
}
330
2A
100
AcDbVisualStyle
  2

 70
     6
 71
     1
 72
     2
 73
     2
 90
        0
 40
-0.6
 41
-30.0
 62
     5
 63
     7
 74
     2
 91
        2
 64
     7
 65
   257
 75
     2
175
     1
 42
40.0
 92
        0
 66
   257
 43
1.0
 76
     1
 77
     6
 78
     2
 67
     7
 79
     3
170
     0
171
     0
290
     0
174
     0
 93
        1
 44
0.0
173
     0
291
     0
 45
0.0
1001
ACAD
1000
AcDbSavedByObjectVersion
1070
     0
  0
VISUALSTYLE
  5
3B
102
{ACAD_XDICTIONARY
360
3AB
102
}
102
{ACAD_REACTORS
330
2A
102
}
330
2A
100
AcDbVisualStyle
  2

 70
    20
 71
     2
 72
     2
 73
     0
 90
        0
 40
-0.6
 41
-30.0
 62
     5
 63
     7
 74
     1
 91
        4
 64
     7
 65
   257
 75
     1
175
     1
 42
1.0
 92
       10
 66
     7
 43
1.0
 76
     1
 77
     6
 78
     2
 67
     7
 79
     5
170
     0
171
     0
290
     0
174
     0
 93
        1
 44
0.0
173
     0
291
     1
 45
0.0
1001
ACAD
1000
AcDbSavedByObjectVersion
1070
     0
  0
VISUALSTYLE
  5
38
102
{ACAD_XDICTIONARY
360
3A5
102
}
102
{ACAD_REACTORS
330
2A
102
}
330
2A
100
AcDbVisualStyle
  2

 70
    14
 71
     2
 72
     2
 73
     0
 90
        0
 40
-0.6
 41
-30.0
 62
     5
 63
     7
 74
     1
 91
        4
 64
     7
 65
   257
 75
     7
175
     7
 42
1.0
 92
        8
 66
     7
 43
1.0
 76
     1
 77
     6
 78
     2
 67
     7
 79
     5
170
     0
171
     0
290
     0
174
     0
 93
        1
 44
0.0
173
     0
291
     1
 45
0.0
1001
ACAD
1000
AcDbSavedByObjectVersion
1070
     0
  0
VISUALSTYLE
  5
3C
102
{ACAD_XDICTIONARY
360
3AD
102
}
102
{ACAD_REACTORS
330
2A
102
}
330
2A
100
AcDbVisualStyle
  2

 70
    21
 71
     2
 72
     2
 73
     0
 90
        0
 40
-0.6
 41
-30.0
 62
     5
 63
     7
 74
     1
 91
        4
 64
     7
 65
   257
 75
     1
175
     1
 42
1.0
 92
        9
 66
     7
 43
1.0
 76
     1
 77
     6
 78
     2
 67
     7
 79
     5
170
     0
171
     0
290
     0
174
     0
 93
        1
 44
0.0
173
     0
291
     1
 45
0.0
1001
ACAD
1000
AcDbSavedByObjectVersion
1070
     0
  0
VISUALSTYLE
  5
33
102
{ACAD_XDICTIONARY
360
39B
102
}
102
{ACAD_REACTORS
330
2A
102
}
330
2A
100
AcDbVisualStyle
  2

 70
     8
 71
     2
 72
     3
 73
     0
 90
        2
 40
-0.6
 41
30.0
 62
     5
 63
     7
 74
     0
 91
        0
 64
     7
 65
   257
 75
     1
175
     1
 42
1.0
 92
        8
 66
   257
 43
1.0
 76
     1
 77
     6
 78
     2
 67
     7
 79
     3
170
     0
171
     0
290
     0
174
     0
 93
       13
 44
0.0
173
     0
291
     0
 45
0.0
1001
ACAD
1000
AcDbSavedByObjectVersion
1070
     0
  0
VISUALSTYLE
  5
42
102
{ACAD_XDICTIONARY
360
3B9
102
}
102
{ACAD_REACTORS
330
2A
102
}
330
2A
100
AcDbVisualStyle
  2

 70
    27
 71
     2
 72
     2
 73
     1
 90
        2
 40
-0.6
 41
30.0
 62
     5
 63
     7
 74
     0
 91
        4
 64
     7
 65
   257
 75
     1
175
     1
 42
1.0
 92
        8
 66
   257
 43
1.0
 76
     1
 77
     6
 78
     2
 67
     8
 79
     3
170
     0
171
     0
290
     0
174
     0
 93
        5
 44
0.0
173
     0
291
     0
 45
0.0
1001
ACAD
1000
AcDbSavedByObjectVersion
1070
     0
  0
VISUALSTYLE
  5
41
102
{ACAD_XDICTIONARY
360
3B7
102
}
102
{ACAD_REACTORS
330
2A
102
}
330
2A
100
AcDbVisualStyle
  2

 70
    26
 71
     2
 72
     2
 73
     1
 90
        2
 40
-0.6
 41
30.0
 62
     5
 63
     7
 74
     1
 91
       10
 64
     7
 65
   257
 75
     2
175
     1
 42
1.0
 92
        8
 66
   257
 43
1.0
 76
     1
 77
     6
 78
     2
 67
     7
 79
     3
170
     0
171
     0
290
     0
174
     0
 93
        5
 44
0.0
173
     0
291
     0
 45
0.0
1001
ACAD
1000
AcDbSavedByObjectVersion
1070
     0
  0
VISUALSTYLE
  5
3E
102
{ACAD_XDICTIONARY
360
3B1
102
}
102
{ACAD_REACTORS
330
2A
102
}
330
2A
100
AcDbVisualStyle
  2

 70
    23
 71
     2
 72
     2
 73
     3
 90
        0
 40
-0.6
 41
-30.0
 62
     5
 63
     7
 74
     2
 91
        2
 64
     7
 65
     7
 75
     1
175
     1
 42
40.0
 92
        8
 66
     7
 43
1.0
 76
     1
 77
     6
 78
     2
 67
     7
 79
     3
170
     0
171
     0
290
     0
174
     0
 93
        1
 44
0.0
173
     0
291
     0
 45
0.0
1001
ACAD
1000
AcDbSavedByObjectVersion
1070
     0
  0
VISUALSTYLE
  5
3F
102
{ACAD_XDICTIONARY
360
3B3
102
}
102
{ACAD_REACTORS
330
2A
102
}
330
2A
100
AcDbVisualStyle
  2

 70
    24
 71
     1
 72
     2
 73
     2
 90
        0
 40
-0.6
 41
-30.0
 62
     5
 63
     7
 74
     2
 91
        2
 64
     7
 65
     7
 75
     1
175
     1
 42
40.0
 92
       11
 66
     7
 43
1.0
 76
     1
 77
     6
 78
     2
 67
     7
 79
     6
170
     0
171
     0
290
     0
174
     0
 93
        1
 44
0.0
173
     0
291
     0
 45
0.0
1001
ACAD
1000
AcDbSavedByObjectVersion
1070
     0
  0
VISUALSTYLE
  5
37
102
{ACAD_XDICTIONARY
360
3A3
102
}
102
{ACAD_REACTORS
330
2A
102
}
330
2A
100
AcDbVisualStyle
  2

 70
    13
 71
     2
 72
     2
 73
     0
 90
        0
 40
-0.6
 41
-30.0
 62
     5
 63
     7
 74
     1
 91
        4
 64
     7
 65
   257
 75
     1
175
     1
 42
1.0
 92
       12
 66
     7
 43
1.0
 76
     1
 77
     6
 78
     2
 67
     7
 79
     5
170
     0
171
     0
290
     0
174
     0
 93
        1
 44
0.0
173
     0
291
     1
 45
0.0
1001
ACAD
1000
AcDbSavedByObjectVersion
1070
     0
  0
VISUALSTYLE
  5
30
102
{ACAD_XDICTIONARY
360
395
102
}
102
{ACAD_REACTORS
330
2A
102
}
330
2A
100
AcDbVisualStyle
  2

 70
     5
 71
     0
 72
     2
 73
     0
 90
        0
 40
-0.6
 41
-30.0
 62
     5
 63
     7
 74
     1
 91
        4
 64
     7
 65
   257
 75
     1
175
     1
 42
1.0
 92
        0
 66
   257
 43
1.0
 76
     1
 77
     6
 78
     2
 67
     7
 79
     3
170
     0
171
     0
290
     0
174
     0
 93
        1
 44
0.0
173
     0
291
     0
 45
0.0
1001
ACAD
1000
AcDbSavedByObjectVersion
1070
     0
  0
VISUALSTYLE
  5
40
102
{ACAD_XDICTIONARY
360
3B5
102
}
102
{ACAD_REACTORS
330
2A
102
}
330
2A
100
AcDbVisualStyle
  2

 70
    25
 71
     2
 72
     2
 73
     1
 90
        1
 40
0.5
 41
-30.0
 62
     5
 63
     7
 74
     1
 91
        0
 64
     7
 65
   257
 75
     1
175
     1
 42
1.0
 92
        8
 66
     7
 43
1.0
 76
     1
 77
     6
 78
     2
 67
     7
 79
     3
170
     0
171
     0
290
     0
174
     0
 93
       13
 44
0.0
173
     0
291
     0
 45
0.0
1001
ACAD
1000
AcDbSavedByObjectVersion
1070
     0
  0
DICTIONARYVAR
  5
24B
102
{ACAD_REACTORS
330
244
102
}
330
244
100
DictionaryVariables
280
     0
  1
1:1
  0
DICTIONARYVAR
  5
37B
102
{ACAD_REACTORS
330
244
102
}
330
244
100
DictionaryVariables
280
     0
  1
STANDARD
  0
DICTIONARYVAR
  5
37A
102
{ACAD_REACTORS
330
244
102
}
330
244
100
DictionaryVariables
280
     0
  1
STANDARD
  0
DICTIONARYVAR
  5
37C
102
{ACAD_REACTORS
330
244
102
}
330
244
100
DictionaryVariables
280
     0
  1
Metric50
  0
DICTIONARYVAR
  5
37D
102
{ACAD_REACTORS
330
244
102
}
330
244
100
DictionaryVariables
280
     0
  1
Metric50
  0
DICTIONARYVAR
  5
249
102
{ACAD_REACTORS
330
244
102
}
330
244
100
DictionaryVariables
280
     0
  1
2
  0
DICTIONARYVAR
  5
24A
102
{ACAD_REACTORS
330
244
102
}
330
244
100
DictionaryVariables
280
     0
  1
1
  0
DICTIONARYVAR
  5
37F
102
{ACAD_REACTORS
330
244
102
}
330
244
100
DictionaryVariables
280
     0
  1
0
  0
DICTIONARYVAR
  5
24C
102
{ACAD_REACTORS
330
244
102
}
330
244
100
DictionaryVariables
280
     0
  1
1
  0
DICTIONARYVAR
  5
37E
102
{ACAD_REACTORS
330
244
102
}
330
244
100
DictionaryVariables
280
     0
  1
127
  0
DICTIONARYVAR
  5
380
102
{ACAD_REACTORS
330
244
102
}
330
244
100
DictionaryVariables
280
     0
  1
2
  0
DICTIONARY
  5
3BF
330
28C
100
AcDbDictionary
280
     1
281
     1
  3
ACAD_XREC_ROUNDTRIP
360
3C0
  0
DICTIONARY
  5
385
330
1E
100
AcDbDictionary
280
     1
281
     1
  3
ACAD_XREC_ROUNDTRIP
360
386
  0
DICTIONARY
  5
389
330
26
100
AcDbDictionary
280
     1
281
     1
  3
ACAD_XREC_ROUNDTRIP
360
38A
  0
DICTIONARY
  5
387
330
22
100
AcDbDictionary
280
     1
281
     1
  3
ACAD_XREC_ROUNDTRIP
360
388
  0
DICTIONARY
  5
27F
330
45
100
AcDbDictionary
280
     1
281
     1
  3
ACAD_XREC_ROUNDTRIP
360
280
  0
DICTIONARY
  5
27D
330
44
100
AcDbDictionary
280
     1
281
     1
  3
ACAD_XREC_ROUNDTRIP
360
27E
  0
DICTIONARY
  5
281
330
46
100
AcDbDictionary
280
     1
281
     1
  3
ACAD_XREC_ROUNDTRIP
360
282
  0
DICTIONARY
  5
3BD
330
28A
100
AcDbDictionary
280
     1
281
     1
  3
ACAD_XREC_ROUNDTRIP
360
3BE
  0
DICTIONARY
  5
381
330
287
100
AcDbDictionary
280
     1
281
     1
  3
ACAD_ROUNDTRIP_2008_TABLESTYLE_CELLSTYLEMAP
360
382
  3
ACAD_XREC_ROUNDTRIP
360
3BB
  0
DICTIONARY
  5
393
330
2F
100
AcDbDictionary
280
     1
281
     1
  3
ACAD_XREC_ROUNDTRIP
360
394
  0
DICTIONARY
  5
399
330
32
100
AcDbDictionary
280
     1
281
     1
  3
ACAD_XREC_ROUNDTRIP
360
39A
  0
DICTIONARY
  5
3A1
330
36
100
AcDbDictionary
280
     1
281
     1
  3
ACAD_XREC_ROUNDTRIP
360
3A2
  0
DICTIONARY
  5
3A9
330
3A
100
AcDbDictionary
280
     1
281
     1
  3
ACAD_XREC_ROUNDTRIP
360
3AA
  0
DICTIONARY
  5
39D
330
34
100
AcDbDictionary
280
     1
281
     1
  3
ACAD_XREC_ROUNDTRIP
360
39E
  0
DICTIONARY
  5
39F
330
35
100
AcDbDictionary
280
     1
281
     1
  3
ACAD_XREC_ROUNDTRIP
360
3A0
  0
DICTIONARY
  5
3AF
330
3D
100
AcDbDictionary
280
     1
281
     1
  3
ACAD_XREC_ROUNDTRIP
360
3B0
  0
DICTIONARY
  5
3A7
330
39
100
AcDbDictionary
280
     1
281
     1
  3
ACAD_XREC_ROUNDTRIP
360
3A8
  0
DICTIONARY
  5
38B
330
2B
100
AcDbDictionary
280
     1
281
     1
  3
ACAD_XREC_ROUNDTRIP
360
38C
  0
DICTIONARY
  5
38D
330
2C
100
AcDbDictionary
280
     1
281
     1
  3
ACAD_XREC_ROUNDTRIP
360
38E
  0
DICTIONARY
  5
38F
330
2D
100
AcDbDictionary
280
     1
281
     1
  3
ACAD_XREC_ROUNDTRIP
360
390
  0
DICTIONARY
  5
391
330
2E
100
AcDbDictionary
280
     1
281
     1
  3
ACAD_XREC_ROUNDTRIP
360
392
  0
DICTIONARY
  5
397
330
31
100
AcDbDictionary
280
     1
281
     1
  3
ACAD_XREC_ROUNDTRIP
360
398
  0
DICTIONARY
  5
3AB
330
3B
100
AcDbDictionary
280
     1
281
     1
  3
ACAD_XREC_ROUNDTRIP
360
3AC
  0
DICTIONARY
  5
3A5
330
38
100
AcDbDictionary
280
     1
281
     1
  3
ACAD_XREC_ROUNDTRIP
360
3A6
  0
DICTIONARY
  5
3AD
330
3C
100
AcDbDictionary
280
     1
281
     1
  3
ACAD_XREC_ROUNDTRIP
360
3AE
  0
DICTIONARY
  5
39B
330
33
100
AcDbDictionary
280
     1
281
     1
  3
ACAD_XREC_ROUNDTRIP
360
39C
  0
DICTIONARY
  5
3B9
330
42
100
AcDbDictionary
280
     1
281
     1
  3
ACAD_XREC_ROUNDTRIP
360
3BA
  0
DICTIONARY
  5
3B7
330
41
100
AcDbDictionary
280
     1
281
     1
  3
ACAD_XREC_ROUNDTRIP
360
3B8
  0
DICTIONARY
  5
3B1
330
3E
100
AcDbDictionary
280
     1
281
     1
  3
ACAD_XREC_ROUNDTRIP
360
3B2
  0
DICTIONARY
  5
3B3
330
3F
100
AcDbDictionary
280
     1
281
     1
  3
ACAD_XREC_ROUNDTRIP
360
3B4
  0
DICTIONARY
  5
3A3
330
37
100
AcDbDictionary
280
     1
281
     1
  3
ACAD_XREC_ROUNDTRIP
360
3A4
  0
DICTIONARY
  5
395
330
30
100
AcDbDictionary
280
     1
281
     1
  3
ACAD_XREC_ROUNDTRIP
360
396
  0
DICTIONARY
  5
3B5
330
40
100
AcDbDictionary
280
     1
281
     1
  3
ACAD_XREC_ROUNDTRIP
360
3B6
  0
XRECORD
  5
3C0
102
{ACAD_REACTORS
330
3BF
102
}
330
3BF
100
AcDbXrecord
280
     1
102
DISPLAYNAME
  1
Metric50
102
FLAGS
 90
        0
  0
XRECORD
  5
386
102
{ACAD_REACTORS
330
385
102
}
330
385
100
AcDbXrecord
280
     1
102
SHADEPLOT
 70
     0
102
SHADEPLOTRESLEVEL
 70
     2
102
SHADEPLOTCUSTOMDPI
 70
   300
  0
XRECORD
  5
38A
102
{ACAD_REACTORS
330
389
102
}
330
389
100
AcDbXrecord
280
     1
102
SHADEPLOT
 70
     0
102
SHADEPLOTRESLEVEL
 70
     2
102
SHADEPLOTCUSTOMDPI
 70
   300
  0
XRECORD
  5
388
102
{ACAD_REACTORS
330
387
102
}
330
387
100
AcDbXrecord
280
     1
102
SHADEPLOT
 70
     0
102
SHADEPLOTRESLEVEL
 70
     2
102
SHADEPLOTCUSTOMDPI
 70
   300
  0
XRECORD
  5
280
102
{ACAD_REACTORS
330
27F
102
}
330
27F
100
AcDbXrecord
280
     1
102
MATERIAL
148
0.0
149
0.0
149
0.0
 93
        0
 94
      127
282
     0
 72
     1
 77
     1
171
     1
175
     1
179
     1
273
     0
  0
XRECORD
  5
27E
102
{ACAD_REACTORS
330
27D
102
}
330
27D
100
AcDbXrecord
280
     1
102
MATERIAL
148
0.0
149
0.0
149
0.0
 93
        0
 94
      127
282
     0
 72
     1
 77
     1
171
     1
175
     1
179
     1
273
     0
  0
XRECORD
  5
282
102
{ACAD_REACTORS
330
281
102
}
330
281
100
AcDbXrecord
280
     1
102
MATERIAL
148
0.0
149
0.0
149
0.0
 93
        0
 94
      127
282
     0
 72
     1
 77
     1
171
     1
175
     1
179
     1
273
     0
  0
XRECORD
  5
3BE
102
{ACAD_REACTORS
330
3BD
102
}
330
3BD
100
AcDbXrecord
280
     1
102
DISPLAYNAME
  1
Metric50
102
FLAGS
 90
        0
  0
CELLSTYLEMAP
  5
382
102
{ACAD_REACTORS
330
381
102
}
330
381
100
AcDbCellStyleMap
 90
        3
300
CELLSTYLE
  1
TABLEFORMAT_BEGIN
 90
        5
170
     1
 91
        0
 92
    32768
 62
   257
 93
        1
300
CONTENTFORMAT
  1
CONTENTFORMAT_BEGIN
 90
        0
 91
        0
 92
      512
 93
        0
300

 40
0.0
140
1.0
 94
        5
 62
     0
340
11
144
6.0
309
CONTENTFORMAT_END
171
     1
301
MARGIN
  1
CELLMARGIN_BEGIN
 40
1.5
 40
1.5
 40
1.5
 40
1.5
 40
4.5
 40
4.5
309
CELLMARGIN_END
 94
        6
 95
        1
302
GRIDFORMAT
  1
GRIDFORMAT_BEGIN
 90
        0
 91
        1
 62
     0
 92
       -2
340
0
 93
        0
 40
1.125
309
GRIDFORMAT_END
 95
        2
302
GRIDFORMAT
  1
GRIDFORMAT_BEGIN
 90
        0
 91
        1
 62
     0
 92
       -2
340
0
 93
        0
 40
1.125
309
GRIDFORMAT_END
 95
        4
302
GRIDFORMAT
  1
GRIDFORMAT_BEGIN
 90
        0
 91
        1
 62
     0
 92
       -2
340
0
 93
        0
 40
1.125
309
GRIDFORMAT_END
 95
        8
302
GRIDFORMAT
  1
GRIDFORMAT_BEGIN
 90
        0
 91
        1
 62
     0
 92
       -2
340
0
 93
        0
 40
1.125
309
GRIDFORMAT_END
 95
       16
302
GRIDFORMAT
  1
GRIDFORMAT_BEGIN
 90
        0
 91
        1
 62
     0
 92
       -2
340
0
 93
        0
 40
1.125
309
GRIDFORMAT_END
 95
       32
302
GRIDFORMAT
  1
GRIDFORMAT_BEGIN
 90
        0
 91
        1
 62
     0
 92
       -2
340
0
 93
        0
 40
1.125
309
GRIDFORMAT_END
309
TABLEFORMAT_END
  1
CELLSTYLE_BEGIN
 90
        1
 91
        1
300
_TITLE
309
CELLSTYLE_END
300
CELLSTYLE
  1
TABLEFORMAT_BEGIN
 90
        5
170
     1
 91
        0
 92
        0
 62
   257
 93
        1
300
CONTENTFORMAT
  1
CONTENTFORMAT_BEGIN
 90
        0
 91
        0
 92
      512
 93
        0
300

 40
0.0
140
1.0
 94
        5
 62
     0
340
11
144
4.5
309
CONTENTFORMAT_END
171
     1
301
MARGIN
  1
CELLMARGIN_BEGIN
 40
1.5
 40
1.5
 40
1.5
 40
1.5
 40
4.5
 40
4.5
309
CELLMARGIN_END
 94
        6
 95
        1
302
GRIDFORMAT
  1
GRIDFORMAT_BEGIN
 90
        0
 91
        1
 62
     0
 92
       -2
340
0
 93
        0
 40
1.125
309
GRIDFORMAT_END
 95
        2
302
GRIDFORMAT
  1
GRIDFORMAT_BEGIN
 90
        0
 91
        1
 62
     0
 92
       -2
340
0
 93
        0
 40
1.125
309
GRIDFORMAT_END
 95
        4
302
GRIDFORMAT
  1
GRIDFORMAT_BEGIN
 90
        0
 91
        1
 62
     0
 92
       -2
340
0
 93
        0
 40
1.125
309
GRIDFORMAT_END
 95
        8
302
GRIDFORMAT
  1
GRIDFORMAT_BEGIN
 90
        0
 91
        1
 62
     0
 92
       -2
340
0
 93
        0
 40
1.125
309
GRIDFORMAT_END
 95
       16
302
GRIDFORMAT
  1
GRIDFORMAT_BEGIN
 90
        0
 91
        1
 62
     0
 92
       -2
340
0
 93
        0
 40
1.125
309
GRIDFORMAT_END
 95
       32
302
GRIDFORMAT
  1
GRIDFORMAT_BEGIN
 90
        0
 91
        1
 62
     0
 92
       -2
340
0
 93
        0
 40
1.125
309
GRIDFORMAT_END
309
TABLEFORMAT_END
  1
CELLSTYLE_BEGIN
 90
        2
 91
        1
300
_HEADER
309
CELLSTYLE_END
300
CELLSTYLE
  1
TABLEFORMAT_BEGIN
 90
        5
170
     1
 91
        0
 92
        0
 62
   257
 93
        1
300
CONTENTFORMAT
  1
CONTENTFORMAT_BEGIN
 90
        0
 91
        0
 92
      512
 93
        0
300

 40
0.0
140
1.0
 94
        2
 62
     0
340
11
144
4.5
309
CONTENTFORMAT_END
171
     1
301
MARGIN
  1
CELLMARGIN_BEGIN
 40
1.5
 40
1.5
 40
1.5
 40
1.5
 40
4.5
 40
4.5
309
CELLMARGIN_END
 94
        6
 95
        1
302
GRIDFORMAT
  1
GRIDFORMAT_BEGIN
 90
        0
 91
        1
 62
     0
 92
       -2
340
0
 93
        0
 40
1.125
309
GRIDFORMAT_END
 95
        2
302
GRIDFORMAT
  1
GRIDFORMAT_BEGIN
 90
        0
 91
        1
 62
     0
 92
       -2
340
0
 93
        0
 40
1.125
309
GRIDFORMAT_END
 95
        4
302
GRIDFORMAT
  1
GRIDFORMAT_BEGIN
 90
        0
 91
        1
 62
     0
 92
       -2
340
0
 93
        0
 40
1.125
309
GRIDFORMAT_END
 95
        8
302
GRIDFORMAT
  1
GRIDFORMAT_BEGIN
 90
        0
 91
        1
 62
     0
 92
       -2
340
0
 93
        0
 40
1.125
309
GRIDFORMAT_END
 95
       16
302
GRIDFORMAT
  1
GRIDFORMAT_BEGIN
 90
        0
 91
        1
 62
     0
 92
       -2
340
0
 93
        0
 40
1.125
309
GRIDFORMAT_END
 95
       32
302
GRIDFORMAT
  1
GRIDFORMAT_BEGIN
 90
        0
 91
        1
 62
     0
 92
       -2
340
0
 93
        0
 40
1.125
309
GRIDFORMAT_END
309
TABLEFORMAT_END
  1
CELLSTYLE_BEGIN
 90
        3
 91
        2
300
_DATA
309
CELLSTYLE_END
  0
XRECORD
  5
3BB
102
{ACAD_REACTORS
330
381
102
}
330
381
100
AcDbXrecord
280
     1
102
ACAD_ROUNDTRIP_PRE2007_TABLESTYLE
 90
      512
 91
        0
  1

 92
      512
 93
        0
  2

 94
      512
 95
        0
  3

  0
XRECORD
  5
394
102
{ACAD_REACTORS
330
393
102
}
330
393
100
AcDbXrecord
280
     1
102
RTVSPost2010Prop28
280
     1
102
RTVSPost2010PropOp28
 70
     1
102
RTVSPost2010Prop29
280
     1
102
RTVSPost2010PropOp29
 70
     1
102
RTVSPost2010Prop30
280
     0
102
RTVSPost2010PropOp30
 70
     1
102
RTVSPost2010Prop31
280
     0
102
RTVSPost2010PropOp31
 70
     1
102
RTVSPost2010Prop32
280
     0
102
RTVSPost2010PropOp32
 70
     1
102
RTVSPost2010Prop33
280
     0
102
RTVSPost2010PropOp33
 70
     1
102
RTVSPost2010Prop34
280
     0
102
RTVSPost2010PropOp34
 70
     1
102
RTVSPost2010Prop35
280
     0
102
RTVSPost2010PropOp35
 70
     1
102
RTVSPost2010Prop36
280
     0
102
RTVSPost2010PropOp36
 70
     1
102
RTVSPost2010Prop37
 90
       50
102
RTVSPost2010PropOp37
 70
     1
102
RTVSPost2010Prop38
140
0.0
102
RTVSPost2010PropOp38
 70
     1
102
RTVSPost2010Prop39
140
1.0
102
RTVSPost2010PropOp39
 70
     1
102
RTVSPost2010Prop40
 90
        0
102
RTVSPost2010PropOp40
 70
     1
102
RTVSPost2010Prop41ColorIndex
 90
       18
102
RTVSPost2010Prop41ColorRGB
 90
        0
102
RTVSPost2010PropOp41
 70
     1
102
RTVSPost2010Prop42
 90
       50
102
RTVSPost2010PropOp42
 70
     1
102
RTVSPost2010Prop43
 90
        3
102
RTVSPost2010PropOp43
 70
     1
102
RTVSPost2010Prop44ColorIndex
 90
        5
102
RTVSPost2010Prop44ColorRGB
 90
      255
102
RTVSPost2010PropOp44
 70
     1
102
RTVSPost2010Prop45
280
     0
102
RTVSPost2010PropOp45
 70
     1
102
RTVSPost2010Prop46
 90
       50
102
RTVSPost2010PropOp46
 70
     1
102
RTVSPost2010Prop47
 90
       50
102
RTVSPost2010PropOp47
 70
     1
102
RTVSPost2010Prop48
 90
       50
102
RTVSPost2010PropOp48
 70
     1
102
RTVSPost2010Prop49
280
     0
102
RTVSPost2010PropOp49
 70
     1
102
RTVSPost2010Prop50
 90
       50
102
RTVSPost2010PropOp50
 70
     1
102
RTVSPost2010Prop51ColorIndex
 90
      256
102
RTVSPost2010Prop51ColorRGB
 90
-16777216
102
RTVSPost2010PropOp51
 70
     0
102
RTVSPost2010Prop52
140
1.0
102
RTVSPost2010PropOp52
 70
     0
102
RTVSPost2010Prop53
 90
        2
102
RTVSPost2010PropOp53
 70
     1
102
RTVSPost2010Prop54
  1
strokes_ogs.tif
102
RTVSPost2010PropOp54
 70
     1
102
RTVSPost2010Prop55
280
     0
102
RTVSPost2010PropOp55
 70
     1
102
RTVSPost2010Prop56
140
1.0
102
RTVSPost2010PropOp56
 70
     1
102
RTVSPost2010Prop57
140
1.0
102
RTVSPost2010PropOp57
 70
     1
102
RTVSPropertyOp0
 70
     1
102
RTVSPropertyOp1
 70
     1
102
RTVSPropertyOp2
 70
     1
102
RTVSPropertyOp3
 70
     1
102
RTVSPropertyOp4
 70
     1
102
RTVSPropertyOp5
 70
     1
102
RTVSPropertyOp6
 70
     1
102
RTVSPropertyOp7
 70
     1
102
RTVSPropertyOp8
 70
     1
102
RTVSPropertyOp9
 70
     1
102
RTVSPropertyOp10
 70
     1
102
RTVSPropertyOp11
 70
     1
102
RTVSPropertyOp12
 70
     1
102
RTVSPropertyOp13
 70
     1
102
RTVSPropertyOp14
 70
     1
102
RTVSPropertyOp15
 70
     1
102
RTVSPropertyOp16
 70
     1
102
RTVSPropertyOp17
 70
     1
102
RTVSPropertyOp18
 70
     1
102
RTVSPropertyOp19
 70
     1
102
RTVSPropertyOp20
 70
     1
102
RTVSPropertyOp21
 70
     1
102
RTVSPropertyOp22
 70
     1
102
RTVSPropertyOp23
 70
     1
102
RTVSPropertyOp24
 70
     1
102
RTVSPropertyOp25
 70
     1
102
RTVSPropertyOp26
 70
     1
102
RTVSPropertyOp27
 70
     1
102
RTVSPropertyOp28
 70
     1
102
RTVSPropertyOp29
 70
     1
102
RTVSPropertyOp30
 70
     1
102
RTVSPropertyOp31
 70
     1
102
RTVSPropertyOp32
 70
     1
102
RTVSPropertyOp33
 70
     1
102
RTVSPropertyOp34
 70
     1
102
RTVSPropertyOp35
 70
     1
102
RTVSPropertyOp36
 70
     1
102
RTVSPropertyOp37
 70
     1
102
RTVSPropertyOp38
 70
     1
102
RTVSPropertyOp39
 70
     1
102
RTVSPropertyOp40
 70
     1
102
RTVSPropertyOp41
 70
     1
102
RTVSPropertyOp42
 70
     1
102
RTVSPropertyOp43
 70
     1
102
RTVSPropertyOp44
 70
     1
102
RTVSPropertyOp45
 70
     1
102
RTVSPropertyOp46
 70
     1
102
RTVSPropertyOp47
 70
     1
102
RTVSPropertyOp48
 70
     1
102
RTVSPropertyOp49
 70
     1
102
RTVSPropertyOp50
 70
     1
102
RTVSPropertyOp51
 70
     0
102
RTVSPropertyOp52
 70
     0
102
RTVSPropertyOp53
 70
     1
102
RTVSPropertyOp54
 70
     1
102
RTVSPropertyOp55
 70
     1
102
RTVSPropertyOp56
 70
     1
102
RTVSPropertyOp57
 70
     1
102
RTVSPropertyOp58
 70
     1
102
RTVSPropertyOp59
 70
     1
102
RTVSPropertyOp60
 70
     1
102
RTVSPropertyOp61
 70
     1
102
RTVSPropertyOp62
 70
     1
  0
XRECORD
  5
39A
102
{ACAD_REACTORS
330
399
102
}
330
399
100
AcDbXrecord
280
     1
102
RTVSPost2010Prop28
280
     0
102
RTVSPost2010PropOp28
 70
     1
102
RTVSPost2010Prop29
280
     1
102
RTVSPost2010PropOp29
 70
     1
102
RTVSPost2010Prop30
280
     1
102
RTVSPost2010PropOp30
 70
     1
102
RTVSPost2010Prop31
280
     0
102
RTVSPost2010PropOp31
 70
     1
102
RTVSPost2010Prop32
280
     0
102
RTVSPost2010PropOp32
 70
     1
102
RTVSPost2010Prop33
280
     0
102
RTVSPost2010PropOp33
 70
     1
102
RTVSPost2010Prop34
280
     0
102
RTVSPost2010PropOp34
 70
     1
102
RTVSPost2010Prop35
280
     0
102
RTVSPost2010PropOp35
 70
     1
102
RTVSPost2010Prop36
280
     0
102
RTVSPost2010PropOp36
 70
     1
102
RTVSPost2010Prop37
 90
       50
102
RTVSPost2010PropOp37
 70
     1
102
RTVSPost2010Prop38
140
0.0
102
RTVSPost2010PropOp38
 70
     1
102
RTVSPost2010Prop39
140
1.0
102
RTVSPost2010PropOp39
 70
     1
102
RTVSPost2010Prop40
 90
        0
102
RTVSPost2010PropOp40
 70
     1
102
RTVSPost2010Prop41ColorIndex
 90
       18
102
RTVSPost2010Prop41ColorRGB
 90
        0
102
RTVSPost2010PropOp41
 70
     1
102
RTVSPost2010Prop42
 90
       50
102
RTVSPost2010PropOp42
 70
     1
102
RTVSPost2010Prop43
 90
        3
102
RTVSPost2010PropOp43
 70
     1
102
RTVSPost2010Prop44ColorIndex
 90
        5
102
RTVSPost2010Prop44ColorRGB
 90
      255
102
RTVSPost2010PropOp44
 70
     1
102
RTVSPost2010Prop45
280
     0
102
RTVSPost2010PropOp45
 70
     1
102
RTVSPost2010Prop46
 90
       50
102
RTVSPost2010PropOp46
 70
     1
102
RTVSPost2010Prop47
 90
       50
102
RTVSPost2010PropOp47
 70
     1
102
RTVSPost2010Prop48
 90
       50
102
RTVSPost2010PropOp48
 70
     1
102
RTVSPost2010Prop49
280
     0
102
RTVSPost2010PropOp49
 70
     1
102
RTVSPost2010Prop50
 90
       50
102
RTVSPost2010PropOp50
 70
     1
102
RTVSPost2010Prop51ColorIndex
 90
      256
102
RTVSPost2010Prop51ColorRGB
 90
-16777216
102
RTVSPost2010PropOp51
 70
     0
102
RTVSPost2010Prop52
140
1.0
102
RTVSPost2010PropOp52
 70
     0
102
RTVSPost2010Prop53
 90
        2
102
RTVSPost2010PropOp53
 70
     1
102
RTVSPost2010Prop54
  1
strokes_ogs.tif
102
RTVSPost2010PropOp54
 70
     1
102
RTVSPost2010Prop55
280
     0
102
RTVSPost2010PropOp55
 70
     1
102
RTVSPost2010Prop56
140
1.0
102
RTVSPost2010PropOp56
 70
     1
102
RTVSPost2010Prop57
140
1.0
102
RTVSPost2010PropOp57
 70
     1
102
RTVSPropertyOp0
 70
     1
102
RTVSPropertyOp1
 70
     1
102
RTVSPropertyOp2
 70
     1
102
RTVSPropertyOp3
 70
     1
102
RTVSPropertyOp4
 70
     1
102
RTVSPropertyOp5
 70
     1
102
RTVSPropertyOp6
 70
     1
102
RTVSPropertyOp7
 70
     1
102
RTVSPropertyOp8
 70
     1
102
RTVSPropertyOp9
 70
     1
102
RTVSPropertyOp10
 70
     1
102
RTVSPropertyOp11
 70
     1
102
RTVSPropertyOp12
 70
     1
102
RTVSPropertyOp13
 70
     1
102
RTVSPropertyOp14
 70
     1
102
RTVSPropertyOp15
 70
     1
102
RTVSPropertyOp16
 70
     1
102
RTVSPropertyOp17
 70
     1
102
RTVSPropertyOp18
 70
     1
102
RTVSPropertyOp19
 70
     1
102
RTVSPropertyOp20
 70
     1
102
RTVSPropertyOp21
 70
     1
102
RTVSPropertyOp22
 70
     1
102
RTVSPropertyOp23
 70
     1
102
RTVSPropertyOp24
 70
     1
102
RTVSPropertyOp25
 70
     1
102
RTVSPropertyOp26
 70
     1
102
RTVSPropertyOp27
 70
     1
102
RTVSPropertyOp28
 70
     1
102
RTVSPropertyOp29
 70
     1
102
RTVSPropertyOp30
 70
     1
102
RTVSPropertyOp31
 70
     1
102
RTVSPropertyOp32
 70
     1
102
RTVSPropertyOp33
 70
     1
102
RTVSPropertyOp34
 70
     1
102
RTVSPropertyOp35
 70
     1
102
RTVSPropertyOp36
 70
     1
102
RTVSPropertyOp37
 70
     1
102
RTVSPropertyOp38
 70
     1
102
RTVSPropertyOp39
 70
     1
102
RTVSPropertyOp40
 70
     1
102
RTVSPropertyOp41
 70
     1
102
RTVSPropertyOp42
 70
     1
102
RTVSPropertyOp43
 70
     1
102
RTVSPropertyOp44
 70
     1
102
RTVSPropertyOp45
 70
     1
102
RTVSPropertyOp46
 70
     1
102
RTVSPropertyOp47
 70
     1
102
RTVSPropertyOp48
 70
     1
102
RTVSPropertyOp49
 70
     1
102
RTVSPropertyOp50
 70
     1
102
RTVSPropertyOp51
 70
     0
102
RTVSPropertyOp52
 70
     0
102
RTVSPropertyOp53
 70
     1
102
RTVSPropertyOp54
 70
     1
102
RTVSPropertyOp55
 70
     1
102
RTVSPropertyOp56
 70
     1
102
RTVSPropertyOp57
 70
     1
102
RTVSPropertyOp58
 70
     1
102
RTVSPropertyOp59
 70
     1
102
RTVSPropertyOp60
 70
     1
102
RTVSPropertyOp61
 70
     1
102
RTVSPropertyOp62
 70
     1
  0
XRECORD
  5
3A2
102
{ACAD_REACTORS
330
3A1
102
}
330
3A1
100
AcDbXrecord
280
     1
102
RTVSPost2010Prop28
280
     0
102
RTVSPost2010PropOp28
 70
     1
102
RTVSPost2010Prop29
280
     1
102
RTVSPost2010PropOp29
 70
     1
102
RTVSPost2010Prop30
280
     1
102
RTVSPost2010PropOp30
 70
     1
102
RTVSPost2010Prop31
280
     0
102
RTVSPost2010PropOp31
 70
     1
102
RTVSPost2010Prop32
280
     0
102
RTVSPost2010PropOp32
 70
     1
102
RTVSPost2010Prop33
280
     0
102
RTVSPost2010PropOp33
 70
     1
102
RTVSPost2010Prop34
280
     0
102
RTVSPost2010PropOp34
 70
     1
102
RTVSPost2010Prop35
280
     0
102
RTVSPost2010PropOp35
 70
     1
102
RTVSPost2010Prop36
280
     0
102
RTVSPost2010PropOp36
 70
     1
102
RTVSPost2010Prop37
 90
       50
102
RTVSPost2010PropOp37
 70
     1
102
RTVSPost2010Prop38
140
0.0
102
RTVSPost2010PropOp38
 70
     1
102
RTVSPost2010Prop39
140
1.0
102
RTVSPost2010PropOp39
 70
     1
102
RTVSPost2010Prop40
 90
        0
102
RTVSPost2010PropOp40
 70
     1
102
RTVSPost2010Prop41ColorIndex
 90
       18
102
RTVSPost2010Prop41ColorRGB
 90
        0
102
RTVSPost2010PropOp41
 70
     1
102
RTVSPost2010Prop42
 90
       50
102
RTVSPost2010PropOp42
 70
     1
102
RTVSPost2010Prop43
 90
        3
102
RTVSPost2010PropOp43
 70
     1
102
RTVSPost2010Prop44ColorIndex
 90
        5
102
RTVSPost2010Prop44ColorRGB
 90
      255
102
RTVSPost2010PropOp44
 70
     1
102
RTVSPost2010Prop45
280
     0
102
RTVSPost2010PropOp45
 70
     1
102
RTVSPost2010Prop46
 90
       50
102
RTVSPost2010PropOp46
 70
     1
102
RTVSPost2010Prop47
 90
       50
102
RTVSPost2010PropOp47
 70
     1
102
RTVSPost2010Prop48
 90
       50
102
RTVSPost2010PropOp48
 70
     1
102
RTVSPost2010Prop49
280
     0
102
RTVSPost2010PropOp49
 70
     1
102
RTVSPost2010Prop50
 90
       50
102
RTVSPost2010PropOp50
 70
     1
102
RTVSPost2010Prop51ColorIndex
 90
      256
102
RTVSPost2010Prop51ColorRGB
 90
-16777216
102
RTVSPost2010PropOp51
 70
     0
102
RTVSPost2010Prop52
140
1.0
102
RTVSPost2010PropOp52
 70
     0
102
RTVSPost2010Prop53
 90
        2
102
RTVSPost2010PropOp53
 70
     1
102
RTVSPost2010Prop54
  1
strokes_ogs.tif
102
RTVSPost2010PropOp54
 70
     1
102
RTVSPost2010Prop55
280
     0
102
RTVSPost2010PropOp55
 70
     1
102
RTVSPost2010Prop56
140
1.0
102
RTVSPost2010PropOp56
 70
     1
102
RTVSPost2010Prop57
140
1.0
102
RTVSPost2010PropOp57
 70
     1
102
RTVSPropertyOp0
 70
     1
102
RTVSPropertyOp1
 70
     1
102
RTVSPropertyOp2
 70
     1
102
RTVSPropertyOp3
 70
     1
102
RTVSPropertyOp4
 70
     1
102
RTVSPropertyOp5
 70
     1
102
RTVSPropertyOp6
 70
     1
102
RTVSPropertyOp7
 70
     1
102
RTVSPropertyOp8
 70
     1
102
RTVSPropertyOp9
 70
     1
102
RTVSPropertyOp10
 70
     1
102
RTVSPropertyOp11
 70
     1
102
RTVSPropertyOp12
 70
     1
102
RTVSPropertyOp13
 70
     1
102
RTVSPropertyOp14
 70
     1
102
RTVSPropertyOp15
 70
     1
102
RTVSPropertyOp16
 70
     1
102
RTVSPropertyOp17
 70
     1
102
RTVSPropertyOp18
 70
     1
102
RTVSPropertyOp19
 70
     1
102
RTVSPropertyOp20
 70
     1
102
RTVSPropertyOp21
 70
     1
102
RTVSPropertyOp22
 70
     1
102
RTVSPropertyOp23
 70
     1
102
RTVSPropertyOp24
 70
     1
102
RTVSPropertyOp25
 70
     1
102
RTVSPropertyOp26
 70
     1
102
RTVSPropertyOp27
 70
     1
102
RTVSPropertyOp28
 70
     1
102
RTVSPropertyOp29
 70
     1
102
RTVSPropertyOp30
 70
     1
102
RTVSPropertyOp31
 70
     1
102
RTVSPropertyOp32
 70
     1
102
RTVSPropertyOp33
 70
     1
102
RTVSPropertyOp34
 70
     1
102
RTVSPropertyOp35
 70
     1
102
RTVSPropertyOp36
 70
     1
102
RTVSPropertyOp37
 70
     1
102
RTVSPropertyOp38
 70
     1
102
RTVSPropertyOp39
 70
     1
102
RTVSPropertyOp40
 70
     1
102
RTVSPropertyOp41
 70
     1
102
RTVSPropertyOp42
 70
     1
102
RTVSPropertyOp43
 70
     1
102
RTVSPropertyOp44
 70
     1
102
RTVSPropertyOp45
 70
     1
102
RTVSPropertyOp46
 70
     1
102
RTVSPropertyOp47
 70
     1
102
RTVSPropertyOp48
 70
     1
102
RTVSPropertyOp49
 70
     1
102
RTVSPropertyOp50
 70
     1
102
RTVSPropertyOp51
 70
     0
102
RTVSPropertyOp52
 70
     0
102
RTVSPropertyOp53
 70
     1
102
RTVSPropertyOp54
 70
     1
102
RTVSPropertyOp55
 70
     1
102
RTVSPropertyOp56
 70
     1
102
RTVSPropertyOp57
 70
     1
102
RTVSPropertyOp58
 70
     1
102
RTVSPropertyOp59
 70
     1
102
RTVSPropertyOp60
 70
     1
102
RTVSPropertyOp61
 70
     1
102
RTVSPropertyOp62
 70
     1
  0
XRECORD
  5
3AA
102
{ACAD_REACTORS
330
3A9
102
}
330
3A9
100
AcDbXrecord
280
     1
102
RTVSPost2010Prop28
280
     0
102
RTVSPost2010PropOp28
 70
     1
102
RTVSPost2010Prop29
280
     1
102
RTVSPost2010PropOp29
 70
     1
102
RTVSPost2010Prop30
280
     1
102
RTVSPost2010PropOp30
 70
     1
102
RTVSPost2010Prop31
280
     0
102
RTVSPost2010PropOp31
 70
     1
102
RTVSPost2010Prop32
280
     0
102
RTVSPost2010PropOp32
 70
     1
102
RTVSPost2010Prop33
280
     0
102
RTVSPost2010PropOp33
 70
     1
102
RTVSPost2010Prop34
280
     0
102
RTVSPost2010PropOp34
 70
     1
102
RTVSPost2010Prop35
280
     0
102
RTVSPost2010PropOp35
 70
     1
102
RTVSPost2010Prop36
280
     0
102
RTVSPost2010PropOp36
 70
     1
102
RTVSPost2010Prop37
 90
       50
102
RTVSPost2010PropOp37
 70
     1
102
RTVSPost2010Prop38
140
0.0
102
RTVSPost2010PropOp38
 70
     1
102
RTVSPost2010Prop39
140
1.0
102
RTVSPost2010PropOp39
 70
     1
102
RTVSPost2010Prop40
 90
        0
102
RTVSPost2010PropOp40
 70
     1
102
RTVSPost2010Prop41ColorIndex
 90
       18
102
RTVSPost2010Prop41ColorRGB
 90
        0
102
RTVSPost2010PropOp41
 70
     1
102
RTVSPost2010Prop42
 90
       50
102
RTVSPost2010PropOp42
 70
     1
102
RTVSPost2010Prop43
 90
        3
102
RTVSPost2010PropOp43
 70
     1
102
RTVSPost2010Prop44ColorIndex
 90
        5
102
RTVSPost2010Prop44ColorRGB
 90
      255
102
RTVSPost2010PropOp44
 70
     1
102
RTVSPost2010Prop45
280
     0
102
RTVSPost2010PropOp45
 70
     1
102
RTVSPost2010Prop46
 90
       50
102
RTVSPost2010PropOp46
 70
     1
102
RTVSPost2010Prop47
 90
       50
102
RTVSPost2010PropOp47
 70
     1
102
RTVSPost2010Prop48
 90
       50
102
RTVSPost2010PropOp48
 70
     1
102
RTVSPost2010Prop49
280
     0
102
RTVSPost2010PropOp49
 70
     1
102
RTVSPost2010Prop50
 90
       50
102
RTVSPost2010PropOp50
 70
     1
102
RTVSPost2010Prop51ColorIndex
 90
      256
102
RTVSPost2010Prop51ColorRGB
 90
-16777216
102
RTVSPost2010PropOp51
 70
     0
102
RTVSPost2010Prop52
140
1.0
102
RTVSPost2010PropOp52
 70
     0
102
RTVSPost2010Prop53
 90
        2
102
RTVSPost2010PropOp53
 70
     1
102
RTVSPost2010Prop54
  1
strokes_ogs.tif
102
RTVSPost2010PropOp54
 70
     1
102
RTVSPost2010Prop55
280
     0
102
RTVSPost2010PropOp55
 70
     1
102
RTVSPost2010Prop56
140
1.0
102
RTVSPost2010PropOp56
 70
     1
102
RTVSPost2010Prop57
140
1.0
102
RTVSPost2010PropOp57
 70
     1
102
RTVSPropertyOp0
 70
     1
102
RTVSPropertyOp1
 70
     1
102
RTVSPropertyOp2
 70
     1
102
RTVSPropertyOp3
 70
     1
102
RTVSPropertyOp4
 70
     1
102
RTVSPropertyOp5
 70
     1
102
RTVSPropertyOp6
 70
     1
102
RTVSPropertyOp7
 70
     1
102
RTVSPropertyOp8
 70
     1
102
RTVSPropertyOp9
 70
     1
102
RTVSPropertyOp10
 70
     1
102
RTVSPropertyOp11
 70
     1
102
RTVSPropertyOp12
 70
     1
102
RTVSPropertyOp13
 70
     1
102
RTVSPropertyOp14
 70
     1
102
RTVSPropertyOp15
 70
     1
102
RTVSPropertyOp16
 70
     1
102
RTVSPropertyOp17
 70
     1
102
RTVSPropertyOp18
 70
     1
102
RTVSPropertyOp19
 70
     1
102
RTVSPropertyOp20
 70
     1
102
RTVSPropertyOp21
 70
     1
102
RTVSPropertyOp22
 70
     1
102
RTVSPropertyOp23
 70
     1
102
RTVSPropertyOp24
 70
     1
102
RTVSPropertyOp25
 70
     1
102
RTVSPropertyOp26
 70
     1
102
RTVSPropertyOp27
 70
     1
102
RTVSPropertyOp28
 70
     1
102
RTVSPropertyOp29
 70
     1
102
RTVSPropertyOp30
 70
     1
102
RTVSPropertyOp31
 70
     1
102
RTVSPropertyOp32
 70
     1
102
RTVSPropertyOp33
 70
     1
102
RTVSPropertyOp34
 70
     1
102
RTVSPropertyOp35
 70
     1
102
RTVSPropertyOp36
 70
     1
102
RTVSPropertyOp37
 70
     1
102
RTVSPropertyOp38
 70
     1
102
RTVSPropertyOp39
 70
     1
102
RTVSPropertyOp40
 70
     1
102
RTVSPropertyOp41
 70
     1
102
RTVSPropertyOp42
 70
     1
102
RTVSPropertyOp43
 70
     1
102
RTVSPropertyOp44
 70
     1
102
RTVSPropertyOp45
 70
     1
102
RTVSPropertyOp46
 70
     1
102
RTVSPropertyOp47
 70
     1
102
RTVSPropertyOp48
 70
     1
102
RTVSPropertyOp49
 70
     1
102
RTVSPropertyOp50
 70
     1
102
RTVSPropertyOp51
 70
     0
102
RTVSPropertyOp52
 70
     0
102
RTVSPropertyOp53
 70
     1
102
RTVSPropertyOp54
 70
     1
102
RTVSPropertyOp55
 70
     1
102
RTVSPropertyOp56
 70
     1
102
RTVSPropertyOp57
 70
     1
102
RTVSPropertyOp58
 70
     1
102
RTVSPropertyOp59
 70
     1
102
RTVSPropertyOp60
 70
     1
102
RTVSPropertyOp61
 70
     1
102
RTVSPropertyOp62
 70
     1
  0
XRECORD
  5
39E
102
{ACAD_REACTORS
330
39D
102
}
330
39D
100
AcDbXrecord
280
     1
102
RTVSPost2010Prop28
280
     0
102
RTVSPost2010PropOp28
 70
     1
102
RTVSPost2010Prop29
280
     1
102
RTVSPost2010PropOp29
 70
     1
102
RTVSPost2010Prop30
280
     1
102
RTVSPost2010PropOp30
 70
     1
102
RTVSPost2010Prop31
280
     0
102
RTVSPost2010PropOp31
 70
     1
102
RTVSPost2010Prop32
280
     0
102
RTVSPost2010PropOp32
 70
     1
102
RTVSPost2010Prop33
280
     0
102
RTVSPost2010PropOp33
 70
     1
102
RTVSPost2010Prop34
280
     0
102
RTVSPost2010PropOp34
 70
     1
102
RTVSPost2010Prop35
280
     0
102
RTVSPost2010PropOp35
 70
     1
102
RTVSPost2010Prop36
280
     0
102
RTVSPost2010PropOp36
 70
     1
102
RTVSPost2010Prop37
 90
       50
102
RTVSPost2010PropOp37
 70
     1
102
RTVSPost2010Prop38
140
0.0
102
RTVSPost2010PropOp38
 70
     1
102
RTVSPost2010Prop39
140
1.0
102
RTVSPost2010PropOp39
 70
     1
102
RTVSPost2010Prop40
 90
        0
102
RTVSPost2010PropOp40
 70
     1
102
RTVSPost2010Prop41ColorIndex
 90
       18
102
RTVSPost2010Prop41ColorRGB
 90
        0
102
RTVSPost2010PropOp41
 70
     1
102
RTVSPost2010Prop42
 90
       50
102
RTVSPost2010PropOp42
 70
     1
102
RTVSPost2010Prop43
 90
        3
102
RTVSPost2010PropOp43
 70
     1
102
RTVSPost2010Prop44ColorIndex
 90
        5
102
RTVSPost2010Prop44ColorRGB
 90
      255
102
RTVSPost2010PropOp44
 70
     1
102
RTVSPost2010Prop45
280
     0
102
RTVSPost2010PropOp45
 70
     1
102
RTVSPost2010Prop46
 90
       50
102
RTVSPost2010PropOp46
 70
     1
102
RTVSPost2010Prop47
 90
       50
102
RTVSPost2010PropOp47
 70
     1
102
RTVSPost2010Prop48
 90
       50
102
RTVSPost2010PropOp48
 70
     1
102
RTVSPost2010Prop49
280
     0
102
RTVSPost2010PropOp49
 70
     1
102
RTVSPost2010Prop50
 90
       50
102
RTVSPost2010PropOp50
 70
     1
102
RTVSPost2010Prop51ColorIndex
 90
      256
102
RTVSPost2010Prop51ColorRGB
 90
-16777216
102
RTVSPost2010PropOp51
 70
     0
102
RTVSPost2010Prop52
140
1.0
102
RTVSPost2010PropOp52
 70
     0
102
RTVSPost2010Prop53
 90
        2
102
RTVSPost2010PropOp53
 70
     1
102
RTVSPost2010Prop54
  1
strokes_ogs.tif
102
RTVSPost2010PropOp54
 70
     1
102
RTVSPost2010Prop55
280
     0
102
RTVSPost2010PropOp55
 70
     1
102
RTVSPost2010Prop56
140
1.0
102
RTVSPost2010PropOp56
 70
     1
102
RTVSPost2010Prop57
140
1.0
102
RTVSPost2010PropOp57
 70
     1
102
RTVSPropertyOp0
 70
     1
102
RTVSPropertyOp1
 70
     1
102
RTVSPropertyOp2
 70
     1
102
RTVSPropertyOp3
 70
     1
102
RTVSPropertyOp4
 70
     1
102
RTVSPropertyOp5
 70
     1
102
RTVSPropertyOp6
 70
     1
102
RTVSPropertyOp7
 70
     1
102
RTVSPropertyOp8
 70
     1
102
RTVSPropertyOp9
 70
     1
102
RTVSPropertyOp10
 70
     1
102
RTVSPropertyOp11
 70
     1
102
RTVSPropertyOp12
 70
     1
102
RTVSPropertyOp13
 70
     1
102
RTVSPropertyOp14
 70
     1
102
RTVSPropertyOp15
 70
     1
102
RTVSPropertyOp16
 70
     1
102
RTVSPropertyOp17
 70
     1
102
RTVSPropertyOp18
 70
     1
102
RTVSPropertyOp19
 70
     1
102
RTVSPropertyOp20
 70
     1
102
RTVSPropertyOp21
 70
     1
102
RTVSPropertyOp22
 70
     1
102
RTVSPropertyOp23
 70
     1
102
RTVSPropertyOp24
 70
     1
102
RTVSPropertyOp25
 70
     1
102
RTVSPropertyOp26
 70
     1
102
RTVSPropertyOp27
 70
     1
102
RTVSPropertyOp28
 70
     1
102
RTVSPropertyOp29
 70
     1
102
RTVSPropertyOp30
 70
     1
102
RTVSPropertyOp31
 70
     1
102
RTVSPropertyOp32
 70
     1
102
RTVSPropertyOp33
 70
     1
102
RTVSPropertyOp34
 70
     1
102
RTVSPropertyOp35
 70
     1
102
RTVSPropertyOp36
 70
     1
102
RTVSPropertyOp37
 70
     1
102
RTVSPropertyOp38
 70
     1
102
RTVSPropertyOp39
 70
     1
102
RTVSPropertyOp40
 70
     1
102
RTVSPropertyOp41
 70
     1
102
RTVSPropertyOp42
 70
     1
102
RTVSPropertyOp43
 70
     1
102
RTVSPropertyOp44
 70
     1
102
RTVSPropertyOp45
 70
     1
102
RTVSPropertyOp46
 70
     1
102
RTVSPropertyOp47
 70
     1
102
RTVSPropertyOp48
 70
     1
102
RTVSPropertyOp49
 70
     1
102
RTVSPropertyOp50
 70
     1
102
RTVSPropertyOp51
 70
     0
102
RTVSPropertyOp52
 70
     0
102
RTVSPropertyOp53
 70
     1
102
RTVSPropertyOp54
 70
     1
102
RTVSPropertyOp55
 70
     1
102
RTVSPropertyOp56
 70
     1
102
RTVSPropertyOp57
 70
     1
102
RTVSPropertyOp58
 70
     1
102
RTVSPropertyOp59
 70
     1
102
RTVSPropertyOp60
 70
     1
102
RTVSPropertyOp61
 70
     1
102
RTVSPropertyOp62
 70
     1
  0
XRECORD
  5
3A0
102
{ACAD_REACTORS
330
39F
102
}
330
39F
100
AcDbXrecord
280
     1
102
RTVSPost2010Prop28
280
     0
102
RTVSPost2010PropOp28
 70
     1
102
RTVSPost2010Prop29
280
     1
102
RTVSPost2010PropOp29
 70
     1
102
RTVSPost2010Prop30
280
     1
102
RTVSPost2010PropOp30
 70
     1
102
RTVSPost2010Prop31
280
     0
102
RTVSPost2010PropOp31
 70
     1
102
RTVSPost2010Prop32
280
     0
102
RTVSPost2010PropOp32
 70
     1
102
RTVSPost2010Prop33
280
     0
102
RTVSPost2010PropOp33
 70
     1
102
RTVSPost2010Prop34
280
     0
102
RTVSPost2010PropOp34
 70
     1
102
RTVSPost2010Prop35
280
     0
102
RTVSPost2010PropOp35
 70
     1
102
RTVSPost2010Prop36
280
     0
102
RTVSPost2010PropOp36
 70
     1
102
RTVSPost2010Prop37
 90
       50
102
RTVSPost2010PropOp37
 70
     1
102
RTVSPost2010Prop38
140
0.0
102
RTVSPost2010PropOp38
 70
     1
102
RTVSPost2010Prop39
140
1.0
102
RTVSPost2010PropOp39
 70
     1
102
RTVSPost2010Prop40
 90
        0
102
RTVSPost2010PropOp40
 70
     1
102
RTVSPost2010Prop41ColorIndex
 90
       18
102
RTVSPost2010Prop41ColorRGB
 90
        0
102
RTVSPost2010PropOp41
 70
     1
102
RTVSPost2010Prop42
 90
       50
102
RTVSPost2010PropOp42
 70
     1
102
RTVSPost2010Prop43
 90
        3
102
RTVSPost2010PropOp43
 70
     1
102
RTVSPost2010Prop44ColorIndex
 90
        5
102
RTVSPost2010Prop44ColorRGB
 90
      255
102
RTVSPost2010PropOp44
 70
     1
102
RTVSPost2010Prop45
280
     0
102
RTVSPost2010PropOp45
 70
     1
102
RTVSPost2010Prop46
 90
       50
102
RTVSPost2010PropOp46
 70
     1
102
RTVSPost2010Prop47
 90
       50
102
RTVSPost2010PropOp47
 70
     1
102
RTVSPost2010Prop48
 90
       50
102
RTVSPost2010PropOp48
 70
     1
102
RTVSPost2010Prop49
280
     0
102
RTVSPost2010PropOp49
 70
     1
102
RTVSPost2010Prop50
 90
       50
102
RTVSPost2010PropOp50
 70
     1
102
RTVSPost2010Prop51ColorIndex
 90
      256
102
RTVSPost2010Prop51ColorRGB
 90
-16777216
102
RTVSPost2010PropOp51
 70
     0
102
RTVSPost2010Prop52
140
1.0
102
RTVSPost2010PropOp52
 70
     0
102
RTVSPost2010Prop53
 90
        2
102
RTVSPost2010PropOp53
 70
     1
102
RTVSPost2010Prop54
  1
strokes_ogs.tif
102
RTVSPost2010PropOp54
 70
     1
102
RTVSPost2010Prop55
280
     0
102
RTVSPost2010PropOp55
 70
     1
102
RTVSPost2010Prop56
140
1.0
102
RTVSPost2010PropOp56
 70
     1
102
RTVSPost2010Prop57
140
1.0
102
RTVSPost2010PropOp57
 70
     1
102
RTVSPropertyOp0
 70
     1
102
RTVSPropertyOp1
 70
     1
102
RTVSPropertyOp2
 70
     1
102
RTVSPropertyOp3
 70
     1
102
RTVSPropertyOp4
 70
     1
102
RTVSPropertyOp5
 70
     1
102
RTVSPropertyOp6
 70
     1
102
RTVSPropertyOp7
 70
     1
102
RTVSPropertyOp8
 70
     1
102
RTVSPropertyOp9
 70
     1
102
RTVSPropertyOp10
 70
     1
102
RTVSPropertyOp11
 70
     1
102
RTVSPropertyOp12
 70
     1
102
RTVSPropertyOp13
 70
     1
102
RTVSPropertyOp14
 70
     1
102
RTVSPropertyOp15
 70
     1
102
RTVSPropertyOp16
 70
     1
102
RTVSPropertyOp17
 70
     1
102
RTVSPropertyOp18
 70
     1
102
RTVSPropertyOp19
 70
     1
102
RTVSPropertyOp20
 70
     1
102
RTVSPropertyOp21
 70
     1
102
RTVSPropertyOp22
 70
     1
102
RTVSPropertyOp23
 70
     1
102
RTVSPropertyOp24
 70
     1
102
RTVSPropertyOp25
 70
     1
102
RTVSPropertyOp26
 70
     1
102
RTVSPropertyOp27
 70
     1
102
RTVSPropertyOp28
 70
     1
102
RTVSPropertyOp29
 70
     1
102
RTVSPropertyOp30
 70
     1
102
RTVSPropertyOp31
 70
     1
102
RTVSPropertyOp32
 70
     1
102
RTVSPropertyOp33
 70
     1
102
RTVSPropertyOp34
 70
     1
102
RTVSPropertyOp35
 70
     1
102
RTVSPropertyOp36
 70
     1
102
RTVSPropertyOp37
 70
     1
102
RTVSPropertyOp38
 70
     1
102
RTVSPropertyOp39
 70
     1
102
RTVSPropertyOp40
 70
     1
102
RTVSPropertyOp41
 70
     1
102
RTVSPropertyOp42
 70
     1
102
RTVSPropertyOp43
 70
     1
102
RTVSPropertyOp44
 70
     1
102
RTVSPropertyOp45
 70
     1
102
RTVSPropertyOp46
 70
     1
102
RTVSPropertyOp47
 70
     1
102
RTVSPropertyOp48
 70
     1
102
RTVSPropertyOp49
 70
     1
102
RTVSPropertyOp50
 70
     1
102
RTVSPropertyOp51
 70
     0
102
RTVSPropertyOp52
 70
     0
102
RTVSPropertyOp53
 70
     1
102
RTVSPropertyOp54
 70
     1
102
RTVSPropertyOp55
 70
     1
102
RTVSPropertyOp56
 70
     1
102
RTVSPropertyOp57
 70
     1
102
RTVSPropertyOp58
 70
     1
102
RTVSPropertyOp59
 70
     1
102
RTVSPropertyOp60
 70
     1
102
RTVSPropertyOp61
 70
     1
102
RTVSPropertyOp62
 70
     1
  0
XRECORD
  5
3B0
102
{ACAD_REACTORS
330
3AF
102
}
330
3AF
100
AcDbXrecord
280
     1
102
RTVSPost2010Prop28
280
     0
102
RTVSPost2010PropOp28
 70
     0
102
RTVSPost2010Prop29
280
     1
102
RTVSPost2010PropOp29
 70
     0
102
RTVSPost2010Prop30
280
     1
102
RTVSPost2010PropOp30
 70
     0
102
RTVSPost2010Prop31
280
     0
102
RTVSPost2010PropOp31
 70
     0
102
RTVSPost2010Prop32
280
     0
102
RTVSPost2010PropOp32
 70
     0
102
RTVSPost2010Prop33
280
     0
102
RTVSPost2010PropOp33
 70
     0
102
RTVSPost2010Prop34
280
     0
102
RTVSPost2010PropOp34
 70
     0
102
RTVSPost2010Prop35
280
     0
102
RTVSPost2010PropOp35
 70
     0
102
RTVSPost2010Prop36
280
     0
102
RTVSPost2010PropOp36
 70
     0
102
RTVSPost2010Prop37
 90
       50
102
RTVSPost2010PropOp37
 70
     0
102
RTVSPost2010Prop38
140
0.0
102
RTVSPost2010PropOp38
 70
     0
102
RTVSPost2010Prop39
140
1.0
102
RTVSPost2010PropOp39
 70
     0
102
RTVSPost2010Prop40
 90
        0
102
RTVSPost2010PropOp40
 70
     0
102
RTVSPost2010Prop41ColorIndex
 90
       18
102
RTVSPost2010Prop41ColorRGB
 90
        0
102
RTVSPost2010PropOp41
 70
     0
102
RTVSPost2010Prop42
 90
       50
102
RTVSPost2010PropOp42
 70
     0
102
RTVSPost2010Prop43
 90
        3
102
RTVSPost2010PropOp43
 70
     0
102
RTVSPost2010Prop44ColorIndex
 90
        5
102
RTVSPost2010Prop44ColorRGB
 90
      255
102
RTVSPost2010PropOp44
 70
     0
102
RTVSPost2010Prop45
280
     0
102
RTVSPost2010PropOp45
 70
     0
102
RTVSPost2010Prop46
 90
       50
102
RTVSPost2010PropOp46
 70
     0
102
RTVSPost2010Prop47
 90
       50
102
RTVSPost2010PropOp47
 70
     0
102
RTVSPost2010Prop48
 90
       50
102
RTVSPost2010PropOp48
 70
     0
102
RTVSPost2010Prop49
280
     0
102
RTVSPost2010PropOp49
 70
     0
102
RTVSPost2010Prop50
 90
       50
102
RTVSPost2010PropOp50
 70
     0
102
RTVSPost2010Prop51ColorIndex
 90
      256
102
RTVSPost2010Prop51ColorRGB
 90
-16777216
102
RTVSPost2010PropOp51
 70
     0
102
RTVSPost2010Prop52
140
1.0
102
RTVSPost2010PropOp52
 70
     0
102
RTVSPost2010Prop53
 90
        2
102
RTVSPost2010PropOp53
 70
     0
102
RTVSPost2010Prop54
  1
strokes_ogs.tif
102
RTVSPost2010PropOp54
 70
     0
102
RTVSPost2010Prop55
280
     0
102
RTVSPost2010PropOp55
 70
     0
102
RTVSPost2010Prop56
140
1.0
102
RTVSPost2010PropOp56
 70
     0
102
RTVSPost2010Prop57
140
1.0
102
RTVSPost2010PropOp57
 70
     0
102
RTVSPropertyOp0
 70
     0
102
RTVSPropertyOp1
 70
     0
102
RTVSPropertyOp2
 70
     0
102
RTVSPropertyOp3
 70
     0
102
RTVSPropertyOp4
 70
     0
102
RTVSPropertyOp5
 70
     0
102
RTVSPropertyOp6
 70
     0
102
RTVSPropertyOp7
 70
     0
102
RTVSPropertyOp8
 70
     0
102
RTVSPropertyOp9
 70
     0
102
RTVSPropertyOp10
 70
     0
102
RTVSPropertyOp11
 70
     0
102
RTVSPropertyOp12
 70
     0
102
RTVSPropertyOp13
 70
     0
102
RTVSPropertyOp14
 70
     2
102
RTVSPropertyOp15
 70
     0
102
RTVSPropertyOp16
 70
     0
102
RTVSPropertyOp17
 70
     0
102
RTVSPropertyOp18
 70
     0
102
RTVSPropertyOp19
 70
     0
102
RTVSPropertyOp20
 70
     0
102
RTVSPropertyOp21
 70
     0
102
RTVSPropertyOp22
 70
     0
102
RTVSPropertyOp23
 70
     0
102
RTVSPropertyOp24
 70
     0
102
RTVSPropertyOp25
 70
     0
102
RTVSPropertyOp26
 70
     0
102
RTVSPropertyOp27
 70
     0
102
RTVSPropertyOp28
 70
     0
102
RTVSPropertyOp29
 70
     0
102
RTVSPropertyOp30
 70
     0
102
RTVSPropertyOp31
 70
     0
102
RTVSPropertyOp32
 70
     0
102
RTVSPropertyOp33
 70
     0
102
RTVSPropertyOp34
 70
     0
102
RTVSPropertyOp35
 70
     0
102
RTVSPropertyOp36
 70
     0
102
RTVSPropertyOp37
 70
     0
102
RTVSPropertyOp38
 70
     0
102
RTVSPropertyOp39
 70
     0
102
RTVSPropertyOp40
 70
     0
102
RTVSPropertyOp41
 70
     0
102
RTVSPropertyOp42
 70
     0
102
RTVSPropertyOp43
 70
     0
102
RTVSPropertyOp44
 70
     0
102
RTVSPropertyOp45
 70
     0
102
RTVSPropertyOp46
 70
     0
102
RTVSPropertyOp47
 70
     0
102
RTVSPropertyOp48
 70
     0
102
RTVSPropertyOp49
 70
     0
102
RTVSPropertyOp50
 70
     0
102
RTVSPropertyOp51
 70
     0
102
RTVSPropertyOp52
 70
     0
102
RTVSPropertyOp53
 70
     0
102
RTVSPropertyOp54
 70
     0
102
RTVSPropertyOp55
 70
     0
102
RTVSPropertyOp56
 70
     0
102
RTVSPropertyOp57
 70
     0
102
RTVSPropertyOp58
 70
     1
102
RTVSPropertyOp59
 70
     1
102
RTVSPropertyOp60
 70
     1
102
RTVSPropertyOp61
 70
     1
102
RTVSPropertyOp62
 70
     1
  0
XRECORD
  5
3A8
102
{ACAD_REACTORS
330
3A7
102
}
330
3A7
100
AcDbXrecord
280
     1
102
RTVSPost2010Prop28
280
     0
102
RTVSPost2010PropOp28
 70
     1
102
RTVSPost2010Prop29
280
     1
102
RTVSPost2010PropOp29
 70
     1
102
RTVSPost2010Prop30
280
     1
102
RTVSPost2010PropOp30
 70
     1
102
RTVSPost2010Prop31
280
     0
102
RTVSPost2010PropOp31
 70
     1
102
RTVSPost2010Prop32
280
     0
102
RTVSPost2010PropOp32
 70
     1
102
RTVSPost2010Prop33
280
     0
102
RTVSPost2010PropOp33
 70
     1
102
RTVSPost2010Prop34
280
     0
102
RTVSPost2010PropOp34
 70
     1
102
RTVSPost2010Prop35
280
     0
102
RTVSPost2010PropOp35
 70
     1
102
RTVSPost2010Prop36
280
     0
102
RTVSPost2010PropOp36
 70
     1
102
RTVSPost2010Prop37
 90
       50
102
RTVSPost2010PropOp37
 70
     1
102
RTVSPost2010Prop38
140
0.0
102
RTVSPost2010PropOp38
 70
     1
102
RTVSPost2010Prop39
140
1.0
102
RTVSPost2010PropOp39
 70
     1
102
RTVSPost2010Prop40
 90
        0
102
RTVSPost2010PropOp40
 70
     1
102
RTVSPost2010Prop41ColorIndex
 90
       18
102
RTVSPost2010Prop41ColorRGB
 90
        0
102
RTVSPost2010PropOp41
 70
     1
102
RTVSPost2010Prop42
 90
       50
102
RTVSPost2010PropOp42
 70
     1
102
RTVSPost2010Prop43
 90
        3
102
RTVSPost2010PropOp43
 70
     1
102
RTVSPost2010Prop44ColorIndex
 90
        5
102
RTVSPost2010Prop44ColorRGB
 90
      255
102
RTVSPost2010PropOp44
 70
     1
102
RTVSPost2010Prop45
280
     0
102
RTVSPost2010PropOp45
 70
     1
102
RTVSPost2010Prop46
 90
       50
102
RTVSPost2010PropOp46
 70
     1
102
RTVSPost2010Prop47
 90
       50
102
RTVSPost2010PropOp47
 70
     1
102
RTVSPost2010Prop48
 90
       50
102
RTVSPost2010PropOp48
 70
     1
102
RTVSPost2010Prop49
280
     0
102
RTVSPost2010PropOp49
 70
     1
102
RTVSPost2010Prop50
 90
       50
102
RTVSPost2010PropOp50
 70
     1
102
RTVSPost2010Prop51ColorIndex
 90
      256
102
RTVSPost2010Prop51ColorRGB
 90
-16777216
102
RTVSPost2010PropOp51
 70
     0
102
RTVSPost2010Prop52
140
1.0
102
RTVSPost2010PropOp52
 70
     0
102
RTVSPost2010Prop53
 90
        2
102
RTVSPost2010PropOp53
 70
     1
102
RTVSPost2010Prop54
  1
strokes_ogs.tif
102
RTVSPost2010PropOp54
 70
     1
102
RTVSPost2010Prop55
280
     0
102
RTVSPost2010PropOp55
 70
     1
102
RTVSPost2010Prop56
140
1.0
102
RTVSPost2010PropOp56
 70
     1
102
RTVSPost2010Prop57
140
1.0
102
RTVSPost2010PropOp57
 70
     1
102
RTVSPropertyOp0
 70
     1
102
RTVSPropertyOp1
 70
     1
102
RTVSPropertyOp2
 70
     1
102
RTVSPropertyOp3
 70
     1
102
RTVSPropertyOp4
 70
     1
102
RTVSPropertyOp5
 70
     1
102
RTVSPropertyOp6
 70
     1
102
RTVSPropertyOp7
 70
     1
102
RTVSPropertyOp8
 70
     1
102
RTVSPropertyOp9
 70
     1
102
RTVSPropertyOp10
 70
     1
102
RTVSPropertyOp11
 70
     1
102
RTVSPropertyOp12
 70
     1
102
RTVSPropertyOp13
 70
     1
102
RTVSPropertyOp14
 70
     1
102
RTVSPropertyOp15
 70
     1
102
RTVSPropertyOp16
 70
     1
102
RTVSPropertyOp17
 70
     1
102
RTVSPropertyOp18
 70
     1
102
RTVSPropertyOp19
 70
     1
102
RTVSPropertyOp20
 70
     1
102
RTVSPropertyOp21
 70
     1
102
RTVSPropertyOp22
 70
     1
102
RTVSPropertyOp23
 70
     1
102
RTVSPropertyOp24
 70
     1
102
RTVSPropertyOp25
 70
     1
102
RTVSPropertyOp26
 70
     1
102
RTVSPropertyOp27
 70
     1
102
RTVSPropertyOp28
 70
     1
102
RTVSPropertyOp29
 70
     1
102
RTVSPropertyOp30
 70
     1
102
RTVSPropertyOp31
 70
     1
102
RTVSPropertyOp32
 70
     1
102
RTVSPropertyOp33
 70
     1
102
RTVSPropertyOp34
 70
     1
102
RTVSPropertyOp35
 70
     1
102
RTVSPropertyOp36
 70
     1
102
RTVSPropertyOp37
 70
     1
102
RTVSPropertyOp38
 70
     1
102
RTVSPropertyOp39
 70
     1
102
RTVSPropertyOp40
 70
     1
102
RTVSPropertyOp41
 70
     1
102
RTVSPropertyOp42
 70
     1
102
RTVSPropertyOp43
 70
     1
102
RTVSPropertyOp44
 70
     1
102
RTVSPropertyOp45
 70
     1
102
RTVSPropertyOp46
 70
     1
102
RTVSPropertyOp47
 70
     1
102
RTVSPropertyOp48
 70
     1
102
RTVSPropertyOp49
 70
     1
102
RTVSPropertyOp50
 70
     1
102
RTVSPropertyOp51
 70
     0
102
RTVSPropertyOp52
 70
     0
102
RTVSPropertyOp53
 70
     1
102
RTVSPropertyOp54
 70
     1
102
RTVSPropertyOp55
 70
     1
102
RTVSPropertyOp56
 70
     1
102
RTVSPropertyOp57
 70
     1
102
RTVSPropertyOp58
 70
     1
102
RTVSPropertyOp59
 70
     1
102
RTVSPropertyOp60
 70
     1
102
RTVSPropertyOp61
 70
     1
102
RTVSPropertyOp62
 70
     1
  0
XRECORD
  5
38C
102
{ACAD_REACTORS
330
38B
102
}
330
38B
100
AcDbXrecord
280
     1
102
RTVSPost2010Prop28
280
     0
102
RTVSPost2010PropOp28
 70
     1
102
RTVSPost2010Prop29
280
     1
102
RTVSPost2010PropOp29
 70
     1
102
RTVSPost2010Prop30
280
     1
102
RTVSPost2010PropOp30
 70
     1
102
RTVSPost2010Prop31
280
     0
102
RTVSPost2010PropOp31
 70
     1
102
RTVSPost2010Prop32
280
     0
102
RTVSPost2010PropOp32
 70
     1
102
RTVSPost2010Prop33
280
     0
102
RTVSPost2010PropOp33
 70
     1
102
RTVSPost2010Prop34
280
     0
102
RTVSPost2010PropOp34
 70
     1
102
RTVSPost2010Prop35
280
     0
102
RTVSPost2010PropOp35
 70
     1
102
RTVSPost2010Prop36
280
     0
102
RTVSPost2010PropOp36
 70
     1
102
RTVSPost2010Prop37
 90
       50
102
RTVSPost2010PropOp37
 70
     1
102
RTVSPost2010Prop38
140
0.0
102
RTVSPost2010PropOp38
 70
     1
102
RTVSPost2010Prop39
140
1.0
102
RTVSPost2010PropOp39
 70
     1
102
RTVSPost2010Prop40
 90
        0
102
RTVSPost2010PropOp40
 70
     1
102
RTVSPost2010Prop41ColorIndex
 90
       18
102
RTVSPost2010Prop41ColorRGB
 90
        0
102
RTVSPost2010PropOp41
 70
     1
102
RTVSPost2010Prop42
 90
       50
102
RTVSPost2010PropOp42
 70
     1
102
RTVSPost2010Prop43
 90
        3
102
RTVSPost2010PropOp43
 70
     1
102
RTVSPost2010Prop44ColorIndex
 90
        5
102
RTVSPost2010Prop44ColorRGB
 90
      255
102
RTVSPost2010PropOp44
 70
     1
102
RTVSPost2010Prop45
280
     0
102
RTVSPost2010PropOp45
 70
     1
102
RTVSPost2010Prop46
 90
       50
102
RTVSPost2010PropOp46
 70
     1
102
RTVSPost2010Prop47
 90
       50
102
RTVSPost2010PropOp47
 70
     1
102
RTVSPost2010Prop48
 90
       50
102
RTVSPost2010PropOp48
 70
     1
102
RTVSPost2010Prop49
280
     0
102
RTVSPost2010PropOp49
 70
     1
102
RTVSPost2010Prop50
 90
       50
102
RTVSPost2010PropOp50
 70
     1
102
RTVSPost2010Prop51ColorIndex
 90
      256
102
RTVSPost2010Prop51ColorRGB
 90
-16777216
102
RTVSPost2010PropOp51
 70
     0
102
RTVSPost2010Prop52
140
1.0
102
RTVSPost2010PropOp52
 70
     0
102
RTVSPost2010Prop53
 90
        2
102
RTVSPost2010PropOp53
 70
     1
102
RTVSPost2010Prop54
  1
strokes_ogs.tif
102
RTVSPost2010PropOp54
 70
     1
102
RTVSPost2010Prop55
280
     0
102
RTVSPost2010PropOp55
 70
     1
102
RTVSPost2010Prop56
140
1.0
102
RTVSPost2010PropOp56
 70
     1
102
RTVSPost2010Prop57
140
1.0
102
RTVSPost2010PropOp57
 70
     1
102
RTVSPropertyOp0
 70
     1
102
RTVSPropertyOp1
 70
     1
102
RTVSPropertyOp2
 70
     1
102
RTVSPropertyOp3
 70
     1
102
RTVSPropertyOp4
 70
     1
102
RTVSPropertyOp5
 70
     1
102
RTVSPropertyOp6
 70
     1
102
RTVSPropertyOp7
 70
     1
102
RTVSPropertyOp8
 70
     1
102
RTVSPropertyOp9
 70
     1
102
RTVSPropertyOp10
 70
     1
102
RTVSPropertyOp11
 70
     1
102
RTVSPropertyOp12
 70
     1
102
RTVSPropertyOp13
 70
     1
102
RTVSPropertyOp14
 70
     1
102
RTVSPropertyOp15
 70
     1
102
RTVSPropertyOp16
 70
     1
102
RTVSPropertyOp17
 70
     1
102
RTVSPropertyOp18
 70
     1
102
RTVSPropertyOp19
 70
     1
102
RTVSPropertyOp20
 70
     1
102
RTVSPropertyOp21
 70
     1
102
RTVSPropertyOp22
 70
     1
102
RTVSPropertyOp23
 70
     1
102
RTVSPropertyOp24
 70
     1
102
RTVSPropertyOp25
 70
     1
102
RTVSPropertyOp26
 70
     1
102
RTVSPropertyOp27
 70
     1
102
RTVSPropertyOp28
 70
     1
102
RTVSPropertyOp29
 70
     1
102
RTVSPropertyOp30
 70
     1
102
RTVSPropertyOp31
 70
     1
102
RTVSPropertyOp32
 70
     1
102
RTVSPropertyOp33
 70
     1
102
RTVSPropertyOp34
 70
     1
102
RTVSPropertyOp35
 70
     1
102
RTVSPropertyOp36
 70
     1
102
RTVSPropertyOp37
 70
     1
102
RTVSPropertyOp38
 70
     1
102
RTVSPropertyOp39
 70
     1
102
RTVSPropertyOp40
 70
     1
102
RTVSPropertyOp41
 70
     1
102
RTVSPropertyOp42
 70
     1
102
RTVSPropertyOp43
 70
     1
102
RTVSPropertyOp44
 70
     1
102
RTVSPropertyOp45
 70
     1
102
RTVSPropertyOp46
 70
     1
102
RTVSPropertyOp47
 70
     1
102
RTVSPropertyOp48
 70
     1
102
RTVSPropertyOp49
 70
     1
102
RTVSPropertyOp50
 70
     1
102
RTVSPropertyOp51
 70
     0
102
RTVSPropertyOp52
 70
     0
102
RTVSPropertyOp53
 70
     1
102
RTVSPropertyOp54
 70
     1
102
RTVSPropertyOp55
 70
     1
102
RTVSPropertyOp56
 70
     1
102
RTVSPropertyOp57
 70
     1
102
RTVSPropertyOp58
 70
     1
102
RTVSPropertyOp59
 70
     1
102
RTVSPropertyOp60
 70
     1
102
RTVSPropertyOp61
 70
     1
102
RTVSPropertyOp62
 70
     1
  0
XRECORD
  5
38E
102
{ACAD_REACTORS
330
38D
102
}
330
38D
100
AcDbXrecord
280
     1
102
RTVSPost2010Prop28
280
     0
102
RTVSPost2010PropOp28
 70
     1
102
RTVSPost2010Prop29
280
     1
102
RTVSPost2010PropOp29
 70
     1
102
RTVSPost2010Prop30
280
     1
102
RTVSPost2010PropOp30
 70
     1
102
RTVSPost2010Prop31
280
     0
102
RTVSPost2010PropOp31
 70
     1
102
RTVSPost2010Prop32
280
     0
102
RTVSPost2010PropOp32
 70
     1
102
RTVSPost2010Prop33
280
     0
102
RTVSPost2010PropOp33
 70
     1
102
RTVSPost2010Prop34
280
     0
102
RTVSPost2010PropOp34
 70
     1
102
RTVSPost2010Prop35
280
     0
102
RTVSPost2010PropOp35
 70
     1
102
RTVSPost2010Prop36
280
     0
102
RTVSPost2010PropOp36
 70
     1
102
RTVSPost2010Prop37
 90
       50
102
RTVSPost2010PropOp37
 70
     1
102
RTVSPost2010Prop38
140
0.0
102
RTVSPost2010PropOp38
 70
     1
102
RTVSPost2010Prop39
140
1.0
102
RTVSPost2010PropOp39
 70
     1
102
RTVSPost2010Prop40
 90
        0
102
RTVSPost2010PropOp40
 70
     1
102
RTVSPost2010Prop41ColorIndex
 90
       18
102
RTVSPost2010Prop41ColorRGB
 90
        0
102
RTVSPost2010PropOp41
 70
     1
102
RTVSPost2010Prop42
 90
       50
102
RTVSPost2010PropOp42
 70
     1
102
RTVSPost2010Prop43
 90
        3
102
RTVSPost2010PropOp43
 70
     1
102
RTVSPost2010Prop44ColorIndex
 90
        5
102
RTVSPost2010Prop44ColorRGB
 90
      255
102
RTVSPost2010PropOp44
 70
     1
102
RTVSPost2010Prop45
280
     0
102
RTVSPost2010PropOp45
 70
     1
102
RTVSPost2010Prop46
 90
       50
102
RTVSPost2010PropOp46
 70
     1
102
RTVSPost2010Prop47
 90
       50
102
RTVSPost2010PropOp47
 70
     1
102
RTVSPost2010Prop48
 90
       50
102
RTVSPost2010PropOp48
 70
     1
102
RTVSPost2010Prop49
280
     0
102
RTVSPost2010PropOp49
 70
     1
102
RTVSPost2010Prop50
 90
       50
102
RTVSPost2010PropOp50
 70
     1
102
RTVSPost2010Prop51ColorIndex
 90
      256
102
RTVSPost2010Prop51ColorRGB
 90
-16777216
102
RTVSPost2010PropOp51
 70
     0
102
RTVSPost2010Prop52
140
1.0
102
RTVSPost2010PropOp52
 70
     0
102
RTVSPost2010Prop53
 90
        2
102
RTVSPost2010PropOp53
 70
     1
102
RTVSPost2010Prop54
  1
strokes_ogs.tif
102
RTVSPost2010PropOp54
 70
     1
102
RTVSPost2010Prop55
280
     0
102
RTVSPost2010PropOp55
 70
     1
102
RTVSPost2010Prop56
140
1.0
102
RTVSPost2010PropOp56
 70
     1
102
RTVSPost2010Prop57
140
1.0
102
RTVSPost2010PropOp57
 70
     1
102
RTVSPropertyOp0
 70
     1
102
RTVSPropertyOp1
 70
     1
102
RTVSPropertyOp2
 70
     1
102
RTVSPropertyOp3
 70
     1
102
RTVSPropertyOp4
 70
     1
102
RTVSPropertyOp5
 70
     1
102
RTVSPropertyOp6
 70
     1
102
RTVSPropertyOp7
 70
     1
102
RTVSPropertyOp8
 70
     1
102
RTVSPropertyOp9
 70
     1
102
RTVSPropertyOp10
 70
     1
102
RTVSPropertyOp11
 70
     1
102
RTVSPropertyOp12
 70
     1
102
RTVSPropertyOp13
 70
     1
102
RTVSPropertyOp14
 70
     1
102
RTVSPropertyOp15
 70
     1
102
RTVSPropertyOp16
 70
     1
102
RTVSPropertyOp17
 70
     1
102
RTVSPropertyOp18
 70
     1
102
RTVSPropertyOp19
 70
     1
102
RTVSPropertyOp20
 70
     1
102
RTVSPropertyOp21
 70
     1
102
RTVSPropertyOp22
 70
     1
102
RTVSPropertyOp23
 70
     1
102
RTVSPropertyOp24
 70
     1
102
RTVSPropertyOp25
 70
     1
102
RTVSPropertyOp26
 70
     1
102
RTVSPropertyOp27
 70
     1
102
RTVSPropertyOp28
 70
     1
102
RTVSPropertyOp29
 70
     1
102
RTVSPropertyOp30
 70
     1
102
RTVSPropertyOp31
 70
     1
102
RTVSPropertyOp32
 70
     1
102
RTVSPropertyOp33
 70
     1
102
RTVSPropertyOp34
 70
     1
102
RTVSPropertyOp35
 70
     1
102
RTVSPropertyOp36
 70
     1
102
RTVSPropertyOp37
 70
     1
102
RTVSPropertyOp38
 70
     1
102
RTVSPropertyOp39
 70
     1
102
RTVSPropertyOp40
 70
     1
102
RTVSPropertyOp41
 70
     1
102
RTVSPropertyOp42
 70
     1
102
RTVSPropertyOp43
 70
     1
102
RTVSPropertyOp44
 70
     1
102
RTVSPropertyOp45
 70
     1
102
RTVSPropertyOp46
 70
     1
102
RTVSPropertyOp47
 70
     1
102
RTVSPropertyOp48
 70
     1
102
RTVSPropertyOp49
 70
     1
102
RTVSPropertyOp50
 70
     1
102
RTVSPropertyOp51
 70
     0
102
RTVSPropertyOp52
 70
     0
102
RTVSPropertyOp53
 70
     1
102
RTVSPropertyOp54
 70
     1
102
RTVSPropertyOp55
 70
     1
102
RTVSPropertyOp56
 70
     1
102
RTVSPropertyOp57
 70
     1
102
RTVSPropertyOp58
 70
     1
102
RTVSPropertyOp59
 70
     1
102
RTVSPropertyOp60
 70
     1
102
RTVSPropertyOp61
 70
     1
102
RTVSPropertyOp62
 70
     1
  0
XRECORD
  5
390
102
{ACAD_REACTORS
330
38F
102
}
330
38F
100
AcDbXrecord
280
     1
102
RTVSPost2010Prop28
280
     0
102
RTVSPost2010PropOp28
 70
     1
102
RTVSPost2010Prop29
280
     1
102
RTVSPost2010PropOp29
 70
     1
102
RTVSPost2010Prop30
280
     1
102
RTVSPost2010PropOp30
 70
     1
102
RTVSPost2010Prop31
280
     0
102
RTVSPost2010PropOp31
 70
     1
102
RTVSPost2010Prop32
280
     0
102
RTVSPost2010PropOp32
 70
     1
102
RTVSPost2010Prop33
280
     0
102
RTVSPost2010PropOp33
 70
     1
102
RTVSPost2010Prop34
280
     0
102
RTVSPost2010PropOp34
 70
     1
102
RTVSPost2010Prop35
280
     0
102
RTVSPost2010PropOp35
 70
     1
102
RTVSPost2010Prop36
280
     0
102
RTVSPost2010PropOp36
 70
     1
102
RTVSPost2010Prop37
 90
       50
102
RTVSPost2010PropOp37
 70
     1
102
RTVSPost2010Prop38
140
0.0
102
RTVSPost2010PropOp38
 70
     1
102
RTVSPost2010Prop39
140
1.0
102
RTVSPost2010PropOp39
 70
     1
102
RTVSPost2010Prop40
 90
        0
102
RTVSPost2010PropOp40
 70
     1
102
RTVSPost2010Prop41ColorIndex
 90
       18
102
RTVSPost2010Prop41ColorRGB
 90
        0
102
RTVSPost2010PropOp41
 70
     1
102
RTVSPost2010Prop42
 90
       50
102
RTVSPost2010PropOp42
 70
     1
102
RTVSPost2010Prop43
 90
        3
102
RTVSPost2010PropOp43
 70
     1
102
RTVSPost2010Prop44ColorIndex
 90
        5
102
RTVSPost2010Prop44ColorRGB
 90
      255
102
RTVSPost2010PropOp44
 70
     1
102
RTVSPost2010Prop45
280
     0
102
RTVSPost2010PropOp45
 70
     1
102
RTVSPost2010Prop46
 90
       50
102
RTVSPost2010PropOp46
 70
     1
102
RTVSPost2010Prop47
 90
       50
102
RTVSPost2010PropOp47
 70
     1
102
RTVSPost2010Prop48
 90
       50
102
RTVSPost2010PropOp48
 70
     1
102
RTVSPost2010Prop49
280
     0
102
RTVSPost2010PropOp49
 70
     1
102
RTVSPost2010Prop50
 90
       50
102
RTVSPost2010PropOp50
 70
     1
102
RTVSPost2010Prop51ColorIndex
 90
      256
102
RTVSPost2010Prop51ColorRGB
 90
-16777216
102
RTVSPost2010PropOp51
 70
     0
102
RTVSPost2010Prop52
140
1.0
102
RTVSPost2010PropOp52
 70
     0
102
RTVSPost2010Prop53
 90
        2
102
RTVSPost2010PropOp53
 70
     1
102
RTVSPost2010Prop54
  1
strokes_ogs.tif
102
RTVSPost2010PropOp54
 70
     1
102
RTVSPost2010Prop55
280
     0
102
RTVSPost2010PropOp55
 70
     1
102
RTVSPost2010Prop56
140
1.0
102
RTVSPost2010PropOp56
 70
     1
102
RTVSPost2010Prop57
140
1.0
102
RTVSPost2010PropOp57
 70
     1
102
RTVSPropertyOp0
 70
     1
102
RTVSPropertyOp1
 70
     1
102
RTVSPropertyOp2
 70
     1
102
RTVSPropertyOp3
 70
     1
102
RTVSPropertyOp4
 70
     1
102
RTVSPropertyOp5
 70
     1
102
RTVSPropertyOp6
 70
     1
102
RTVSPropertyOp7
 70
     1
102
RTVSPropertyOp8
 70
     1
102
RTVSPropertyOp9
 70
     1
102
RTVSPropertyOp10
 70
     1
102
RTVSPropertyOp11
 70
     1
102
RTVSPropertyOp12
 70
     1
102
RTVSPropertyOp13
 70
     1
102
RTVSPropertyOp14
 70
     1
102
RTVSPropertyOp15
 70
     1
102
RTVSPropertyOp16
 70
     1
102
RTVSPropertyOp17
 70
     1
102
RTVSPropertyOp18
 70
     1
102
RTVSPropertyOp19
 70
     1
102
RTVSPropertyOp20
 70
     1
102
RTVSPropertyOp21
 70
     1
102
RTVSPropertyOp22
 70
     1
102
RTVSPropertyOp23
 70
     1
102
RTVSPropertyOp24
 70
     1
102
RTVSPropertyOp25
 70
     1
102
RTVSPropertyOp26
 70
     1
102
RTVSPropertyOp27
 70
     1
102
RTVSPropertyOp28
 70
     1
102
RTVSPropertyOp29
 70
     1
102
RTVSPropertyOp30
 70
     1
102
RTVSPropertyOp31
 70
     1
102
RTVSPropertyOp32
 70
     1
102
RTVSPropertyOp33
 70
     1
102
RTVSPropertyOp34
 70
     1
102
RTVSPropertyOp35
 70
     1
102
RTVSPropertyOp36
 70
     1
102
RTVSPropertyOp37
 70
     1
102
RTVSPropertyOp38
 70
     1
102
RTVSPropertyOp39
 70
     1
102
RTVSPropertyOp40
 70
     1
102
RTVSPropertyOp41
 70
     1
102
RTVSPropertyOp42
 70
     1
102
RTVSPropertyOp43
 70
     1
102
RTVSPropertyOp44
 70
     1
102
RTVSPropertyOp45
 70
     1
102
RTVSPropertyOp46
 70
     1
102
RTVSPropertyOp47
 70
     1
102
RTVSPropertyOp48
 70
     1
102
RTVSPropertyOp49
 70
     1
102
RTVSPropertyOp50
 70
     1
102
RTVSPropertyOp51
 70
     0
102
RTVSPropertyOp52
 70
     0
102
RTVSPropertyOp53
 70
     1
102
RTVSPropertyOp54
 70
     1
102
RTVSPropertyOp55
 70
     1
102
RTVSPropertyOp56
 70
     1
102
RTVSPropertyOp57
 70
     1
102
RTVSPropertyOp58
 70
     1
102
RTVSPropertyOp59
 70
     1
102
RTVSPropertyOp60
 70
     1
102
RTVSPropertyOp61
 70
     1
102
RTVSPropertyOp62
 70
     1
  0
XRECORD
  5
392
102
{ACAD_REACTORS
330
391
102
}
330
391
100
AcDbXrecord
280
     1
102
RTVSPost2010Prop28
280
     0
102
RTVSPost2010PropOp28
 70
     1
102
RTVSPost2010Prop29
280
     1
102
RTVSPost2010PropOp29
 70
     1
102
RTVSPost2010Prop30
280
     1
102
RTVSPost2010PropOp30
 70
     1
102
RTVSPost2010Prop31
280
     0
102
RTVSPost2010PropOp31
 70
     1
102
RTVSPost2010Prop32
280
     0
102
RTVSPost2010PropOp32
 70
     1
102
RTVSPost2010Prop33
280
     0
102
RTVSPost2010PropOp33
 70
     1
102
RTVSPost2010Prop34
280
     0
102
RTVSPost2010PropOp34
 70
     1
102
RTVSPost2010Prop35
280
     0
102
RTVSPost2010PropOp35
 70
     1
102
RTVSPost2010Prop36
280
     0
102
RTVSPost2010PropOp36
 70
     1
102
RTVSPost2010Prop37
 90
       50
102
RTVSPost2010PropOp37
 70
     1
102
RTVSPost2010Prop38
140
0.0
102
RTVSPost2010PropOp38
 70
     1
102
RTVSPost2010Prop39
140
1.0
102
RTVSPost2010PropOp39
 70
     1
102
RTVSPost2010Prop40
 90
        0
102
RTVSPost2010PropOp40
 70
     1
102
RTVSPost2010Prop41ColorIndex
 90
       18
102
RTVSPost2010Prop41ColorRGB
 90
        0
102
RTVSPost2010PropOp41
 70
     1
102
RTVSPost2010Prop42
 90
       50
102
RTVSPost2010PropOp42
 70
     1
102
RTVSPost2010Prop43
 90
        3
102
RTVSPost2010PropOp43
 70
     1
102
RTVSPost2010Prop44ColorIndex
 90
        5
102
RTVSPost2010Prop44ColorRGB
 90
      255
102
RTVSPost2010PropOp44
 70
     1
102
RTVSPost2010Prop45
280
     0
102
RTVSPost2010PropOp45
 70
     1
102
RTVSPost2010Prop46
 90
       50
102
RTVSPost2010PropOp46
 70
     1
102
RTVSPost2010Prop47
 90
       50
102
RTVSPost2010PropOp47
 70
     1
102
RTVSPost2010Prop48
 90
       50
102
RTVSPost2010PropOp48
 70
     1
102
RTVSPost2010Prop49
280
     0
102
RTVSPost2010PropOp49
 70
     1
102
RTVSPost2010Prop50
 90
       50
102
RTVSPost2010PropOp50
 70
     1
102
RTVSPost2010Prop51ColorIndex
 90
      256
102
RTVSPost2010Prop51ColorRGB
 90
-16777216
102
RTVSPost2010PropOp51
 70
     0
102
RTVSPost2010Prop52
140
1.0
102
RTVSPost2010PropOp52
 70
     0
102
RTVSPost2010Prop53
 90
        2
102
RTVSPost2010PropOp53
 70
     1
102
RTVSPost2010Prop54
  1
strokes_ogs.tif
102
RTVSPost2010PropOp54
 70
     1
102
RTVSPost2010Prop55
280
     0
102
RTVSPost2010PropOp55
 70
     1
102
RTVSPost2010Prop56
140
1.0
102
RTVSPost2010PropOp56
 70
     1
102
RTVSPost2010Prop57
140
1.0
102
RTVSPost2010PropOp57
 70
     1
102
RTVSPropertyOp0
 70
     1
102
RTVSPropertyOp1
 70
     1
102
RTVSPropertyOp2
 70
     1
102
RTVSPropertyOp3
 70
     1
102
RTVSPropertyOp4
 70
     1
102
RTVSPropertyOp5
 70
     1
102
RTVSPropertyOp6
 70
     1
102
RTVSPropertyOp7
 70
     1
102
RTVSPropertyOp8
 70
     1
102
RTVSPropertyOp9
 70
     1
102
RTVSPropertyOp10
 70
     1
102
RTVSPropertyOp11
 70
     1
102
RTVSPropertyOp12
 70
     1
102
RTVSPropertyOp13
 70
     1
102
RTVSPropertyOp14
 70
     1
102
RTVSPropertyOp15
 70
     1
102
RTVSPropertyOp16
 70
     1
102
RTVSPropertyOp17
 70
     1
102
RTVSPropertyOp18
 70
     1
102
RTVSPropertyOp19
 70
     1
102
RTVSPropertyOp20
 70
     1
102
RTVSPropertyOp21
 70
     1
102
RTVSPropertyOp22
 70
     1
102
RTVSPropertyOp23
 70
     1
102
RTVSPropertyOp24
 70
     1
102
RTVSPropertyOp25
 70
     1
102
RTVSPropertyOp26
 70
     1
102
RTVSPropertyOp27
 70
     1
102
RTVSPropertyOp28
 70
     1
102
RTVSPropertyOp29
 70
     1
102
RTVSPropertyOp30
 70
     1
102
RTVSPropertyOp31
 70
     1
102
RTVSPropertyOp32
 70
     1
102
RTVSPropertyOp33
 70
     1
102
RTVSPropertyOp34
 70
     1
102
RTVSPropertyOp35
 70
     1
102
RTVSPropertyOp36
 70
     1
102
RTVSPropertyOp37
 70
     1
102
RTVSPropertyOp38
 70
     1
102
RTVSPropertyOp39
 70
     1
102
RTVSPropertyOp40
 70
     1
102
RTVSPropertyOp41
 70
     1
102
RTVSPropertyOp42
 70
     1
102
RTVSPropertyOp43
 70
     1
102
RTVSPropertyOp44
 70
     1
102
RTVSPropertyOp45
 70
     1
102
RTVSPropertyOp46
 70
     1
102
RTVSPropertyOp47
 70
     1
102
RTVSPropertyOp48
 70
     1
102
RTVSPropertyOp49
 70
     1
102
RTVSPropertyOp50
 70
     1
102
RTVSPropertyOp51
 70
     0
102
RTVSPropertyOp52
 70
     0
102
RTVSPropertyOp53
 70
     1
102
RTVSPropertyOp54
 70
     1
102
RTVSPropertyOp55
 70
     1
102
RTVSPropertyOp56
 70
     1
102
RTVSPropertyOp57
 70
     1
102
RTVSPropertyOp58
 70
     1
102
RTVSPropertyOp59
 70
     1
102
RTVSPropertyOp60
 70
     1
102
RTVSPropertyOp61
 70
     1
102
RTVSPropertyOp62
 70
     1
  0
XRECORD
  5
398
102
{ACAD_REACTORS
330
397
102
}
330
397
100
AcDbXrecord
280
     1
102
RTVSPost2010Prop28
280
     0
102
RTVSPost2010PropOp28
 70
     1
102
RTVSPost2010Prop29
280
     1
102
RTVSPost2010PropOp29
 70
     1
102
RTVSPost2010Prop30
280
     1
102
RTVSPost2010PropOp30
 70
     1
102
RTVSPost2010Prop31
280
     0
102
RTVSPost2010PropOp31
 70
     1
102
RTVSPost2010Prop32
280
     0
102
RTVSPost2010PropOp32
 70
     1
102
RTVSPost2010Prop33
280
     0
102
RTVSPost2010PropOp33
 70
     1
102
RTVSPost2010Prop34
280
     0
102
RTVSPost2010PropOp34
 70
     1
102
RTVSPost2010Prop35
280
     0
102
RTVSPost2010PropOp35
 70
     1
102
RTVSPost2010Prop36
280
     0
102
RTVSPost2010PropOp36
 70
     1
102
RTVSPost2010Prop37
 90
       50
102
RTVSPost2010PropOp37
 70
     1
102
RTVSPost2010Prop38
140
0.0
102
RTVSPost2010PropOp38
 70
     1
102
RTVSPost2010Prop39
140
1.0
102
RTVSPost2010PropOp39
 70
     1
102
RTVSPost2010Prop40
 90
        0
102
RTVSPost2010PropOp40
 70
     1
102
RTVSPost2010Prop41ColorIndex
 90
       18
102
RTVSPost2010Prop41ColorRGB
 90
        0
102
RTVSPost2010PropOp41
 70
     1
102
RTVSPost2010Prop42
 90
       50
102
RTVSPost2010PropOp42
 70
     1
102
RTVSPost2010Prop43
 90
        3
102
RTVSPost2010PropOp43
 70
     1
102
RTVSPost2010Prop44ColorIndex
 90
        5
102
RTVSPost2010Prop44ColorRGB
 90
      255
102
RTVSPost2010PropOp44
 70
     1
102
RTVSPost2010Prop45
280
     0
102
RTVSPost2010PropOp45
 70
     1
102
RTVSPost2010Prop46
 90
       50
102
RTVSPost2010PropOp46
 70
     1
102
RTVSPost2010Prop47
 90
       50
102
RTVSPost2010PropOp47
 70
     1
102
RTVSPost2010Prop48
 90
       50
102
RTVSPost2010PropOp48
 70
     1
102
RTVSPost2010Prop49
280
     0
102
RTVSPost2010PropOp49
 70
     1
102
RTVSPost2010Prop50
 90
       50
102
RTVSPost2010PropOp50
 70
     1
102
RTVSPost2010Prop51ColorIndex
 90
      256
102
RTVSPost2010Prop51ColorRGB
 90
-16777216
102
RTVSPost2010PropOp51
 70
     0
102
RTVSPost2010Prop52
140
1.0
102
RTVSPost2010PropOp52
 70
     0
102
RTVSPost2010Prop53
 90
        2
102
RTVSPost2010PropOp53
 70
     1
102
RTVSPost2010Prop54
  1
strokes_ogs.tif
102
RTVSPost2010PropOp54
 70
     1
102
RTVSPost2010Prop55
280
     0
102
RTVSPost2010PropOp55
 70
     1
102
RTVSPost2010Prop56
140
1.0
102
RTVSPost2010PropOp56
 70
     1
102
RTVSPost2010Prop57
140
1.0
102
RTVSPost2010PropOp57
 70
     1
102
RTVSPropertyOp0
 70
     1
102
RTVSPropertyOp1
 70
     1
102
RTVSPropertyOp2
 70
     1
102
RTVSPropertyOp3
 70
     1
102
RTVSPropertyOp4
 70
     1
102
RTVSPropertyOp5
 70
     1
102
RTVSPropertyOp6
 70
     1
102
RTVSPropertyOp7
 70
     1
102
RTVSPropertyOp8
 70
     1
102
RTVSPropertyOp9
 70
     1
102
RTVSPropertyOp10
 70
     1
102
RTVSPropertyOp11
 70
     1
102
RTVSPropertyOp12
 70
     1
102
RTVSPropertyOp13
 70
     1
102
RTVSPropertyOp14
 70
     1
102
RTVSPropertyOp15
 70
     1
102
RTVSPropertyOp16
 70
     1
102
RTVSPropertyOp17
 70
     1
102
RTVSPropertyOp18
 70
     1
102
RTVSPropertyOp19
 70
     1
102
RTVSPropertyOp20
 70
     1
102
RTVSPropertyOp21
 70
     1
102
RTVSPropertyOp22
 70
     1
102
RTVSPropertyOp23
 70
     1
102
RTVSPropertyOp24
 70
     1
102
RTVSPropertyOp25
 70
     1
102
RTVSPropertyOp26
 70
     1
102
RTVSPropertyOp27
 70
     1
102
RTVSPropertyOp28
 70
     1
102
RTVSPropertyOp29
 70
     1
102
RTVSPropertyOp30
 70
     1
102
RTVSPropertyOp31
 70
     1
102
RTVSPropertyOp32
 70
     1
102
RTVSPropertyOp33
 70
     1
102
RTVSPropertyOp34
 70
     1
102
RTVSPropertyOp35
 70
     1
102
RTVSPropertyOp36
 70
     1
102
RTVSPropertyOp37
 70
     1
102
RTVSPropertyOp38
 70
     1
102
RTVSPropertyOp39
 70
     1
102
RTVSPropertyOp40
 70
     1
102
RTVSPropertyOp41
 70
     1
102
RTVSPropertyOp42
 70
     1
102
RTVSPropertyOp43
 70
     1
102
RTVSPropertyOp44
 70
     1
102
RTVSPropertyOp45
 70
     1
102
RTVSPropertyOp46
 70
     1
102
RTVSPropertyOp47
 70
     1
102
RTVSPropertyOp48
 70
     1
102
RTVSPropertyOp49
 70
     1
102
RTVSPropertyOp50
 70
     1
102
RTVSPropertyOp51
 70
     0
102
RTVSPropertyOp52
 70
     0
102
RTVSPropertyOp53
 70
     1
102
RTVSPropertyOp54
 70
     1
102
RTVSPropertyOp55
 70
     1
102
RTVSPropertyOp56
 70
     1
102
RTVSPropertyOp57
 70
     1
102
RTVSPropertyOp58
 70
     1
102
RTVSPropertyOp59
 70
     1
102
RTVSPropertyOp60
 70
     1
102
RTVSPropertyOp61
 70
     1
102
RTVSPropertyOp62
 70
     1
  0
XRECORD
  5
3AC
102
{ACAD_REACTORS
330
3AB
102
}
330
3AB
100
AcDbXrecord
280
     1
102
RTVSPost2010Prop28
280
     0
102
RTVSPost2010PropOp28
 70
     0
102
RTVSPost2010Prop29
280
     1
102
RTVSPost2010PropOp29
 70
     0
102
RTVSPost2010Prop30
280
     1
102
RTVSPost2010PropOp30
 70
     0
102
RTVSPost2010Prop31
280
     0
102
RTVSPost2010PropOp31
 70
     0
102
RTVSPost2010Prop32
280
     0
102
RTVSPost2010PropOp32
 70
     0
102
RTVSPost2010Prop33
280
     0
102
RTVSPost2010PropOp33
 70
     0
102
RTVSPost2010Prop34
280
     0
102
RTVSPost2010PropOp34
 70
     0
102
RTVSPost2010Prop35
280
     0
102
RTVSPost2010PropOp35
 70
     0
102
RTVSPost2010Prop36
280
     0
102
RTVSPost2010PropOp36
 70
     0
102
RTVSPost2010Prop37
 90
       50
102
RTVSPost2010PropOp37
 70
     0
102
RTVSPost2010Prop38
140
0.0
102
RTVSPost2010PropOp38
 70
     0
102
RTVSPost2010Prop39
140
1.0
102
RTVSPost2010PropOp39
 70
     0
102
RTVSPost2010Prop40
 90
        0
102
RTVSPost2010PropOp40
 70
     0
102
RTVSPost2010Prop41ColorIndex
 90
       18
102
RTVSPost2010Prop41ColorRGB
 90
        0
102
RTVSPost2010PropOp41
 70
     0
102
RTVSPost2010Prop42
 90
       50
102
RTVSPost2010PropOp42
 70
     0
102
RTVSPost2010Prop43
 90
        3
102
RTVSPost2010PropOp43
 70
     0
102
RTVSPost2010Prop44ColorIndex
 90
        5
102
RTVSPost2010Prop44ColorRGB
 90
      255
102
RTVSPost2010PropOp44
 70
     0
102
RTVSPost2010Prop45
280
     0
102
RTVSPost2010PropOp45
 70
     0
102
RTVSPost2010Prop46
 90
       50
102
RTVSPost2010PropOp46
 70
     0
102
RTVSPost2010Prop47
 90
       50
102
RTVSPost2010PropOp47
 70
     0
102
RTVSPost2010Prop48
 90
       50
102
RTVSPost2010PropOp48
 70
     0
102
RTVSPost2010Prop49
280
     0
102
RTVSPost2010PropOp49
 70
     0
102
RTVSPost2010Prop50
 90
       50
102
RTVSPost2010PropOp50
 70
     0
102
RTVSPost2010Prop51ColorIndex
 90
      256
102
RTVSPost2010Prop51ColorRGB
 90
-16777216
102
RTVSPost2010PropOp51
 70
     0
102
RTVSPost2010Prop52
140
1.0
102
RTVSPost2010PropOp52
 70
     0
102
RTVSPost2010Prop53
 90
        2
102
RTVSPost2010PropOp53
 70
     0
102
RTVSPost2010Prop54
  1
strokes_ogs.tif
102
RTVSPost2010PropOp54
 70
     0
102
RTVSPost2010Prop55
280
     0
102
RTVSPost2010PropOp55
 70
     0
102
RTVSPost2010Prop56
140
1.0
102
RTVSPost2010PropOp56
 70
     0
102
RTVSPost2010Prop57
140
1.0
102
RTVSPost2010PropOp57
 70
     0
102
RTVSPropertyOp0
 70
     0
102
RTVSPropertyOp1
 70
     0
102
RTVSPropertyOp2
 70
     0
102
RTVSPropertyOp3
 70
     0
102
RTVSPropertyOp4
 70
     0
102
RTVSPropertyOp5
 70
     0
102
RTVSPropertyOp6
 70
     0
102
RTVSPropertyOp7
 70
     0
102
RTVSPropertyOp8
 70
     0
102
RTVSPropertyOp9
 70
     0
102
RTVSPropertyOp10
 70
     0
102
RTVSPropertyOp11
 70
     0
102
RTVSPropertyOp12
 70
     0
102
RTVSPropertyOp13
 70
     0
102
RTVSPropertyOp14
 70
     2
102
RTVSPropertyOp15
 70
     0
102
RTVSPropertyOp16
 70
     0
102
RTVSPropertyOp17
 70
     0
102
RTVSPropertyOp18
 70
     0
102
RTVSPropertyOp19
 70
     0
102
RTVSPropertyOp20
 70
     0
102
RTVSPropertyOp21
 70
     0
102
RTVSPropertyOp22
 70
     0
102
RTVSPropertyOp23
 70
     0
102
RTVSPropertyOp24
 70
     0
102
RTVSPropertyOp25
 70
     0
102
RTVSPropertyOp26
 70
     0
102
RTVSPropertyOp27
 70
     0
102
RTVSPropertyOp28
 70
     0
102
RTVSPropertyOp29
 70
     0
102
RTVSPropertyOp30
 70
     0
102
RTVSPropertyOp31
 70
     0
102
RTVSPropertyOp32
 70
     0
102
RTVSPropertyOp33
 70
     0
102
RTVSPropertyOp34
 70
     0
102
RTVSPropertyOp35
 70
     0
102
RTVSPropertyOp36
 70
     0
102
RTVSPropertyOp37
 70
     0
102
RTVSPropertyOp38
 70
     0
102
RTVSPropertyOp39
 70
     0
102
RTVSPropertyOp40
 70
     0
102
RTVSPropertyOp41
 70
     0
102
RTVSPropertyOp42
 70
     0
102
RTVSPropertyOp43
 70
     0
102
RTVSPropertyOp44
 70
     0
102
RTVSPropertyOp45
 70
     0
102
RTVSPropertyOp46
 70
     0
102
RTVSPropertyOp47
 70
     0
102
RTVSPropertyOp48
 70
     0
102
RTVSPropertyOp49
 70
     0
102
RTVSPropertyOp50
 70
     0
102
RTVSPropertyOp51
 70
     0
102
RTVSPropertyOp52
 70
     0
102
RTVSPropertyOp53
 70
     0
102
RTVSPropertyOp54
 70
     0
102
RTVSPropertyOp55
 70
     0
102
RTVSPropertyOp56
 70
     0
102
RTVSPropertyOp57
 70
     0
102
RTVSPropertyOp58
 70
     1
102
RTVSPropertyOp59
 70
     1
102
RTVSPropertyOp60
 70
     1
102
RTVSPropertyOp61
 70
     1
102
RTVSPropertyOp62
 70
     1
  0
XRECORD
  5
3A6
102
{ACAD_REACTORS
330
3A5
102
}
330
3A5
100
AcDbXrecord
280
     1
102
RTVSPost2010Prop28
280
     0
102
RTVSPost2010PropOp28
 70
     1
102
RTVSPost2010Prop29
280
     1
102
RTVSPost2010PropOp29
 70
     1
102
RTVSPost2010Prop30
280
     1
102
RTVSPost2010PropOp30
 70
     1
102
RTVSPost2010Prop31
280
     0
102
RTVSPost2010PropOp31
 70
     1
102
RTVSPost2010Prop32
280
     0
102
RTVSPost2010PropOp32
 70
     1
102
RTVSPost2010Prop33
280
     0
102
RTVSPost2010PropOp33
 70
     1
102
RTVSPost2010Prop34
280
     0
102
RTVSPost2010PropOp34
 70
     1
102
RTVSPost2010Prop35
280
     0
102
RTVSPost2010PropOp35
 70
     1
102
RTVSPost2010Prop36
280
     0
102
RTVSPost2010PropOp36
 70
     1
102
RTVSPost2010Prop37
 90
       50
102
RTVSPost2010PropOp37
 70
     1
102
RTVSPost2010Prop38
140
0.0
102
RTVSPost2010PropOp38
 70
     1
102
RTVSPost2010Prop39
140
1.0
102
RTVSPost2010PropOp39
 70
     1
102
RTVSPost2010Prop40
 90
        0
102
RTVSPost2010PropOp40
 70
     1
102
RTVSPost2010Prop41ColorIndex
 90
       18
102
RTVSPost2010Prop41ColorRGB
 90
        0
102
RTVSPost2010PropOp41
 70
     1
102
RTVSPost2010Prop42
 90
       50
102
RTVSPost2010PropOp42
 70
     1
102
RTVSPost2010Prop43
 90
        3
102
RTVSPost2010PropOp43
 70
     1
102
RTVSPost2010Prop44ColorIndex
 90
        5
102
RTVSPost2010Prop44ColorRGB
 90
      255
102
RTVSPost2010PropOp44
 70
     1
102
RTVSPost2010Prop45
280
     0
102
RTVSPost2010PropOp45
 70
     1
102
RTVSPost2010Prop46
 90
       50
102
RTVSPost2010PropOp46
 70
     1
102
RTVSPost2010Prop47
 90
       50
102
RTVSPost2010PropOp47
 70
     1
102
RTVSPost2010Prop48
 90
       50
102
RTVSPost2010PropOp48
 70
     1
102
RTVSPost2010Prop49
280
     0
102
RTVSPost2010PropOp49
 70
     1
102
RTVSPost2010Prop50
 90
       50
102
RTVSPost2010PropOp50
 70
     1
102
RTVSPost2010Prop51ColorIndex
 90
      256
102
RTVSPost2010Prop51ColorRGB
 90
-16777216
102
RTVSPost2010PropOp51
 70
     0
102
RTVSPost2010Prop52
140
1.0
102
RTVSPost2010PropOp52
 70
     0
102
RTVSPost2010Prop53
 90
        2
102
RTVSPost2010PropOp53
 70
     1
102
RTVSPost2010Prop54
  1
strokes_ogs.tif
102
RTVSPost2010PropOp54
 70
     1
102
RTVSPost2010Prop55
280
     0
102
RTVSPost2010PropOp55
 70
     1
102
RTVSPost2010Prop56
140
1.0
102
RTVSPost2010PropOp56
 70
     1
102
RTVSPost2010Prop57
140
1.0
102
RTVSPost2010PropOp57
 70
     1
102
RTVSPropertyOp0
 70
     1
102
RTVSPropertyOp1
 70
     1
102
RTVSPropertyOp2
 70
     1
102
RTVSPropertyOp3
 70
     1
102
RTVSPropertyOp4
 70
     1
102
RTVSPropertyOp5
 70
     1
102
RTVSPropertyOp6
 70
     1
102
RTVSPropertyOp7
 70
     1
102
RTVSPropertyOp8
 70
     1
102
RTVSPropertyOp9
 70
     1
102
RTVSPropertyOp10
 70
     1
102
RTVSPropertyOp11
 70
     1
102
RTVSPropertyOp12
 70
     1
102
RTVSPropertyOp13
 70
     1
102
RTVSPropertyOp14
 70
     1
102
RTVSPropertyOp15
 70
     1
102
RTVSPropertyOp16
 70
     1
102
RTVSPropertyOp17
 70
     1
102
RTVSPropertyOp18
 70
     1
102
RTVSPropertyOp19
 70
     1
102
RTVSPropertyOp20
 70
     1
102
RTVSPropertyOp21
 70
     1
102
RTVSPropertyOp22
 70
     1
102
RTVSPropertyOp23
 70
     1
102
RTVSPropertyOp24
 70
     1
102
RTVSPropertyOp25
 70
     1
102
RTVSPropertyOp26
 70
     1
102
RTVSPropertyOp27
 70
     1
102
RTVSPropertyOp28
 70
     1
102
RTVSPropertyOp29
 70
     1
102
RTVSPropertyOp30
 70
     1
102
RTVSPropertyOp31
 70
     1
102
RTVSPropertyOp32
 70
     1
102
RTVSPropertyOp33
 70
     1
102
RTVSPropertyOp34
 70
     1
102
RTVSPropertyOp35
 70
     1
102
RTVSPropertyOp36
 70
     1
102
RTVSPropertyOp37
 70
     1
102
RTVSPropertyOp38
 70
     1
102
RTVSPropertyOp39
 70
     1
102
RTVSPropertyOp40
 70
     1
102
RTVSPropertyOp41
 70
     1
102
RTVSPropertyOp42
 70
     1
102
RTVSPropertyOp43
 70
     1
102
RTVSPropertyOp44
 70
     1
102
RTVSPropertyOp45
 70
     1
102
RTVSPropertyOp46
 70
     1
102
RTVSPropertyOp47
 70
     1
102
RTVSPropertyOp48
 70
     1
102
RTVSPropertyOp49
 70
     1
102
RTVSPropertyOp50
 70
     1
102
RTVSPropertyOp51
 70
     0
102
RTVSPropertyOp52
 70
     0
102
RTVSPropertyOp53
 70
     1
102
RTVSPropertyOp54
 70
     1
102
RTVSPropertyOp55
 70
     1
102
RTVSPropertyOp56
 70
     1
102
RTVSPropertyOp57
 70
     1
102
RTVSPropertyOp58
 70
     1
102
RTVSPropertyOp59
 70
     1
102
RTVSPropertyOp60
 70
     1
102
RTVSPropertyOp61
 70
     1
102
RTVSPropertyOp62
 70
     1
  0
XRECORD
  5
3AE
102
{ACAD_REACTORS
330
3AD
102
}
330
3AD
100
AcDbXrecord
280
     1
102
RTVSPost2010Prop28
280
     0
102
RTVSPost2010PropOp28
 70
     0
102
RTVSPost2010Prop29
280
     1
102
RTVSPost2010PropOp29
 70
     0
102
RTVSPost2010Prop30
280
     1
102
RTVSPost2010PropOp30
 70
     0
102
RTVSPost2010Prop31
280
     0
102
RTVSPost2010PropOp31
 70
     0
102
RTVSPost2010Prop32
280
     0
102
RTVSPost2010PropOp32
 70
     0
102
RTVSPost2010Prop33
280
     0
102
RTVSPost2010PropOp33
 70
     0
102
RTVSPost2010Prop34
280
     0
102
RTVSPost2010PropOp34
 70
     0
102
RTVSPost2010Prop35
280
     0
102
RTVSPost2010PropOp35
 70
     0
102
RTVSPost2010Prop36
280
     0
102
RTVSPost2010PropOp36
 70
     0
102
RTVSPost2010Prop37
 90
       50
102
RTVSPost2010PropOp37
 70
     0
102
RTVSPost2010Prop38
140
0.0
102
RTVSPost2010PropOp38
 70
     0
102
RTVSPost2010Prop39
140
1.0
102
RTVSPost2010PropOp39
 70
     0
102
RTVSPost2010Prop40
 90
        0
102
RTVSPost2010PropOp40
 70
     0
102
RTVSPost2010Prop41ColorIndex
 90
       18
102
RTVSPost2010Prop41ColorRGB
 90
        0
102
RTVSPost2010PropOp41
 70
     0
102
RTVSPost2010Prop42
 90
       50
102
RTVSPost2010PropOp42
 70
     0
102
RTVSPost2010Prop43
 90
        3
102
RTVSPost2010PropOp43
 70
     0
102
RTVSPost2010Prop44ColorIndex
 90
        5
102
RTVSPost2010Prop44ColorRGB
 90
      255
102
RTVSPost2010PropOp44
 70
     0
102
RTVSPost2010Prop45
280
     0
102
RTVSPost2010PropOp45
 70
     0
102
RTVSPost2010Prop46
 90
       50
102
RTVSPost2010PropOp46
 70
     0
102
RTVSPost2010Prop47
 90
       50
102
RTVSPost2010PropOp47
 70
     0
102
RTVSPost2010Prop48
 90
       50
102
RTVSPost2010PropOp48
 70
     0
102
RTVSPost2010Prop49
280
     0
102
RTVSPost2010PropOp49
 70
     0
102
RTVSPost2010Prop50
 90
       50
102
RTVSPost2010PropOp50
 70
     0
102
RTVSPost2010Prop51ColorIndex
 90
      256
102
RTVSPost2010Prop51ColorRGB
 90
-16777216
102
RTVSPost2010PropOp51
 70
     0
102
RTVSPost2010Prop52
140
1.0
102
RTVSPost2010PropOp52
 70
     0
102
RTVSPost2010Prop53
 90
        2
102
RTVSPost2010PropOp53
 70
     0
102
RTVSPost2010Prop54
  1
strokes_ogs.tif
102
RTVSPost2010PropOp54
 70
     0
102
RTVSPost2010Prop55
280
     0
102
RTVSPost2010PropOp55
 70
     0
102
RTVSPost2010Prop56
140
1.0
102
RTVSPost2010PropOp56
 70
     0
102
RTVSPost2010Prop57
140
1.0
102
RTVSPost2010PropOp57
 70
     0
102
RTVSPropertyOp0
 70
     0
102
RTVSPropertyOp1
 70
     0
102
RTVSPropertyOp2
 70
     0
102
RTVSPropertyOp3
 70
     0
102
RTVSPropertyOp4
 70
     0
102
RTVSPropertyOp5
 70
     0
102
RTVSPropertyOp6
 70
     0
102
RTVSPropertyOp7
 70
     0
102
RTVSPropertyOp8
 70
     0
102
RTVSPropertyOp9
 70
     0
102
RTVSPropertyOp10
 70
     0
102
RTVSPropertyOp11
 70
     0
102
RTVSPropertyOp12
 70
     0
102
RTVSPropertyOp13
 70
     0
102
RTVSPropertyOp14
 70
     2
102
RTVSPropertyOp15
 70
     0
102
RTVSPropertyOp16
 70
     0
102
RTVSPropertyOp17
 70
     0
102
RTVSPropertyOp18
 70
     0
102
RTVSPropertyOp19
 70
     0
102
RTVSPropertyOp20
 70
     0
102
RTVSPropertyOp21
 70
     0
102
RTVSPropertyOp22
 70
     0
102
RTVSPropertyOp23
 70
     0
102
RTVSPropertyOp24
 70
     0
102
RTVSPropertyOp25
 70
     0
102
RTVSPropertyOp26
 70
     0
102
RTVSPropertyOp27
 70
     0
102
RTVSPropertyOp28
 70
     0
102
RTVSPropertyOp29
 70
     0
102
RTVSPropertyOp30
 70
     0
102
RTVSPropertyOp31
 70
     0
102
RTVSPropertyOp32
 70
     0
102
RTVSPropertyOp33
 70
     0
102
RTVSPropertyOp34
 70
     0
102
RTVSPropertyOp35
 70
     0
102
RTVSPropertyOp36
 70
     0
102
RTVSPropertyOp37
 70
     0
102
RTVSPropertyOp38
 70
     0
102
RTVSPropertyOp39
 70
     0
102
RTVSPropertyOp40
 70
     0
102
RTVSPropertyOp41
 70
     0
102
RTVSPropertyOp42
 70
     0
102
RTVSPropertyOp43
 70
     0
102
RTVSPropertyOp44
 70
     0
102
RTVSPropertyOp45
 70
     0
102
RTVSPropertyOp46
 70
     0
102
RTVSPropertyOp47
 70
     0
102
RTVSPropertyOp48
 70
     0
102
RTVSPropertyOp49
 70
     0
102
RTVSPropertyOp50
 70
     0
102
RTVSPropertyOp51
 70
     0
102
RTVSPropertyOp52
 70
     0
102
RTVSPropertyOp53
 70
     0
102
RTVSPropertyOp54
 70
     0
102
RTVSPropertyOp55
 70
     0
102
RTVSPropertyOp56
 70
     0
102
RTVSPropertyOp57
 70
     0
102
RTVSPropertyOp58
 70
     1
102
RTVSPropertyOp59
 70
     1
102
RTVSPropertyOp60
 70
     1
102
RTVSPropertyOp61
 70
     1
102
RTVSPropertyOp62
 70
     1
  0
XRECORD
  5
39C
102
{ACAD_REACTORS
330
39B
102
}
330
39B
100
AcDbXrecord
280
     1
102
RTVSPost2010Prop28
280
     0
102
RTVSPost2010PropOp28
 70
     1
102
RTVSPost2010Prop29
280
     1
102
RTVSPost2010PropOp29
 70
     1
102
RTVSPost2010Prop30
280
     1
102
RTVSPost2010PropOp30
 70
     1
102
RTVSPost2010Prop31
280
     0
102
RTVSPost2010PropOp31
 70
     1
102
RTVSPost2010Prop32
280
     0
102
RTVSPost2010PropOp32
 70
     1
102
RTVSPost2010Prop33
280
     0
102
RTVSPost2010PropOp33
 70
     1
102
RTVSPost2010Prop34
280
     0
102
RTVSPost2010PropOp34
 70
     1
102
RTVSPost2010Prop35
280
     0
102
RTVSPost2010PropOp35
 70
     1
102
RTVSPost2010Prop36
280
     0
102
RTVSPost2010PropOp36
 70
     1
102
RTVSPost2010Prop37
 90
       50
102
RTVSPost2010PropOp37
 70
     1
102
RTVSPost2010Prop38
140
0.0
102
RTVSPost2010PropOp38
 70
     1
102
RTVSPost2010Prop39
140
1.0
102
RTVSPost2010PropOp39
 70
     1
102
RTVSPost2010Prop40
 90
        0
102
RTVSPost2010PropOp40
 70
     1
102
RTVSPost2010Prop41ColorIndex
 90
       18
102
RTVSPost2010Prop41ColorRGB
 90
        0
102
RTVSPost2010PropOp41
 70
     1
102
RTVSPost2010Prop42
 90
       50
102
RTVSPost2010PropOp42
 70
     1
102
RTVSPost2010Prop43
 90
        3
102
RTVSPost2010PropOp43
 70
     1
102
RTVSPost2010Prop44ColorIndex
 90
        5
102
RTVSPost2010Prop44ColorRGB
 90
      255
102
RTVSPost2010PropOp44
 70
     1
102
RTVSPost2010Prop45
280
     0
102
RTVSPost2010PropOp45
 70
     1
102
RTVSPost2010Prop46
 90
       50
102
RTVSPost2010PropOp46
 70
     1
102
RTVSPost2010Prop47
 90
       50
102
RTVSPost2010PropOp47
 70
     1
102
RTVSPost2010Prop48
 90
       50
102
RTVSPost2010PropOp48
 70
     1
102
RTVSPost2010Prop49
280
     0
102
RTVSPost2010PropOp49
 70
     1
102
RTVSPost2010Prop50
 90
       50
102
RTVSPost2010PropOp50
 70
     1
102
RTVSPost2010Prop51ColorIndex
 90
      256
102
RTVSPost2010Prop51ColorRGB
 90
-16777216
102
RTVSPost2010PropOp51
 70
     0
102
RTVSPost2010Prop52
140
1.0
102
RTVSPost2010PropOp52
 70
     0
102
RTVSPost2010Prop53
 90
        2
102
RTVSPost2010PropOp53
 70
     1
102
RTVSPost2010Prop54
  1
strokes_ogs.tif
102
RTVSPost2010PropOp54
 70
     1
102
RTVSPost2010Prop55
280
     0
102
RTVSPost2010PropOp55
 70
     1
102
RTVSPost2010Prop56
140
1.0
102
RTVSPost2010PropOp56
 70
     1
102
RTVSPost2010Prop57
140
1.0
102
RTVSPost2010PropOp57
 70
     1
102
RTVSPropertyOp0
 70
     1
102
RTVSPropertyOp1
 70
     1
102
RTVSPropertyOp2
 70
     1
102
RTVSPropertyOp3
 70
     1
102
RTVSPropertyOp4
 70
     1
102
RTVSPropertyOp5
 70
     1
102
RTVSPropertyOp6
 70
     1
102
RTVSPropertyOp7
 70
     1
102
RTVSPropertyOp8
 70
     1
102
RTVSPropertyOp9
 70
     1
102
RTVSPropertyOp10
 70
     1
102
RTVSPropertyOp11
 70
     1
102
RTVSPropertyOp12
 70
     1
102
RTVSPropertyOp13
 70
     1
102
RTVSPropertyOp14
 70
     1
102
RTVSPropertyOp15
 70
     1
102
RTVSPropertyOp16
 70
     1
102
RTVSPropertyOp17
 70
     1
102
RTVSPropertyOp18
 70
     1
102
RTVSPropertyOp19
 70
     1
102
RTVSPropertyOp20
 70
     1
102
RTVSPropertyOp21
 70
     1
102
RTVSPropertyOp22
 70
     1
102
RTVSPropertyOp23
 70
     1
102
RTVSPropertyOp24
 70
     1
102
RTVSPropertyOp25
 70
     1
102
RTVSPropertyOp26
 70
     1
102
RTVSPropertyOp27
 70
     1
102
RTVSPropertyOp28
 70
     1
102
RTVSPropertyOp29
 70
     1
102
RTVSPropertyOp30
 70
     1
102
RTVSPropertyOp31
 70
     1
102
RTVSPropertyOp32
 70
     1
102
RTVSPropertyOp33
 70
     1
102
RTVSPropertyOp34
 70
     1
102
RTVSPropertyOp35
 70
     1
102
RTVSPropertyOp36
 70
     1
102
RTVSPropertyOp37
 70
     1
102
RTVSPropertyOp38
 70
     1
102
RTVSPropertyOp39
 70
     1
102
RTVSPropertyOp40
 70
     1
102
RTVSPropertyOp41
 70
     1
102
RTVSPropertyOp42
 70
     1
102
RTVSPropertyOp43
 70
     1
102
RTVSPropertyOp44
 70
     1
102
RTVSPropertyOp45
 70
     1
102
RTVSPropertyOp46
 70
     1
102
RTVSPropertyOp47
 70
     1
102
RTVSPropertyOp48
 70
     1
102
RTVSPropertyOp49
 70
     1
102
RTVSPropertyOp50
 70
     1
102
RTVSPropertyOp51
 70
     0
102
RTVSPropertyOp52
 70
     0
102
RTVSPropertyOp53
 70
     1
102
RTVSPropertyOp54
 70
     1
102
RTVSPropertyOp55
 70
     1
102
RTVSPropertyOp56
 70
     1
102
RTVSPropertyOp57
 70
     1
102
RTVSPropertyOp58
 70
     1
102
RTVSPropertyOp59
 70
     1
102
RTVSPropertyOp60
 70
     1
102
RTVSPropertyOp61
 70
     1
102
RTVSPropertyOp62
 70
     1
  0
XRECORD
  5
3BA
102
{ACAD_REACTORS
330
3B9
102
}
330
3B9
100
AcDbXrecord
280
     1
102
RTVSPost2010Prop28
280
     0
102
RTVSPost2010PropOp28
 70
     1
102
RTVSPost2010Prop29
280
     1
102
RTVSPost2010PropOp29
 70
     1
102
RTVSPost2010Prop30
280
     1
102
RTVSPost2010PropOp30
 70
     1
102
RTVSPost2010Prop31
280
     0
102
RTVSPost2010PropOp31
 70
     1
102
RTVSPost2010Prop32
280
     0
102
RTVSPost2010PropOp32
 70
     1
102
RTVSPost2010Prop33
280
     0
102
RTVSPost2010PropOp33
 70
     1
102
RTVSPost2010Prop34
280
     0
102
RTVSPost2010PropOp34
 70
     1
102
RTVSPost2010Prop35
280
     0
102
RTVSPost2010PropOp35
 70
     1
102
RTVSPost2010Prop36
280
     0
102
RTVSPost2010PropOp36
 70
     1
102
RTVSPost2010Prop37
 90
       50
102
RTVSPost2010PropOp37
 70
     1
102
RTVSPost2010Prop38
140
0.0
102
RTVSPost2010PropOp38
 70
     1
102
RTVSPost2010Prop39
140
1.0
102
RTVSPost2010PropOp39
 70
     1
102
RTVSPost2010Prop40
 90
        0
102
RTVSPost2010PropOp40
 70
     1
102
RTVSPost2010Prop41ColorIndex
 90
       18
102
RTVSPost2010Prop41ColorRGB
 90
        0
102
RTVSPost2010PropOp41
 70
     1
102
RTVSPost2010Prop42
 90
       50
102
RTVSPost2010PropOp42
 70
     1
102
RTVSPost2010Prop43
 90
        3
102
RTVSPost2010PropOp43
 70
     1
102
RTVSPost2010Prop44ColorIndex
 90
        5
102
RTVSPost2010Prop44ColorRGB
 90
      255
102
RTVSPost2010PropOp44
 70
     1
102
RTVSPost2010Prop45
280
     0
102
RTVSPost2010PropOp45
 70
     1
102
RTVSPost2010Prop46
 90
       50
102
RTVSPost2010PropOp46
 70
     1
102
RTVSPost2010Prop47
 90
       50
102
RTVSPost2010PropOp47
 70
     1
102
RTVSPost2010Prop48
 90
       50
102
RTVSPost2010PropOp48
 70
     1
102
RTVSPost2010Prop49
280
     0
102
RTVSPost2010PropOp49
 70
     1
102
RTVSPost2010Prop50
 90
       50
102
RTVSPost2010PropOp50
 70
     1
102
RTVSPost2010Prop51ColorIndex
 90
      256
102
RTVSPost2010Prop51ColorRGB
 90
-16777216
102
RTVSPost2010PropOp51
 70
     0
102
RTVSPost2010Prop52
140
1.0
102
RTVSPost2010PropOp52
 70
     0
102
RTVSPost2010Prop53
 90
        2
102
RTVSPost2010PropOp53
 70
     1
102
RTVSPost2010Prop54
  1
strokes_ogs.tif
102
RTVSPost2010PropOp54
 70
     1
102
RTVSPost2010Prop55
280
     0
102
RTVSPost2010PropOp55
 70
     1
102
RTVSPost2010Prop56
140
1.0
102
RTVSPost2010PropOp56
 70
     1
102
RTVSPost2010Prop57
140
1.0
102
RTVSPost2010PropOp57
 70
     1
102
RTVSPropertyOp0
 70
     1
102
RTVSPropertyOp1
 70
     1
102
RTVSPropertyOp2
 70
     1
102
RTVSPropertyOp3
 70
     1
102
RTVSPropertyOp4
 70
     1
102
RTVSPropertyOp5
 70
     1
102
RTVSPropertyOp6
 70
     1
102
RTVSPropertyOp7
 70
     1
102
RTVSPropertyOp8
 70
     1
102
RTVSPropertyOp9
 70
     1
102
RTVSPropertyOp10
 70
     1
102
RTVSPropertyOp11
 70
     1
102
RTVSPropertyOp12
 70
     1
102
RTVSPropertyOp13
 70
     1
102
RTVSPropertyOp14
 70
     1
102
RTVSPropertyOp15
 70
     1
102
RTVSPropertyOp16
 70
     1
102
RTVSPropertyOp17
 70
     1
102
RTVSPropertyOp18
 70
     1
102
RTVSPropertyOp19
 70
     1
102
RTVSPropertyOp20
 70
     1
102
RTVSPropertyOp21
 70
     1
102
RTVSPropertyOp22
 70
     1
102
RTVSPropertyOp23
 70
     1
102
RTVSPropertyOp24
 70
     1
102
RTVSPropertyOp25
 70
     1
102
RTVSPropertyOp26
 70
     1
102
RTVSPropertyOp27
 70
     1
102
RTVSPropertyOp28
 70
     1
102
RTVSPropertyOp29
 70
     1
102
RTVSPropertyOp30
 70
     1
102
RTVSPropertyOp31
 70
     1
102
RTVSPropertyOp32
 70
     1
102
RTVSPropertyOp33
 70
     1
102
RTVSPropertyOp34
 70
     1
102
RTVSPropertyOp35
 70
     1
102
RTVSPropertyOp36
 70
     1
102
RTVSPropertyOp37
 70
     1
102
RTVSPropertyOp38
 70
     1
102
RTVSPropertyOp39
 70
     1
102
RTVSPropertyOp40
 70
     1
102
RTVSPropertyOp41
 70
     1
102
RTVSPropertyOp42
 70
     1
102
RTVSPropertyOp43
 70
     1
102
RTVSPropertyOp44
 70
     1
102
RTVSPropertyOp45
 70
     1
102
RTVSPropertyOp46
 70
     1
102
RTVSPropertyOp47
 70
     1
102
RTVSPropertyOp48
 70
     1
102
RTVSPropertyOp49
 70
     1
102
RTVSPropertyOp50
 70
     1
102
RTVSPropertyOp51
 70
     0
102
RTVSPropertyOp52
 70
     0
102
RTVSPropertyOp53
 70
     1
102
RTVSPropertyOp54
 70
     1
102
RTVSPropertyOp55
 70
     1
102
RTVSPropertyOp56
 70
     1
102
RTVSPropertyOp57
 70
     1
102
RTVSPropertyOp58
 70
     1
102
RTVSPropertyOp59
 70
     1
102
RTVSPropertyOp60
 70
     1
102
RTVSPropertyOp61
 70
     1
102
RTVSPropertyOp62
 70
     1
  0
XRECORD
  5
3B8
102
{ACAD_REACTORS
330
3B7
102
}
330
3B7
100
AcDbXrecord
280
     1
102
RTVSPost2010Prop28
280
     0
102
RTVSPost2010PropOp28
 70
     1
102
RTVSPost2010Prop29
280
     1
102
RTVSPost2010PropOp29
 70
     1
102
RTVSPost2010Prop30
280
     1
102
RTVSPost2010PropOp30
 70
     1
102
RTVSPost2010Prop31
280
     0
102
RTVSPost2010PropOp31
 70
     1
102
RTVSPost2010Prop32
280
     0
102
RTVSPost2010PropOp32
 70
     1
102
RTVSPost2010Prop33
280
     0
102
RTVSPost2010PropOp33
 70
     1
102
RTVSPost2010Prop34
280
     0
102
RTVSPost2010PropOp34
 70
     1
102
RTVSPost2010Prop35
280
     0
102
RTVSPost2010PropOp35
 70
     1
102
RTVSPost2010Prop36
280
     0
102
RTVSPost2010PropOp36
 70
     1
102
RTVSPost2010Prop37
 90
       50
102
RTVSPost2010PropOp37
 70
     1
102
RTVSPost2010Prop38
140
0.0
102
RTVSPost2010PropOp38
 70
     1
102
RTVSPost2010Prop39
140
1.0
102
RTVSPost2010PropOp39
 70
     1
102
RTVSPost2010Prop40
 90
        0
102
RTVSPost2010PropOp40
 70
     1
102
RTVSPost2010Prop41ColorIndex
 90
       18
102
RTVSPost2010Prop41ColorRGB
 90
        0
102
RTVSPost2010PropOp41
 70
     1
102
RTVSPost2010Prop42
 90
       50
102
RTVSPost2010PropOp42
 70
     1
102
RTVSPost2010Prop43
 90
        3
102
RTVSPost2010PropOp43
 70
     1
102
RTVSPost2010Prop44ColorIndex
 90
        5
102
RTVSPost2010Prop44ColorRGB
 90
      255
102
RTVSPost2010PropOp44
 70
     1
102
RTVSPost2010Prop45
280
     0
102
RTVSPost2010PropOp45
 70
     1
102
RTVSPost2010Prop46
 90
       50
102
RTVSPost2010PropOp46
 70
     1
102
RTVSPost2010Prop47
 90
       50
102
RTVSPost2010PropOp47
 70
     1
102
RTVSPost2010Prop48
 90
       50
102
RTVSPost2010PropOp48
 70
     1
102
RTVSPost2010Prop49
280
     0
102
RTVSPost2010PropOp49
 70
     1
102
RTVSPost2010Prop50
 90
       50
102
RTVSPost2010PropOp50
 70
     1
102
RTVSPost2010Prop51ColorIndex
 90
      256
102
RTVSPost2010Prop51ColorRGB
 90
-16777216
102
RTVSPost2010PropOp51
 70
     0
102
RTVSPost2010Prop52
140
1.0
102
RTVSPost2010PropOp52
 70
     0
102
RTVSPost2010Prop53
 90
        2
102
RTVSPost2010PropOp53
 70
     1
102
RTVSPost2010Prop54
  1
strokes_ogs.tif
102
RTVSPost2010PropOp54
 70
     1
102
RTVSPost2010Prop55
280
     0
102
RTVSPost2010PropOp55
 70
     1
102
RTVSPost2010Prop56
140
1.0
102
RTVSPost2010PropOp56
 70
     1
102
RTVSPost2010Prop57
140
1.0
102
RTVSPost2010PropOp57
 70
     1
102
RTVSPropertyOp0
 70
     1
102
RTVSPropertyOp1
 70
     1
102
RTVSPropertyOp2
 70
     1
102
RTVSPropertyOp3
 70
     1
102
RTVSPropertyOp4
 70
     1
102
RTVSPropertyOp5
 70
     1
102
RTVSPropertyOp6
 70
     1
102
RTVSPropertyOp7
 70
     1
102
RTVSPropertyOp8
 70
     1
102
RTVSPropertyOp9
 70
     1
102
RTVSPropertyOp10
 70
     1
102
RTVSPropertyOp11
 70
     1
102
RTVSPropertyOp12
 70
     1
102
RTVSPropertyOp13
 70
     1
102
RTVSPropertyOp14
 70
     1
102
RTVSPropertyOp15
 70
     1
102
RTVSPropertyOp16
 70
     1
102
RTVSPropertyOp17
 70
     1
102
RTVSPropertyOp18
 70
     1
102
RTVSPropertyOp19
 70
     1
102
RTVSPropertyOp20
 70
     1
102
RTVSPropertyOp21
 70
     1
102
RTVSPropertyOp22
 70
     1
102
RTVSPropertyOp23
 70
     1
102
RTVSPropertyOp24
 70
     1
102
RTVSPropertyOp25
 70
     1
102
RTVSPropertyOp26
 70
     1
102
RTVSPropertyOp27
 70
     1
102
RTVSPropertyOp28
 70
     1
102
RTVSPropertyOp29
 70
     1
102
RTVSPropertyOp30
 70
     1
102
RTVSPropertyOp31
 70
     1
102
RTVSPropertyOp32
 70
     1
102
RTVSPropertyOp33
 70
     1
102
RTVSPropertyOp34
 70
     1
102
RTVSPropertyOp35
 70
     1
102
RTVSPropertyOp36
 70
     1
102
RTVSPropertyOp37
 70
     1
102
RTVSPropertyOp38
 70
     1
102
RTVSPropertyOp39
 70
     1
102
RTVSPropertyOp40
 70
     1
102
RTVSPropertyOp41
 70
     1
102
RTVSPropertyOp42
 70
     1
102
RTVSPropertyOp43
 70
     1
102
RTVSPropertyOp44
 70
     1
102
RTVSPropertyOp45
 70
     1
102
RTVSPropertyOp46
 70
     1
102
RTVSPropertyOp47
 70
     1
102
RTVSPropertyOp48
 70
     1
102
RTVSPropertyOp49
 70
     1
102
RTVSPropertyOp50
 70
     1
102
RTVSPropertyOp51
 70
     0
102
RTVSPropertyOp52
 70
     0
102
RTVSPropertyOp53
 70
     1
102
RTVSPropertyOp54
 70
     1
102
RTVSPropertyOp55
 70
     1
102
RTVSPropertyOp56
 70
     1
102
RTVSPropertyOp57
 70
     1
102
RTVSPropertyOp58
 70
     1
102
RTVSPropertyOp59
 70
     1
102
RTVSPropertyOp60
 70
     1
102
RTVSPropertyOp61
 70
     1
102
RTVSPropertyOp62
 70
     1
  0
XRECORD
  5
3B2
102
{ACAD_REACTORS
330
3B1
102
}
330
3B1
100
AcDbXrecord
280
     1
102
RTVSPost2010Prop28
280
     0
102
RTVSPost2010PropOp28
 70
     1
102
RTVSPost2010Prop29
280
     1
102
RTVSPost2010PropOp29
 70
     1
102
RTVSPost2010Prop30
280
     1
102
RTVSPost2010PropOp30
 70
     1
102
RTVSPost2010Prop31
280
     0
102
RTVSPost2010PropOp31
 70
     1
102
RTVSPost2010Prop32
280
     0
102
RTVSPost2010PropOp32
 70
     1
102
RTVSPost2010Prop33
280
     0
102
RTVSPost2010PropOp33
 70
     1
102
RTVSPost2010Prop34
280
     0
102
RTVSPost2010PropOp34
 70
     1
102
RTVSPost2010Prop35
280
     0
102
RTVSPost2010PropOp35
 70
     1
102
RTVSPost2010Prop36
280
     0
102
RTVSPost2010PropOp36
 70
     1
102
RTVSPost2010Prop37
 90
       50
102
RTVSPost2010PropOp37
 70
     1
102
RTVSPost2010Prop38
140
0.0
102
RTVSPost2010PropOp38
 70
     1
102
RTVSPost2010Prop39
140
1.0
102
RTVSPost2010PropOp39
 70
     1
102
RTVSPost2010Prop40
 90
        0
102
RTVSPost2010PropOp40
 70
     1
102
RTVSPost2010Prop41ColorIndex
 90
       18
102
RTVSPost2010Prop41ColorRGB
 90
        0
102
RTVSPost2010PropOp41
 70
     1
102
RTVSPost2010Prop42
 90
       50
102
RTVSPost2010PropOp42
 70
     1
102
RTVSPost2010Prop43
 90
        3
102
RTVSPost2010PropOp43
 70
     1
102
RTVSPost2010Prop44ColorIndex
 90
        5
102
RTVSPost2010Prop44ColorRGB
 90
      255
102
RTVSPost2010PropOp44
 70
     1
102
RTVSPost2010Prop45
280
     0
102
RTVSPost2010PropOp45
 70
     1
102
RTVSPost2010Prop46
 90
       50
102
RTVSPost2010PropOp46
 70
     1
102
RTVSPost2010Prop47
 90
       50
102
RTVSPost2010PropOp47
 70
     1
102
RTVSPost2010Prop48
 90
       50
102
RTVSPost2010PropOp48
 70
     1
102
RTVSPost2010Prop49
280
     0
102
RTVSPost2010PropOp49
 70
     1
102
RTVSPost2010Prop50
 90
       50
102
RTVSPost2010PropOp50
 70
     1
102
RTVSPost2010Prop51ColorIndex
 90
      256
102
RTVSPost2010Prop51ColorRGB
 90
-16777216
102
RTVSPost2010PropOp51
 70
     0
102
RTVSPost2010Prop52
140
1.0
102
RTVSPost2010PropOp52
 70
     0
102
RTVSPost2010Prop53
 90
        2
102
RTVSPost2010PropOp53
 70
     1
102
RTVSPost2010Prop54
  1
strokes_ogs.tif
102
RTVSPost2010PropOp54
 70
     1
102
RTVSPost2010Prop55
280
     0
102
RTVSPost2010PropOp55
 70
     1
102
RTVSPost2010Prop56
140
1.0
102
RTVSPost2010PropOp56
 70
     1
102
RTVSPost2010Prop57
140
1.0
102
RTVSPost2010PropOp57
 70
     1
102
RTVSPropertyOp0
 70
     1
102
RTVSPropertyOp1
 70
     1
102
RTVSPropertyOp2
 70
     1
102
RTVSPropertyOp3
 70
     1
102
RTVSPropertyOp4
 70
     1
102
RTVSPropertyOp5
 70
     1
102
RTVSPropertyOp6
 70
     1
102
RTVSPropertyOp7
 70
     1
102
RTVSPropertyOp8
 70
     1
102
RTVSPropertyOp9
 70
     1
102
RTVSPropertyOp10
 70
     1
102
RTVSPropertyOp11
 70
     1
102
RTVSPropertyOp12
 70
     1
102
RTVSPropertyOp13
 70
     1
102
RTVSPropertyOp14
 70
     1
102
RTVSPropertyOp15
 70
     1
102
RTVSPropertyOp16
 70
     1
102
RTVSPropertyOp17
 70
     1
102
RTVSPropertyOp18
 70
     1
102
RTVSPropertyOp19
 70
     1
102
RTVSPropertyOp20
 70
     1
102
RTVSPropertyOp21
 70
     1
102
RTVSPropertyOp22
 70
     1
102
RTVSPropertyOp23
 70
     1
102
RTVSPropertyOp24
 70
     1
102
RTVSPropertyOp25
 70
     1
102
RTVSPropertyOp26
 70
     1
102
RTVSPropertyOp27
 70
     1
102
RTVSPropertyOp28
 70
     1
102
RTVSPropertyOp29
 70
     1
102
RTVSPropertyOp30
 70
     1
102
RTVSPropertyOp31
 70
     1
102
RTVSPropertyOp32
 70
     1
102
RTVSPropertyOp33
 70
     1
102
RTVSPropertyOp34
 70
     1
102
RTVSPropertyOp35
 70
     1
102
RTVSPropertyOp36
 70
     1
102
RTVSPropertyOp37
 70
     1
102
RTVSPropertyOp38
 70
     1
102
RTVSPropertyOp39
 70
     1
102
RTVSPropertyOp40
 70
     1
102
RTVSPropertyOp41
 70
     1
102
RTVSPropertyOp42
 70
     1
102
RTVSPropertyOp43
 70
     1
102
RTVSPropertyOp44
 70
     1
102
RTVSPropertyOp45
 70
     1
102
RTVSPropertyOp46
 70
     1
102
RTVSPropertyOp47
 70
     1
102
RTVSPropertyOp48
 70
     1
102
RTVSPropertyOp49
 70
     1
102
RTVSPropertyOp50
 70
     1
102
RTVSPropertyOp51
 70
     0
102
RTVSPropertyOp52
 70
     0
102
RTVSPropertyOp53
 70
     1
102
RTVSPropertyOp54
 70
     1
102
RTVSPropertyOp55
 70
     1
102
RTVSPropertyOp56
 70
     1
102
RTVSPropertyOp57
 70
     1
102
RTVSPropertyOp58
 70
     1
102
RTVSPropertyOp59
 70
     1
102
RTVSPropertyOp60
 70
     1
102
RTVSPropertyOp61
 70
     1
102
RTVSPropertyOp62
 70
     1
  0
XRECORD
  5
3B4
102
{ACAD_REACTORS
330
3B3
102
}
330
3B3
100
AcDbXrecord
280
     1
102
RTVSPost2010Prop28
280
     0
102
RTVSPost2010PropOp28
 70
     1
102
RTVSPost2010Prop29
280
     1
102
RTVSPost2010PropOp29
 70
     1
102
RTVSPost2010Prop30
280
     1
102
RTVSPost2010PropOp30
 70
     1
102
RTVSPost2010Prop31
280
     0
102
RTVSPost2010PropOp31
 70
     1
102
RTVSPost2010Prop32
280
     0
102
RTVSPost2010PropOp32
 70
     1
102
RTVSPost2010Prop33
280
     0
102
RTVSPost2010PropOp33
 70
     1
102
RTVSPost2010Prop34
280
     0
102
RTVSPost2010PropOp34
 70
     1
102
RTVSPost2010Prop35
280
     0
102
RTVSPost2010PropOp35
 70
     1
102
RTVSPost2010Prop36
280
     0
102
RTVSPost2010PropOp36
 70
     1
102
RTVSPost2010Prop37
 90
       50
102
RTVSPost2010PropOp37
 70
     1
102
RTVSPost2010Prop38
140
0.0
102
RTVSPost2010PropOp38
 70
     1
102
RTVSPost2010Prop39
140
1.0
102
RTVSPost2010PropOp39
 70
     1
102
RTVSPost2010Prop40
 90
        0
102
RTVSPost2010PropOp40
 70
     1
102
RTVSPost2010Prop41ColorIndex
 90
       18
102
RTVSPost2010Prop41ColorRGB
 90
        0
102
RTVSPost2010PropOp41
 70
     1
102
RTVSPost2010Prop42
 90
       50
102
RTVSPost2010PropOp42
 70
     1
102
RTVSPost2010Prop43
 90
        3
102
RTVSPost2010PropOp43
 70
     1
102
RTVSPost2010Prop44ColorIndex
 90
        5
102
RTVSPost2010Prop44ColorRGB
 90
      255
102
RTVSPost2010PropOp44
 70
     1
102
RTVSPost2010Prop45
280
     0
102
RTVSPost2010PropOp45
 70
     1
102
RTVSPost2010Prop46
 90
       50
102
RTVSPost2010PropOp46
 70
     1
102
RTVSPost2010Prop47
 90
       50
102
RTVSPost2010PropOp47
 70
     1
102
RTVSPost2010Prop48
 90
       50
102
RTVSPost2010PropOp48
 70
     1
102
RTVSPost2010Prop49
280
     0
102
RTVSPost2010PropOp49
 70
     1
102
RTVSPost2010Prop50
 90
       50
102
RTVSPost2010PropOp50
 70
     1
102
RTVSPost2010Prop51ColorIndex
 90
      256
102
RTVSPost2010Prop51ColorRGB
 90
-16777216
102
RTVSPost2010PropOp51
 70
     0
102
RTVSPost2010Prop52
140
1.0
102
RTVSPost2010PropOp52
 70
     0
102
RTVSPost2010Prop53
 90
        2
102
RTVSPost2010PropOp53
 70
     1
102
RTVSPost2010Prop54
  1
strokes_ogs.tif
102
RTVSPost2010PropOp54
 70
     1
102
RTVSPost2010Prop55
280
     0
102
RTVSPost2010PropOp55
 70
     1
102
RTVSPost2010Prop56
140
1.0
102
RTVSPost2010PropOp56
 70
     1
102
RTVSPost2010Prop57
140
1.0
102
RTVSPost2010PropOp57
 70
     1
102
RTVSPropertyOp0
 70
     1
102
RTVSPropertyOp1
 70
     1
102
RTVSPropertyOp2
 70
     1
102
RTVSPropertyOp3
 70
     1
102
RTVSPropertyOp4
 70
     1
102
RTVSPropertyOp5
 70
     1
102
RTVSPropertyOp6
 70
     1
102
RTVSPropertyOp7
 70
     1
102
RTVSPropertyOp8
 70
     1
102
RTVSPropertyOp9
 70
     1
102
RTVSPropertyOp10
 70
     1
102
RTVSPropertyOp11
 70
     1
102
RTVSPropertyOp12
 70
     1
102
RTVSPropertyOp13
 70
     1
102
RTVSPropertyOp14
 70
     1
102
RTVSPropertyOp15
 70
     1
102
RTVSPropertyOp16
 70
     1
102
RTVSPropertyOp17
 70
     1
102
RTVSPropertyOp18
 70
     1
102
RTVSPropertyOp19
 70
     1
102
RTVSPropertyOp20
 70
     1
102
RTVSPropertyOp21
 70
     1
102
RTVSPropertyOp22
 70
     1
102
RTVSPropertyOp23
 70
     1
102
RTVSPropertyOp24
 70
     1
102
RTVSPropertyOp25
 70
     1
102
RTVSPropertyOp26
 70
     1
102
RTVSPropertyOp27
 70
     1
102
RTVSPropertyOp28
 70
     1
102
RTVSPropertyOp29
 70
     1
102
RTVSPropertyOp30
 70
     1
102
RTVSPropertyOp31
 70
     1
102
RTVSPropertyOp32
 70
     1
102
RTVSPropertyOp33
 70
     1
102
RTVSPropertyOp34
 70
     1
102
RTVSPropertyOp35
 70
     1
102
RTVSPropertyOp36
 70
     1
102
RTVSPropertyOp37
 70
     1
102
RTVSPropertyOp38
 70
     1
102
RTVSPropertyOp39
 70
     1
102
RTVSPropertyOp40
 70
     1
102
RTVSPropertyOp41
 70
     1
102
RTVSPropertyOp42
 70
     1
102
RTVSPropertyOp43
 70
     1
102
RTVSPropertyOp44
 70
     1
102
RTVSPropertyOp45
 70
     1
102
RTVSPropertyOp46
 70
     1
102
RTVSPropertyOp47
 70
     1
102
RTVSPropertyOp48
 70
     1
102
RTVSPropertyOp49
 70
     1
102
RTVSPropertyOp50
 70
     1
102
RTVSPropertyOp51
 70
     0
102
RTVSPropertyOp52
 70
     0
102
RTVSPropertyOp53
 70
     1
102
RTVSPropertyOp54
 70
     1
102
RTVSPropertyOp55
 70
     1
102
RTVSPropertyOp56
 70
     1
102
RTVSPropertyOp57
 70
     1
102
RTVSPropertyOp58
 70
     1
102
RTVSPropertyOp59
 70
     1
102
RTVSPropertyOp60
 70
     1
102
RTVSPropertyOp61
 70
     1
102
RTVSPropertyOp62
 70
     1
  0
XRECORD
  5
3A4
102
{ACAD_REACTORS
330
3A3
102
}
330
3A3
100
AcDbXrecord
280
     1
102
RTVSPost2010Prop28
280
     0
102
RTVSPost2010PropOp28
 70
     1
102
RTVSPost2010Prop29
280
     1
102
RTVSPost2010PropOp29
 70
     1
102
RTVSPost2010Prop30
280
     1
102
RTVSPost2010PropOp30
 70
     1
102
RTVSPost2010Prop31
280
     0
102
RTVSPost2010PropOp31
 70
     1
102
RTVSPost2010Prop32
280
     0
102
RTVSPost2010PropOp32
 70
     1
102
RTVSPost2010Prop33
280
     0
102
RTVSPost2010PropOp33
 70
     1
102
RTVSPost2010Prop34
280
     0
102
RTVSPost2010PropOp34
 70
     1
102
RTVSPost2010Prop35
280
     0
102
RTVSPost2010PropOp35
 70
     1
102
RTVSPost2010Prop36
280
     0
102
RTVSPost2010PropOp36
 70
     1
102
RTVSPost2010Prop37
 90
       50
102
RTVSPost2010PropOp37
 70
     1
102
RTVSPost2010Prop38
140
0.0
102
RTVSPost2010PropOp38
 70
     1
102
RTVSPost2010Prop39
140
1.0
102
RTVSPost2010PropOp39
 70
     1
102
RTVSPost2010Prop40
 90
        0
102
RTVSPost2010PropOp40
 70
     1
102
RTVSPost2010Prop41ColorIndex
 90
       18
102
RTVSPost2010Prop41ColorRGB
 90
        0
102
RTVSPost2010PropOp41
 70
     1
102
RTVSPost2010Prop42
 90
       50
102
RTVSPost2010PropOp42
 70
     1
102
RTVSPost2010Prop43
 90
        3
102
RTVSPost2010PropOp43
 70
     1
102
RTVSPost2010Prop44ColorIndex
 90
        5
102
RTVSPost2010Prop44ColorRGB
 90
      255
102
RTVSPost2010PropOp44
 70
     1
102
RTVSPost2010Prop45
280
     0
102
RTVSPost2010PropOp45
 70
     1
102
RTVSPost2010Prop46
 90
       50
102
RTVSPost2010PropOp46
 70
     1
102
RTVSPost2010Prop47
 90
       50
102
RTVSPost2010PropOp47
 70
     1
102
RTVSPost2010Prop48
 90
       50
102
RTVSPost2010PropOp48
 70
     1
102
RTVSPost2010Prop49
280
     0
102
RTVSPost2010PropOp49
 70
     1
102
RTVSPost2010Prop50
 90
       50
102
RTVSPost2010PropOp50
 70
     1
102
RTVSPost2010Prop51ColorIndex
 90
      256
102
RTVSPost2010Prop51ColorRGB
 90
-16777216
102
RTVSPost2010PropOp51
 70
     0
102
RTVSPost2010Prop52
140
1.0
102
RTVSPost2010PropOp52
 70
     0
102
RTVSPost2010Prop53
 90
        2
102
RTVSPost2010PropOp53
 70
     1
102
RTVSPost2010Prop54
  1
strokes_ogs.tif
102
RTVSPost2010PropOp54
 70
     1
102
RTVSPost2010Prop55
280
     0
102
RTVSPost2010PropOp55
 70
     1
102
RTVSPost2010Prop56
140
1.0
102
RTVSPost2010PropOp56
 70
     1
102
RTVSPost2010Prop57
140
1.0
102
RTVSPost2010PropOp57
 70
     1
102
RTVSPropertyOp0
 70
     1
102
RTVSPropertyOp1
 70
     1
102
RTVSPropertyOp2
 70
     1
102
RTVSPropertyOp3
 70
     1
102
RTVSPropertyOp4
 70
     1
102
RTVSPropertyOp5
 70
     1
102
RTVSPropertyOp6
 70
     1
102
RTVSPropertyOp7
 70
     1
102
RTVSPropertyOp8
 70
     1
102
RTVSPropertyOp9
 70
     1
102
RTVSPropertyOp10
 70
     1
102
RTVSPropertyOp11
 70
     1
102
RTVSPropertyOp12
 70
     1
102
RTVSPropertyOp13
 70
     1
102
RTVSPropertyOp14
 70
     1
102
RTVSPropertyOp15
 70
     1
102
RTVSPropertyOp16
 70
     1
102
RTVSPropertyOp17
 70
     1
102
RTVSPropertyOp18
 70
     1
102
RTVSPropertyOp19
 70
     1
102
RTVSPropertyOp20
 70
     1
102
RTVSPropertyOp21
 70
     1
102
RTVSPropertyOp22
 70
     1
102
RTVSPropertyOp23
 70
     1
102
RTVSPropertyOp24
 70
     1
102
RTVSPropertyOp25
 70
     1
102
RTVSPropertyOp26
 70
     1
102
RTVSPropertyOp27
 70
     1
102
RTVSPropertyOp28
 70
     1
102
RTVSPropertyOp29
 70
     1
102
RTVSPropertyOp30
 70
     1
102
RTVSPropertyOp31
 70
     1
102
RTVSPropertyOp32
 70
     1
102
RTVSPropertyOp33
 70
     1
102
RTVSPropertyOp34
 70
     1
102
RTVSPropertyOp35
 70
     1
102
RTVSPropertyOp36
 70
     1
102
RTVSPropertyOp37
 70
     1
102
RTVSPropertyOp38
 70
     1
102
RTVSPropertyOp39
 70
     1
102
RTVSPropertyOp40
 70
     1
102
RTVSPropertyOp41
 70
     1
102
RTVSPropertyOp42
 70
     1
102
RTVSPropertyOp43
 70
     1
102
RTVSPropertyOp44
 70
     1
102
RTVSPropertyOp45
 70
     1
102
RTVSPropertyOp46
 70
     1
102
RTVSPropertyOp47
 70
     1
102
RTVSPropertyOp48
 70
     1
102
RTVSPropertyOp49
 70
     1
102
RTVSPropertyOp50
 70
     1
102
RTVSPropertyOp51
 70
     0
102
RTVSPropertyOp52
 70
     0
102
RTVSPropertyOp53
 70
     1
102
RTVSPropertyOp54
 70
     1
102
RTVSPropertyOp55
 70
     1
102
RTVSPropertyOp56
 70
     1
102
RTVSPropertyOp57
 70
     1
102
RTVSPropertyOp58
 70
     1
102
RTVSPropertyOp59
 70
     1
102
RTVSPropertyOp60
 70
     1
102
RTVSPropertyOp61
 70
     1
102
RTVSPropertyOp62
 70
     1
  0
XRECORD
  5
396
102
{ACAD_REACTORS
330
395
102
}
330
395
100
AcDbXrecord
280
     1
102
RTVSPost2010Prop28
280
     0
102
RTVSPost2010PropOp28
 70
     1
102
RTVSPost2010Prop29
280
     1
102
RTVSPost2010PropOp29
 70
     1
102
RTVSPost2010Prop30
280
     1
102
RTVSPost2010PropOp30
 70
     1
102
RTVSPost2010Prop31
280
     0
102
RTVSPost2010PropOp31
 70
     1
102
RTVSPost2010Prop32
280
     0
102
RTVSPost2010PropOp32
 70
     1
102
RTVSPost2010Prop33
280
     0
102
RTVSPost2010PropOp33
 70
     1
102
RTVSPost2010Prop34
280
     0
102
RTVSPost2010PropOp34
 70
     1
102
RTVSPost2010Prop35
280
     0
102
RTVSPost2010PropOp35
 70
     1
102
RTVSPost2010Prop36
280
     0
102
RTVSPost2010PropOp36
 70
     1
102
RTVSPost2010Prop37
 90
       50
102
RTVSPost2010PropOp37
 70
     1
102
RTVSPost2010Prop38
140
0.0
102
RTVSPost2010PropOp38
 70
     1
102
RTVSPost2010Prop39
140
1.0
102
RTVSPost2010PropOp39
 70
     1
102
RTVSPost2010Prop40
 90
        0
102
RTVSPost2010PropOp40
 70
     1
102
RTVSPost2010Prop41ColorIndex
 90
       18
102
RTVSPost2010Prop41ColorRGB
 90
        0
102
RTVSPost2010PropOp41
 70
     1
102
RTVSPost2010Prop42
 90
       50
102
RTVSPost2010PropOp42
 70
     1
102
RTVSPost2010Prop43
 90
        3
102
RTVSPost2010PropOp43
 70
     1
102
RTVSPost2010Prop44ColorIndex
 90
        5
102
RTVSPost2010Prop44ColorRGB
 90
      255
102
RTVSPost2010PropOp44
 70
     1
102
RTVSPost2010Prop45
280
     0
102
RTVSPost2010PropOp45
 70
     1
102
RTVSPost2010Prop46
 90
       50
102
RTVSPost2010PropOp46
 70
     1
102
RTVSPost2010Prop47
 90
       50
102
RTVSPost2010PropOp47
 70
     1
102
RTVSPost2010Prop48
 90
       50
102
RTVSPost2010PropOp48
 70
     1
102
RTVSPost2010Prop49
280
     0
102
RTVSPost2010PropOp49
 70
     1
102
RTVSPost2010Prop50
 90
       50
102
RTVSPost2010PropOp50
 70
     1
102
RTVSPost2010Prop51ColorIndex
 90
      256
102
RTVSPost2010Prop51ColorRGB
 90
-16777216
102
RTVSPost2010PropOp51
 70
     0
102
RTVSPost2010Prop52
140
1.0
102
RTVSPost2010PropOp52
 70
     0
102
RTVSPost2010Prop53
 90
        2
102
RTVSPost2010PropOp53
 70
     1
102
RTVSPost2010Prop54
  1
strokes_ogs.tif
102
RTVSPost2010PropOp54
 70
     1
102
RTVSPost2010Prop55
280
     0
102
RTVSPost2010PropOp55
 70
     1
102
RTVSPost2010Prop56
140
1.0
102
RTVSPost2010PropOp56
 70
     1
102
RTVSPost2010Prop57
140
1.0
102
RTVSPost2010PropOp57
 70
     1
102
RTVSPropertyOp0
 70
     1
102
RTVSPropertyOp1
 70
     1
102
RTVSPropertyOp2
 70
     1
102
RTVSPropertyOp3
 70
     1
102
RTVSPropertyOp4
 70
     1
102
RTVSPropertyOp5
 70
     1
102
RTVSPropertyOp6
 70
     1
102
RTVSPropertyOp7
 70
     1
102
RTVSPropertyOp8
 70
     1
102
RTVSPropertyOp9
 70
     1
102
RTVSPropertyOp10
 70
     1
102
RTVSPropertyOp11
 70
     1
102
RTVSPropertyOp12
 70
     1
102
RTVSPropertyOp13
 70
     1
102
RTVSPropertyOp14
 70
     1
102
RTVSPropertyOp15
 70
     1
102
RTVSPropertyOp16
 70
     1
102
RTVSPropertyOp17
 70
     1
102
RTVSPropertyOp18
 70
     1
102
RTVSPropertyOp19
 70
     1
102
RTVSPropertyOp20
 70
     1
102
RTVSPropertyOp21
 70
     1
102
RTVSPropertyOp22
 70
     1
102
RTVSPropertyOp23
 70
     1
102
RTVSPropertyOp24
 70
     1
102
RTVSPropertyOp25
 70
     1
102
RTVSPropertyOp26
 70
     1
102
RTVSPropertyOp27
 70
     1
102
RTVSPropertyOp28
 70
     1
102
RTVSPropertyOp29
 70
     1
102
RTVSPropertyOp30
 70
     1
102
RTVSPropertyOp31
 70
     1
102
RTVSPropertyOp32
 70
     1
102
RTVSPropertyOp33
 70
     1
102
RTVSPropertyOp34
 70
     1
102
RTVSPropertyOp35
 70
     1
102
RTVSPropertyOp36
 70
     1
102
RTVSPropertyOp37
 70
     1
102
RTVSPropertyOp38
 70
     1
102
RTVSPropertyOp39
 70
     1
102
RTVSPropertyOp40
 70
     1
102
RTVSPropertyOp41
 70
     1
102
RTVSPropertyOp42
 70
     1
102
RTVSPropertyOp43
 70
     1
102
RTVSPropertyOp44
 70
     1
102
RTVSPropertyOp45
 70
     1
102
RTVSPropertyOp46
 70
     1
102
RTVSPropertyOp47
 70
     1
102
RTVSPropertyOp48
 70
     1
102
RTVSPropertyOp49
 70
     1
102
RTVSPropertyOp50
 70
     1
102
RTVSPropertyOp51
 70
     0
102
RTVSPropertyOp52
 70
     0
102
RTVSPropertyOp53
 70
     1
102
RTVSPropertyOp54
 70
     1
102
RTVSPropertyOp55
 70
     1
102
RTVSPropertyOp56
 70
     1
102
RTVSPropertyOp57
 70
     1
102
RTVSPropertyOp58
 70
     1
102
RTVSPropertyOp59
 70
     1
102
RTVSPropertyOp60
 70
     1
102
RTVSPropertyOp61
 70
     1
102
RTVSPropertyOp62
 70
     1
  0
XRECORD
  5
3B6
102
{ACAD_REACTORS
330
3B5
102
}
330
3B5
100
AcDbXrecord
280
     1
102
RTVSPost2010Prop28
280
     0
102
RTVSPost2010PropOp28
 70
     1
102
RTVSPost2010Prop29
280
     1
102
RTVSPost2010PropOp29
 70
     1
102
RTVSPost2010Prop30
280
     1
102
RTVSPost2010PropOp30
 70
     1
102
RTVSPost2010Prop31
280
     0
102
RTVSPost2010PropOp31
 70
     1
102
RTVSPost2010Prop32
280
     0
102
RTVSPost2010PropOp32
 70
     1
102
RTVSPost2010Prop33
280
     0
102
RTVSPost2010PropOp33
 70
     1
102
RTVSPost2010Prop34
280
     0
102
RTVSPost2010PropOp34
 70
     1
102
RTVSPost2010Prop35
280
     0
102
RTVSPost2010PropOp35
 70
     1
102
RTVSPost2010Prop36
280
     0
102
RTVSPost2010PropOp36
 70
     1
102
RTVSPost2010Prop37
 90
       50
102
RTVSPost2010PropOp37
 70
     1
102
RTVSPost2010Prop38
140
0.0
102
RTVSPost2010PropOp38
 70
     1
102
RTVSPost2010Prop39
140
1.0
102
RTVSPost2010PropOp39
 70
     1
102
RTVSPost2010Prop40
 90
        0
102
RTVSPost2010PropOp40
 70
     1
102
RTVSPost2010Prop41ColorIndex
 90
       18
102
RTVSPost2010Prop41ColorRGB
 90
        0
102
RTVSPost2010PropOp41
 70
     1
102
RTVSPost2010Prop42
 90
       50
102
RTVSPost2010PropOp42
 70
     1
102
RTVSPost2010Prop43
 90
        3
102
RTVSPost2010PropOp43
 70
     1
102
RTVSPost2010Prop44ColorIndex
 90
        5
102
RTVSPost2010Prop44ColorRGB
 90
      255
102
RTVSPost2010PropOp44
 70
     1
102
RTVSPost2010Prop45
280
     0
102
RTVSPost2010PropOp45
 70
     1
102
RTVSPost2010Prop46
 90
       50
102
RTVSPost2010PropOp46
 70
     1
102
RTVSPost2010Prop47
 90
       50
102
RTVSPost2010PropOp47
 70
     1
102
RTVSPost2010Prop48
 90
       50
102
RTVSPost2010PropOp48
 70
     1
102
RTVSPost2010Prop49
280
     0
102
RTVSPost2010PropOp49
 70
     1
102
RTVSPost2010Prop50
 90
       50
102
RTVSPost2010PropOp50
 70
     1
102
RTVSPost2010Prop51ColorIndex
 90
      256
102
RTVSPost2010Prop51ColorRGB
 90
-16777216
102
RTVSPost2010PropOp51
 70
     0
102
RTVSPost2010Prop52
140
1.0
102
RTVSPost2010PropOp52
 70
     0
102
RTVSPost2010Prop53
 90
        2
102
RTVSPost2010PropOp53
 70
     1
102
RTVSPost2010Prop54
  1
strokes_ogs.tif
102
RTVSPost2010PropOp54
 70
     1
102
RTVSPost2010Prop55
280
     0
102
RTVSPost2010PropOp55
 70
     1
102
RTVSPost2010Prop56
140
1.0
102
RTVSPost2010PropOp56
 70
     1
102
RTVSPost2010Prop57
140
1.0
102
RTVSPost2010PropOp57
 70
     1
102
RTVSPropertyOp0
 70
     1
102
RTVSPropertyOp1
 70
     1
102
RTVSPropertyOp2
 70
     1
102
RTVSPropertyOp3
 70
     1
102
RTVSPropertyOp4
 70
     1
102
RTVSPropertyOp5
 70
     1
102
RTVSPropertyOp6
 70
     1
102
RTVSPropertyOp7
 70
     1
102
RTVSPropertyOp8
 70
     1
102
RTVSPropertyOp9
 70
     1
102
RTVSPropertyOp10
 70
     1
102
RTVSPropertyOp11
 70
     1
102
RTVSPropertyOp12
 70
     1
102
RTVSPropertyOp13
 70
     1
102
RTVSPropertyOp14
 70
     1
102
RTVSPropertyOp15
 70
     1
102
RTVSPropertyOp16
 70
     1
102
RTVSPropertyOp17
 70
     1
102
RTVSPropertyOp18
 70
     1
102
RTVSPropertyOp19
 70
     1
102
RTVSPropertyOp20
 70
     1
102
RTVSPropertyOp21
 70
     1
102
RTVSPropertyOp22
 70
     1
102
RTVSPropertyOp23
 70
     1
102
RTVSPropertyOp24
 70
     1
102
RTVSPropertyOp25
 70
     1
102
RTVSPropertyOp26
 70
     1
102
RTVSPropertyOp27
 70
     1
102
RTVSPropertyOp28
 70
     1
102
RTVSPropertyOp29
 70
     1
102
RTVSPropertyOp30
 70
     1
102
RTVSPropertyOp31
 70
     1
102
RTVSPropertyOp32
 70
     1
102
RTVSPropertyOp33
 70
     1
102
RTVSPropertyOp34
 70
     1
102
RTVSPropertyOp35
 70
     1
102
RTVSPropertyOp36
 70
     1
102
RTVSPropertyOp37
 70
     1
102
RTVSPropertyOp38
 70
     1
102
RTVSPropertyOp39
 70
     1
102
RTVSPropertyOp40
 70
     1
102
RTVSPropertyOp41
 70
     1
102
RTVSPropertyOp42
 70
     1
102
RTVSPropertyOp43
 70
     1
102
RTVSPropertyOp44
 70
     1
102
RTVSPropertyOp45
 70
     1
102
RTVSPropertyOp46
 70
     1
102
RTVSPropertyOp47
 70
     1
102
RTVSPropertyOp48
 70
     1
102
RTVSPropertyOp49
 70
     1
102
RTVSPropertyOp50
 70
     1
102
RTVSPropertyOp51
 70
     0
102
RTVSPropertyOp52
 70
     0
102
RTVSPropertyOp53
 70
     1
102
RTVSPropertyOp54
 70
     1
102
RTVSPropertyOp55
 70
     1
102
RTVSPropertyOp56
 70
     1
102
RTVSPropertyOp57
 70
     1
102
RTVSPropertyOp58
 70
     1
102
RTVSPropertyOp59
 70
     1
102
RTVSPropertyOp60
 70
     1
102
RTVSPropertyOp61
 70
     1
102
RTVSPropertyOp62
 70
     1
  0
ENDSEC
  0
EOF
