ISO-10303-21;
HEADER;
/* Generated by software containing ST-Developer
 * from STEP Tools, Inc. (www.steptools.com) 
 */
/* OPTION: using custom schema-name function */

FILE_DESCRIPTION(
/* description */ (''),
/* implementation_level */ '2;1');

FILE_NAME(
/* name */ '2080.50-W.40.090.stp',
/* time_stamp */ '2024-06-23T18:04:25+02:00',
/* author */ (''),
/* organization */ (''),
/* preprocessor_version */ 'ST-DEVELOPER v16.7',
/* originating_system */ 'SIEMENS PLM Software NX 12.0',
/* authorisation */ '');

FILE_SCHEMA (('AUTOMOTIVE_DESIGN { 1 0 10303 214 3 1 1 1 }'));
ENDSEC;

DATA;
#10=CONSTRUCTIVE_GEOMETRY_REPRESENTATION_RELATIONSHIP(
'supplemental geometry','',#32,#11);
#11=CONSTRUCTIVE_GEOMETRY_REPRESENTATION('supplemental geometry',(#253,
#254,#255),#418);
#12=PROPERTY_DEFINITION_REPRESENTATION(#16,#14);
#13=PROPERTY_DEFINITION_REPRESENTATION(#17,#15);
#14=REPRESENTATION('',(#18),#418);
#15=REPRESENTATION('',(#19),#418);
#16=PROPERTY_DEFINITION('pmi validation property','',#23);
#17=PROPERTY_DEFINITION('pmi validation property','',#23);
#18=VALUE_REPRESENTATION_ITEM('number of annotations',COUNT_MEASURE(0.));
#19=VALUE_REPRESENTATION_ITEM('number of views',COUNT_MEASURE(0.));
#20=SHAPE_REPRESENTATION_RELATIONSHIP('None',
'relationship between pf660F5CA0AEj8ee-None and pf660F5CA0AEj8ee-None',
#32,#21);
#21=ADVANCED_BREP_SHAPE_REPRESENTATION('pf660F5CA0AEj8ee-None',(#38),#418);
#22=SHAPE_DEFINITION_REPRESENTATION(#23,#32);
#23=PRODUCT_DEFINITION_SHAPE('','',#24);
#24=PRODUCT_DEFINITION(' ','',#26,#25);
#25=PRODUCT_DEFINITION_CONTEXT('part definition',#31,'design');
#26=PRODUCT_DEFINITION_FORMATION_WITH_SPECIFIED_SOURCE(' ',' ',#28,
 .NOT_KNOWN.);
#27=PRODUCT_RELATED_PRODUCT_CATEGORY('part','',(#28));
#28=PRODUCT('pf660F5CA0AEj8ee','pf660F5CA0AEj8ee',' ',(#29));
#29=PRODUCT_CONTEXT(' ',#31,'mechanical');
#30=APPLICATION_PROTOCOL_DEFINITION('international standard',
'automotive_design',2010,#31);
#31=APPLICATION_CONTEXT(
'core data for automotive mechanical design processes');
#32=SHAPE_REPRESENTATION('pf660F5CA0AEj8ee-None',(#252),#418);
#33=SURFACE_STYLE_USAGE(.BOTH.,#34);
#34=SURFACE_SIDE_STYLE('',(#35));
#35=SURFACE_STYLE_FILL_AREA(#36);
#36=FILL_AREA_STYLE('',(#37));
#37=FILL_AREA_STYLE_COLOUR('',#248);
#38=MANIFOLD_SOLID_BREP('',#39);
#39=CLOSED_SHELL('',(#74,#75,#76,#77,#78,#79,#80,#81,#82,#83,#84,#85));
#40=TOROIDAL_SURFACE('',#271,40.8,0.8);
#41=CYLINDRICAL_SURFACE('',#269,40.);
#42=CYLINDRICAL_SURFACE('',#274,48.75);
#43=CYLINDRICAL_SURFACE('',#281,19.65);
#44=CYLINDRICAL_SURFACE('',#282,19.65);
#45=CONICAL_SURFACE('',#264,35.,45.);
#46=CONICAL_SURFACE('',#266,35.,45.);
#47=CONICAL_SURFACE('',#277,27.64991320209,8.2971);
#48=LINE('',#371,#58);
#49=LINE('',#375,#59);
#50=LINE('',#379,#60);
#51=LINE('',#384,#61);
#52=LINE('',#385,#62);
#53=LINE('',#388,#63);
#54=LINE('',#403,#64);
#55=LINE('',#405,#65);
#56=LINE('',#413,#66);
#57=LINE('',#414,#67);
#58=VECTOR('',#305,1.);
#59=VECTOR('',#308,1.);
#60=VECTOR('',#315,1.);
#61=VECTOR('',#318,1.);
#62=VECTOR('',#319,1.);
#63=VECTOR('',#322,1.);
#64=VECTOR('',#339,1.);
#65=VECTOR('',#340,1.);
#66=VECTOR('',#349,1.);
#67=VECTOR('',#350,1.);
#68=FACE_OUTER_BOUND('',#104,.T.);
#69=FACE_OUTER_BOUND('',#105,.T.);
#70=FACE_OUTER_BOUND('',#106,.T.);
#71=FACE_OUTER_BOUND('',#117,.T.);
#72=FACE_OUTER_BOUND('',#118,.T.);
#73=FACE_OUTER_BOUND('',#119,.T.);
#74=ADVANCED_FACE('',(#90,#91),#86,.F.);
#75=ADVANCED_FACE('',(#68),#87,.T.);
#76=ADVANCED_FACE('',(#69),#45,.T.);
#77=ADVANCED_FACE('',(#70),#46,.T.);
#78=ADVANCED_FACE('',(#92,#93),#41,.T.);
#79=ADVANCED_FACE('',(#94,#95),#40,.F.);
#80=ADVANCED_FACE('',(#96,#97),#88,.T.);
#81=ADVANCED_FACE('',(#98,#99),#42,.T.);
#82=ADVANCED_FACE('',(#100,#101),#47,.T.);
#83=ADVANCED_FACE('',(#71),#89,.F.);
#84=ADVANCED_FACE('',(#72),#43,.T.);
#85=ADVANCED_FACE('',(#73),#44,.T.);
#86=PLANE('',#259);
#87=PLANE('',#262);
#88=PLANE('',#273);
#89=PLANE('',#280);
#90=FACE_BOUND('',#102,.T.);
#91=FACE_BOUND('',#103,.T.);
#92=FACE_BOUND('',#107,.T.);
#93=FACE_BOUND('',#108,.T.);
#94=FACE_BOUND('',#109,.T.);
#95=FACE_BOUND('',#110,.T.);
#96=FACE_BOUND('',#111,.T.);
#97=FACE_BOUND('',#112,.T.);
#98=FACE_BOUND('',#113,.T.);
#99=FACE_BOUND('',#114,.T.);
#100=FACE_BOUND('',#115,.T.);
#101=FACE_BOUND('',#116,.T.);
#102=EDGE_LOOP('',(#120));
#103=EDGE_LOOP('',(#121,#122));
#104=EDGE_LOOP('',(#123,#124));
#105=EDGE_LOOP('',(#125,#126,#127,#128));
#106=EDGE_LOOP('',(#129,#130,#131,#132));
#107=EDGE_LOOP('',(#133,#134,#135,#136,#137,#138,#139,#140,#141,#142));
#108=EDGE_LOOP('',(#143,#144));
#109=EDGE_LOOP('',(#145));
#110=EDGE_LOOP('',(#146,#147));
#111=EDGE_LOOP('',(#148));
#112=EDGE_LOOP('',(#149));
#113=EDGE_LOOP('',(#150));
#114=EDGE_LOOP('',(#151));
#115=EDGE_LOOP('',(#152,#153));
#116=EDGE_LOOP('',(#154,#155,#156,#157,#158,#159));
#117=EDGE_LOOP('',(#160,#161));
#118=EDGE_LOOP('',(#162,#163,#164,#165));
#119=EDGE_LOOP('',(#166,#167,#168,#169));
#120=ORIENTED_EDGE('',*,*,#191,.F.);
#121=ORIENTED_EDGE('',*,*,#192,.T.);
#122=ORIENTED_EDGE('',*,*,#193,.T.);
#123=ORIENTED_EDGE('',*,*,#194,.F.);
#124=ORIENTED_EDGE('',*,*,#195,.F.);
#125=ORIENTED_EDGE('',*,*,#196,.T.);
#126=ORIENTED_EDGE('',*,*,#197,.F.);
#127=ORIENTED_EDGE('',*,*,#198,.F.);
#128=ORIENTED_EDGE('',*,*,#195,.T.);
#129=ORIENTED_EDGE('',*,*,#198,.T.);
#130=ORIENTED_EDGE('',*,*,#199,.F.);
#131=ORIENTED_EDGE('',*,*,#196,.F.);
#132=ORIENTED_EDGE('',*,*,#194,.T.);
#133=ORIENTED_EDGE('',*,*,#200,.T.);
#134=ORIENTED_EDGE('',*,*,#201,.T.);
#135=ORIENTED_EDGE('',*,*,#202,.T.);
#136=ORIENTED_EDGE('',*,*,#197,.T.);
#137=ORIENTED_EDGE('',*,*,#203,.F.);
#138=ORIENTED_EDGE('',*,*,#203,.T.);
#139=ORIENTED_EDGE('',*,*,#199,.T.);
#140=ORIENTED_EDGE('',*,*,#202,.F.);
#141=ORIENTED_EDGE('',*,*,#204,.T.);
#142=ORIENTED_EDGE('',*,*,#200,.F.);
#143=ORIENTED_EDGE('',*,*,#205,.T.);
#144=ORIENTED_EDGE('',*,*,#205,.F.);
#145=ORIENTED_EDGE('',*,*,#206,.F.);
#146=ORIENTED_EDGE('',*,*,#201,.F.);
#147=ORIENTED_EDGE('',*,*,#204,.F.);
#148=ORIENTED_EDGE('',*,*,#207,.T.);
#149=ORIENTED_EDGE('',*,*,#206,.T.);
#150=ORIENTED_EDGE('',*,*,#191,.T.);
#151=ORIENTED_EDGE('',*,*,#207,.F.);
#152=ORIENTED_EDGE('',*,*,#208,.F.);
#153=ORIENTED_EDGE('',*,*,#209,.F.);
#154=ORIENTED_EDGE('',*,*,#210,.T.);
#155=ORIENTED_EDGE('',*,*,#210,.F.);
#156=ORIENTED_EDGE('',*,*,#193,.F.);
#157=ORIENTED_EDGE('',*,*,#211,.T.);
#158=ORIENTED_EDGE('',*,*,#211,.F.);
#159=ORIENTED_EDGE('',*,*,#192,.F.);
#160=ORIENTED_EDGE('',*,*,#212,.T.);
#161=ORIENTED_EDGE('',*,*,#213,.T.);
#162=ORIENTED_EDGE('',*,*,#214,.F.);
#163=ORIENTED_EDGE('',*,*,#209,.T.);
#164=ORIENTED_EDGE('',*,*,#215,.T.);
#165=ORIENTED_EDGE('',*,*,#212,.F.);
#166=ORIENTED_EDGE('',*,*,#215,.F.);
#167=ORIENTED_EDGE('',*,*,#208,.T.);
#168=ORIENTED_EDGE('',*,*,#214,.T.);
#169=ORIENTED_EDGE('',*,*,#213,.F.);
#170=VERTEX_POINT('',#360);
#171=VERTEX_POINT('',#362);
#172=VERTEX_POINT('',#363);
#173=VERTEX_POINT('',#367);
#174=VERTEX_POINT('',#368);
#175=VERTEX_POINT('',#372);
#176=VERTEX_POINT('',#374);
#177=VERTEX_POINT('',#380);
#178=VERTEX_POINT('',#381);
#179=VERTEX_POINT('',#383);
#180=VERTEX_POINT('',#386);
#181=VERTEX_POINT('',#389);
#182=VERTEX_POINT('',#390);
#183=VERTEX_POINT('',#393);
#184=VERTEX_POINT('',#396);
#185=VERTEX_POINT('',#400);
#186=VERTEX_POINT('',#401);
#187=VERTEX_POINT('',#404);
#188=VERTEX_POINT('',#406);
#189=VERTEX_POINT('',#409);
#190=VERTEX_POINT('',#410);
#191=EDGE_CURVE('',#170,#170,#216,.T.);
#192=EDGE_CURVE('',#171,#172,#217,.T.);
#193=EDGE_CURVE('',#172,#171,#218,.T.);
#194=EDGE_CURVE('',#173,#174,#219,.T.);
#195=EDGE_CURVE('',#174,#173,#220,.T.);
#196=EDGE_CURVE('',#173,#175,#48,.T.);
#197=EDGE_CURVE('',#176,#175,#221,.T.);
#198=EDGE_CURVE('',#174,#176,#49,.T.);
#199=EDGE_CURVE('',#175,#176,#222,.T.);
#200=EDGE_CURVE('',#177,#178,#50,.T.);
#201=EDGE_CURVE('',#178,#179,#223,.T.);
#202=EDGE_CURVE('',#179,#176,#51,.T.);
#203=EDGE_CURVE('',#180,#175,#52,.T.);
#204=EDGE_CURVE('',#179,#178,#224,.T.);
#205=EDGE_CURVE('',#181,#182,#53,.T.);
#206=EDGE_CURVE('',#183,#183,#225,.T.);
#207=EDGE_CURVE('',#184,#184,#226,.T.);
#208=EDGE_CURVE('',#185,#186,#227,.T.);
#209=EDGE_CURVE('',#186,#185,#228,.T.);
#210=EDGE_CURVE('',#171,#187,#54,.T.);
#211=EDGE_CURVE('',#172,#188,#55,.T.);
#212=EDGE_CURVE('',#189,#190,#229,.T.);
#213=EDGE_CURVE('',#190,#189,#230,.T.);
#214=EDGE_CURVE('',#186,#189,#56,.T.);
#215=EDGE_CURVE('',#185,#190,#57,.T.);
#216=CIRCLE('',#256,48.75);
#217=CIRCLE('',#257,35.3916641016607);
#218=CIRCLE('',#258,35.3916641016607);
#219=CIRCLE('',#260,30.);
#220=CIRCLE('',#261,30.);
#221=CIRCLE('',#263,40.);
#222=CIRCLE('',#265,40.);
#223=CIRCLE('',#267,40.);
#224=CIRCLE('',#268,40.);
#225=CIRCLE('',#270,40.8);
#226=CIRCLE('',#272,48.75);
#227=CIRCLE('',#275,19.65);
#228=CIRCLE('',#276,19.65);
#229=CIRCLE('',#278,19.65);
#230=CIRCLE('',#279,19.65);
#231=INVISIBILITY((#232,#233,#234));
#232=PRESENTATION_LAYER_ASSIGNMENT('100','Layer 100',(#253));
#233=PRESENTATION_LAYER_ASSIGNMENT('101','Layer 101',(#254));
#234=PRESENTATION_LAYER_ASSIGNMENT('102','Layer 102',(#255));
#235=PRESENTATION_LAYER_ASSIGNMENT('98','Layer 98',(#38));
#236=STYLED_ITEM('',(#240),#253);
#237=STYLED_ITEM('',(#241),#254);
#238=STYLED_ITEM('',(#242),#255);
#239=STYLED_ITEM('',(#243),#38);
#240=PRESENTATION_STYLE_ASSIGNMENT((#244));
#241=PRESENTATION_STYLE_ASSIGNMENT((#245));
#242=PRESENTATION_STYLE_ASSIGNMENT((#246));
#243=PRESENTATION_STYLE_ASSIGNMENT((#33));
#244=CURVE_STYLE('',#249,POSITIVE_LENGTH_MEASURE(0.7),#247);
#245=CURVE_STYLE('',#250,POSITIVE_LENGTH_MEASURE(0.7),#247);
#246=CURVE_STYLE('',#251,POSITIVE_LENGTH_MEASURE(0.7),#247);
#247=COLOUR_RGB('Medium Maroon',0.6,0.4,0.4);
#248=COLOUR_RGB('Medium Gray',0.490196078431373,0.490196078431373,0.490196078431373);
#249=DRAUGHTING_PRE_DEFINED_CURVE_FONT('continuous');
#250=DRAUGHTING_PRE_DEFINED_CURVE_FONT('continuous');
#251=DRAUGHTING_PRE_DEFINED_CURVE_FONT('continuous');
#252=AXIS2_PLACEMENT_3D('',#355,#283,#284);
#253=AXIS2_PLACEMENT_3D('PCS',#356,#285,#286);
#254=AXIS2_PLACEMENT_3D('CSW',#357,#287,#288);
#255=AXIS2_PLACEMENT_3D('MCS',#358,#289,#290);
#256=AXIS2_PLACEMENT_3D('',#359,#291,#292);
#257=AXIS2_PLACEMENT_3D('',#361,#293,#294);
#258=AXIS2_PLACEMENT_3D('',#364,#295,#296);
#259=AXIS2_PLACEMENT_3D('',#365,#297,#298);
#260=AXIS2_PLACEMENT_3D('',#366,#299,#300);
#261=AXIS2_PLACEMENT_3D('',#369,#301,#302);
#262=AXIS2_PLACEMENT_3D('',#370,#303,#304);
#263=AXIS2_PLACEMENT_3D('',#373,#306,#307);
#264=AXIS2_PLACEMENT_3D('',#376,#309,#310);
#265=AXIS2_PLACEMENT_3D('',#377,#311,#312);
#266=AXIS2_PLACEMENT_3D('',#378,#313,#314);
#267=AXIS2_PLACEMENT_3D('',#382,#316,#317);
#268=AXIS2_PLACEMENT_3D('',#387,#320,#321);
#269=AXIS2_PLACEMENT_3D('',#391,#323,#324);
#270=AXIS2_PLACEMENT_3D('',#392,#325,#326);
#271=AXIS2_PLACEMENT_3D('',#394,#327,#328);
#272=AXIS2_PLACEMENT_3D('',#395,#329,#330);
#273=AXIS2_PLACEMENT_3D('',#397,#331,#332);
#274=AXIS2_PLACEMENT_3D('',#398,#333,#334);
#275=AXIS2_PLACEMENT_3D('',#399,#335,#336);
#276=AXIS2_PLACEMENT_3D('',#402,#337,#338);
#277=AXIS2_PLACEMENT_3D('',#407,#341,#342);
#278=AXIS2_PLACEMENT_3D('',#408,#343,#344);
#279=AXIS2_PLACEMENT_3D('',#411,#345,#346);
#280=AXIS2_PLACEMENT_3D('',#412,#347,#348);
#281=AXIS2_PLACEMENT_3D('',#415,#351,#352);
#282=AXIS2_PLACEMENT_3D('',#416,#353,#354);
#283=DIRECTION('',(0.,0.,1.));
#284=DIRECTION('',(1.,0.,0.));
#285=DIRECTION('',(0.,0.,1.));
#286=DIRECTION('',(1.,0.,0.));
#287=DIRECTION('',(0.,0.,1.));
#288=DIRECTION('',(1.,0.,0.));
#289=DIRECTION('',(0.,0.,1.));
#290=DIRECTION('',(1.,0.,0.));
#291=DIRECTION('',(0.,0.,-1.));
#292=DIRECTION('',(-1.,0.,0.));
#293=DIRECTION('',(0.,0.,-1.));
#294=DIRECTION('',(-1.,0.,0.));
#295=DIRECTION('',(0.,0.,-1.));
#296=DIRECTION('',(-1.,0.,0.));
#297=DIRECTION('',(0.,0.,-1.));
#298=DIRECTION('',(0.,1.,0.));
#299=DIRECTION('',(0.,0.,1.));
#300=DIRECTION('',(-1.,0.,0.));
#301=DIRECTION('',(0.,0.,1.));
#302=DIRECTION('',(-1.,0.,0.));
#303=DIRECTION('',(0.,0.,-1.));
#304=DIRECTION('',(0.,1.,0.));
#305=DIRECTION('',(3.12880319721521E-14,-0.707106781186547,0.707106781186547));
#306=DIRECTION('',(0.,0.,1.));
#307=DIRECTION('',(1.,0.,0.));
#308=DIRECTION('',(-3.22178023887422E-14,0.707106781186547,0.707106781186547));
#309=DIRECTION('',(0.,0.,1.));
#310=DIRECTION('',(0.,-1.,4.02254719067086E-17));
#311=DIRECTION('',(0.,0.,1.));
#312=DIRECTION('',(1.,0.,0.));
#313=DIRECTION('',(0.,0.,1.));
#314=DIRECTION('',(0.,-1.,4.02254719067086E-17));
#315=DIRECTION('',(-6.563004448255E-14,2.486899575162E-13,1.));
#316=DIRECTION('',(0.,0.,-1.));
#317=DIRECTION('',(0.,1.,0.));
#318=DIRECTION('',(-1.831818869461E-14,0.,-1.));
#319=DIRECTION('',(1.356460707798E-13,0.,-1.));
#320=DIRECTION('',(0.,0.,-1.));
#321=DIRECTION('',(0.,1.,0.));
#322=DIRECTION('',(0.,0.,1.));
#323=DIRECTION('',(0.,0.,-1.));
#324=DIRECTION('',(0.,1.,0.));
#325=DIRECTION('',(0.,0.,1.));
#326=DIRECTION('',(-0.949107939040656,-0.314950980392185,0.));
#327=DIRECTION('',(0.,0.,-1.));
#328=DIRECTION('',(0.,1.,0.));
#329=DIRECTION('',(0.,0.,-1.));
#330=DIRECTION('',(-1.,0.,0.));
#331=DIRECTION('',(0.,0.,-1.));
#332=DIRECTION('',(0.,1.,0.));
#333=DIRECTION('',(0.,0.,-1.));
#334=DIRECTION('',(0.,1.,0.));
#335=DIRECTION('',(0.,0.,1.));
#336=DIRECTION('',(-1.,0.,0.));
#337=DIRECTION('',(0.,0.,1.));
#338=DIRECTION('',(-1.,0.,0.));
#339=DIRECTION('',(0.,-0.144306116415197,0.989533094325381));
#340=DIRECTION('',(0.,0.144306116415197,0.989533094325381));
#341=DIRECTION('',(0.,0.,-1.));
#342=DIRECTION('',(0.,1.,0.));
#343=DIRECTION('',(0.,0.,1.));
#344=DIRECTION('',(-1.,0.,0.));
#345=DIRECTION('',(0.,0.,1.));
#346=DIRECTION('',(-1.,0.,0.));
#347=DIRECTION('',(0.,0.,-1.));
#348=DIRECTION('',(0.,1.,0.));
#349=DIRECTION('',(-5.268520003996E-13,0.,1.));
#350=DIRECTION('',(5.267339016558E-13,0.,1.));
#351=DIRECTION('',(0.,0.,-1.));
#352=DIRECTION('',(0.,1.,0.));
#353=DIRECTION('',(0.,0.,-1.));
#354=DIRECTION('',(0.,1.,0.));
#355=CARTESIAN_POINT('',(0.,0.,0.));
#356=CARTESIAN_POINT('',(0.,0.,0.));
#357=CARTESIAN_POINT('',(0.,0.,-90.));
#358=CARTESIAN_POINT('',(0.,0.,0.));
#359=CARTESIAN_POINT('',(0.,0.,-3.20000000000001));
#360=CARTESIAN_POINT('',(-48.75,0.,-3.20000000000001));
#361=CARTESIAN_POINT('',(0.,0.,-3.2));
#362=CARTESIAN_POINT('',(0.,35.3916641016607,-3.2));
#363=CARTESIAN_POINT('',(4.3342288158597E-15,-35.3916641016607,-3.2));
#364=CARTESIAN_POINT('',(0.,0.,-3.2));
#365=CARTESIAN_POINT('',(0.,0.,-3.2));
#366=CARTESIAN_POINT('',(0.,0.,-90.));
#367=CARTESIAN_POINT('',(1.65639723314007E-13,-30.,-90.));
#368=CARTESIAN_POINT('',(-1.65809345364513E-13,30.,-90.));
#369=CARTESIAN_POINT('',(0.,0.,-90.));
#370=CARTESIAN_POINT('',(0.,0.,-90.));
#371=CARTESIAN_POINT('',(1.915595776798E-13,-30.58578643763,-89.41421356237));
#372=CARTESIAN_POINT('',(7.69252780583675E-13,-40.,-80.0000000000021));
#373=CARTESIAN_POINT('',(0.,0.,-80.));
#374=CARTESIAN_POINT('',(-7.33335025774845E-13,40.,-80.0000000000021));
#375=CARTESIAN_POINT('',(-1.924994467632E-13,30.58578643763,-89.41421356237));
#376=CARTESIAN_POINT('',(0.,0.,-85.));
#377=CARTESIAN_POINT('',(0.,0.,-80.));
#378=CARTESIAN_POINT('',(0.,0.,-85.));
#379=CARTESIAN_POINT('',(4.597259599055E-14,-40.,-16.799999999999));
#380=CARTESIAN_POINT('',(4.59725959905802E-14,-40.,-16.8));
#381=CARTESIAN_POINT('',(0.,-40.,-16.));
#382=CARTESIAN_POINT('',(0.,0.,-16.));
#383=CARTESIAN_POINT('',(0.,40.,-16.));
#384=CARTESIAN_POINT('',(-1.152290194867E-12,40.,-79.17157287525));
#385=CARTESIAN_POINT('',(1.133240886442E-12,-40.,-79.17157287525));
#386=CARTESIAN_POINT('',(5.19283479791175E-14,-40.,-71.2));
#387=CARTESIAN_POINT('',(0.,0.,-16.));
#388=CARTESIAN_POINT('',(-2.414079392042E-14,-40.,-48.8));
#389=CARTESIAN_POINT('',(-2.414079392042E-14,-40.,-48.8));
#390=CARTESIAN_POINT('',(-5.271228283834E-14,-40.,-39.2));
#391=CARTESIAN_POINT('',(0.,0.,-11.46));
#392=CARTESIAN_POINT('',(0.,0.,-15.2));
#393=CARTESIAN_POINT('',(-38.7236039128588,-12.8500000000012,-15.2));
#394=CARTESIAN_POINT('',(0.,0.,-16.));
#395=CARTESIAN_POINT('',(0.,0.,-15.2));
#396=CARTESIAN_POINT('',(-48.75,0.,-15.2));
#397=CARTESIAN_POINT('',(0.,0.,-15.2));
#398=CARTESIAN_POINT('',(0.,0.,133.9));
#399=CARTESIAN_POINT('',(0.,0.,104.743432858557));
#400=CARTESIAN_POINT('',(0.,19.65,104.743432858557));
#401=CARTESIAN_POINT('',(-1.34265514244711E-12,-19.65,104.743432858557));
#402=CARTESIAN_POINT('',(0.,0.,104.743432858557));
#403=CARTESIAN_POINT('',(0.,35.09999903812,-1.2));
#404=CARTESIAN_POINT('',(0.,20.19982736606,100.9731673397));
#405=CARTESIAN_POINT('',(0.,-35.09999903812,-1.2));
#406=CARTESIAN_POINT('',(0.,-20.19982736606,100.9731673397));
#407=CARTESIAN_POINT('',(0.,0.,49.88658366985));
#408=CARTESIAN_POINT('',(0.,0.,126.8));
#409=CARTESIAN_POINT('',(-5.37817047449272E-12,-19.65,126.8));
#410=CARTESIAN_POINT('',(5.37696490788863E-12,19.65,126.8));
#411=CARTESIAN_POINT('',(0.,0.,126.8));
#412=CARTESIAN_POINT('',(0.,0.,126.8));
#413=CARTESIAN_POINT('',(0.,-19.65,116.5918761428));
#414=CARTESIAN_POINT('',(0.,19.65,116.5918761428));
#415=CARTESIAN_POINT('',(0.,0.,133.9));
#416=CARTESIAN_POINT('',(0.,0.,133.9));
#417=MECHANICAL_DESIGN_GEOMETRIC_PRESENTATION_REPRESENTATION('',(#236,#237,
#238,#239),#418);
#418=(
GEOMETRIC_REPRESENTATION_CONTEXT(3)
GLOBAL_UNCERTAINTY_ASSIGNED_CONTEXT((#419))
GLOBAL_UNIT_ASSIGNED_CONTEXT((#425,#421,#420))
REPRESENTATION_CONTEXT('2080.50-W.40','TOP_LEVEL_ASSEMBLY_PART')
);
#419=UNCERTAINTY_MEASURE_WITH_UNIT(LENGTH_MEASURE(2.E-5),#425,
'DISTANCE_ACCURACY_VALUE','Maximum Tolerance applied to model');
#420=(
NAMED_UNIT(*)
SI_UNIT($,.STERADIAN.)
SOLID_ANGLE_UNIT()
);
#421=(
CONVERSION_BASED_UNIT('DEGREE',#423)
NAMED_UNIT(#422)
PLANE_ANGLE_UNIT()
);
#422=DIMENSIONAL_EXPONENTS(0.,0.,0.,0.,0.,0.,0.);
#423=PLANE_ANGLE_MEASURE_WITH_UNIT(PLANE_ANGLE_MEASURE(0.0174532925),#424);
#424=(
NAMED_UNIT(*)
PLANE_ANGLE_UNIT()
SI_UNIT($,.RADIAN.)
);
#425=(
LENGTH_UNIT()
NAMED_UNIT(*)
SI_UNIT(.MILLI.,.METRE.)
);
ENDSEC;
END-ISO-10303-21;
