ISO-10303-21;
HEADER;
/* Generated by software containing ST-Developer
 * from STEP Tools, Inc. (www.steptools.com) 
 */
/* OPTION: using custom schema-name function */

FILE_DESCRIPTION(
/* description */ (''),
/* implementation_level */ '2;1');

FILE_NAME(
/* name */ '2080.50-W.25.080.stp',
/* time_stamp */ '2024-06-23T18:01:37+02:00',
/* author */ (''),
/* organization */ (''),
/* preprocessor_version */ 'ST-DEVELOPER v16.7',
/* originating_system */ 'SIEMENS PLM Software NX 12.0',
/* authorisation */ '');

FILE_SCHEMA (('AUTOMOTIVE_DESIGN { 1 0 10303 214 3 1 1 1 }'));
ENDSEC;

DATA;
#10=CONSTRUCTIVE_GEOMETRY_REPRESENTATION_RELATIONSHIP(
'supplemental geometry','',#32,#11);
#11=CONSTRUCTIVE_GEOMETRY_REPRESENTATION('supplemental geometry',(#254,
#255,#256),#425);
#12=PROPERTY_DEFINITION_REPRESENTATION(#16,#14);
#13=PROPERTY_DEFINITION_REPRESENTATION(#17,#15);
#14=REPRESENTATION('',(#18),#425);
#15=REPRESENTATION('',(#19),#425);
#16=PROPERTY_DEFINITION('pmi validation property','',#23);
#17=PROPERTY_DEFINITION('pmi validation property','',#23);
#18=VALUE_REPRESENTATION_ITEM('number of annotations',COUNT_MEASURE(0.));
#19=VALUE_REPRESENTATION_ITEM('number of views',COUNT_MEASURE(0.));
#20=SHAPE_REPRESENTATION_RELATIONSHIP('None',
'relationship between pf660F5CA0AEj8dy-None and pf660F5CA0AEj8dy-None',
#32,#21);
#21=ADVANCED_BREP_SHAPE_REPRESENTATION('pf660F5CA0AEj8dy-None',(#38),#425);
#22=SHAPE_DEFINITION_REPRESENTATION(#23,#32);
#23=PRODUCT_DEFINITION_SHAPE('','',#24);
#24=PRODUCT_DEFINITION(' ','',#26,#25);
#25=PRODUCT_DEFINITION_CONTEXT('part definition',#31,'design');
#26=PRODUCT_DEFINITION_FORMATION_WITH_SPECIFIED_SOURCE(' ',' ',#28,
 .NOT_KNOWN.);
#27=PRODUCT_RELATED_PRODUCT_CATEGORY('part','',(#28));
#28=PRODUCT('pf660F5CA0AEj8dy','pf660F5CA0AEj8dy',' ',(#29));
#29=PRODUCT_CONTEXT(' ',#31,'mechanical');
#30=APPLICATION_PROTOCOL_DEFINITION('international standard',
'automotive_design',2010,#31);
#31=APPLICATION_CONTEXT(
'core data for automotive mechanical design processes');
#32=SHAPE_REPRESENTATION('pf660F5CA0AEj8dy-None',(#253),#425);
#33=SURFACE_STYLE_USAGE(.BOTH.,#34);
#34=SURFACE_SIDE_STYLE('',(#35));
#35=SURFACE_STYLE_FILL_AREA(#36);
#36=FILL_AREA_STYLE('',(#37));
#37=FILL_AREA_STYLE_COLOUR('',#249);
#38=MANIFOLD_SOLID_BREP('',#39);
#39=CLOSED_SHELL('',(#73,#74,#75,#76,#77,#78,#79,#80,#81,#82,#83,#84));
#40=TOROIDAL_SURFACE('',#277,37.5,5.);
#41=CYLINDRICAL_SURFACE('',#269,32.5);
#42=CYLINDRICAL_SURFACE('',#274,48.75);
#43=CYLINDRICAL_SURFACE('',#284,19.65);
#44=CYLINDRICAL_SURFACE('',#285,19.65);
#45=CONICAL_SURFACE('',#265,27.5,45.);
#46=CONICAL_SURFACE('',#267,27.5,45.);
#47=CONICAL_SURFACE('',#280,27.64991320209,8.2971);
#48=LINE('',#377,#57);
#49=LINE('',#381,#58);
#50=LINE('',#385,#59);
#51=LINE('',#388,#60);
#52=LINE('',#390,#61);
#53=LINE('',#410,#62);
#54=LINE('',#412,#63);
#55=LINE('',#420,#64);
#56=LINE('',#421,#65);
#57=VECTOR('',#308,1.);
#58=VECTOR('',#311,1.);
#59=VECTOR('',#318,1.);
#60=VECTOR('',#319,1.);
#61=VECTOR('',#320,1.);
#62=VECTOR('',#345,1.);
#63=VECTOR('',#346,1.);
#64=VECTOR('',#355,1.);
#65=VECTOR('',#356,1.);
#66=FACE_OUTER_BOUND('',#101,.T.);
#67=FACE_OUTER_BOUND('',#102,.T.);
#68=FACE_OUTER_BOUND('',#103,.T.);
#69=FACE_OUTER_BOUND('',#110,.T.);
#70=FACE_OUTER_BOUND('',#113,.T.);
#71=FACE_OUTER_BOUND('',#114,.T.);
#72=FACE_OUTER_BOUND('',#115,.T.);
#73=ADVANCED_FACE('',(#89,#90),#85,.F.);
#74=ADVANCED_FACE('',(#66),#86,.T.);
#75=ADVANCED_FACE('',(#67),#45,.T.);
#76=ADVANCED_FACE('',(#68),#46,.T.);
#77=ADVANCED_FACE('',(#91,#92),#41,.T.);
#78=ADVANCED_FACE('',(#93,#94),#87,.T.);
#79=ADVANCED_FACE('',(#95,#96),#42,.T.);
#80=ADVANCED_FACE('',(#69),#40,.F.);
#81=ADVANCED_FACE('',(#97,#98),#47,.T.);
#82=ADVANCED_FACE('',(#70),#88,.F.);
#83=ADVANCED_FACE('',(#71),#43,.T.);
#84=ADVANCED_FACE('',(#72),#44,.T.);
#85=PLANE('',#260);
#86=PLANE('',#263);
#87=PLANE('',#273);
#88=PLANE('',#283);
#89=FACE_BOUND('',#99,.T.);
#90=FACE_BOUND('',#100,.T.);
#91=FACE_BOUND('',#104,.T.);
#92=FACE_BOUND('',#105,.T.);
#93=FACE_BOUND('',#106,.T.);
#94=FACE_BOUND('',#107,.T.);
#95=FACE_BOUND('',#108,.T.);
#96=FACE_BOUND('',#109,.T.);
#97=FACE_BOUND('',#111,.T.);
#98=FACE_BOUND('',#112,.T.);
#99=EDGE_LOOP('',(#116));
#100=EDGE_LOOP('',(#117,#118));
#101=EDGE_LOOP('',(#119,#120));
#102=EDGE_LOOP('',(#121,#122,#123,#124));
#103=EDGE_LOOP('',(#125,#126,#127,#128));
#104=EDGE_LOOP('',(#129,#130));
#105=EDGE_LOOP('',(#131,#132,#133,#134,#135,#136,#137));
#106=EDGE_LOOP('',(#138));
#107=EDGE_LOOP('',(#139,#140));
#108=EDGE_LOOP('',(#141));
#109=EDGE_LOOP('',(#142));
#110=EDGE_LOOP('',(#143,#144,#145,#146,#147,#148,#149));
#111=EDGE_LOOP('',(#150,#151));
#112=EDGE_LOOP('',(#152,#153,#154,#155,#156,#157));
#113=EDGE_LOOP('',(#158,#159));
#114=EDGE_LOOP('',(#160,#161,#162,#163));
#115=EDGE_LOOP('',(#164,#165,#166,#167));
#116=ORIENTED_EDGE('',*,*,#189,.F.);
#117=ORIENTED_EDGE('',*,*,#190,.T.);
#118=ORIENTED_EDGE('',*,*,#191,.T.);
#119=ORIENTED_EDGE('',*,*,#192,.F.);
#120=ORIENTED_EDGE('',*,*,#193,.F.);
#121=ORIENTED_EDGE('',*,*,#194,.T.);
#122=ORIENTED_EDGE('',*,*,#195,.F.);
#123=ORIENTED_EDGE('',*,*,#196,.F.);
#124=ORIENTED_EDGE('',*,*,#192,.T.);
#125=ORIENTED_EDGE('',*,*,#196,.T.);
#126=ORIENTED_EDGE('',*,*,#197,.F.);
#127=ORIENTED_EDGE('',*,*,#194,.F.);
#128=ORIENTED_EDGE('',*,*,#193,.T.);
#129=ORIENTED_EDGE('',*,*,#198,.F.);
#130=ORIENTED_EDGE('',*,*,#198,.T.);
#131=ORIENTED_EDGE('',*,*,#199,.F.);
#132=ORIENTED_EDGE('',*,*,#199,.T.);
#133=ORIENTED_EDGE('',*,*,#195,.T.);
#134=ORIENTED_EDGE('',*,*,#200,.F.);
#135=ORIENTED_EDGE('',*,*,#201,.T.);
#136=ORIENTED_EDGE('',*,*,#200,.T.);
#137=ORIENTED_EDGE('',*,*,#197,.T.);
#138=ORIENTED_EDGE('',*,*,#202,.T.);
#139=ORIENTED_EDGE('',*,*,#203,.F.);
#140=ORIENTED_EDGE('',*,*,#204,.F.);
#141=ORIENTED_EDGE('',*,*,#189,.T.);
#142=ORIENTED_EDGE('',*,*,#202,.F.);
#143=ORIENTED_EDGE('',*,*,#203,.T.);
#144=ORIENTED_EDGE('',*,*,#205,.F.);
#145=ORIENTED_EDGE('',*,*,#205,.T.);
#146=ORIENTED_EDGE('',*,*,#204,.T.);
#147=ORIENTED_EDGE('',*,*,#206,.F.);
#148=ORIENTED_EDGE('',*,*,#201,.F.);
#149=ORIENTED_EDGE('',*,*,#206,.T.);
#150=ORIENTED_EDGE('',*,*,#207,.F.);
#151=ORIENTED_EDGE('',*,*,#208,.F.);
#152=ORIENTED_EDGE('',*,*,#209,.T.);
#153=ORIENTED_EDGE('',*,*,#209,.F.);
#154=ORIENTED_EDGE('',*,*,#191,.F.);
#155=ORIENTED_EDGE('',*,*,#210,.T.);
#156=ORIENTED_EDGE('',*,*,#210,.F.);
#157=ORIENTED_EDGE('',*,*,#190,.F.);
#158=ORIENTED_EDGE('',*,*,#211,.T.);
#159=ORIENTED_EDGE('',*,*,#212,.T.);
#160=ORIENTED_EDGE('',*,*,#213,.F.);
#161=ORIENTED_EDGE('',*,*,#208,.T.);
#162=ORIENTED_EDGE('',*,*,#214,.T.);
#163=ORIENTED_EDGE('',*,*,#211,.F.);
#164=ORIENTED_EDGE('',*,*,#214,.F.);
#165=ORIENTED_EDGE('',*,*,#207,.T.);
#166=ORIENTED_EDGE('',*,*,#213,.T.);
#167=ORIENTED_EDGE('',*,*,#212,.F.);
#168=VERTEX_POINT('',#366);
#169=VERTEX_POINT('',#368);
#170=VERTEX_POINT('',#369);
#171=VERTEX_POINT('',#373);
#172=VERTEX_POINT('',#374);
#173=VERTEX_POINT('',#378);
#174=VERTEX_POINT('',#380);
#175=VERTEX_POINT('',#386);
#176=VERTEX_POINT('',#387);
#177=VERTEX_POINT('',#389);
#178=VERTEX_POINT('',#391);
#179=VERTEX_POINT('',#395);
#180=VERTEX_POINT('',#397);
#181=VERTEX_POINT('',#398);
#182=VERTEX_POINT('',#403);
#183=VERTEX_POINT('',#407);
#184=VERTEX_POINT('',#408);
#185=VERTEX_POINT('',#411);
#186=VERTEX_POINT('',#413);
#187=VERTEX_POINT('',#416);
#188=VERTEX_POINT('',#417);
#189=EDGE_CURVE('',#168,#168,#215,.T.);
#190=EDGE_CURVE('',#169,#170,#216,.T.);
#191=EDGE_CURVE('',#170,#169,#217,.T.);
#192=EDGE_CURVE('',#171,#172,#218,.T.);
#193=EDGE_CURVE('',#172,#171,#219,.T.);
#194=EDGE_CURVE('',#172,#173,#48,.T.);
#195=EDGE_CURVE('',#174,#173,#220,.T.);
#196=EDGE_CURVE('',#171,#174,#49,.T.);
#197=EDGE_CURVE('',#173,#174,#221,.T.);
#198=EDGE_CURVE('',#175,#176,#50,.T.);
#199=EDGE_CURVE('',#177,#174,#51,.T.);
#200=EDGE_CURVE('',#178,#173,#52,.T.);
#201=EDGE_CURVE('',#178,#178,#222,.T.);
#202=EDGE_CURVE('',#179,#179,#223,.T.);
#203=EDGE_CURVE('',#180,#181,#224,.T.);
#204=EDGE_CURVE('',#181,#180,#225,.T.);
#205=EDGE_CURVE('',#182,#181,#226,.T.);
#206=EDGE_CURVE('',#178,#180,#227,.T.);
#207=EDGE_CURVE('',#183,#184,#228,.T.);
#208=EDGE_CURVE('',#184,#183,#229,.T.);
#209=EDGE_CURVE('',#169,#185,#53,.T.);
#210=EDGE_CURVE('',#170,#186,#54,.T.);
#211=EDGE_CURVE('',#187,#188,#230,.T.);
#212=EDGE_CURVE('',#188,#187,#231,.T.);
#213=EDGE_CURVE('',#184,#187,#55,.T.);
#214=EDGE_CURVE('',#183,#188,#56,.T.);
#215=CIRCLE('',#257,48.75);
#216=CIRCLE('',#258,35.3916641016607);
#217=CIRCLE('',#259,35.3916641016607);
#218=CIRCLE('',#261,22.5);
#219=CIRCLE('',#262,22.5);
#220=CIRCLE('',#264,32.5);
#221=CIRCLE('',#266,32.5);
#222=CIRCLE('',#268,32.5);
#223=CIRCLE('',#270,48.75);
#224=CIRCLE('',#271,37.5);
#225=CIRCLE('',#272,37.5);
#226=CIRCLE('',#275,5.);
#227=CIRCLE('',#276,5.);
#228=CIRCLE('',#278,19.65);
#229=CIRCLE('',#279,19.65);
#230=CIRCLE('',#281,19.65);
#231=CIRCLE('',#282,19.65);
#232=INVISIBILITY((#233,#234,#235));
#233=PRESENTATION_LAYER_ASSIGNMENT('100','Layer 100',(#254));
#234=PRESENTATION_LAYER_ASSIGNMENT('101','Layer 101',(#255));
#235=PRESENTATION_LAYER_ASSIGNMENT('102','Layer 102',(#256));
#236=PRESENTATION_LAYER_ASSIGNMENT('98','Layer 98',(#38));
#237=STYLED_ITEM('',(#241),#254);
#238=STYLED_ITEM('',(#242),#255);
#239=STYLED_ITEM('',(#243),#256);
#240=STYLED_ITEM('',(#244),#38);
#241=PRESENTATION_STYLE_ASSIGNMENT((#245));
#242=PRESENTATION_STYLE_ASSIGNMENT((#246));
#243=PRESENTATION_STYLE_ASSIGNMENT((#247));
#244=PRESENTATION_STYLE_ASSIGNMENT((#33));
#245=CURVE_STYLE('',#250,POSITIVE_LENGTH_MEASURE(0.7),#248);
#246=CURVE_STYLE('',#251,POSITIVE_LENGTH_MEASURE(0.7),#248);
#247=CURVE_STYLE('',#252,POSITIVE_LENGTH_MEASURE(0.7),#248);
#248=COLOUR_RGB('Medium Maroon',0.6,0.4,0.4);
#249=COLOUR_RGB('Medium Gray',0.490196078431373,0.490196078431373,0.490196078431373);
#250=DRAUGHTING_PRE_DEFINED_CURVE_FONT('continuous');
#251=DRAUGHTING_PRE_DEFINED_CURVE_FONT('continuous');
#252=DRAUGHTING_PRE_DEFINED_CURVE_FONT('continuous');
#253=AXIS2_PLACEMENT_3D('',#361,#286,#287);
#254=AXIS2_PLACEMENT_3D('PCS',#362,#288,#289);
#255=AXIS2_PLACEMENT_3D('CSW',#363,#290,#291);
#256=AXIS2_PLACEMENT_3D('MCS',#364,#292,#293);
#257=AXIS2_PLACEMENT_3D('',#365,#294,#295);
#258=AXIS2_PLACEMENT_3D('',#367,#296,#297);
#259=AXIS2_PLACEMENT_3D('',#370,#298,#299);
#260=AXIS2_PLACEMENT_3D('',#371,#300,#301);
#261=AXIS2_PLACEMENT_3D('',#372,#302,#303);
#262=AXIS2_PLACEMENT_3D('',#375,#304,#305);
#263=AXIS2_PLACEMENT_3D('',#376,#306,#307);
#264=AXIS2_PLACEMENT_3D('',#379,#309,#310);
#265=AXIS2_PLACEMENT_3D('',#382,#312,#313);
#266=AXIS2_PLACEMENT_3D('',#383,#314,#315);
#267=AXIS2_PLACEMENT_3D('',#384,#316,#317);
#268=AXIS2_PLACEMENT_3D('',#392,#321,#322);
#269=AXIS2_PLACEMENT_3D('',#393,#323,#324);
#270=AXIS2_PLACEMENT_3D('',#394,#325,#326);
#271=AXIS2_PLACEMENT_3D('',#396,#327,#328);
#272=AXIS2_PLACEMENT_3D('',#399,#329,#330);
#273=AXIS2_PLACEMENT_3D('',#400,#331,#332);
#274=AXIS2_PLACEMENT_3D('',#401,#333,#334);
#275=AXIS2_PLACEMENT_3D('',#402,#335,#336);
#276=AXIS2_PLACEMENT_3D('',#404,#337,#338);
#277=AXIS2_PLACEMENT_3D('',#405,#339,#340);
#278=AXIS2_PLACEMENT_3D('',#406,#341,#342);
#279=AXIS2_PLACEMENT_3D('',#409,#343,#344);
#280=AXIS2_PLACEMENT_3D('',#414,#347,#348);
#281=AXIS2_PLACEMENT_3D('',#415,#349,#350);
#282=AXIS2_PLACEMENT_3D('',#418,#351,#352);
#283=AXIS2_PLACEMENT_3D('',#419,#353,#354);
#284=AXIS2_PLACEMENT_3D('',#422,#357,#358);
#285=AXIS2_PLACEMENT_3D('',#423,#359,#360);
#286=DIRECTION('',(0.,0.,1.));
#287=DIRECTION('',(1.,0.,0.));
#288=DIRECTION('',(0.,0.,1.));
#289=DIRECTION('',(1.,0.,0.));
#290=DIRECTION('',(0.,0.,1.));
#291=DIRECTION('',(1.,0.,0.));
#292=DIRECTION('',(0.,0.,1.));
#293=DIRECTION('',(1.,0.,0.));
#294=DIRECTION('',(0.,0.,-1.));
#295=DIRECTION('',(-1.,0.,0.));
#296=DIRECTION('',(0.,0.,-1.));
#297=DIRECTION('',(-1.,0.,0.));
#298=DIRECTION('',(0.,0.,-1.));
#299=DIRECTION('',(-1.,0.,0.));
#300=DIRECTION('',(0.,0.,-1.));
#301=DIRECTION('',(0.,1.,0.));
#302=DIRECTION('',(0.,0.,1.));
#303=DIRECTION('',(-1.,0.,0.));
#304=DIRECTION('',(0.,0.,1.));
#305=DIRECTION('',(-1.,0.,0.));
#306=DIRECTION('',(0.,0.,-1.));
#307=DIRECTION('',(0.,1.,0.));
#308=DIRECTION('',(-8.9035141923826E-14,0.707106781186547,0.707106781186547));
#309=DIRECTION('',(0.,0.,1.));
#310=DIRECTION('',(1.,0.,0.));
#311=DIRECTION('',(8.77652427634959E-14,-0.707106781186547,0.707106781186547));
#312=DIRECTION('',(0.,0.,1.));
#313=DIRECTION('',(0.,-1.,4.05190884899692E-17));
#314=DIRECTION('',(0.,0.,1.));
#315=DIRECTION('',(1.,0.,0.));
#316=DIRECTION('',(0.,0.,1.));
#317=DIRECTION('',(0.,-1.,4.05190884899692E-17));
#318=DIRECTION('',(0.,0.,1.));
#319=DIRECTION('',(1.2494897554E-12,0.,-1.));
#320=DIRECTION('',(-5.816259831691E-14,0.,-1.));
#321=DIRECTION('',(0.,0.,-1.));
#322=DIRECTION('',(0.,1.,0.));
#323=DIRECTION('',(0.,0.,-1.));
#324=DIRECTION('',(0.,1.,0.));
#325=DIRECTION('',(0.,0.,-1.));
#326=DIRECTION('',(-1.,0.,0.));
#327=DIRECTION('',(0.,0.,-1.));
#328=DIRECTION('',(0.941333333333341,-0.337478229750515,0.));
#329=DIRECTION('',(0.,0.,-1.));
#330=DIRECTION('',(0.,-1.,0.));
#331=DIRECTION('',(0.,0.,-1.));
#332=DIRECTION('',(0.,1.,0.));
#333=DIRECTION('',(0.,0.,-1.));
#334=DIRECTION('',(0.,1.,0.));
#335=DIRECTION('',(1.,0.,0.));
#336=DIRECTION('',(0.,0.999795875850339,0.0202041241496705));
#337=DIRECTION('',(-1.,0.,0.));
#338=DIRECTION('',(0.,-0.999999999999999,0.));
#339=DIRECTION('',(0.,0.,-1.));
#340=DIRECTION('',(0.,1.,0.));
#341=DIRECTION('',(0.,0.,1.));
#342=DIRECTION('',(-1.,0.,0.));
#343=DIRECTION('',(0.,0.,1.));
#344=DIRECTION('',(-1.,0.,0.));
#345=DIRECTION('',(0.,-0.144306116415197,0.989533094325381));
#346=DIRECTION('',(0.,0.144306116415197,0.989533094325381));
#347=DIRECTION('',(0.,0.,-1.));
#348=DIRECTION('',(0.,1.,0.));
#349=DIRECTION('',(0.,0.,1.));
#350=DIRECTION('',(-1.,0.,0.));
#351=DIRECTION('',(0.,0.,1.));
#352=DIRECTION('',(-1.,0.,0.));
#353=DIRECTION('',(0.,0.,-1.));
#354=DIRECTION('',(0.,1.,0.));
#355=DIRECTION('',(-5.268520003996E-13,0.,1.));
#356=DIRECTION('',(5.267339016558E-13,0.,1.));
#357=DIRECTION('',(0.,0.,-1.));
#358=DIRECTION('',(0.,1.,0.));
#359=DIRECTION('',(0.,0.,-1.));
#360=DIRECTION('',(0.,1.,0.));
#361=CARTESIAN_POINT('',(0.,0.,0.));
#362=CARTESIAN_POINT('',(0.,0.,0.));
#363=CARTESIAN_POINT('',(0.,0.,-80.));
#364=CARTESIAN_POINT('',(0.,0.,0.));
#365=CARTESIAN_POINT('',(0.,0.,-3.20000000000001));
#366=CARTESIAN_POINT('',(-48.75,0.,-3.20000000000001));
#367=CARTESIAN_POINT('',(0.,0.,-3.2));
#368=CARTESIAN_POINT('',(0.,35.3916641016607,-3.2));
#369=CARTESIAN_POINT('',(4.3342288158597E-15,-35.3916641016607,-3.2));
#370=CARTESIAN_POINT('',(0.,0.,-3.2));
#371=CARTESIAN_POINT('',(0.,0.,-3.2));
#372=CARTESIAN_POINT('',(0.,0.,-80.));
#373=CARTESIAN_POINT('',(3.03616311271603E-13,-22.5,-80.));
#374=CARTESIAN_POINT('',(-3.03271070723087E-13,22.5,-80.));
#375=CARTESIAN_POINT('',(0.,0.,-80.));
#376=CARTESIAN_POINT('',(0.,0.,-80.));
#377=CARTESIAN_POINT('',(-3.770301973488E-13,23.08578643763,-79.41421356237));
#378=CARTESIAN_POINT('',(-1.82125292384493E-12,32.5,-70.0000000000021));
#379=CARTESIAN_POINT('',(0.,0.,-70.));
#380=CARTESIAN_POINT('',(2.30637264947496E-12,-32.5,-70.0000000000021));
#381=CARTESIAN_POINT('',(3.763234189872E-13,-23.08578643763,-79.41421356237));
#382=CARTESIAN_POINT('',(0.,0.,-75.));
#383=CARTESIAN_POINT('',(0.,0.,-70.));
#384=CARTESIAN_POINT('',(0.,0.,-75.));
#385=CARTESIAN_POINT('',(0.,-32.5,-45.1));
#386=CARTESIAN_POINT('',(0.,-32.5,-45.1));
#387=CARTESIAN_POINT('',(0.,-32.5,-41.900000000002));
#388=CARTESIAN_POINT('',(2.835989402207E-12,-32.5,-69.17157287525));
#389=CARTESIAN_POINT('',(-1.73822554680035E-15,-32.5,-66.9));
#390=CARTESIAN_POINT('',(-2.844333809993E-12,32.5,-69.17157287525));
#391=CARTESIAN_POINT('',(0.,32.5,-20.2));
#392=CARTESIAN_POINT('',(0.,0.,-20.2));
#393=CARTESIAN_POINT('',(0.,0.,-11.96));
#394=CARTESIAN_POINT('',(0.,0.,-15.2));
#395=CARTESIAN_POINT('',(-48.75,0.,-15.2));
#396=CARTESIAN_POINT('',(0.,0.,-15.2));
#397=CARTESIAN_POINT('',(0.,37.5,-15.2));
#398=CARTESIAN_POINT('',(0.,-37.5,-15.2));
#399=CARTESIAN_POINT('',(0.,0.,-15.2));
#400=CARTESIAN_POINT('',(0.,0.,-15.2));
#401=CARTESIAN_POINT('',(0.,0.,133.9));
#402=CARTESIAN_POINT('',(0.,-37.5,-20.2));
#403=CARTESIAN_POINT('',(0.,-32.50102062075,-20.098979379252));
#404=CARTESIAN_POINT('',(0.,37.5,-20.2));
#405=CARTESIAN_POINT('',(0.,0.,-20.2));
#406=CARTESIAN_POINT('',(0.,0.,104.743432858557));
#407=CARTESIAN_POINT('',(0.,19.65,104.743432858557));
#408=CARTESIAN_POINT('',(-1.34265514244711E-12,-19.65,104.743432858557));
#409=CARTESIAN_POINT('',(0.,0.,104.743432858557));
#410=CARTESIAN_POINT('',(0.,35.09999903812,-1.2));
#411=CARTESIAN_POINT('',(0.,20.19982736606,100.9731673397));
#412=CARTESIAN_POINT('',(0.,-35.09999903812,-1.2));
#413=CARTESIAN_POINT('',(0.,-20.19982736606,100.9731673397));
#414=CARTESIAN_POINT('',(0.,0.,49.88658366985));
#415=CARTESIAN_POINT('',(0.,0.,126.8));
#416=CARTESIAN_POINT('',(-5.37817047449272E-12,-19.65,126.8));
#417=CARTESIAN_POINT('',(5.37696490788863E-12,19.65,126.8));
#418=CARTESIAN_POINT('',(0.,0.,126.8));
#419=CARTESIAN_POINT('',(0.,0.,126.8));
#420=CARTESIAN_POINT('',(0.,-19.65,116.5918761428));
#421=CARTESIAN_POINT('',(0.,19.65,116.5918761428));
#422=CARTESIAN_POINT('',(0.,0.,133.9));
#423=CARTESIAN_POINT('',(0.,0.,133.9));
#424=MECHANICAL_DESIGN_GEOMETRIC_PRESENTATION_REPRESENTATION('',(#237,#238,
#239,#240),#425);
#425=(
GEOMETRIC_REPRESENTATION_CONTEXT(3)
GLOBAL_UNCERTAINTY_ASSIGNED_CONTEXT((#426))
GLOBAL_UNIT_ASSIGNED_CONTEXT((#432,#428,#427))
REPRESENTATION_CONTEXT('2080.50-W.25','TOP_LEVEL_ASSEMBLY_PART')
);
#426=UNCERTAINTY_MEASURE_WITH_UNIT(LENGTH_MEASURE(2.E-5),#432,
'DISTANCE_ACCURACY_VALUE','Maximum Tolerance applied to model');
#427=(
NAMED_UNIT(*)
SI_UNIT($,.STERADIAN.)
SOLID_ANGLE_UNIT()
);
#428=(
CONVERSION_BASED_UNIT('DEGREE',#430)
NAMED_UNIT(#429)
PLANE_ANGLE_UNIT()
);
#429=DIMENSIONAL_EXPONENTS(0.,0.,0.,0.,0.,0.,0.);
#430=PLANE_ANGLE_MEASURE_WITH_UNIT(PLANE_ANGLE_MEASURE(0.0174532925),#431);
#431=(
NAMED_UNIT(*)
PLANE_ANGLE_UNIT()
SI_UNIT($,.RADIAN.)
);
#432=(
LENGTH_UNIT()
NAMED_UNIT(*)
SI_UNIT(.MILLI.,.METRE.)
);
ENDSEC;
END-ISO-10303-21;
