ISO-10303-21;
HEADER;
/* Generated by software containing ST-Developer
 * from STEP Tools, Inc. (www.steptools.com) 
 */
/* OPTION: using custom schema-name function */

FILE_DESCRIPTION(
/* description */ (''),
/* implementation_level */ '2;1');

FILE_NAME(
/* name */ '2080.50-W.06.063.stp',
/* time_stamp */ '2024-06-23T17:39:56+02:00',
/* author */ (''),
/* organization */ (''),
/* preprocessor_version */ 'ST-DEVELOPER v16.7',
/* originating_system */ 'SIEMENS PLM Software NX 12.0',
/* authorisation */ '');

FILE_SCHEMA (('AUTOMOTIVE_DESIGN { 1 0 10303 214 3 1 1 1 }'));
ENDSEC;

DATA;
#10=CONSTRUCTIVE_GEOMETRY_REPRESENTATION_RELATIONSHIP(
'supplemental geometry','',#32,#11);
#11=CONSTRUCTIVE_GEOMETRY_REPRESENTATION('supplemental geometry',(#259,
#260,#261),#437);
#12=PROPERTY_DEFINITION_REPRESENTATION(#16,#14);
#13=PROPERTY_DEFINITION_REPRESENTATION(#17,#15);
#14=REPRESENTATION('',(#18),#437);
#15=REPRESENTATION('',(#19),#437);
#16=PROPERTY_DEFINITION('pmi validation property','',#23);
#17=PROPERTY_DEFINITION('pmi validation property','',#23);
#18=VALUE_REPRESENTATION_ITEM('number of annotations',COUNT_MEASURE(0.));
#19=VALUE_REPRESENTATION_ITEM('number of views',COUNT_MEASURE(0.));
#20=SHAPE_REPRESENTATION_RELATIONSHIP('None',
'relationship between pf660F5CA0AEj8c5-None and pf660F5CA0AEj8c5-None',
#32,#21);
#21=ADVANCED_BREP_SHAPE_REPRESENTATION('pf660F5CA0AEj8c5-None',(#38),#437);
#22=SHAPE_DEFINITION_REPRESENTATION(#23,#32);
#23=PRODUCT_DEFINITION_SHAPE('','',#24);
#24=PRODUCT_DEFINITION(' ','',#26,#25);
#25=PRODUCT_DEFINITION_CONTEXT('part definition',#31,'design');
#26=PRODUCT_DEFINITION_FORMATION_WITH_SPECIFIED_SOURCE(' ',' ',#28,
 .NOT_KNOWN.);
#27=PRODUCT_RELATED_PRODUCT_CATEGORY('part','',(#28));
#28=PRODUCT('pf660F5CA0AEj8c5','pf660F5CA0AEj8c5',' ',(#29));
#29=PRODUCT_CONTEXT(' ',#31,'mechanical');
#30=APPLICATION_PROTOCOL_DEFINITION('international standard',
'automotive_design',2010,#31);
#31=APPLICATION_CONTEXT(
'core data for automotive mechanical design processes');
#32=SHAPE_REPRESENTATION('pf660F5CA0AEj8c5-None',(#258),#437);
#33=SURFACE_STYLE_USAGE(.BOTH.,#34);
#34=SURFACE_SIDE_STYLE('',(#35));
#35=SURFACE_STYLE_FILL_AREA(#36);
#36=FILL_AREA_STYLE('',(#37));
#37=FILL_AREA_STYLE_COLOUR('',#254);
#38=MANIFOLD_SOLID_BREP('',#39);
#39=CLOSED_SHELL('',(#76,#77,#78,#79,#80,#81,#82,#83,#84,#85,#86,#87,#88));
#40=TOROIDAL_SURFACE('',#283,17.5,5.);
#41=TOROIDAL_SURFACE('',#284,17.5,5.);
#42=CONICAL_SURFACE('',#275,10.10823593171,25.);
#43=CONICAL_SURFACE('',#280,10.10823593171,25.);
#44=CONICAL_SURFACE('',#292,27.64991320209,8.2971);
#45=LINE('',#396,#54);
#46=LINE('',#398,#55);
#47=LINE('',#402,#56);
#48=LINE('',#406,#57);
#49=LINE('',#409,#58);
#50=LINE('',#423,#59);
#51=LINE('',#427,#60);
#52=LINE('',#431,#61);
#53=LINE('',#433,#62);
#54=VECTOR('',#325,1.);
#55=VECTOR('',#326,1.);
#56=VECTOR('',#331,1.);
#57=VECTOR('',#334,1.);
#58=VECTOR('',#337,1.);
#59=VECTOR('',#358,1.);
#60=VECTOR('',#361,1.);
#61=VECTOR('',#368,1.);
#62=VECTOR('',#369,1.);
#63=FACE_OUTER_BOUND('',#107,.T.);
#64=FACE_OUTER_BOUND('',#108,.T.);
#65=FACE_OUTER_BOUND('',#109,.T.);
#66=FACE_OUTER_BOUND('',#110,.T.);
#67=FACE_OUTER_BOUND('',#111,.T.);
#68=FACE_OUTER_BOUND('',#112,.T.);
#69=FACE_OUTER_BOUND('',#113,.T.);
#70=FACE_OUTER_BOUND('',#114,.T.);
#71=FACE_OUTER_BOUND('',#115,.T.);
#72=CYLINDRICAL_SURFACE('',#270,48.75);
#73=CYLINDRICAL_SURFACE('',#279,12.5);
#74=CYLINDRICAL_SURFACE('',#289,19.65);
#75=CYLINDRICAL_SURFACE('',#291,19.65);
#76=ADVANCED_FACE('',(#93,#94),#89,.F.);
#77=ADVANCED_FACE('',(#95,#96),#90,.T.);
#78=ADVANCED_FACE('',(#97,#98),#72,.T.);
#79=ADVANCED_FACE('',(#63),#91,.T.);
#80=ADVANCED_FACE('',(#64),#42,.T.);
#81=ADVANCED_FACE('',(#65),#73,.T.);
#82=ADVANCED_FACE('',(#66),#43,.T.);
#83=ADVANCED_FACE('',(#67),#40,.F.);
#84=ADVANCED_FACE('',(#68),#41,.F.);
#85=ADVANCED_FACE('',(#69),#92,.F.);
#86=ADVANCED_FACE('',(#70),#74,.T.);
#87=ADVANCED_FACE('',(#71),#75,.T.);
#88=ADVANCED_FACE('',(#99,#100),#44,.T.);
#89=PLANE('',#265);
#90=PLANE('',#269);
#91=PLANE('',#273);
#92=PLANE('',#287);
#93=FACE_BOUND('',#101,.T.);
#94=FACE_BOUND('',#102,.T.);
#95=FACE_BOUND('',#103,.T.);
#96=FACE_BOUND('',#104,.T.);
#97=FACE_BOUND('',#105,.T.);
#98=FACE_BOUND('',#106,.T.);
#99=FACE_BOUND('',#116,.T.);
#100=FACE_BOUND('',#117,.T.);
#101=EDGE_LOOP('',(#118));
#102=EDGE_LOOP('',(#119,#120));
#103=EDGE_LOOP('',(#121));
#104=EDGE_LOOP('',(#122,#123));
#105=EDGE_LOOP('',(#124));
#106=EDGE_LOOP('',(#125));
#107=EDGE_LOOP('',(#126,#127));
#108=EDGE_LOOP('',(#128,#129,#130,#131));
#109=EDGE_LOOP('',(#132,#133,#134,#135,#136,#137,#138,#139,#140,#141));
#110=EDGE_LOOP('',(#142,#143,#144,#145));
#111=EDGE_LOOP('',(#146,#147,#148,#149));
#112=EDGE_LOOP('',(#150,#151,#152,#153));
#113=EDGE_LOOP('',(#154,#155));
#114=EDGE_LOOP('',(#156,#157,#158,#159));
#115=EDGE_LOOP('',(#160,#161,#162,#163));
#116=EDGE_LOOP('',(#164,#165));
#117=EDGE_LOOP('',(#166,#167,#168,#169,#170,#171));
#118=ORIENTED_EDGE('',*,*,#192,.T.);
#119=ORIENTED_EDGE('',*,*,#193,.T.);
#120=ORIENTED_EDGE('',*,*,#194,.T.);
#121=ORIENTED_EDGE('',*,*,#195,.F.);
#122=ORIENTED_EDGE('',*,*,#196,.F.);
#123=ORIENTED_EDGE('',*,*,#197,.F.);
#124=ORIENTED_EDGE('',*,*,#195,.T.);
#125=ORIENTED_EDGE('',*,*,#192,.F.);
#126=ORIENTED_EDGE('',*,*,#198,.F.);
#127=ORIENTED_EDGE('',*,*,#199,.F.);
#128=ORIENTED_EDGE('',*,*,#200,.F.);
#129=ORIENTED_EDGE('',*,*,#199,.T.);
#130=ORIENTED_EDGE('',*,*,#201,.T.);
#131=ORIENTED_EDGE('',*,*,#202,.F.);
#132=ORIENTED_EDGE('',*,*,#203,.T.);
#133=ORIENTED_EDGE('',*,*,#204,.T.);
#134=ORIENTED_EDGE('',*,*,#205,.F.);
#135=ORIENTED_EDGE('',*,*,#205,.T.);
#136=ORIENTED_EDGE('',*,*,#206,.F.);
#137=ORIENTED_EDGE('',*,*,#203,.F.);
#138=ORIENTED_EDGE('',*,*,#202,.T.);
#139=ORIENTED_EDGE('',*,*,#207,.T.);
#140=ORIENTED_EDGE('',*,*,#207,.F.);
#141=ORIENTED_EDGE('',*,*,#208,.T.);
#142=ORIENTED_EDGE('',*,*,#201,.F.);
#143=ORIENTED_EDGE('',*,*,#198,.T.);
#144=ORIENTED_EDGE('',*,*,#200,.T.);
#145=ORIENTED_EDGE('',*,*,#208,.F.);
#146=ORIENTED_EDGE('',*,*,#209,.F.);
#147=ORIENTED_EDGE('',*,*,#204,.F.);
#148=ORIENTED_EDGE('',*,*,#210,.T.);
#149=ORIENTED_EDGE('',*,*,#197,.T.);
#150=ORIENTED_EDGE('',*,*,#210,.F.);
#151=ORIENTED_EDGE('',*,*,#206,.T.);
#152=ORIENTED_EDGE('',*,*,#209,.T.);
#153=ORIENTED_EDGE('',*,*,#196,.T.);
#154=ORIENTED_EDGE('',*,*,#211,.T.);
#155=ORIENTED_EDGE('',*,*,#212,.T.);
#156=ORIENTED_EDGE('',*,*,#213,.F.);
#157=ORIENTED_EDGE('',*,*,#214,.T.);
#158=ORIENTED_EDGE('',*,*,#215,.T.);
#159=ORIENTED_EDGE('',*,*,#211,.F.);
#160=ORIENTED_EDGE('',*,*,#215,.F.);
#161=ORIENTED_EDGE('',*,*,#216,.T.);
#162=ORIENTED_EDGE('',*,*,#213,.T.);
#163=ORIENTED_EDGE('',*,*,#212,.F.);
#164=ORIENTED_EDGE('',*,*,#216,.F.);
#165=ORIENTED_EDGE('',*,*,#214,.F.);
#166=ORIENTED_EDGE('',*,*,#217,.F.);
#167=ORIENTED_EDGE('',*,*,#194,.F.);
#168=ORIENTED_EDGE('',*,*,#218,.T.);
#169=ORIENTED_EDGE('',*,*,#218,.F.);
#170=ORIENTED_EDGE('',*,*,#193,.F.);
#171=ORIENTED_EDGE('',*,*,#217,.T.);
#172=VERTEX_POINT('',#377);
#173=VERTEX_POINT('',#379);
#174=VERTEX_POINT('',#380);
#175=VERTEX_POINT('',#384);
#176=VERTEX_POINT('',#386);
#177=VERTEX_POINT('',#387);
#178=VERTEX_POINT('',#392);
#179=VERTEX_POINT('',#393);
#180=VERTEX_POINT('',#397);
#181=VERTEX_POINT('',#399);
#182=VERTEX_POINT('',#403);
#183=VERTEX_POINT('',#405);
#184=VERTEX_POINT('',#407);
#185=VERTEX_POINT('',#410);
#186=VERTEX_POINT('',#419);
#187=VERTEX_POINT('',#420);
#188=VERTEX_POINT('',#424);
#189=VERTEX_POINT('',#426);
#190=VERTEX_POINT('',#432);
#191=VERTEX_POINT('',#434);
#192=EDGE_CURVE('',#172,#172,#219,.T.);
#193=EDGE_CURVE('',#173,#174,#220,.T.);
#194=EDGE_CURVE('',#174,#173,#221,.T.);
#195=EDGE_CURVE('',#175,#175,#222,.T.);
#196=EDGE_CURVE('',#176,#177,#223,.T.);
#197=EDGE_CURVE('',#177,#176,#224,.T.);
#198=EDGE_CURVE('',#178,#179,#225,.T.);
#199=EDGE_CURVE('',#179,#178,#226,.T.);
#200=EDGE_CURVE('',#179,#180,#45,.T.);
#201=EDGE_CURVE('',#178,#181,#46,.T.);
#202=EDGE_CURVE('',#180,#181,#227,.T.);
#203=EDGE_CURVE('',#180,#182,#47,.T.);
#204=EDGE_CURVE('',#182,#183,#228,.T.);
#205=EDGE_CURVE('',#184,#183,#48,.T.);
#206=EDGE_CURVE('',#182,#183,#229,.T.);
#207=EDGE_CURVE('',#181,#185,#49,.T.);
#208=EDGE_CURVE('',#181,#180,#230,.T.);
#209=EDGE_CURVE('',#183,#176,#231,.T.);
#210=EDGE_CURVE('',#182,#177,#232,.T.);
#211=EDGE_CURVE('',#186,#187,#233,.T.);
#212=EDGE_CURVE('',#187,#186,#234,.T.);
#213=EDGE_CURVE('',#188,#186,#50,.T.);
#214=EDGE_CURVE('',#188,#189,#235,.T.);
#215=EDGE_CURVE('',#189,#187,#51,.T.);
#216=EDGE_CURVE('',#189,#188,#236,.T.);
#217=EDGE_CURVE('',#173,#190,#52,.T.);
#218=EDGE_CURVE('',#174,#191,#53,.T.);
#219=CIRCLE('',#262,48.75);
#220=CIRCLE('',#263,35.3916641016607);
#221=CIRCLE('',#264,35.3916641016607);
#222=CIRCLE('',#266,48.75);
#223=CIRCLE('',#267,17.5);
#224=CIRCLE('',#268,17.5);
#225=CIRCLE('',#271,7.50000000000177);
#226=CIRCLE('',#272,7.50000000000177);
#227=CIRCLE('',#274,12.5);
#228=CIRCLE('',#276,12.5);
#229=CIRCLE('',#277,12.5);
#230=CIRCLE('',#278,12.5);
#231=CIRCLE('',#281,5.);
#232=CIRCLE('',#282,5.);
#233=CIRCLE('',#285,19.65);
#234=CIRCLE('',#286,19.65);
#235=CIRCLE('',#288,19.65);
#236=CIRCLE('',#290,19.65);
#237=INVISIBILITY((#238,#239,#240));
#238=PRESENTATION_LAYER_ASSIGNMENT('100','Layer 100',(#259));
#239=PRESENTATION_LAYER_ASSIGNMENT('101','Layer 101',(#260));
#240=PRESENTATION_LAYER_ASSIGNMENT('102','Layer 102',(#261));
#241=PRESENTATION_LAYER_ASSIGNMENT('98','Layer 98',(#38));
#242=STYLED_ITEM('',(#246),#259);
#243=STYLED_ITEM('',(#247),#260);
#244=STYLED_ITEM('',(#248),#261);
#245=STYLED_ITEM('',(#249),#38);
#246=PRESENTATION_STYLE_ASSIGNMENT((#250));
#247=PRESENTATION_STYLE_ASSIGNMENT((#251));
#248=PRESENTATION_STYLE_ASSIGNMENT((#252));
#249=PRESENTATION_STYLE_ASSIGNMENT((#33));
#250=CURVE_STYLE('',#255,POSITIVE_LENGTH_MEASURE(0.7),#253);
#251=CURVE_STYLE('',#256,POSITIVE_LENGTH_MEASURE(0.7),#253);
#252=CURVE_STYLE('',#257,POSITIVE_LENGTH_MEASURE(0.7),#253);
#253=COLOUR_RGB('Medium Maroon',0.6,0.4,0.4);
#254=COLOUR_RGB('Medium Gray',0.490196078431373,0.490196078431373,0.490196078431373);
#255=DRAUGHTING_PRE_DEFINED_CURVE_FONT('continuous');
#256=DRAUGHTING_PRE_DEFINED_CURVE_FONT('continuous');
#257=DRAUGHTING_PRE_DEFINED_CURVE_FONT('continuous');
#258=AXIS2_PLACEMENT_3D('',#372,#293,#294);
#259=AXIS2_PLACEMENT_3D('PCS',#373,#295,#296);
#260=AXIS2_PLACEMENT_3D('CSW',#374,#297,#298);
#261=AXIS2_PLACEMENT_3D('MCS',#375,#299,#300);
#262=AXIS2_PLACEMENT_3D('',#376,#301,#302);
#263=AXIS2_PLACEMENT_3D('',#378,#303,#304);
#264=AXIS2_PLACEMENT_3D('',#381,#305,#306);
#265=AXIS2_PLACEMENT_3D('',#382,#307,#308);
#266=AXIS2_PLACEMENT_3D('',#383,#309,#310);
#267=AXIS2_PLACEMENT_3D('',#385,#311,#312);
#268=AXIS2_PLACEMENT_3D('',#388,#313,#314);
#269=AXIS2_PLACEMENT_3D('',#389,#315,#316);
#270=AXIS2_PLACEMENT_3D('',#390,#317,#318);
#271=AXIS2_PLACEMENT_3D('',#391,#319,#320);
#272=AXIS2_PLACEMENT_3D('',#394,#321,#322);
#273=AXIS2_PLACEMENT_3D('',#395,#323,#324);
#274=AXIS2_PLACEMENT_3D('',#400,#327,#328);
#275=AXIS2_PLACEMENT_3D('',#401,#329,#330);
#276=AXIS2_PLACEMENT_3D('',#404,#332,#333);
#277=AXIS2_PLACEMENT_3D('',#408,#335,#336);
#278=AXIS2_PLACEMENT_3D('',#411,#338,#339);
#279=AXIS2_PLACEMENT_3D('',#412,#340,#341);
#280=AXIS2_PLACEMENT_3D('',#413,#342,#343);
#281=AXIS2_PLACEMENT_3D('',#414,#344,#345);
#282=AXIS2_PLACEMENT_3D('',#415,#346,#347);
#283=AXIS2_PLACEMENT_3D('',#416,#348,#349);
#284=AXIS2_PLACEMENT_3D('',#417,#350,#351);
#285=AXIS2_PLACEMENT_3D('',#418,#352,#353);
#286=AXIS2_PLACEMENT_3D('',#421,#354,#355);
#287=AXIS2_PLACEMENT_3D('',#422,#356,#357);
#288=AXIS2_PLACEMENT_3D('',#425,#359,#360);
#289=AXIS2_PLACEMENT_3D('',#428,#362,#363);
#290=AXIS2_PLACEMENT_3D('',#429,#364,#365);
#291=AXIS2_PLACEMENT_3D('',#430,#366,#367);
#292=AXIS2_PLACEMENT_3D('',#435,#370,#371);
#293=DIRECTION('',(0.,0.,1.));
#294=DIRECTION('',(1.,0.,0.));
#295=DIRECTION('',(0.,0.,1.));
#296=DIRECTION('',(1.,0.,0.));
#297=DIRECTION('',(0.,0.,1.));
#298=DIRECTION('',(1.,0.,0.));
#299=DIRECTION('',(0.,0.,1.));
#300=DIRECTION('',(1.,0.,0.));
#301=DIRECTION('',(0.,0.,1.));
#302=DIRECTION('',(-1.,0.,0.));
#303=DIRECTION('',(0.,0.,-1.));
#304=DIRECTION('',(-1.,0.,0.));
#305=DIRECTION('',(0.,0.,-1.));
#306=DIRECTION('',(-1.,0.,0.));
#307=DIRECTION('',(0.,0.,-1.));
#308=DIRECTION('',(0.,1.,0.));
#309=DIRECTION('',(0.,0.,1.));
#310=DIRECTION('',(-1.,0.,0.));
#311=DIRECTION('',(0.,0.,-1.));
#312=DIRECTION('',(0.,-1.,0.));
#313=DIRECTION('',(0.,0.,-1.));
#314=DIRECTION('',(0.,1.,0.));
#315=DIRECTION('',(0.,0.,-1.));
#316=DIRECTION('',(0.,1.,0.));
#317=DIRECTION('',(0.,0.,-1.));
#318=DIRECTION('',(0.,1.,0.));
#319=DIRECTION('',(0.,0.,1.));
#320=DIRECTION('',(-1.,0.,0.));
#321=DIRECTION('',(0.,0.,1.));
#322=DIRECTION('',(-1.,0.,0.));
#323=DIRECTION('',(0.,0.,-1.));
#324=DIRECTION('',(0.,1.,0.));
#325=DIRECTION('',(-1.62848686242793E-13,0.422618261740681,0.906307787036659));
#326=DIRECTION('',(1.62968445486393E-13,-0.422618261740681,0.906307787036659));
#327=DIRECTION('',(0.,0.,1.));
#328=DIRECTION('',(1.,0.,0.));
#329=DIRECTION('',(0.,0.,1.));
#330=DIRECTION('',(0.,-1.,2.91295651133097E-17));
#331=DIRECTION('',(4.7011568883E-13,0.,1.));
#332=DIRECTION('',(0.,0.,-1.));
#333=DIRECTION('',(0.,1.,0.));
#334=DIRECTION('',(0.,0.,1.));
#335=DIRECTION('',(0.,0.,1.));
#336=DIRECTION('',(0.,1.,0.));
#337=DIRECTION('',(-4.714743969248E-12,0.,1.));
#338=DIRECTION('',(0.,0.,1.));
#339=DIRECTION('',(1.,0.,0.));
#340=DIRECTION('',(0.,0.,-1.));
#341=DIRECTION('',(0.,1.,0.));
#342=DIRECTION('',(0.,0.,1.));
#343=DIRECTION('',(0.,-1.,2.91295651133097E-17));
#344=DIRECTION('',(1.,0.,0.));
#345=DIRECTION('',(0.,1.,0.));
#346=DIRECTION('',(-1.,0.,0.));
#347=DIRECTION('',(0.,-1.,0.));
#348=DIRECTION('',(0.,0.,-1.));
#349=DIRECTION('',(0.,1.,0.));
#350=DIRECTION('',(0.,0.,-1.));
#351=DIRECTION('',(0.,1.,0.));
#352=DIRECTION('',(0.,0.,1.));
#353=DIRECTION('',(-1.,0.,0.));
#354=DIRECTION('',(0.,0.,1.));
#355=DIRECTION('',(-1.,0.,0.));
#356=DIRECTION('',(0.,0.,-1.));
#357=DIRECTION('',(0.,1.,0.));
#358=DIRECTION('',(-5.268520003996E-13,0.,1.));
#359=DIRECTION('',(0.,0.,1.));
#360=DIRECTION('',(-1.,0.,0.));
#361=DIRECTION('',(5.267339016558E-13,0.,1.));
#362=DIRECTION('',(0.,0.,-1.));
#363=DIRECTION('',(0.,1.,0.));
#364=DIRECTION('',(0.,0.,1.));
#365=DIRECTION('',(-1.,0.,0.));
#366=DIRECTION('',(0.,0.,-1.));
#367=DIRECTION('',(0.,1.,0.));
#368=DIRECTION('',(0.,-0.144306116415197,0.989533094325381));
#369=DIRECTION('',(0.,0.144306116415197,0.989533094325381));
#370=DIRECTION('',(0.,0.,-1.));
#371=DIRECTION('',(0.,1.,0.));
#372=CARTESIAN_POINT('',(0.,0.,0.));
#373=CARTESIAN_POINT('',(0.,0.,0.));
#374=CARTESIAN_POINT('',(0.,0.,-63.));
#375=CARTESIAN_POINT('',(0.,0.,0.));
#376=CARTESIAN_POINT('',(0.,0.,-3.20000000000001));
#377=CARTESIAN_POINT('',(-48.75,0.,-3.20000000000001));
#378=CARTESIAN_POINT('',(0.,0.,-3.2));
#379=CARTESIAN_POINT('',(0.,35.3916641016607,-3.2));
#380=CARTESIAN_POINT('',(4.3342288158597E-15,-35.3916641016607,-3.2));
#381=CARTESIAN_POINT('',(0.,0.,-3.2));
#382=CARTESIAN_POINT('',(0.,0.,-3.2));
#383=CARTESIAN_POINT('',(0.,0.,-15.2));
#384=CARTESIAN_POINT('',(-48.75,0.,-15.2));
#385=CARTESIAN_POINT('',(0.,0.,-15.2));
#386=CARTESIAN_POINT('',(0.,-17.5,-15.2));
#387=CARTESIAN_POINT('',(0.,17.5,-15.2));
#388=CARTESIAN_POINT('',(0.,0.,-15.2));
#389=CARTESIAN_POINT('',(0.,0.,-15.2));
#390=CARTESIAN_POINT('',(0.,0.,133.9));
#391=CARTESIAN_POINT('',(0.,0.,-63.));
#392=CARTESIAN_POINT('',(1.06241322245957E-11,-7.4999999999978,-63.));
#393=CARTESIAN_POINT('',(-1.06244886329845E-11,7.4999999999978,-63.));
#394=CARTESIAN_POINT('',(0.,0.,-63.));
#395=CARTESIAN_POINT('',(0.,0.,-63.));
#396=CARTESIAN_POINT('',(-1.078010771551E-11,7.903856289342,-62.13392739261));
#397=CARTESIAN_POINT('',(-7.53929446137335E-12,12.5,-52.2774653974515));
#398=CARTESIAN_POINT('',(1.07798657497E-11,-7.903856289342,-62.13392739261));
#399=CARTESIAN_POINT('',(8.48010276292557E-12,-12.5,-52.2774653974515));
#400=CARTESIAN_POINT('',(0.,0.,-52.277465397456));
#401=CARTESIAN_POINT('',(0.,0.,-57.40661999413));
#402=CARTESIAN_POINT('',(-1.487014464467E-11,12.5,-51.83407607217));
#403=CARTESIAN_POINT('',(0.,12.5,-20.2));
#404=CARTESIAN_POINT('',(0.,0.,-20.2));
#405=CARTESIAN_POINT('',(0.,-12.5,-20.2));
#406=CARTESIAN_POINT('',(0.,-12.5,-41.32));
#407=CARTESIAN_POINT('',(0.,-12.5,-41.32));
#408=CARTESIAN_POINT('',(0.,0.,-20.2));
#409=CARTESIAN_POINT('',(1.486973837843E-11,-12.5,-51.83407607217));
#410=CARTESIAN_POINT('',(-2.30690345736711E-16,-12.5,-48.68));
#411=CARTESIAN_POINT('',(0.,0.,-52.277465397456));
#412=CARTESIAN_POINT('',(0.,0.,-12.81));
#413=CARTESIAN_POINT('',(0.,0.,-57.40661999413));
#414=CARTESIAN_POINT('',(0.,-17.5,-20.2));
#415=CARTESIAN_POINT('',(0.,17.5,-20.2));
#416=CARTESIAN_POINT('',(0.,0.,-20.2));
#417=CARTESIAN_POINT('',(0.,0.,-20.2));
#418=CARTESIAN_POINT('',(0.,0.,126.8));
#419=CARTESIAN_POINT('',(-5.37817047449272E-12,-19.65,126.8));
#420=CARTESIAN_POINT('',(5.37696490788863E-12,19.65,126.8));
#421=CARTESIAN_POINT('',(0.,0.,126.8));
#422=CARTESIAN_POINT('',(0.,0.,126.8));
#423=CARTESIAN_POINT('',(0.,-19.65,116.5918761428));
#424=CARTESIAN_POINT('',(-1.34265514244711E-12,-19.65,104.743432858557));
#425=CARTESIAN_POINT('',(0.,0.,104.743432858557));
#426=CARTESIAN_POINT('',(0.,19.65,104.743432858557));
#427=CARTESIAN_POINT('',(0.,19.65,116.5918761428));
#428=CARTESIAN_POINT('',(0.,0.,133.9));
#429=CARTESIAN_POINT('',(0.,0.,104.743432858557));
#430=CARTESIAN_POINT('',(0.,0.,133.9));
#431=CARTESIAN_POINT('',(0.,35.09999903812,-1.2));
#432=CARTESIAN_POINT('',(0.,20.19982736606,100.9731673397));
#433=CARTESIAN_POINT('',(0.,-35.09999903812,-1.2));
#434=CARTESIAN_POINT('',(0.,-20.19982736606,100.9731673397));
#435=CARTESIAN_POINT('',(0.,0.,49.88658366985));
#436=MECHANICAL_DESIGN_GEOMETRIC_PRESENTATION_REPRESENTATION('',(#242,#243,
#244,#245),#437);
#437=(
GEOMETRIC_REPRESENTATION_CONTEXT(3)
GLOBAL_UNCERTAINTY_ASSIGNED_CONTEXT((#438))
GLOBAL_UNIT_ASSIGNED_CONTEXT((#444,#440,#439))
REPRESENTATION_CONTEXT('2080.50-W.06','TOP_LEVEL_ASSEMBLY_PART')
);
#438=UNCERTAINTY_MEASURE_WITH_UNIT(LENGTH_MEASURE(2.E-5),#444,
'DISTANCE_ACCURACY_VALUE','Maximum Tolerance applied to model');
#439=(
NAMED_UNIT(*)
SI_UNIT($,.STERADIAN.)
SOLID_ANGLE_UNIT()
);
#440=(
CONVERSION_BASED_UNIT('DEGREE',#442)
NAMED_UNIT(#441)
PLANE_ANGLE_UNIT()
);
#441=DIMENSIONAL_EXPONENTS(0.,0.,0.,0.,0.,0.,0.);
#442=PLANE_ANGLE_MEASURE_WITH_UNIT(PLANE_ANGLE_MEASURE(0.0174532925),#443);
#443=(
NAMED_UNIT(*)
PLANE_ANGLE_UNIT()
SI_UNIT($,.RADIAN.)
);
#444=(
LENGTH_UNIT()
NAMED_UNIT(*)
SI_UNIT(.MILLI.,.METRE.)
);
ENDSEC;
END-ISO-10303-21;
