ISO-10303-21;
HEADER;
/* Generated by software containing ST-Developer
 * from STEP Tools, Inc. (www.steptools.com) 
 */
/* OPTION: using custom schema-name function */

FILE_DESCRIPTION(
/* description */ (''),
/* implementation_level */ '2;1');

FILE_NAME(
/* name */ '2080.50-QTCC.M5.M22.stp',
/* time_stamp */ '2024-06-23T17:34:08+02:00',
/* author */ (''),
/* organization */ (''),
/* preprocessor_version */ 'ST-DEVELOPER v16.7',
/* originating_system */ 'SIEMENS PLM Software NX 12.0',
/* authorisation */ '');

FILE_SCHEMA (('AUTOMOTIVE_DESIGN { 1 0 10303 214 3 1 1 1 }'));
ENDSEC;

DATA;
#10=CONSTRUCTIVE_GEOMETRY_REPRESENTATION_RELATIONSHIP(
'supplemental geometry','',#32,#11);
#11=CONSTRUCTIVE_GEOMETRY_REPRESENTATION('supplemental geometry',(#258,
#259,#260),#428);
#12=PROPERTY_DEFINITION_REPRESENTATION(#16,#14);
#13=PROPERTY_DEFINITION_REPRESENTATION(#17,#15);
#14=REPRESENTATION('',(#18),#428);
#15=REPRESENTATION('',(#19),#428);
#16=PROPERTY_DEFINITION('pmi validation property','',#23);
#17=PROPERTY_DEFINITION('pmi validation property','',#23);
#18=VALUE_REPRESENTATION_ITEM('number of annotations',COUNT_MEASURE(0.));
#19=VALUE_REPRESENTATION_ITEM('number of views',COUNT_MEASURE(0.));
#20=SHAPE_REPRESENTATION_RELATIONSHIP('None',
'relationship between pf660F5CA0AEj8bf-None and pf660F5CA0AEj8bf-None',
#32,#21);
#21=ADVANCED_BREP_SHAPE_REPRESENTATION('pf660F5CA0AEj8bf-None',(#38),#428);
#22=SHAPE_DEFINITION_REPRESENTATION(#23,#32);
#23=PRODUCT_DEFINITION_SHAPE('','',#24);
#24=PRODUCT_DEFINITION(' ','',#26,#25);
#25=PRODUCT_DEFINITION_CONTEXT('part definition',#31,'design');
#26=PRODUCT_DEFINITION_FORMATION_WITH_SPECIFIED_SOURCE(' ',' ',#28,
 .NOT_KNOWN.);
#27=PRODUCT_RELATED_PRODUCT_CATEGORY('part','',(#28));
#28=PRODUCT('pf660F5CA0AEj8bf','pf660F5CA0AEj8bf',' ',(#29));
#29=PRODUCT_CONTEXT(' ',#31,'mechanical');
#30=APPLICATION_PROTOCOL_DEFINITION('international standard',
'automotive_design',2010,#31);
#31=APPLICATION_CONTEXT(
'core data for automotive mechanical design processes');
#32=SHAPE_REPRESENTATION('pf660F5CA0AEj8bf-None',(#257),#428);
#33=SURFACE_STYLE_USAGE(.BOTH.,#34);
#34=SURFACE_SIDE_STYLE('',(#35));
#35=SURFACE_STYLE_FILL_AREA(#36);
#36=FILL_AREA_STYLE('',(#37));
#37=FILL_AREA_STYLE_COLOUR('',#253);
#38=MANIFOLD_SOLID_BREP('',#39);
#39=CLOSED_SHELL('',(#73,#74,#75,#76,#77,#78,#79,#80,#81,#82,#83,#84));
#40=FACE_OUTER_BOUND('',#110,.T.);
#41=FACE_OUTER_BOUND('',#111,.T.);
#42=FACE_OUTER_BOUND('',#116,.T.);
#43=FACE_OUTER_BOUND('',#117,.T.);
#44=FACE_OUTER_BOUND('',#118,.T.);
#45=FACE_OUTER_BOUND('',#119,.T.);
#46=CONICAL_SURFACE('',#272,27.64991320209,8.2971);
#47=LINE('',#386,#57);
#48=LINE('',#388,#58);
#49=LINE('',#391,#59);
#50=LINE('',#396,#60);
#51=LINE('',#408,#61);
#52=LINE('',#410,#62);
#53=LINE('',#412,#63);
#54=LINE('',#414,#64);
#55=LINE('',#422,#65);
#56=LINE('',#423,#66);
#57=VECTOR('',#319,1.);
#58=VECTOR('',#320,1.);
#59=VECTOR('',#323,1.);
#60=VECTOR('',#326,1.);
#61=VECTOR('',#343,1.);
#62=VECTOR('',#344,1.);
#63=VECTOR('',#345,1.);
#64=VECTOR('',#346,1.);
#65=VECTOR('',#355,1.);
#66=VECTOR('',#356,1.);
#67=CYLINDRICAL_SURFACE('',#269,48.75);
#68=CYLINDRICAL_SURFACE('',#275,27.);
#69=CYLINDRICAL_SURFACE('',#278,27.);
#70=CYLINDRICAL_SURFACE('',#282,25.);
#71=CYLINDRICAL_SURFACE('',#286,19.65);
#72=CYLINDRICAL_SURFACE('',#287,19.65);
#73=ADVANCED_FACE('',(#90,#91),#85,.F.);
#74=ADVANCED_FACE('',(#92,#93),#86,.T.);
#75=ADVANCED_FACE('',(#94,#95),#67,.T.);
#76=ADVANCED_FACE('',(#96,#97),#46,.T.);
#77=ADVANCED_FACE('',(#40),#68,.T.);
#78=ADVANCED_FACE('',(#41),#69,.T.);
#79=ADVANCED_FACE('',(#98,#99),#87,.F.);
#80=ADVANCED_FACE('',(#100,#101),#70,.T.);
#81=ADVANCED_FACE('',(#42),#88,.F.);
#82=ADVANCED_FACE('',(#43),#71,.T.);
#83=ADVANCED_FACE('',(#44),#72,.T.);
#84=ADVANCED_FACE('',(#45),#89,.T.);
#85=PLANE('',#264);
#86=PLANE('',#268);
#87=PLANE('',#281);
#88=PLANE('',#285);
#89=PLANE('',#288);
#90=FACE_BOUND('',#102,.T.);
#91=FACE_BOUND('',#103,.T.);
#92=FACE_BOUND('',#104,.T.);
#93=FACE_BOUND('',#105,.T.);
#94=FACE_BOUND('',#106,.T.);
#95=FACE_BOUND('',#107,.T.);
#96=FACE_BOUND('',#108,.T.);
#97=FACE_BOUND('',#109,.T.);
#98=FACE_BOUND('',#112,.T.);
#99=FACE_BOUND('',#113,.T.);
#100=FACE_BOUND('',#114,.T.);
#101=FACE_BOUND('',#115,.T.);
#102=EDGE_LOOP('',(#120));
#103=EDGE_LOOP('',(#121,#122));
#104=EDGE_LOOP('',(#123,#124));
#105=EDGE_LOOP('',(#125));
#106=EDGE_LOOP('',(#126));
#107=EDGE_LOOP('',(#127));
#108=EDGE_LOOP('',(#128,#129));
#109=EDGE_LOOP('',(#130,#131,#132,#133,#134,#135));
#110=EDGE_LOOP('',(#136,#137,#138,#139));
#111=EDGE_LOOP('',(#140,#141,#142,#143));
#112=EDGE_LOOP('',(#144,#145));
#113=EDGE_LOOP('',(#146,#147));
#114=EDGE_LOOP('',(#148,#149,#150,#151,#152,#153));
#115=EDGE_LOOP('',(#154,#155,#156,#157,#158,#159));
#116=EDGE_LOOP('',(#160,#161));
#117=EDGE_LOOP('',(#162,#163,#164,#165));
#118=EDGE_LOOP('',(#166,#167,#168,#169));
#119=EDGE_LOOP('',(#170,#171));
#120=ORIENTED_EDGE('',*,*,#194,.F.);
#121=ORIENTED_EDGE('',*,*,#195,.T.);
#122=ORIENTED_EDGE('',*,*,#196,.T.);
#123=ORIENTED_EDGE('',*,*,#197,.F.);
#124=ORIENTED_EDGE('',*,*,#198,.F.);
#125=ORIENTED_EDGE('',*,*,#199,.T.);
#126=ORIENTED_EDGE('',*,*,#194,.T.);
#127=ORIENTED_EDGE('',*,*,#199,.F.);
#128=ORIENTED_EDGE('',*,*,#200,.F.);
#129=ORIENTED_EDGE('',*,*,#201,.F.);
#130=ORIENTED_EDGE('',*,*,#202,.F.);
#131=ORIENTED_EDGE('',*,*,#196,.F.);
#132=ORIENTED_EDGE('',*,*,#203,.T.);
#133=ORIENTED_EDGE('',*,*,#203,.F.);
#134=ORIENTED_EDGE('',*,*,#195,.F.);
#135=ORIENTED_EDGE('',*,*,#202,.T.);
#136=ORIENTED_EDGE('',*,*,#204,.F.);
#137=ORIENTED_EDGE('',*,*,#205,.F.);
#138=ORIENTED_EDGE('',*,*,#206,.T.);
#139=ORIENTED_EDGE('',*,*,#207,.F.);
#140=ORIENTED_EDGE('',*,*,#206,.F.);
#141=ORIENTED_EDGE('',*,*,#208,.F.);
#142=ORIENTED_EDGE('',*,*,#204,.T.);
#143=ORIENTED_EDGE('',*,*,#209,.F.);
#144=ORIENTED_EDGE('',*,*,#209,.T.);
#145=ORIENTED_EDGE('',*,*,#207,.T.);
#146=ORIENTED_EDGE('',*,*,#210,.T.);
#147=ORIENTED_EDGE('',*,*,#211,.T.);
#148=ORIENTED_EDGE('',*,*,#212,.F.);
#149=ORIENTED_EDGE('',*,*,#212,.T.);
#150=ORIENTED_EDGE('',*,*,#211,.F.);
#151=ORIENTED_EDGE('',*,*,#213,.F.);
#152=ORIENTED_EDGE('',*,*,#213,.T.);
#153=ORIENTED_EDGE('',*,*,#210,.F.);
#154=ORIENTED_EDGE('',*,*,#214,.T.);
#155=ORIENTED_EDGE('',*,*,#214,.F.);
#156=ORIENTED_EDGE('',*,*,#198,.T.);
#157=ORIENTED_EDGE('',*,*,#215,.T.);
#158=ORIENTED_EDGE('',*,*,#215,.F.);
#159=ORIENTED_EDGE('',*,*,#197,.T.);
#160=ORIENTED_EDGE('',*,*,#216,.T.);
#161=ORIENTED_EDGE('',*,*,#217,.T.);
#162=ORIENTED_EDGE('',*,*,#218,.F.);
#163=ORIENTED_EDGE('',*,*,#201,.T.);
#164=ORIENTED_EDGE('',*,*,#219,.T.);
#165=ORIENTED_EDGE('',*,*,#216,.F.);
#166=ORIENTED_EDGE('',*,*,#219,.F.);
#167=ORIENTED_EDGE('',*,*,#200,.T.);
#168=ORIENTED_EDGE('',*,*,#218,.T.);
#169=ORIENTED_EDGE('',*,*,#217,.F.);
#170=ORIENTED_EDGE('',*,*,#205,.T.);
#171=ORIENTED_EDGE('',*,*,#208,.T.);
#172=VERTEX_POINT('',#368);
#173=VERTEX_POINT('',#370);
#174=VERTEX_POINT('',#371);
#175=VERTEX_POINT('',#375);
#176=VERTEX_POINT('',#376);
#177=VERTEX_POINT('',#379);
#178=VERTEX_POINT('',#383);
#179=VERTEX_POINT('',#384);
#180=VERTEX_POINT('',#387);
#181=VERTEX_POINT('',#389);
#182=VERTEX_POINT('',#392);
#183=VERTEX_POINT('',#393);
#184=VERTEX_POINT('',#395);
#185=VERTEX_POINT('',#397);
#186=VERTEX_POINT('',#404);
#187=VERTEX_POINT('',#405);
#188=VERTEX_POINT('',#409);
#189=VERTEX_POINT('',#411);
#190=VERTEX_POINT('',#413);
#191=VERTEX_POINT('',#415);
#192=VERTEX_POINT('',#418);
#193=VERTEX_POINT('',#419);
#194=EDGE_CURVE('',#172,#172,#220,.T.);
#195=EDGE_CURVE('',#173,#174,#221,.T.);
#196=EDGE_CURVE('',#174,#173,#222,.T.);
#197=EDGE_CURVE('',#175,#176,#223,.T.);
#198=EDGE_CURVE('',#176,#175,#224,.T.);
#199=EDGE_CURVE('',#177,#177,#225,.T.);
#200=EDGE_CURVE('',#178,#179,#226,.T.);
#201=EDGE_CURVE('',#179,#178,#227,.T.);
#202=EDGE_CURVE('',#173,#180,#47,.T.);
#203=EDGE_CURVE('',#174,#181,#48,.T.);
#204=EDGE_CURVE('',#182,#183,#49,.T.);
#205=EDGE_CURVE('',#184,#182,#228,.T.);
#206=EDGE_CURVE('',#184,#185,#50,.T.);
#207=EDGE_CURVE('',#183,#185,#229,.T.);
#208=EDGE_CURVE('',#182,#184,#230,.T.);
#209=EDGE_CURVE('',#185,#183,#231,.T.);
#210=EDGE_CURVE('',#186,#187,#232,.T.);
#211=EDGE_CURVE('',#187,#186,#233,.T.);
#212=EDGE_CURVE('',#188,#186,#51,.T.);
#213=EDGE_CURVE('',#189,#187,#52,.T.);
#214=EDGE_CURVE('',#176,#190,#53,.T.);
#215=EDGE_CURVE('',#175,#191,#54,.T.);
#216=EDGE_CURVE('',#192,#193,#234,.T.);
#217=EDGE_CURVE('',#193,#192,#235,.T.);
#218=EDGE_CURVE('',#179,#192,#55,.T.);
#219=EDGE_CURVE('',#178,#193,#56,.T.);
#220=CIRCLE('',#261,48.75);
#221=CIRCLE('',#262,35.3916641016607);
#222=CIRCLE('',#263,35.3916641016607);
#223=CIRCLE('',#265,25.);
#224=CIRCLE('',#266,25.);
#225=CIRCLE('',#267,48.75);
#226=CIRCLE('',#270,19.65);
#227=CIRCLE('',#271,19.65);
#228=CIRCLE('',#273,27.);
#229=CIRCLE('',#274,27.);
#230=CIRCLE('',#276,27.);
#231=CIRCLE('',#277,27.);
#232=CIRCLE('',#279,25.);
#233=CIRCLE('',#280,25.);
#234=CIRCLE('',#283,19.65);
#235=CIRCLE('',#284,19.65);
#236=INVISIBILITY((#237,#238,#239));
#237=PRESENTATION_LAYER_ASSIGNMENT('100','Layer 100',(#258));
#238=PRESENTATION_LAYER_ASSIGNMENT('101','Layer 101',(#259));
#239=PRESENTATION_LAYER_ASSIGNMENT('102','Layer 102',(#260));
#240=PRESENTATION_LAYER_ASSIGNMENT('98','Layer 98',(#38));
#241=STYLED_ITEM('',(#245),#258);
#242=STYLED_ITEM('',(#246),#259);
#243=STYLED_ITEM('',(#247),#260);
#244=STYLED_ITEM('',(#248),#38);
#245=PRESENTATION_STYLE_ASSIGNMENT((#249));
#246=PRESENTATION_STYLE_ASSIGNMENT((#250));
#247=PRESENTATION_STYLE_ASSIGNMENT((#251));
#248=PRESENTATION_STYLE_ASSIGNMENT((#33));
#249=CURVE_STYLE('',#254,POSITIVE_LENGTH_MEASURE(0.7),#252);
#250=CURVE_STYLE('',#255,POSITIVE_LENGTH_MEASURE(0.7),#252);
#251=CURVE_STYLE('',#256,POSITIVE_LENGTH_MEASURE(0.7),#252);
#252=COLOUR_RGB('Medium Maroon',0.6,0.4,0.4);
#253=COLOUR_RGB('Medium Gray',0.490196078431373,0.490196078431373,0.490196078431373);
#254=DRAUGHTING_PRE_DEFINED_CURVE_FONT('continuous');
#255=DRAUGHTING_PRE_DEFINED_CURVE_FONT('continuous');
#256=DRAUGHTING_PRE_DEFINED_CURVE_FONT('continuous');
#257=AXIS2_PLACEMENT_3D('',#363,#289,#290);
#258=AXIS2_PLACEMENT_3D('PCS',#364,#291,#292);
#259=AXIS2_PLACEMENT_3D('CSW',#365,#293,#294);
#260=AXIS2_PLACEMENT_3D('MCS',#366,#295,#296);
#261=AXIS2_PLACEMENT_3D('',#367,#297,#298);
#262=AXIS2_PLACEMENT_3D('',#369,#299,#300);
#263=AXIS2_PLACEMENT_3D('',#372,#301,#302);
#264=AXIS2_PLACEMENT_3D('',#373,#303,#304);
#265=AXIS2_PLACEMENT_3D('',#374,#305,#306);
#266=AXIS2_PLACEMENT_3D('',#377,#307,#308);
#267=AXIS2_PLACEMENT_3D('',#378,#309,#310);
#268=AXIS2_PLACEMENT_3D('',#380,#311,#312);
#269=AXIS2_PLACEMENT_3D('',#381,#313,#314);
#270=AXIS2_PLACEMENT_3D('',#382,#315,#316);
#271=AXIS2_PLACEMENT_3D('',#385,#317,#318);
#272=AXIS2_PLACEMENT_3D('',#390,#321,#322);
#273=AXIS2_PLACEMENT_3D('',#394,#324,#325);
#274=AXIS2_PLACEMENT_3D('',#398,#327,#328);
#275=AXIS2_PLACEMENT_3D('',#399,#329,#330);
#276=AXIS2_PLACEMENT_3D('',#400,#331,#332);
#277=AXIS2_PLACEMENT_3D('',#401,#333,#334);
#278=AXIS2_PLACEMENT_3D('',#402,#335,#336);
#279=AXIS2_PLACEMENT_3D('',#403,#337,#338);
#280=AXIS2_PLACEMENT_3D('',#406,#339,#340);
#281=AXIS2_PLACEMENT_3D('',#407,#341,#342);
#282=AXIS2_PLACEMENT_3D('',#416,#347,#348);
#283=AXIS2_PLACEMENT_3D('',#417,#349,#350);
#284=AXIS2_PLACEMENT_3D('',#420,#351,#352);
#285=AXIS2_PLACEMENT_3D('',#421,#353,#354);
#286=AXIS2_PLACEMENT_3D('',#424,#357,#358);
#287=AXIS2_PLACEMENT_3D('',#425,#359,#360);
#288=AXIS2_PLACEMENT_3D('',#426,#361,#362);
#289=DIRECTION('',(0.,0.,1.));
#290=DIRECTION('',(1.,0.,0.));
#291=DIRECTION('',(0.,0.,1.));
#292=DIRECTION('',(1.,0.,0.));
#293=DIRECTION('',(0.,0.,1.));
#294=DIRECTION('',(1.,0.,0.));
#295=DIRECTION('',(0.,0.,1.));
#296=DIRECTION('',(1.,0.,0.));
#297=DIRECTION('',(0.,0.,-1.));
#298=DIRECTION('',(-1.,0.,0.));
#299=DIRECTION('',(0.,0.,-1.));
#300=DIRECTION('',(-1.,0.,0.));
#301=DIRECTION('',(0.,0.,-1.));
#302=DIRECTION('',(-1.,0.,0.));
#303=DIRECTION('',(0.,0.,-1.));
#304=DIRECTION('',(0.,1.,0.));
#305=DIRECTION('',(0.,0.,-1.));
#306=DIRECTION('',(-1.,0.,0.));
#307=DIRECTION('',(0.,0.,-1.));
#308=DIRECTION('',(-1.,0.,0.));
#309=DIRECTION('',(0.,0.,-1.));
#310=DIRECTION('',(-1.,0.,0.));
#311=DIRECTION('',(0.,0.,-1.));
#312=DIRECTION('',(0.,1.,0.));
#313=DIRECTION('',(0.,0.,-1.));
#314=DIRECTION('',(0.,1.,0.));
#315=DIRECTION('',(0.,0.,1.));
#316=DIRECTION('',(-1.,0.,0.));
#317=DIRECTION('',(0.,0.,1.));
#318=DIRECTION('',(-1.,0.,0.));
#319=DIRECTION('',(0.,-0.144306116415197,0.989533094325381));
#320=DIRECTION('',(0.,0.144306116415197,0.989533094325381));
#321=DIRECTION('',(0.,0.,-1.));
#322=DIRECTION('',(0.,1.,0.));
#323=DIRECTION('',(3.013601826994E-14,0.,1.));
#324=DIRECTION('',(0.,0.,-1.));
#325=DIRECTION('',(-1.,0.,0.));
#326=DIRECTION('',(-2.914245948439E-14,0.,1.));
#327=DIRECTION('',(0.,0.,1.));
#328=DIRECTION('',(-1.,0.,0.));
#329=DIRECTION('',(0.,0.,-1.));
#330=DIRECTION('',(0.,1.,0.));
#331=DIRECTION('',(0.,0.,-1.));
#332=DIRECTION('',(-1.,0.,0.));
#333=DIRECTION('',(0.,0.,1.));
#334=DIRECTION('',(-1.,0.,0.));
#335=DIRECTION('',(0.,0.,-1.));
#336=DIRECTION('',(0.,1.,0.));
#337=DIRECTION('',(0.,0.,-1.));
#338=DIRECTION('',(0.,-1.,0.));
#339=DIRECTION('',(0.,0.,-1.));
#340=DIRECTION('',(0.,1.,0.));
#341=DIRECTION('',(0.,0.,-1.));
#342=DIRECTION('',(0.,1.,0.));
#343=DIRECTION('',(0.,0.,-1.));
#344=DIRECTION('',(0.,0.,-1.));
#345=DIRECTION('',(0.,0.,-1.));
#346=DIRECTION('',(0.,0.,-1.));
#347=DIRECTION('',(0.,0.,-1.));
#348=DIRECTION('',(0.,1.,0.));
#349=DIRECTION('',(0.,0.,1.));
#350=DIRECTION('',(-1.,0.,0.));
#351=DIRECTION('',(0.,0.,1.));
#352=DIRECTION('',(-1.,0.,0.));
#353=DIRECTION('',(0.,0.,-1.));
#354=DIRECTION('',(0.,1.,0.));
#355=DIRECTION('',(-5.265924720999E-13,0.,1.));
#356=DIRECTION('',(5.256754995996E-13,0.,1.));
#357=DIRECTION('',(0.,0.,-1.));
#358=DIRECTION('',(0.,1.,0.));
#359=DIRECTION('',(0.,0.,-1.));
#360=DIRECTION('',(0.,1.,0.));
#361=DIRECTION('',(0.,0.,-1.));
#362=DIRECTION('',(0.,1.,0.));
#363=CARTESIAN_POINT('',(0.,0.,0.));
#364=CARTESIAN_POINT('',(0.,0.,0.));
#365=CARTESIAN_POINT('',(0.,0.,-90.));
#366=CARTESIAN_POINT('',(0.,0.,0.));
#367=CARTESIAN_POINT('',(0.,0.,-3.20000000000001));
#368=CARTESIAN_POINT('',(-48.75,0.,-3.20000000000001));
#369=CARTESIAN_POINT('',(0.,0.,-3.2));
#370=CARTESIAN_POINT('',(0.,35.3916641016607,-3.2));
#371=CARTESIAN_POINT('',(4.3342288158597E-15,-35.3916641016607,-3.2));
#372=CARTESIAN_POINT('',(0.,0.,-3.2));
#373=CARTESIAN_POINT('',(0.,0.,-3.2));
#374=CARTESIAN_POINT('',(0.,0.,-15.2));
#375=CARTESIAN_POINT('',(0.,25.,-15.2));
#376=CARTESIAN_POINT('',(1.53080849893419E-15,-25.,-15.2));
#377=CARTESIAN_POINT('',(0.,0.,-15.2));
#378=CARTESIAN_POINT('',(0.,0.,-15.2));
#379=CARTESIAN_POINT('',(-48.75,0.,-15.2));
#380=CARTESIAN_POINT('',(0.,0.,-15.2));
#381=CARTESIAN_POINT('',(0.,0.,133.9));
#382=CARTESIAN_POINT('',(0.,0.,104.743432858557));
#383=CARTESIAN_POINT('',(0.,19.65,104.743432858557));
#384=CARTESIAN_POINT('',(-1.34265514244711E-12,-19.65,104.743432858557));
#385=CARTESIAN_POINT('',(0.,0.,104.743432858557));
#386=CARTESIAN_POINT('',(0.,35.09999903812,-1.2));
#387=CARTESIAN_POINT('',(0.,20.19982736606,100.9731673397));
#388=CARTESIAN_POINT('',(0.,-35.09999903812,-1.2));
#389=CARTESIAN_POINT('',(0.,-20.19982736606,100.9731673397));
#390=CARTESIAN_POINT('',(0.,0.,49.88658366985));
#391=CARTESIAN_POINT('',(0.,27.,-52.5));
#392=CARTESIAN_POINT('',(0.,27.,-90.));
#393=CARTESIAN_POINT('',(3.1642819183437E-13,27.,-42.));
#394=CARTESIAN_POINT('',(0.,0.,-90.));
#395=CARTESIAN_POINT('',(1.65327317884893E-15,-27.,-90.));
#396=CARTESIAN_POINT('',(0.,-27.,-52.5));
#397=CARTESIAN_POINT('',(-3.05995824586095E-13,-27.,-42.));
#398=CARTESIAN_POINT('',(0.,0.,-42.));
#399=CARTESIAN_POINT('',(0.,0.,-39.6));
#400=CARTESIAN_POINT('',(0.,0.,-90.));
#401=CARTESIAN_POINT('',(0.,0.,-42.));
#402=CARTESIAN_POINT('',(0.,0.,-39.6));
#403=CARTESIAN_POINT('',(0.,0.,-42.));
#404=CARTESIAN_POINT('',(0.,-25.,-42.));
#405=CARTESIAN_POINT('',(0.,25.,-42.));
#406=CARTESIAN_POINT('',(0.,0.,-42.));
#407=CARTESIAN_POINT('',(0.,0.,-42.));
#408=CARTESIAN_POINT('',(0.,-25.,-42.));
#409=CARTESIAN_POINT('',(0.,-25.,-31.2));
#410=CARTESIAN_POINT('',(0.,25.,-42.));
#411=CARTESIAN_POINT('',(0.,25.,-31.2));
#412=CARTESIAN_POINT('',(0.,-25.,-26.2));
#413=CARTESIAN_POINT('',(0.,-25.,-26.2));
#414=CARTESIAN_POINT('',(0.,25.,-26.2));
#415=CARTESIAN_POINT('',(0.,25.,-26.2));
#416=CARTESIAN_POINT('',(0.,0.,-12.21));
#417=CARTESIAN_POINT('',(0.,0.,126.8));
#418=CARTESIAN_POINT('',(-5.37552117746493E-12,-19.65,126.8));
#419=CARTESIAN_POINT('',(5.36616060860822E-12,19.65,126.8));
#420=CARTESIAN_POINT('',(0.,0.,126.8));
#421=CARTESIAN_POINT('',(0.,0.,126.8));
#422=CARTESIAN_POINT('',(0.,-19.65,116.5918761428));
#423=CARTESIAN_POINT('',(0.,19.65,116.5918761428));
#424=CARTESIAN_POINT('',(0.,0.,133.9));
#425=CARTESIAN_POINT('',(0.,0.,133.9));
#426=CARTESIAN_POINT('',(0.,0.,-90.));
#427=MECHANICAL_DESIGN_GEOMETRIC_PRESENTATION_REPRESENTATION('',(#241,#242,
#243,#244),#428);
#428=(
GEOMETRIC_REPRESENTATION_CONTEXT(3)
GLOBAL_UNCERTAINTY_ASSIGNED_CONTEXT((#429))
GLOBAL_UNIT_ASSIGNED_CONTEXT((#435,#431,#430))
REPRESENTATION_CONTEXT('2080.50-QTCC.M5','TOP_LEVEL_ASSEMBLY_PART')
);
#429=UNCERTAINTY_MEASURE_WITH_UNIT(LENGTH_MEASURE(2.E-5),#435,
'DISTANCE_ACCURACY_VALUE','Maximum Tolerance applied to model');
#430=(
NAMED_UNIT(*)
SI_UNIT($,.STERADIAN.)
SOLID_ANGLE_UNIT()
);
#431=(
CONVERSION_BASED_UNIT('DEGREE',#433)
NAMED_UNIT(#432)
PLANE_ANGLE_UNIT()
);
#432=DIMENSIONAL_EXPONENTS(0.,0.,0.,0.,0.,0.,0.);
#433=PLANE_ANGLE_MEASURE_WITH_UNIT(PLANE_ANGLE_MEASURE(0.0174532925),#434);
#434=(
NAMED_UNIT(*)
PLANE_ANGLE_UNIT()
SI_UNIT($,.RADIAN.)
);
#435=(
LENGTH_UNIT()
NAMED_UNIT(*)
SI_UNIT(.MILLI.,.METRE.)
);
ENDSEC;
END-ISO-10303-21;
