ISO-10303-21;
HEADER;
/* Generated by software containing ST-Developer
 * from STEP Tools, Inc. (www.steptools.com) 
 */
/* OPTION: using custom schema-name function */

FILE_DESCRIPTION(
/* description */ (''),
/* implementation_level */ '2;1');

FILE_NAME(
/* name */ '2080.50-QTCC.M3.M14.stp',
/* time_stamp */ '2024-06-23T17:29:57+02:00',
/* author */ (''),
/* organization */ (''),
/* preprocessor_version */ 'ST-DEVELOPER v16.7',
/* originating_system */ 'SIEMENS PLM Software NX 12.0',
/* authorisation */ '');

FILE_SCHEMA (('AUTOMOTIVE_DESIGN { 1 0 10303 214 3 1 1 1 }'));
ENDSEC;

DATA;
#10=CONSTRUCTIVE_GEOMETRY_REPRESENTATION_RELATIONSHIP(
'supplemental geometry','',#32,#11);
#11=CONSTRUCTIVE_GEOMETRY_REPRESENTATION('supplemental geometry',(#258,
#259,#260),#428);
#12=PROPERTY_DEFINITION_REPRESENTATION(#16,#14);
#13=PROPERTY_DEFINITION_REPRESENTATION(#17,#15);
#14=REPRESENTATION('',(#18),#428);
#15=REPRESENTATION('',(#19),#428);
#16=PROPERTY_DEFINITION('pmi validation property','',#23);
#17=PROPERTY_DEFINITION('pmi validation property','',#23);
#18=VALUE_REPRESENTATION_ITEM('number of annotations',COUNT_MEASURE(0.));
#19=VALUE_REPRESENTATION_ITEM('number of views',COUNT_MEASURE(0.));
#20=SHAPE_REPRESENTATION_RELATIONSHIP('None',
'relationship between pf660F5CA0AEj8b7-None and pf660F5CA0AEj8b7-None',
#32,#21);
#21=ADVANCED_BREP_SHAPE_REPRESENTATION('pf660F5CA0AEj8b7-None',(#38),#428);
#22=SHAPE_DEFINITION_REPRESENTATION(#23,#32);
#23=PRODUCT_DEFINITION_SHAPE('','',#24);
#24=PRODUCT_DEFINITION(' ','',#26,#25);
#25=PRODUCT_DEFINITION_CONTEXT('part definition',#31,'design');
#26=PRODUCT_DEFINITION_FORMATION_WITH_SPECIFIED_SOURCE(' ',' ',#28,
 .NOT_KNOWN.);
#27=PRODUCT_RELATED_PRODUCT_CATEGORY('part','',(#28));
#28=PRODUCT('pf660F5CA0AEj8b7','pf660F5CA0AEj8b7',' ',(#29));
#29=PRODUCT_CONTEXT(' ',#31,'mechanical');
#30=APPLICATION_PROTOCOL_DEFINITION('international standard',
'automotive_design',2010,#31);
#31=APPLICATION_CONTEXT(
'core data for automotive mechanical design processes');
#32=SHAPE_REPRESENTATION('pf660F5CA0AEj8b7-None',(#257),#428);
#33=SURFACE_STYLE_USAGE(.BOTH.,#34);
#34=SURFACE_SIDE_STYLE('',(#35));
#35=SURFACE_STYLE_FILL_AREA(#36);
#36=FILL_AREA_STYLE('',(#37));
#37=FILL_AREA_STYLE_COLOUR('',#253);
#38=MANIFOLD_SOLID_BREP('',#39);
#39=CLOSED_SHELL('',(#79,#80,#81,#82,#83,#84,#85,#86,#87,#88,#89,#90));
#40=CONICAL_SURFACE('',#270,27.64991320209,8.2971);
#41=FACE_BOUND('',#105,.T.);
#42=FACE_BOUND('',#106,.T.);
#43=FACE_BOUND('',#107,.T.);
#44=FACE_BOUND('',#108,.T.);
#45=FACE_BOUND('',#109,.T.);
#46=FACE_BOUND('',#110,.T.);
#47=FACE_BOUND('',#111,.T.);
#48=FACE_BOUND('',#112,.T.);
#49=FACE_BOUND('',#116,.T.);
#50=FACE_BOUND('',#117,.T.);
#51=FACE_BOUND('',#118,.T.);
#52=FACE_BOUND('',#119,.T.);
#53=CYLINDRICAL_SURFACE('',#265,19.65);
#54=CYLINDRICAL_SURFACE('',#267,19.65);
#55=CYLINDRICAL_SURFACE('',#274,48.75);
#56=CYLINDRICAL_SURFACE('',#282,19.25);
#57=CYLINDRICAL_SURFACE('',#284,19.25);
#58=CYLINDRICAL_SURFACE('',#288,17.5);
#59=LINE('',#372,#69);
#60=LINE('',#376,#70);
#61=LINE('',#380,#71);
#62=LINE('',#385,#72);
#63=LINE('',#405,#73);
#64=LINE('',#407,#74);
#65=LINE('',#418,#75);
#66=LINE('',#420,#76);
#67=LINE('',#422,#77);
#68=LINE('',#424,#78);
#69=VECTOR('',#303,1.);
#70=VECTOR('',#306,1.);
#71=VECTOR('',#313,1.);
#72=VECTOR('',#316,1.);
#73=VECTOR('',#341,1.);
#74=VECTOR('',#342,1.);
#75=VECTOR('',#357,1.);
#76=VECTOR('',#358,1.);
#77=VECTOR('',#359,1.);
#78=VECTOR('',#360,1.);
#79=ADVANCED_FACE('',(#96),#91,.F.);
#80=ADVANCED_FACE('',(#97),#53,.T.);
#81=ADVANCED_FACE('',(#98),#54,.T.);
#82=ADVANCED_FACE('',(#41,#42),#40,.T.);
#83=ADVANCED_FACE('',(#43,#44),#92,.F.);
#84=ADVANCED_FACE('',(#45,#46),#55,.T.);
#85=ADVANCED_FACE('',(#47,#48),#93,.T.);
#86=ADVANCED_FACE('',(#99),#94,.T.);
#87=ADVANCED_FACE('',(#100),#56,.T.);
#88=ADVANCED_FACE('',(#101),#57,.T.);
#89=ADVANCED_FACE('',(#49,#50),#95,.F.);
#90=ADVANCED_FACE('',(#51,#52),#58,.T.);
#91=PLANE('',#263);
#92=PLANE('',#272);
#93=PLANE('',#277);
#94=PLANE('',#280);
#95=PLANE('',#287);
#96=FACE_OUTER_BOUND('',#102,.T.);
#97=FACE_OUTER_BOUND('',#103,.T.);
#98=FACE_OUTER_BOUND('',#104,.T.);
#99=FACE_OUTER_BOUND('',#113,.T.);
#100=FACE_OUTER_BOUND('',#114,.T.);
#101=FACE_OUTER_BOUND('',#115,.T.);
#102=EDGE_LOOP('',(#120,#121));
#103=EDGE_LOOP('',(#122,#123,#124,#125));
#104=EDGE_LOOP('',(#126,#127,#128,#129));
#105=EDGE_LOOP('',(#130,#131));
#106=EDGE_LOOP('',(#132,#133,#134,#135,#136,#137));
#107=EDGE_LOOP('',(#138));
#108=EDGE_LOOP('',(#139,#140));
#109=EDGE_LOOP('',(#141));
#110=EDGE_LOOP('',(#142));
#111=EDGE_LOOP('',(#143,#144));
#112=EDGE_LOOP('',(#145));
#113=EDGE_LOOP('',(#146,#147));
#114=EDGE_LOOP('',(#148,#149,#150,#151));
#115=EDGE_LOOP('',(#152,#153,#154,#155));
#116=EDGE_LOOP('',(#156,#157));
#117=EDGE_LOOP('',(#158,#159));
#118=EDGE_LOOP('',(#160,#161,#162,#163,#164,#165));
#119=EDGE_LOOP('',(#166,#167,#168,#169,#170,#171));
#120=ORIENTED_EDGE('',*,*,#194,.T.);
#121=ORIENTED_EDGE('',*,*,#195,.T.);
#122=ORIENTED_EDGE('',*,*,#196,.F.);
#123=ORIENTED_EDGE('',*,*,#197,.T.);
#124=ORIENTED_EDGE('',*,*,#198,.T.);
#125=ORIENTED_EDGE('',*,*,#194,.F.);
#126=ORIENTED_EDGE('',*,*,#198,.F.);
#127=ORIENTED_EDGE('',*,*,#199,.T.);
#128=ORIENTED_EDGE('',*,*,#196,.T.);
#129=ORIENTED_EDGE('',*,*,#195,.F.);
#130=ORIENTED_EDGE('',*,*,#199,.F.);
#131=ORIENTED_EDGE('',*,*,#197,.F.);
#132=ORIENTED_EDGE('',*,*,#200,.F.);
#133=ORIENTED_EDGE('',*,*,#201,.F.);
#134=ORIENTED_EDGE('',*,*,#202,.T.);
#135=ORIENTED_EDGE('',*,*,#202,.F.);
#136=ORIENTED_EDGE('',*,*,#203,.F.);
#137=ORIENTED_EDGE('',*,*,#200,.T.);
#138=ORIENTED_EDGE('',*,*,#204,.F.);
#139=ORIENTED_EDGE('',*,*,#203,.T.);
#140=ORIENTED_EDGE('',*,*,#201,.T.);
#141=ORIENTED_EDGE('',*,*,#204,.T.);
#142=ORIENTED_EDGE('',*,*,#205,.F.);
#143=ORIENTED_EDGE('',*,*,#206,.F.);
#144=ORIENTED_EDGE('',*,*,#207,.F.);
#145=ORIENTED_EDGE('',*,*,#205,.T.);
#146=ORIENTED_EDGE('',*,*,#208,.T.);
#147=ORIENTED_EDGE('',*,*,#209,.T.);
#148=ORIENTED_EDGE('',*,*,#210,.F.);
#149=ORIENTED_EDGE('',*,*,#209,.F.);
#150=ORIENTED_EDGE('',*,*,#211,.T.);
#151=ORIENTED_EDGE('',*,*,#212,.F.);
#152=ORIENTED_EDGE('',*,*,#211,.F.);
#153=ORIENTED_EDGE('',*,*,#208,.F.);
#154=ORIENTED_EDGE('',*,*,#210,.T.);
#155=ORIENTED_EDGE('',*,*,#213,.F.);
#156=ORIENTED_EDGE('',*,*,#213,.T.);
#157=ORIENTED_EDGE('',*,*,#212,.T.);
#158=ORIENTED_EDGE('',*,*,#214,.T.);
#159=ORIENTED_EDGE('',*,*,#215,.T.);
#160=ORIENTED_EDGE('',*,*,#216,.F.);
#161=ORIENTED_EDGE('',*,*,#216,.T.);
#162=ORIENTED_EDGE('',*,*,#215,.F.);
#163=ORIENTED_EDGE('',*,*,#217,.F.);
#164=ORIENTED_EDGE('',*,*,#217,.T.);
#165=ORIENTED_EDGE('',*,*,#214,.F.);
#166=ORIENTED_EDGE('',*,*,#218,.T.);
#167=ORIENTED_EDGE('',*,*,#218,.F.);
#168=ORIENTED_EDGE('',*,*,#207,.T.);
#169=ORIENTED_EDGE('',*,*,#219,.T.);
#170=ORIENTED_EDGE('',*,*,#219,.F.);
#171=ORIENTED_EDGE('',*,*,#206,.T.);
#172=VERTEX_POINT('',#368);
#173=VERTEX_POINT('',#369);
#174=VERTEX_POINT('',#373);
#175=VERTEX_POINT('',#375);
#176=VERTEX_POINT('',#381);
#177=VERTEX_POINT('',#382);
#178=VERTEX_POINT('',#384);
#179=VERTEX_POINT('',#386);
#180=VERTEX_POINT('',#390);
#181=VERTEX_POINT('',#393);
#182=VERTEX_POINT('',#396);
#183=VERTEX_POINT('',#397);
#184=VERTEX_POINT('',#401);
#185=VERTEX_POINT('',#402);
#186=VERTEX_POINT('',#406);
#187=VERTEX_POINT('',#408);
#188=VERTEX_POINT('',#414);
#189=VERTEX_POINT('',#415);
#190=VERTEX_POINT('',#419);
#191=VERTEX_POINT('',#421);
#192=VERTEX_POINT('',#423);
#193=VERTEX_POINT('',#425);
#194=EDGE_CURVE('',#172,#173,#220,.T.);
#195=EDGE_CURVE('',#173,#172,#221,.T.);
#196=EDGE_CURVE('',#174,#172,#59,.T.);
#197=EDGE_CURVE('',#174,#175,#222,.T.);
#198=EDGE_CURVE('',#175,#173,#60,.T.);
#199=EDGE_CURVE('',#175,#174,#223,.T.);
#200=EDGE_CURVE('',#176,#177,#61,.T.);
#201=EDGE_CURVE('',#178,#176,#224,.T.);
#202=EDGE_CURVE('',#178,#179,#62,.T.);
#203=EDGE_CURVE('',#176,#178,#225,.T.);
#204=EDGE_CURVE('',#180,#180,#226,.T.);
#205=EDGE_CURVE('',#181,#181,#227,.T.);
#206=EDGE_CURVE('',#182,#183,#228,.T.);
#207=EDGE_CURVE('',#183,#182,#229,.T.);
#208=EDGE_CURVE('',#184,#185,#230,.T.);
#209=EDGE_CURVE('',#185,#184,#231,.T.);
#210=EDGE_CURVE('',#184,#186,#63,.T.);
#211=EDGE_CURVE('',#185,#187,#64,.T.);
#212=EDGE_CURVE('',#186,#187,#232,.T.);
#213=EDGE_CURVE('',#187,#186,#233,.T.);
#214=EDGE_CURVE('',#188,#189,#234,.T.);
#215=EDGE_CURVE('',#189,#188,#235,.T.);
#216=EDGE_CURVE('',#190,#188,#65,.T.);
#217=EDGE_CURVE('',#191,#189,#66,.T.);
#218=EDGE_CURVE('',#183,#192,#67,.T.);
#219=EDGE_CURVE('',#182,#193,#68,.T.);
#220=CIRCLE('',#261,19.65);
#221=CIRCLE('',#262,19.65);
#222=CIRCLE('',#264,19.65);
#223=CIRCLE('',#266,19.65);
#224=CIRCLE('',#268,35.3916641016607);
#225=CIRCLE('',#269,35.3916641016607);
#226=CIRCLE('',#271,48.75);
#227=CIRCLE('',#273,48.75);
#228=CIRCLE('',#275,17.5);
#229=CIRCLE('',#276,17.5);
#230=CIRCLE('',#278,19.25);
#231=CIRCLE('',#279,19.25);
#232=CIRCLE('',#281,19.25);
#233=CIRCLE('',#283,19.25);
#234=CIRCLE('',#285,17.5);
#235=CIRCLE('',#286,17.5);
#236=INVISIBILITY((#237,#238,#239));
#237=PRESENTATION_LAYER_ASSIGNMENT('100','Layer 100',(#258));
#238=PRESENTATION_LAYER_ASSIGNMENT('101','Layer 101',(#259));
#239=PRESENTATION_LAYER_ASSIGNMENT('102','Layer 102',(#260));
#240=PRESENTATION_LAYER_ASSIGNMENT('98','Layer 98',(#38));
#241=STYLED_ITEM('',(#245),#258);
#242=STYLED_ITEM('',(#246),#259);
#243=STYLED_ITEM('',(#247),#260);
#244=STYLED_ITEM('',(#248),#38);
#245=PRESENTATION_STYLE_ASSIGNMENT((#249));
#246=PRESENTATION_STYLE_ASSIGNMENT((#250));
#247=PRESENTATION_STYLE_ASSIGNMENT((#251));
#248=PRESENTATION_STYLE_ASSIGNMENT((#33));
#249=CURVE_STYLE('',#254,POSITIVE_LENGTH_MEASURE(0.7),#252);
#250=CURVE_STYLE('',#255,POSITIVE_LENGTH_MEASURE(0.7),#252);
#251=CURVE_STYLE('',#256,POSITIVE_LENGTH_MEASURE(0.7),#252);
#252=COLOUR_RGB('Medium Maroon',0.6,0.4,0.4);
#253=COLOUR_RGB('Medium Gray',0.490196078431373,0.490196078431373,0.490196078431373);
#254=DRAUGHTING_PRE_DEFINED_CURVE_FONT('continuous');
#255=DRAUGHTING_PRE_DEFINED_CURVE_FONT('continuous');
#256=DRAUGHTING_PRE_DEFINED_CURVE_FONT('continuous');
#257=AXIS2_PLACEMENT_3D('',#363,#289,#290);
#258=AXIS2_PLACEMENT_3D('PCS',#364,#291,#292);
#259=AXIS2_PLACEMENT_3D('CSW',#365,#293,#294);
#260=AXIS2_PLACEMENT_3D('MCS',#366,#295,#296);
#261=AXIS2_PLACEMENT_3D('',#367,#297,#298);
#262=AXIS2_PLACEMENT_3D('',#370,#299,#300);
#263=AXIS2_PLACEMENT_3D('',#371,#301,#302);
#264=AXIS2_PLACEMENT_3D('',#374,#304,#305);
#265=AXIS2_PLACEMENT_3D('',#377,#307,#308);
#266=AXIS2_PLACEMENT_3D('',#378,#309,#310);
#267=AXIS2_PLACEMENT_3D('',#379,#311,#312);
#268=AXIS2_PLACEMENT_3D('',#383,#314,#315);
#269=AXIS2_PLACEMENT_3D('',#387,#317,#318);
#270=AXIS2_PLACEMENT_3D('',#388,#319,#320);
#271=AXIS2_PLACEMENT_3D('',#389,#321,#322);
#272=AXIS2_PLACEMENT_3D('',#391,#323,#324);
#273=AXIS2_PLACEMENT_3D('',#392,#325,#326);
#274=AXIS2_PLACEMENT_3D('',#394,#327,#328);
#275=AXIS2_PLACEMENT_3D('',#395,#329,#330);
#276=AXIS2_PLACEMENT_3D('',#398,#331,#332);
#277=AXIS2_PLACEMENT_3D('',#399,#333,#334);
#278=AXIS2_PLACEMENT_3D('',#400,#335,#336);
#279=AXIS2_PLACEMENT_3D('',#403,#337,#338);
#280=AXIS2_PLACEMENT_3D('',#404,#339,#340);
#281=AXIS2_PLACEMENT_3D('',#409,#343,#344);
#282=AXIS2_PLACEMENT_3D('',#410,#345,#346);
#283=AXIS2_PLACEMENT_3D('',#411,#347,#348);
#284=AXIS2_PLACEMENT_3D('',#412,#349,#350);
#285=AXIS2_PLACEMENT_3D('',#413,#351,#352);
#286=AXIS2_PLACEMENT_3D('',#416,#353,#354);
#287=AXIS2_PLACEMENT_3D('',#417,#355,#356);
#288=AXIS2_PLACEMENT_3D('',#426,#361,#362);
#289=DIRECTION('',(0.,0.,1.));
#290=DIRECTION('',(1.,0.,0.));
#291=DIRECTION('',(0.,0.,1.));
#292=DIRECTION('',(1.,0.,0.));
#293=DIRECTION('',(0.,0.,1.));
#294=DIRECTION('',(1.,0.,0.));
#295=DIRECTION('',(0.,0.,1.));
#296=DIRECTION('',(1.,0.,0.));
#297=DIRECTION('',(0.,0.,1.));
#298=DIRECTION('',(-1.,0.,0.));
#299=DIRECTION('',(0.,0.,1.));
#300=DIRECTION('',(-1.,0.,0.));
#301=DIRECTION('',(0.,0.,-1.));
#302=DIRECTION('',(0.,1.,0.));
#303=DIRECTION('',(-5.265924720999E-13,0.,1.));
#304=DIRECTION('',(0.,0.,1.));
#305=DIRECTION('',(-1.,0.,0.));
#306=DIRECTION('',(5.256754995996E-13,0.,1.));
#307=DIRECTION('',(0.,0.,-1.));
#308=DIRECTION('',(0.,1.,0.));
#309=DIRECTION('',(0.,0.,1.));
#310=DIRECTION('',(-1.,0.,0.));
#311=DIRECTION('',(0.,0.,-1.));
#312=DIRECTION('',(0.,1.,0.));
#313=DIRECTION('',(0.,-0.144306116415197,0.989533094325381));
#314=DIRECTION('',(0.,0.,-1.));
#315=DIRECTION('',(-1.,0.,0.));
#316=DIRECTION('',(0.,0.144306116415197,0.989533094325381));
#317=DIRECTION('',(0.,0.,-1.));
#318=DIRECTION('',(-1.,0.,0.));
#319=DIRECTION('',(0.,0.,-1.));
#320=DIRECTION('',(0.,1.,0.));
#321=DIRECTION('',(0.,0.,-1.));
#322=DIRECTION('',(-1.,0.,0.));
#323=DIRECTION('',(0.,0.,-1.));
#324=DIRECTION('',(0.,1.,0.));
#325=DIRECTION('',(0.,0.,-1.));
#326=DIRECTION('',(-1.,0.,0.));
#327=DIRECTION('',(0.,0.,-1.));
#328=DIRECTION('',(0.,1.,0.));
#329=DIRECTION('',(0.,0.,-1.));
#330=DIRECTION('',(-1.,0.,0.));
#331=DIRECTION('',(0.,0.,-1.));
#332=DIRECTION('',(-1.,0.,0.));
#333=DIRECTION('',(0.,0.,-1.));
#334=DIRECTION('',(0.,1.,0.));
#335=DIRECTION('',(0.,0.,-1.));
#336=DIRECTION('',(-1.,0.,0.));
#337=DIRECTION('',(0.,0.,-1.));
#338=DIRECTION('',(-1.,0.,0.));
#339=DIRECTION('',(0.,0.,-1.));
#340=DIRECTION('',(0.,1.,0.));
#341=DIRECTION('',(8.090530665439E-13,0.,1.));
#342=DIRECTION('',(-8.090630674045E-13,0.,1.));
#343=DIRECTION('',(0.,0.,1.));
#344=DIRECTION('',(-1.,0.,0.));
#345=DIRECTION('',(0.,0.,-1.));
#346=DIRECTION('',(0.,1.,0.));
#347=DIRECTION('',(0.,0.,1.));
#348=DIRECTION('',(-1.,0.,0.));
#349=DIRECTION('',(0.,0.,-1.));
#350=DIRECTION('',(0.,1.,0.));
#351=DIRECTION('',(0.,0.,-1.));
#352=DIRECTION('',(0.,-1.,0.));
#353=DIRECTION('',(0.,0.,-1.));
#354=DIRECTION('',(0.,1.,0.));
#355=DIRECTION('',(0.,0.,-1.));
#356=DIRECTION('',(0.,1.,0.));
#357=DIRECTION('',(0.,0.,-1.));
#358=DIRECTION('',(0.,0.,-1.));
#359=DIRECTION('',(0.,0.,-1.));
#360=DIRECTION('',(0.,0.,-1.));
#361=DIRECTION('',(0.,0.,-1.));
#362=DIRECTION('',(0.,1.,0.));
#363=CARTESIAN_POINT('',(0.,0.,0.));
#364=CARTESIAN_POINT('',(0.,0.,0.));
#365=CARTESIAN_POINT('',(0.,0.,-62.));
#366=CARTESIAN_POINT('',(0.,0.,0.));
#367=CARTESIAN_POINT('',(0.,0.,126.8));
#368=CARTESIAN_POINT('',(-5.37552117746493E-12,-19.65,126.8));
#369=CARTESIAN_POINT('',(5.36616060860822E-12,19.65,126.8));
#370=CARTESIAN_POINT('',(0.,0.,126.8));
#371=CARTESIAN_POINT('',(0.,0.,126.8));
#372=CARTESIAN_POINT('',(0.,-19.65,116.5918761428));
#373=CARTESIAN_POINT('',(-1.34265514244711E-12,-19.65,104.743432858557));
#374=CARTESIAN_POINT('',(0.,0.,104.743432858557));
#375=CARTESIAN_POINT('',(0.,19.65,104.743432858557));
#376=CARTESIAN_POINT('',(0.,19.65,116.5918761428));
#377=CARTESIAN_POINT('',(0.,0.,133.9));
#378=CARTESIAN_POINT('',(0.,0.,104.743432858557));
#379=CARTESIAN_POINT('',(0.,0.,133.9));
#380=CARTESIAN_POINT('',(0.,35.09999903812,-1.2));
#381=CARTESIAN_POINT('',(0.,35.3916641016607,-3.2));
#382=CARTESIAN_POINT('',(0.,20.19982736606,100.9731673397));
#383=CARTESIAN_POINT('',(0.,0.,-3.2));
#384=CARTESIAN_POINT('',(4.3342288158597E-15,-35.3916641016607,-3.2));
#385=CARTESIAN_POINT('',(0.,-35.09999903812,-1.2));
#386=CARTESIAN_POINT('',(0.,-20.19982736606,100.9731673397));
#387=CARTESIAN_POINT('',(0.,0.,-3.2));
#388=CARTESIAN_POINT('',(0.,0.,49.88658366985));
#389=CARTESIAN_POINT('',(0.,0.,-3.20000000000001));
#390=CARTESIAN_POINT('',(-48.75,0.,-3.20000000000001));
#391=CARTESIAN_POINT('',(0.,0.,-3.2));
#392=CARTESIAN_POINT('',(0.,0.,-15.2));
#393=CARTESIAN_POINT('',(-48.75,0.,-15.2));
#394=CARTESIAN_POINT('',(0.,0.,133.9));
#395=CARTESIAN_POINT('',(0.,0.,-15.2));
#396=CARTESIAN_POINT('',(0.,17.5,-15.2));
#397=CARTESIAN_POINT('',(1.07156594925393E-15,-17.5,-15.2));
#398=CARTESIAN_POINT('',(0.,0.,-15.2));
#399=CARTESIAN_POINT('',(0.,0.,-15.2));
#400=CARTESIAN_POINT('',(0.,0.,-62.));
#401=CARTESIAN_POINT('',(0.,19.25,-62.));
#402=CARTESIAN_POINT('',(2.03221286131241E-10,-19.25,-62.));
#403=CARTESIAN_POINT('',(0.,0.,-62.));
#404=CARTESIAN_POINT('',(0.,0.,-62.));
#405=CARTESIAN_POINT('',(0.,19.25,-38.7));
#406=CARTESIAN_POINT('',(5.42065554584413E-12,19.25,-32.));
#407=CARTESIAN_POINT('',(0.,-19.25,-38.7));
#408=CARTESIAN_POINT('',(-5.42072255161015E-12,-19.25,-32.));
#409=CARTESIAN_POINT('',(0.,0.,-32.));
#410=CARTESIAN_POINT('',(0.,0.,-30.5));
#411=CARTESIAN_POINT('',(0.,0.,-32.));
#412=CARTESIAN_POINT('',(0.,0.,-30.5));
#413=CARTESIAN_POINT('',(0.,0.,-32.));
#414=CARTESIAN_POINT('',(0.,-17.5,-32.));
#415=CARTESIAN_POINT('',(0.,17.5,-32.));
#416=CARTESIAN_POINT('',(0.,0.,-32.));
#417=CARTESIAN_POINT('',(0.,0.,-32.));
#418=CARTESIAN_POINT('',(0.,-17.5,-32.));
#419=CARTESIAN_POINT('',(0.,-17.5,-25.2));
#420=CARTESIAN_POINT('',(0.,17.5,-32.));
#421=CARTESIAN_POINT('',(4.00914706513829E-48,17.5,-25.2));
#422=CARTESIAN_POINT('',(0.,-17.5,-21.1));
#423=CARTESIAN_POINT('',(0.,-17.5,-21.1));
#424=CARTESIAN_POINT('',(0.,17.5,-21.1));
#425=CARTESIAN_POINT('',(0.,17.5,-21.1));
#426=CARTESIAN_POINT('',(0.,0.,-13.435));
#427=MECHANICAL_DESIGN_GEOMETRIC_PRESENTATION_REPRESENTATION('',(#241,#242,
#243,#244),#428);
#428=(
GEOMETRIC_REPRESENTATION_CONTEXT(3)
GLOBAL_UNCERTAINTY_ASSIGNED_CONTEXT((#429))
GLOBAL_UNIT_ASSIGNED_CONTEXT((#435,#431,#430))
REPRESENTATION_CONTEXT('2080.50-QTCC.M3','TOP_LEVEL_ASSEMBLY_PART')
);
#429=UNCERTAINTY_MEASURE_WITH_UNIT(LENGTH_MEASURE(2.E-5),#435,
'DISTANCE_ACCURACY_VALUE','Maximum Tolerance applied to model');
#430=(
NAMED_UNIT(*)
SI_UNIT($,.STERADIAN.)
SOLID_ANGLE_UNIT()
);
#431=(
CONVERSION_BASED_UNIT('DEGREE',#433)
NAMED_UNIT(#432)
PLANE_ANGLE_UNIT()
);
#432=DIMENSIONAL_EXPONENTS(0.,0.,0.,0.,0.,0.,0.);
#433=PLANE_ANGLE_MEASURE_WITH_UNIT(PLANE_ANGLE_MEASURE(0.0174532925),#434);
#434=(
NAMED_UNIT(*)
PLANE_ANGLE_UNIT()
SI_UNIT($,.RADIAN.)
);
#435=(
LENGTH_UNIT()
NAMED_UNIT(*)
SI_UNIT(.MILLI.,.METRE.)
);
ENDSEC;
END-ISO-10303-21;
